  0
SECTION
  2
HEADER
  9
$ACADVER
  1
AC1009
  9
$INSBASE
 10
0.0
 20
0.0
 30
0.0
  9
$EXTMIN
 10
-957.56548399999997
 20
-722.66961500000002
 30
0.0
  9
$EXTMAX
 10
1483.110125714285
 20
1180.883552
 30
50.0
  9
$LIMMIN
 10
-2970.0
 20
-2100.0
  9
$LIMMAX
 10
2970.0
 20
2100.0
  9
$ORTHOMODE
 70
     0
  9
$REGENMODE
 70
     0
  9
$FILLMODE
 70
     1
  9
$QTEXTMODE
 70
     0
  9
$MIRRTEXT
 70
     0
  9
$DRAGMODE
 70
     2
  9
$LTSCALE
 40
20.0
  9
$OSMODE
 70
   167
  9
$ATTMODE
 70
     1
  9
$TEXTSIZE
 40
64.0
  9
$TRACEWID
 40
0.05
  9
$TEXTSTYLE
  7
STANDARD
  9
$CLAYER
  8
SIZE
  9
$CELTYPE
  6
CONTINUOUS
  9
$CECOLOR
 62
    30
  9
$DIMSCALE
 40
1.0
  9
$DIMASZ
 40
12.0
  9
$DIMEXO
 40
20.0
  9
$DIMDLI
 40
200.0
  9
$DIMRND
 40
0.0
  9
$DIMDLE
 40
0.0
  9
$DIMEXE
 40
20.0
  9
$DIMTP
 40
0.0
  9
$DIMTM
 40
0.0
  9
$DIMTXT
 40
64.0
  9
$DIMCEN
 40
0.09
  9
$DIMTSZ
 40
0.0
  9
$DIMTOL
 70
     0
  9
$DIMLIM
 70
     0
  9
$DIMTIH
 70
     0
  9
$DIMTOH
 70
     0
  9
$DIMSE1
 70
     0
  9
$DIMSE2
 70
     0
  9
$DIMTAD
 70
     1
  9
$DIMZIN
 70
     8
  9
$DIMBLK
  1
DOT1
  9
$DIMASO
 70
     1
  9
$DIMSHO
 70
     0
  9
$DIMPOST
  1

  9
$DIMAPOST
  1

  9
$DIMALT
 70
     0
  9
$DIMALTD
 70
     2
  9
$DIMALTF
 40
25.399999999999999
  9
$DIMLFAC
 40
1.0
  9
$DIMTOFL
 70
     1
  9
$DIMTVP
 40
0.0
  9
$DIMTIX
 70
     1
  9
$DIMSOXD
 70
     0
  9
$DIMSAH
 70
     1
  9
$DIMBLK1
  1
ORIGIN
  9
$DIMBLK2
  1
ORIGIN
  9
$DIMSTYLE
  2
STANDARD
  9
$DIMCLRD
 70
     7
  9
$DIMCLRE
 70
     7
  9
$DIMCLRT
 70
     7
  9
$DIMTFAC
 40
1.0
  9
$DIMGAP
 40
25.0
  9
$LUNITS
 70
     2
  9
$LUPREC
 70
     4
  9
$SKETCHINC
 40
0.1
  9
$FILLETRAD
 40
4.0
  9
$AUNITS
 70
     1
  9
$AUPREC
 70
     3
  9
$MENU
  1
ACAD
  9
$ELEVATION
 40
0.0
  9
$PELEVATION
 40
0.0
  9
$THICKNESS
 40
50.0
  9
$LIMCHECK
 70
     0
  9
$BLIPMODE
 70
     0
  9
$CHAMFERA
 40
0.0
  9
$CHAMFERB
 40
0.0
  9
$SKPOLY
 70
     0
  9
$TDCREATE
 40
2453098.4465256128
  9
$TDUPDATE
 40
2454152.776109837
  9
$TDINDWG
 40
0.0342204398
  9
$TDUSRTIMER
 40
0.0342204398
  9
$USRTIMER
 70
     1
  9
$ANGBASE
 50
0.0
  9
$ANGDIR
 70
     0
  9
$PDMODE
 70
     3
  9
$PDSIZE
 40
-2.0
  9
$PLINEWID
 40
0.0
  9
$COORDS
 70
     0
  9
$SPLFRAME
 70
     0
  9
$SPLINETYPE
 70
     6
  9
$SPLINESEGS
 70
     8
  9
$ATTDIA
 70
     0
  9
$ATTREQ
 70
     1
  9
$HANDLING
 70
 22529
  9
$HANDSEED
  5
1C1
  9
$SURFTAB1
 70
     6
  9
$SURFTAB2
 70
     6
  9
$SURFTYPE
 70
     6
  9
$SURFU
 70
     6
  9
$SURFV
 70
     6
  9
$UCSNAME
  2

  9
$UCSORG
 10
0.0
 20
0.0
 30
0.0
  9
$UCSXDIR
 10
1.0
 20
0.0
 30
0.0
  9
$UCSYDIR
 10
0.0
 20
1.0
 30
0.0
  9
$PUCSNAME
  2

  9
$PUCSORG
 10
0.0
 20
0.0
 30
0.0
  9
$PUCSXDIR
 10
1.0
 20
0.0
 30
0.0
  9
$PUCSYDIR
 10
0.0
 20
1.0
 30
0.0
  9
$USERI1
 70
     0
  9
$USERI2
 70
     0
  9
$USERI3
 70
     0
  9
$USERI4
 70
     0
  9
$USERI5
 70
     0
  9
$USERR1
 40
20.0
  9
$USERR2
 40
0.0
  9
$USERR3
 40
0.0
  9
$USERR4
 40
0.0
  9
$USERR5
 40
0.0
  9
$WORLDVIEW
 70
     1
  9
$SHADEDGE
 70
     3
  9
$SHADEDIF
 70
    70
  9
$TILEMODE
 70
     1
  9
$MAXACTVP
 70
    48
  9
$PLIMCHECK
 70
     0
  9
$PEXTMIN
 10
-1.0000000000000000E+020
 20
-1.0000000000000000E+020
 30
-1.0000000000000000E+020
  9
$PEXTMAX
 10
1.0000000000000000E+020
 20
1.0000000000000000E+020
 30
1.0000000000000000E+020
  9
$PLIMMIN
 10
0.0
 20
0.0
  9
$PLIMMAX
 10
12.0
 20
9.0
  9
$UNITMODE
 70
     0
  9
$VISRETAIN
 70
     0
  9
$PLINEGEN
 70
     0
  9
$PSLTSCALE
 70
     0
  0
ENDSEC
  0
SECTION
  2
TABLES
  0
TABLE
  2
VPORT
 70
     3
  0
VPORT
  2
*ACTIVE
 70
     0
 10
0.0
 20
0.0
 11
1.0
 21
1.0
 12
239.30667163604039
 22
229.11072799999911
 13
0.0
 23
0.0
 14
1.0
 24
1.0
 15
0.0
 25
0.0
 16
0.0
 26
0.0
 36
1.0
 17
0.0
 27
0.0
 37
0.0
 40
1918.668538106557
 41
1.710526315789473
 42
50.0
 43
0.0
 44
0.0
 50
0.0
 51
0.0
 71
     0
 72
  1000
 73
     1
 74
     0
 75
     1
 76
     0
 77
     0
 78
     0
  0
ENDTAB
  0
TABLE
  2
LTYPE
 70
     3
  0
LTYPE
  2
CONTINUOUS
 70
     0
  3
実線
 72
    65
 73
     0
 40
0.0
  0
LTYPE
  2
DASHDOT
 70
     0
  3
____ _ ____ _ ____ _ ____ _ ____ _ ____ _ ____
 72
    65
 73
     4
 40
5.5
 49
4.0
 49
-0.6
 49
0.3
 49
-0.6
  0
LTYPE
  2
DASHED
 70
     0
  3
-- -- -- -- -- -- -- -- -- -- -- -- -- -- --
 72
    65
 73
     2
 40
0.75
 49
0.5
 49
-0.25
  0
ENDTAB
  0
TABLE
  2
LAYER
 70
    12
  0
LAYER
  2
0
 70
     0
 62
     7
  6
CONTINUOUS
  0
LAYER
  2
SIZE
 70
     0
 62
    30
  6
CONTINUOUS
  0
LAYER
  2
BASIS
 70
     0
 62
     6
  6
DASHDOT
  0
LAYER
  2
OUTLINE
 70
     0
 62
     3
  6
CONTINUOUS
  0
LAYER
  2
DETAIL
 70
     0
 62
     5
  6
CONTINUOUS
  0
LAYER
  2
ARRANGE
 70
     0
 62
     1
  6
CONTINUOUS
  0
LAYER
  2
DEFPOINTS
 70
     0
 62
     7
  6
CONTINUOUS
  0
LAYER
  2
ETC
 70
     0
 62
    61
  6
CONTINUOUS
  0
LAYER
  2
FIX
 70
     0
 62
    11
  6
CONTINUOUS
  0
LAYER
  2
NOTE
 70
     0
 62
     4
  6
CONTINUOUS
  0
LAYER
  2
SERVICESPACE
 70
     0
 62
     2
  6
DASHDOT
  0
LAYER
  2
SYMBOLLINE
 70
     0
 62
    15
  6
CONTINUOUS
  0
ENDTAB
  0
TABLE
  2
STYLE
 70
     1
  0
STYLE
  2
STANDARD
 70
     0
 40
64.0
 41
0.9
 50
0.0
 71
     0
 42
64.0
  3
SIMPLEX.shx
  4
BIGFONT.shx
  0
ENDTAB
  0
TABLE
  2
VIEW
 70
     1
  0
VIEW
  2
ALL
 70
     0
 40
4282.6198079999986
 10
0.0
 20
41.309903999999989
 41
5940.0
 11
0.0
 21
0.0
 31
1.0
 12
0.0
 22
0.0
 32
0.0
 42
50.0
 43
0.0
 44
0.0
 50
0.0
 71
     0
  0
ENDTAB
  0
TABLE
  2
UCS
 70
     0
  0
ENDTAB
  0
TABLE
  2
APPID
 70
     2
  0
APPID
  2
ACAD
 70
     0
  0
APPID
  2
AUTOCAD_POSTSCRIPT_FIGURE
 70
     0
  0
ENDTAB
  0
TABLE
  2
DIMSTYLE
 70
     1
  0
DIMSTYLE
  2
STANDARD
 70
     0
  3

  4

  5

  6

  7

 40
1.0
 41
0.18
 42
0.0625
 43
0.38
 44
0.18
 45
0.0
 46
0.0
 47
0.0
 48
0.0
140
0.18
141
0.09
142
0.0
143
25.399999999999999
144
1.0
145
0.0
146
1.0
147
0.09
 71
     0
 72
     0
 73
     1
 74
     1
 75
     0
 76
     0
 77
     0
 78
     0
170
     0
171
     2
172
     0
173
     0
174
     0
175
     0
176
     7
177
     7
178
     7
  0
ENDTAB
  0
ENDSEC
  0
SECTION
  2
BLOCKS
  0
BLOCK
  8
0
  2
$MODEL_SPACE
 70
     0
 10
0.0
 20
0.0
 30
0.0
  3
$MODEL_SPACE
  1

  0
ENDBLK
  5
20
  8
0
  0
BLOCK
 67
     1
  8
0
  2
$PAPER_SPACE
 70
     0
 10
0.0
 20
0.0
 30
0.0
  3
$PAPER_SPACE
  1

  0
ENDBLK
  5
1C
 67
     1
  8
0
  0
BLOCK
  8
0
  2
DOT1
 70
     0
 10
0.0
 20
0.0
 30
0.0
  3
DOT1
  1

  0
CIRCLE
  5
37
  8
SIZE
  6
CONTINUOUS
 62
     7
 10
0.0
 20
0.0
 30
0.0
 40
3.0
  0
ENDBLK
  5
38
  8
0
  0
BLOCK
  8
0
  2
_ORIGIN
 70
     0
 10
0.0
 20
0.0
 30
0.0
  3
_ORIGIN
  1

  0
CIRCLE
  5
3B
  8
0
  6
CONTINUOUS
 62
     7
 10
0.0
 20
0.0
 30
0.0
 40
0.5
  0
LINE
  5
3C
  8
0
  6
CONTINUOUS
 62
     7
 10
0.0
 20
0.0
 30
0.0
 11
-1.0
 21
0.0
 31
0.0
  0
ENDBLK
  5
3D
  8
0
  0
ENDSEC
  0
SECTION
  2
ENTITIES
  0
ARC
  5
3E
  8
DETAIL
  6
CONTINUOUS
 62
     5
 10
-156.25
 20
27.108383
 30
0.0
 40
29.590347000000001
 50
50.679879
 51
129.320121
  0
ARC
  5
3F
  8
DETAIL
  6
CONTINUOUS
 62
     5
 10
-193.75
 20
27.108383
 30
0.0
 40
29.590347000000001
 50
50.679879
 51
129.320121
  0
ARC
  5
40
  8
DETAIL
  6
CONTINUOUS
 62
     5
 10
-193.75
 20
72.891617000000011
 30
0.0
 40
29.590347000000001
 50
230.679879
 51
309.32012099999992
  0
LINE
  5
41
  8
DETAIL
  6
CONTINUOUS
 62
     5
 10
-212.5
 20
50.0
 30
0.0
 11
-212.5
 21
0.0
 31
0.0
  0
LINE
  5
42
  8
DETAIL
  6
CONTINUOUS
 62
     5
 10
-137.5
 20
50.0
 30
0.0
 11
-137.5
 21
0.0
 31
0.0
  0
LINE
  5
43
  8
DETAIL
  6
CONTINUOUS
 62
     5
 10
274.55098900000002
 20
-114.2
 30
0.0
 11
274.47098899999997
 21
-115.0
 31
0.0
  0
LINE
  5
44
  8
DETAIL
  6
CONTINUOUS
 62
     5
 10
275.00802799999991
 20
-114.19775
 30
0.0
 11
270.37187699999998
 21
0.00225
 31
0.0
  0
LINE
  5
45
  8
DETAIL
  6
CONTINUOUS
 62
     5
 10
-275.0
 20
-114.00225
 30
0.0
 11
-270.37187699999998
 21
0.0
 31
0.0
  0
LINE
  5
46
  8
DETAIL
  6
CONTINUOUS
 62
     5
 10
-274.59370999999987
 20
-114.20225000000001
 30
0.0
 11
-274.51370999999989
 21
-115.00225
 31
0.0
  0
ARC
  5
47
  8
DETAIL
  6
CONTINUOUS
 62
     5
 10
267.89682699999997
 20
-180.40000000000001
 30
0.0
 40
5.0
 50
293.13961699999987
 51
357.0
  0
ARC
  5
48
  8
DETAIL
  6
CONTINUOUS
 62
     5
 10
-267.89682699999997
 20
-180.40225000000001
 30
0.0
 40
5.0
 50
183.0
 51
246.86038300000001
  0
LINE
  5
49
  8
DETAIL
  6
CONTINUOUS
 62
     5
 10
-272.88997499999999
 20
-180.66392999999999
 30
0.0
 11
-275.00007199999999
 21
-115.0
 31
0.0
  0
LINE
  5
4A
  8
DETAIL
  6
CONTINUOUS
 62
     5
 10
272.88997499999999
 20
-180.66167999999999
 30
0.0
 11
275.0
 21
-115.0
 31
0.0
  0
LINE
  5
4B
  8
BASIS
  6
DASHDOT
 62
     6
 10
0.0
 20
55.933621000000002
 30
0.0
 11
0.0
 21
-228.68467000000001
 31
0.0
  0
LINE
  5
4C
  8
DETAIL
  6
CONTINUOUS
 62
     5
 10
-273.264793
 20
-169.0
 30
0.0
 11
273.264793
 21
-168.99774999999991
 31
0.0
  0
LINE
  5
4D
  8
DETAIL
  6
CONTINUOUS
 62
     5
 10
-272.94344499999988
 20
-179.0
 30
0.0
 11
272.94344499999988
 21
-178.99774999999991
 31
0.0
  0
LINE
  5
4E
  8
DETAIL
  6
CONTINUOUS
 62
     5
 10
-269.86169200000001
 20
-185.0
 30
0.0
 11
269.86169200000001
 21
-184.99774999999991
 31
0.0
  0
LINE
  5
4F
  8
DETAIL
  6
CONTINUOUS
 62
     5
 10
-270.37187699999998
 20
0.0
 30
0.0
 11
270.37187699999998
 21
0.00225
 31
0.0
  0
LINE
  5
50
  8
DETAIL
  6
CONTINUOUS
 62
     5
 10
-275.00007199999999
 20
-115.0
 30
0.0
 11
275.0
 21
-114.99775
 31
0.0
  0
LINE
  5
51
  8
DETAIL
  6
CONTINUOUS
 62
     5
 10
-275.0
 20
-114.2
 30
0.0
 11
275.00802799999991
 21
-114.19775
 31
0.0
  0
LINE
  5
52
  8
SIZE
  6
CONTINUOUS
 62
     8
 10
-275.0
 20
-115.00225
 30
0.0
 11
-275.0
 21
-113.90330299999999
 31
0.0
  0
LINE
  5
53
  8
DETAIL
  6
CONTINUOUS
 62
     5
 10
-275.0
 20
-114.2
 30
0.0
 11
-275.0
 21
-114.00225
 31
0.0
  0
LINE
  5
54
  8
NOTE
  6
CONTINUOUS
 62
     4
 10
-221.0
 20
0.0
 30
0.0
 11
-357.52953300000001
 21
64.583207000000002
 31
0.0
  0
LINE
  5
55
  8
NOTE
  6
CONTINUOUS
 62
     4
 10
-259.80828700000001
 20
9.6910720000000001
 30
0.0
 11
-221.0
 21
0.0
 31
0.0
  0
LINE
  5
56
  8
NOTE
  6
CONTINUOUS
 62
     4
 10
-221.0
 20
0.0
 30
0.0
 11
-249.7634259999999
 21
27.796858
 31
0.0
  0
LINE
  5
57
  8
BASIS
  6
DASHDOT
 62
     6
 10
-175.0
 20
67.220843000000002
 30
0.0
 11
-175.0
 21
-40.853175
 31
0.0
  0
LINE
  5
58
  8
BASIS
  6
DASHDOT
 62
     6
 10
175.0
 20
67.220843000000002
 30
0.0
 11
175.0
 21
-40.214224000000002
 31
0.0
  0
LINE
  5
59
  8
DETAIL
  6
CONTINUOUS
 62
     5
 10
212.5
 20
50.0
 30
0.0
 11
212.5
 21
0.0
 31
0.0
  0
LINE
  5
5A
  8
DETAIL
  6
CONTINUOUS
 62
     5
 10
137.5
 20
50.0
 30
0.0
 11
137.5
 21
0.0
 31
0.0
  0
ARC
  5
5B
  8
DETAIL
  6
CONTINUOUS
 62
     5
 10
156.25
 20
72.891617000000011
 30
0.0
 40
29.590347000000001
 50
230.679879
 51
309.32012099999992
  0
ARC
  5
5C
  8
DETAIL
  6
CONTINUOUS
 62
     5
 10
156.25
 20
27.108383
 30
0.0
 40
29.590347000000001
 50
50.679879
 51
129.320121
  0
ARC
  5
5D
  8
DETAIL
  6
CONTINUOUS
 62
     5
 10
193.75
 20
27.108383
 30
0.0
 40
29.590347000000001
 50
50.679879
 51
129.320121
  0
LINE
  5
5E
  8
SIZE
  6
CONTINUOUS
 62
    30
 10
212.5
 20
-20.0
 30
0.0
 11
212.5
 21
-362.97098699999998
 31
0.0
  0
LINE
  5
5F
  8
SIZE
  6
CONTINUOUS
 62
    30
 10
137.5
 20
-20.0
 30
0.0
 11
137.5
 21
-362.97098699999998
 31
0.0
  0
LINE
  5
60
  8
SIZE
  6
CONTINUOUS
 62
    30
 10
200.49999999999989
 20
-342.97098699999998
 30
0.0
 11
149.5
 21
-342.97098699999998
 31
0.0
  0
LINE
  5
61
  8
SIZE
  6
CONTINUOUS
 62
    30
 10
533.84925799999985
 20
-342.97098699999998
 30
0.0
 11
212.5
 21
-342.97098699999998
 31
0.0
  0
TEXT
  5
62
  8
SIZE
  6
CONTINUOUS
 62
    30
 10
346.47211457142862
 20
-317.97098699999998
 30
0.0
 40
64.0
  1
φ75
 41
0.9
 72
     1
 11
433.42068599999999
 21
-317.97098699999998
 31
0.0
  0
CIRCLE
  5
63
  8
SIZE
  6
CONTINUOUS
 62
    30
 10
212.5
 20
-342.97098699999998
 30
0.0
 40
6.0
  0
LINE
  5
64
  8
SIZE
  6
CONTINUOUS
 62
    30
 10
212.5
 20
-342.97098699999998
 30
0.0
 11
200.49999999999989
 21
-342.97098699999998
 31
0.0
  0
CIRCLE
  5
65
  8
SIZE
  6
CONTINUOUS
 62
    30
 10
137.5
 20
-342.97098699999998
 30
0.0
 40
6.0
  0
LINE
  5
66
  8
SIZE
  6
CONTINUOUS
 62
    30
 10
137.5
 20
-342.97098699999998
 30
0.0
 11
149.5
 21
-342.97098699999998
 31
0.0
  0
LINE
  5
6A
  8
SIZE
  6
CONTINUOUS
 62
    30
 10
-137.5
 20
-20.0
 30
0.0
 11
-137.5
 21
-362.97098699999998
 31
0.0
  0
LINE
  5
6B
  8
SIZE
  6
CONTINUOUS
 62
    30
 10
-212.5
 20
-20.0
 30
0.0
 11
-212.5
 21
-362.97098699999998
 31
0.0
  0
LINE
  5
6C
  8
SIZE
  6
CONTINUOUS
 62
    30
 10
-149.5
 20
-342.97098699999998
 30
0.0
 11
-200.49999999999989
 21
-342.97098699999998
 31
0.0
  0
LINE
  5
6D
  8
SIZE
  6
CONTINUOUS
 62
    30
 10
-558.09143899999992
 20
-342.97098699999998
 30
0.0
 11
-212.5
 21
-342.97098699999998
 31
0.0
  0
TEXT
  5
6E
  8
SIZE
  6
CONTINUOUS
 62
    30
 10
-544.61143942857132
 20
-317.97098699999998
 30
0.0
 40
64.0
  1
φ75
 41
0.9
 72
     1
 11
-457.66286799999989
 21
-317.97098699999998
 31
0.0
  0
CIRCLE
  5
6F
  8
SIZE
  6
CONTINUOUS
 62
    30
 10
-137.5
 20
-342.97098699999998
 30
0.0
 40
6.0
  0
LINE
  5
70
  8
SIZE
  6
CONTINUOUS
 62
    30
 10
-137.5
 20
-342.97098699999998
 30
0.0
 11
-149.5
 21
-342.97098699999998
 31
0.0
  0
CIRCLE
  5
71
  8
SIZE
  6
CONTINUOUS
 62
    30
 10
-212.5
 20
-342.97098699999998
 30
0.0
 40
6.0
  0
LINE
  5
72
  8
SIZE
  6
CONTINUOUS
 62
    30
 10
-212.5
 20
-342.97098699999998
 30
0.0
 11
-200.49999999999989
 21
-342.97098699999998
 31
0.0
  0
LINE
  5
76
  8
SIZE
  6
CONTINUOUS
 62
    30
 10
212.5
 20
-342.97098699999998
 30
0.0
 11
486.83617400000003
 21
-342.97098699999998
 31
0.0
  0
LINE
  5
77
  8
SIZE
  6
CONTINUOUS
 62
    30
 10
-212.5
 20
-342.97098699999998
 30
0.0
 11
-490.35032699999988
 21
-342.97098699999998
 31
0.0
  0
POINT
  5
78
  8
ARRANGE
  6
CONTINUOUS
 62
     1
 10
0.0
 20
0.0
 30
0.0
  0
CIRCLE
  5
79
  8
ARRANGE
  6
CONTINUOUS
 62
     1
 10
0.0
 20
0.0
 30
0.0
 40
40.0
  0
LINE
  5
7A
  8
SIZE
  6
CONTINUOUS
 62
    30
 10
-275.0
 20
-135.00225
 30
0.0
 11
-275.0
 21
-493.07357899999988
 31
0.0
  0
LINE
  5
7B
  8
SIZE
  6
CONTINUOUS
 62
    30
 10
275.0
 20
-135.0
 30
0.0
 11
275.0
 21
-493.07357899999988
 31
0.0
  0
LINE
  5
7C
  8
SIZE
  6
CONTINUOUS
 62
    30
 10
-263.0
 20
-473.07357899999988
 30
0.0
 11
263.0
 21
-473.07357899999988
 31
0.0
  0
CIRCLE
  5
7D
  8
SIZE
  6
CONTINUOUS
 62
    30
 10
-275.0
 20
-473.07357899999988
 30
0.0
 40
6.0
  0
LINE
  5
7E
  8
SIZE
  6
CONTINUOUS
 62
    30
 10
-275.0
 20
-473.07357899999988
 30
0.0
 11
-263.0
 21
-473.07357899999988
 31
0.0
  0
CIRCLE
  5
7F
  8
SIZE
  6
CONTINUOUS
 62
    30
 10
275.0
 20
-473.07357899999988
 30
0.0
 40
6.0
  0
LINE
  5
80
  8
SIZE
  6
CONTINUOUS
 62
    30
 10
275.0
 20
-473.07357899999988
 30
0.0
 11
263.0
 21
-473.07357899999988
 31
0.0
  0
TEXT
  5
81
  8
SIZE
  6
CONTINUOUS
 62
    30
 10
-74.05714285714285
 20
-448.07357899999988
 30
0.0
 40
64.0
  1
550
 41
0.9
 72
     1
 11
0.0
 21
-448.07357899999988
 31
0.0
  0
LINE
  5
85
  8
SIZE
  6
CONTINUOUS
 62
    30
 10
221.0
 20
40.0
 30
0.0
 11
221.0
 21
587.33798899999988
 31
0.0
  0
LINE
  5
86
  8
SIZE
  6
CONTINUOUS
 62
    30
 10
121.0
 20
40.0
 30
0.0
 11
121.0
 21
587.33798899999988
 31
0.0
  0
LINE
  5
87
  8
SIZE
  6
CONTINUOUS
 62
    30
 10
209.0
 20
567.33798899999988
 30
0.0
 11
133.0
 21
567.33798899999988
 31
0.0
  0
LINE
  5
88
  8
SIZE
  6
CONTINUOUS
 62
    30
 10
561.20394999999985
 20
567.33798899999988
 30
0.0
 11
221.0
 21
567.33798899999988
 31
0.0
  0
TEXT
  5
89
  8
SIZE
  6
CONTINUOUS
 62
    30
 10
399.06109242857138
 20
592.33798899999988
 30
0.0
 40
64.0
  1
100
 41
0.9
 72
     1
 11
467.63252099999988
 21
592.33798899999988
 31
0.0
  0
CIRCLE
  5
8A
  8
SIZE
  6
CONTINUOUS
 62
    30
 10
221.0
 20
567.33798899999988
 30
0.0
 40
6.0
  0
LINE
  5
8B
  8
SIZE
  6
CONTINUOUS
 62
    30
 10
221.0
 20
567.33798899999988
 30
0.0
 11
209.0
 21
567.33798899999988
 31
0.0
  0
CIRCLE
  5
8C
  8
SIZE
  6
CONTINUOUS
 62
    30
 10
121.0
 20
567.33798899999988
 30
0.0
 40
6.0
  0
LINE
  5
8D
  8
SIZE
  6
CONTINUOUS
 62
    30
 10
121.0
 20
567.33798899999988
 30
0.0
 11
133.0
 21
567.33798899999988
 31
0.0
  0
LINE
  5
91
  8
SIZE
  6
CONTINUOUS
 62
    30
 10
-121.0
 20
40.0
 30
0.0
 11
-121.0
 21
587.39537900000005
 31
0.0
  0
LINE
  5
92
  8
SIZE
  6
CONTINUOUS
 62
    30
 10
-221.0
 20
40.0
 30
0.0
 11
-221.0
 21
587.39537900000005
 31
0.0
  0
LINE
  5
93
  8
SIZE
  6
CONTINUOUS
 62
    30
 10
-133.0
 20
567.39537900000005
 30
0.0
 11
-209.0
 21
567.39537900000005
 31
0.0
  0
LINE
  5
94
  8
SIZE
  6
CONTINUOUS
 62
    30
 10
-528.13602500000002
 20
567.39537900000005
 30
0.0
 11
-221.0
 21
567.39537900000005
 31
0.0
  0
TEXT
  5
95
  8
SIZE
  6
CONTINUOUS
 62
    30
 10
-503.13602457142849
 20
592.39537900000005
 30
0.0
 40
64.0
  1
100
 41
0.9
 72
     1
 11
-434.56459599999988
 21
592.39537900000005
 31
0.0
  0
CIRCLE
  5
96
  8
SIZE
  6
CONTINUOUS
 62
    30
 10
-121.0
 20
567.39537900000005
 30
0.0
 40
6.0
  0
LINE
  5
97
  8
SIZE
  6
CONTINUOUS
 62
    30
 10
-121.0
 20
567.39537900000005
 30
0.0
 11
-133.0
 21
567.39537900000005
 31
0.0
  0
CIRCLE
  5
98
  8
SIZE
  6
CONTINUOUS
 62
    30
 10
-221.0
 20
567.39537900000005
 30
0.0
 40
6.0
  0
LINE
  5
99
  8
SIZE
  6
CONTINUOUS
 62
    30
 10
-221.0
 20
567.39537900000005
 30
0.0
 11
-209.0
 21
567.39537900000005
 31
0.0
  0
LINE
  5
9D
  8
SIZE
  6
CONTINUOUS
 62
    30
 10
290.37187899999992
 20
0.002188
 30
0.0
 11
772.74594300000001
 21
0.002188
 31
0.0
  0
LINE
  5
9E
  8
SIZE
  6
CONTINUOUS
 62
    30
 10
232.5
 20
50.0
 30
0.0
 11
772.74594300000001
 21
50.0
 31
0.0
  0
LINE
  5
9F
  8
SIZE
  6
CONTINUOUS
 62
    30
 10
752.74594300000001
 20
-11.997812
 30
0.0
 11
752.74594300000001
 21
-23.997812
 31
0.0
  0
LINE
  5
A0
  8
SIZE
  6
CONTINUOUS
 62
    30
 10
752.74594300000001
 20
62.0
 30
0.0
 11
752.74594300000001
 21
74.0
 31
0.0
  0
LINE
  5
A1
  8
SIZE
  6
CONTINUOUS
 62
    30
 10
752.74594300000001
 20
-407.47501699999992
 30
0.0
 11
752.74594300000001
 21
0.002188
 31
0.0
  0
TEXT
  5
A2
  8
SIZE
  6
CONTINUOUS
 62
    30
 10
727.74594300000001
 20
-382.47501771428563
 30
0.0
 40
64.0
  1
50～300
 50
90.0
 41
0.9
 72
     1
 11
727.74594300000001
 21
-219.00073199999991
 31
0.0
  0
LINE
  5
A3
  8
SIZE
  6
CONTINUOUS
 62
    30
 10
752.74594300000001
 20
0.002188
 30
0.0
 11
752.74594300000001
 21
50.0
 31
0.0
  0
LINE
  5
A4
  8
SIZE
  6
CONTINUOUS
 62
    30
 10
752.74594300000001
 20
0.002188
 30
0.0
 11
752.74594300000001
 21
50.0
 31
0.0
  0
CIRCLE
  5
A5
  8
SIZE
  6
CONTINUOUS
 62
    30
 10
752.74594300000001
 20
0.002188
 30
0.0
 40
6.0
  0
LINE
  5
A6
  8
SIZE
  6
CONTINUOUS
 62
    30
 10
752.74594300000001
 20
0.002188
 30
0.0
 11
752.74594300000001
 21
-11.997812
 31
0.0
  0
CIRCLE
  5
A7
  8
SIZE
  6
CONTINUOUS
 62
    30
 10
752.74594300000001
 20
50.0
 30
0.0
 40
6.0
  0
LINE
  5
A8
  8
SIZE
  6
CONTINUOUS
 62
    30
 10
752.74594300000001
 20
50.0
 30
0.0
 11
752.74594300000001
 21
62.0
 31
0.0
  0
CIRCLE
  5
AC
  8
FIX
  6
CONTINUOUS
 62
    11
 39
50.0
 10
-221.0
 20
0.0
 30
0.0
 40
3.0
  0
CIRCLE
  5
AD
  8
FIX
  6
CONTINUOUS
 62
    11
 39
50.0
 10
-201.0
 20
0.0
 30
0.0
 40
3.0
  0
CIRCLE
  5
AE
  8
FIX
  6
CONTINUOUS
 62
    11
 39
50.0
 10
-161.0
 20
0.0
 30
0.0
 40
3.0
  0
CIRCLE
  5
AF
  8
FIX
  6
CONTINUOUS
 62
    11
 39
50.0
 10
-181.0
 20
0.0
 30
0.0
 40
3.0
  0
CIRCLE
  5
B0
  8
FIX
  6
CONTINUOUS
 62
    11
 39
50.0
 10
-141.0
 20
0.0
 30
0.0
 40
3.0
  0
CIRCLE
  5
B1
  8
FIX
  6
CONTINUOUS
 62
    11
 39
50.0
 10
-121.0
 20
0.0
 30
0.0
 40
3.0
  0
LINE
  5
B2
  8
NOTE
  6
CONTINUOUS
 62
     4
 10
-221.0
 20
20.0
 30
0.0
 11
-221.0
 21
-20.0
 31
0.0
  0
LINE
  5
B3
  8
NOTE
  6
CONTINUOUS
 62
     4
 10
-241.0
 20
0.0
 30
0.0
 11
-201.0
 21
0.0
 31
0.0
  0
LINE
  5
B4
  8
NOTE
  6
CONTINUOUS
 62
     4
 10
-121.0
 20
20.0
 30
0.0
 11
-121.0
 21
-20.0
 31
0.0
  0
LINE
  5
B5
  8
NOTE
  6
CONTINUOUS
 62
     4
 10
-141.0
 20
0.0
 30
0.0
 11
-101.0
 21
0.0
 31
0.0
  0
LINE
  5
B6
  8
NOTE
  6
CONTINUOUS
 62
     4
 10
-181.0
 20
20.0
 30
0.0
 11
-181.0
 21
-20.0
 31
0.0
  0
LINE
  5
B7
  8
NOTE
  6
CONTINUOUS
 62
     4
 10
-201.0
 20
0.0
 30
0.0
 11
-161.0
 21
0.0
 31
0.0
  0
LINE
  5
B8
  8
NOTE
  6
CONTINUOUS
 62
     4
 10
-161.0
 20
20.0
 30
0.0
 11
-161.0
 21
-20.0
 31
0.0
  0
LINE
  5
B9
  8
NOTE
  6
CONTINUOUS
 62
     4
 10
-181.0
 20
0.0
 30
0.0
 11
-141.0
 21
0.0
 31
0.0
  0
LINE
  5
BA
  8
NOTE
  6
CONTINUOUS
 62
     4
 10
-201.0
 20
20.0
 30
0.0
 11
-201.0
 21
-20.0
 31
0.0
  0
LINE
  5
BB
  8
NOTE
  6
CONTINUOUS
 62
     4
 10
-221.0
 20
0.0
 30
0.0
 11
-181.0
 21
0.0
 31
0.0
  0
LINE
  5
BC
  8
NOTE
  6
CONTINUOUS
 62
     4
 10
-141.0
 20
20.0
 30
0.0
 11
-141.0
 21
-20.0
 31
0.0
  0
LINE
  5
BD
  8
NOTE
  6
CONTINUOUS
 62
     4
 10
-161.0
 20
0.0
 30
0.0
 11
-121.0
 21
0.0
 31
0.0
  0
LINE
  5
BE
  8
NOTE
  6
CONTINUOUS
 62
     4
 10
0.0
 20
20.0
 30
0.0
 11
0.0
 21
-20.0
 31
0.0
  0
LINE
  5
BF
  8
NOTE
  6
CONTINUOUS
 62
     4
 10
20.0
 20
0.0
 30
0.0
 11
-20.0
 21
0.0
 31
0.0
  0
CIRCLE
  5
C0
  8
FIX
  6
CONTINUOUS
 62
    11
 39
50.0
 10
0.0
 20
0.0
 30
0.0
 40
3.0
  0
CIRCLE
  5
C1
  8
FIX
  6
CONTINUOUS
 62
    11
 39
50.0
 10
121.0
 20
0.0
 30
0.0
 40
3.0
  0
CIRCLE
  5
C2
  8
FIX
  6
CONTINUOUS
 62
    11
 39
50.0
 10
141.0
 20
0.0
 30
0.0
 40
3.0
  0
CIRCLE
  5
C3
  8
FIX
  6
CONTINUOUS
 62
    11
 39
50.0
 10
181.0
 20
0.0
 30
0.0
 40
3.0
  0
CIRCLE
  5
C4
  8
FIX
  6
CONTINUOUS
 62
    11
 39
50.0
 10
161.0
 20
0.0
 30
0.0
 40
3.0
  0
CIRCLE
  5
C5
  8
FIX
  6
CONTINUOUS
 62
    11
 39
50.0
 10
201.0
 20
0.0
 30
0.0
 40
3.0
  0
CIRCLE
  5
C6
  8
FIX
  6
CONTINUOUS
 62
    11
 39
50.0
 10
221.0
 20
0.0
 30
0.0
 40
3.0
  0
LINE
  5
C7
  8
NOTE
  6
CONTINUOUS
 62
     4
 10
221.0
 20
20.0
 30
0.0
 11
221.0
 21
-20.0
 31
0.0
  0
LINE
  5
C8
  8
NOTE
  6
CONTINUOUS
 62
     4
 10
241.0
 20
0.0
 30
0.0
 11
201.0
 21
0.0
 31
0.0
  0
LINE
  5
C9
  8
NOTE
  6
CONTINUOUS
 62
     4
 10
121.0
 20
20.0
 30
0.0
 11
121.0
 21
-20.0
 31
0.0
  0
LINE
  5
CA
  8
NOTE
  6
CONTINUOUS
 62
     4
 10
141.0
 20
0.0
 30
0.0
 11
101.0
 21
0.0
 31
0.0
  0
LINE
  5
CB
  8
NOTE
  6
CONTINUOUS
 62
     4
 10
181.0
 20
20.0
 30
0.0
 11
181.0
 21
-20.0
 31
0.0
  0
LINE
  5
CC
  8
NOTE
  6
CONTINUOUS
 62
     4
 10
201.0
 20
0.0
 30
0.0
 11
161.0
 21
0.0
 31
0.0
  0
LINE
  5
CD
  8
NOTE
  6
CONTINUOUS
 62
     4
 10
161.0
 20
20.0
 30
0.0
 11
161.0
 21
-20.0
 31
0.0
  0
LINE
  5
CE
  8
NOTE
  6
CONTINUOUS
 62
     4
 10
181.0
 20
0.0
 30
0.0
 11
141.0
 21
0.0
 31
0.0
  0
LINE
  5
CF
  8
NOTE
  6
CONTINUOUS
 62
     4
 10
141.0
 20
20.0
 30
0.0
 11
141.0
 21
-20.0
 31
0.0
  0
LINE
  5
D0
  8
NOTE
  6
CONTINUOUS
 62
     4
 10
161.0
 20
0.0
 30
0.0
 11
121.0
 21
0.0
 31
0.0
  0
LINE
  5
D1
  8
NOTE
  6
CONTINUOUS
 62
     4
 10
201.0
 20
20.0
 30
0.0
 11
201.0
 21
-20.0
 31
0.0
  0
LINE
  5
D2
  8
NOTE
  6
CONTINUOUS
 62
     4
 10
221.0
 20
0.0
 30
0.0
 11
181.0
 21
0.0
 31
0.0
  0
LINE
  5
D3
  8
NOTE
  6
CONTINUOUS
 62
     4
 10
-533.56892900000003
 20
-194.62301099999999
 30
0.0
 11
-416.54301499999991
 21
-194.62301099999999
 31
0.0
  0
TEXT
  5
D4
  8
NOTE
  6
CONTINUOUS
 62
     4
 10
-514.64830599999993
 20
-158.06693300000001
 30
0.0
 40
64.0
  1
EL
 41
0.9
  0
LINE
  5
D5
  8
NOTE
  6
CONTINUOUS
 62
     4
 10
-255.49206699999999
 20
0.000062
 30
0.0
 11
-416.54301499999991
 21
-194.62301099999999
 31
0.0
  0
LINE
  5
D6
  8
NOTE
  6
CONTINUOUS
 62
     4
 10
-287.63781699999993
 20
-23.804366000000002
 30
0.0
 11
-255.49206699999999
 21
0.000062
 31
0.0
  0
LINE
  5
D7
  8
NOTE
  6
CONTINUOUS
 62
     4
 10
-255.49206699999999
 20
0.000062
 30
0.0
 11
-271.42888799999992
 21
-36.688051999999992
 31
0.0
  0
LINE
  5
D8
  8
NOTE
  6
CONTINUOUS
 62
     4
 10
-255.49206699999999
 20
20.000062
 30
0.0
 11
-255.49206699999999
 21
-19.999938
 31
0.0
  0
LINE
  5
D9
  8
NOTE
  6
CONTINUOUS
 62
     4
 10
-275.49206700000002
 20
0.000062
 30
0.0
 11
-235.49206699999991
 21
0.000062
 31
0.0
  0
LINE
  5
DA
  8
SIZE
  6
CONTINUOUS
 62
    30
 10
0.0
 20
-248.68467000000001
 30
0.0
 11
0.0
 21
-633.92815899999994
 31
0.0
  0
LINE
  5
DB
  8
SIZE
  6
CONTINUOUS
 62
    30
 10
-325.0
 20
-305.498875
 30
0.0
 11
-325.0
 21
-633.92815899999994
 31
0.0
  0
LINE
  5
DC
  8
SIZE
  6
CONTINUOUS
 62
    30
 10
-12.0
 20
-613.92815899999994
 30
0.0
 11
-313.0
 21
-613.92815899999994
 31
0.0
  0
LINE
  5
DD
  8
SIZE
  6
CONTINUOUS
 62
    30
 10
-585.73400400000003
 20
-613.92815899999994
 30
0.0
 11
-325.0
 21
-613.92815899999994
 31
0.0
  0
TEXT
  5
DE
  8
SIZE
  6
CONTINUOUS
 62
    30
 10
-560.73400385714285
 20
-588.92815899999994
 30
0.0
 40
64.0
  1
325
 41
0.9
 72
     1
 11
-486.67686099999997
 21
-588.92815899999994
 31
0.0
  0
CIRCLE
  5
DF
  8
SIZE
  6
CONTINUOUS
 62
    30
 10
0.0
 20
-613.92815899999994
 30
0.0
 40
6.0
  0
LINE
  5
E0
  8
SIZE
  6
CONTINUOUS
 62
    30
 10
0.0
 20
-613.92815899999994
 30
0.0
 11
-12.0
 21
-613.92815899999994
 31
0.0
  0
CIRCLE
  5
E1
  8
SIZE
  6
CONTINUOUS
 62
    30
 10
-325.0
 20
-613.92815899999994
 30
0.0
 40
6.0
  0
LINE
  5
E2
  8
SIZE
  6
CONTINUOUS
 62
    30
 10
-325.0
 20
-613.92815899999994
 30
0.0
 11
-313.0
 21
-613.92815899999994
 31
0.0
  0
TEXT
  5
E6
  8
NOTE
  6
CONTINUOUS
 62
     4
 10
-694.4487529999999
 20
-716.64597600000002
 30
0.0
 40
64.0
  1
右側壁より325以上
 41
0.9
  0
LINE
  5
E7
  8
SIZE
  6
CONTINUOUS
 62
    30
 10
0.0
 20
-248.68467000000001
 30
0.0
 11
0.0
 21
-633.92815899999994
 31
0.0
  0
LINE
  5
E8
  8
SIZE
  6
CONTINUOUS
 62
    30
 10
325.0
 20
-305.498875
 30
0.0
 11
325.0
 21
-633.92815899999994
 31
0.0
  0
LINE
  5
E9
  8
SIZE
  6
CONTINUOUS
 62
    30
 10
12.0
 20
-613.92815899999994
 30
0.0
 11
313.0
 21
-613.92815899999994
 31
0.0
  0
LINE
  5
EA
  8
SIZE
  6
CONTINUOUS
 62
    30
 10
573.85910200000001
 20
-613.92815899999994
 30
0.0
 11
325.0
 21
-613.92815899999994
 31
0.0
  0
TEXT
  5
EB
  8
SIZE
  6
CONTINUOUS
 62
    30
 10
400.74481614285708
 20
-588.92815899999994
 30
0.0
 40
64.0
  1
325
 41
0.9
 72
     1
 11
474.80195900000001
 21
-588.92815899999994
 31
0.0
  0
CIRCLE
  5
EC
  8
SIZE
  6
CONTINUOUS
 62
    30
 10
0.0
 20
-613.92815899999994
 30
0.0
 40
6.0
  0
LINE
  5
ED
  8
SIZE
  6
CONTINUOUS
 62
    30
 10
0.0
 20
-613.92815899999994
 30
0.0
 11
12.0
 21
-613.92815899999994
 31
0.0
  0
CIRCLE
  5
EE
  8
SIZE
  6
CONTINUOUS
 62
    30
 10
325.0
 20
-613.92815899999994
 30
0.0
 40
6.0
  0
LINE
  5
EF
  8
SIZE
  6
CONTINUOUS
 62
    30
 10
325.0
 20
-613.92815899999994
 30
0.0
 11
313.0
 21
-613.92815899999994
 31
0.0
  0
TEXT
  5
F3
  8
NOTE
  6
CONTINUOUS
 62
     4
 10
48.169325999999998
 20
-722.66961500000002
 30
0.0
 40
64.0
  1
左側壁より325以上
 41
0.9
  0
LINE
  5
F4
  8
SIZE
  6
CONTINUOUS
 62
    30
 39
50.0
 10
573.85910200000001
 20
-613.92815899999994
 30
0.0
 11
691.029899
 21
-613.92815899999994
 31
0.0
  0
LINE
  5
F5
  8
SIZE
  6
CONTINUOUS
 62
    30
 39
50.0
 10
-585.73400400000003
 20
-613.92815899999994
 30
0.0
 11
-713.66098
 21
-613.92815899999994
 31
0.0
  0
LINE
  5
F6
  8
SERVICESPACE
  6
DASHDOT
 62
     2
 10
325.0
 20
-285.498875
 30
0.0
 11
325.0
 21
140.501125
 31
0.0
  0
LINE
  5
F7
  8
SERVICESPACE
  6
DASHDOT
 62
     2
 10
-325.0
 20
-285.498875
 30
0.0
 11
-325.0
 21
140.501125
 31
0.0
  0
LINE
  5
F8
  8
SIZE
  6
CONTINUOUS
 62
    30
 10
221.0
 20
40.0
 30
0.0
 11
221.0
 21
1111.883552
 31
0.0
  0
LINE
  5
F9
  8
SIZE
  6
CONTINUOUS
 62
    30
 10
-221.0
 20
40.0
 30
0.0
 11
-221.0
 21
1111.883552
 31
0.0
  0
LINE
  5
FA
  8
SIZE
  6
CONTINUOUS
 62
    30
 10
209.0
 20
1091.883552
 30
0.0
 11
-209.0
 21
1091.883552
 31
0.0
  0
CIRCLE
  5
FB
  8
SIZE
  6
CONTINUOUS
 62
    30
 10
221.0
 20
1091.883552
 30
0.0
 40
6.0
  0
LINE
  5
FC
  8
SIZE
  6
CONTINUOUS
 62
    30
 10
221.0
 20
1091.883552
 30
0.0
 11
209.0
 21
1091.883552
 31
0.0
  0
CIRCLE
  5
FD
  8
SIZE
  6
CONTINUOUS
 62
    30
 10
-221.0
 20
1091.883552
 30
0.0
 40
6.0
  0
LINE
  5
FE
  8
SIZE
  6
CONTINUOUS
 62
    30
 10
-221.0
 20
1091.883552
 30
0.0
 11
-209.0
 21
1091.883552
 31
0.0
  0
TEXT
  5
FF
  8
SIZE
  6
CONTINUOUS
 62
    30
 10
-74.05714285714285
 20
1116.883552
 30
0.0
 40
64.0
  1
442
 41
0.9
 72
     1
 11
0.0
 21
1116.883552
 31
0.0
  0
TEXT
  5
103
  8
NOTE
  6
CONTINUOUS
 62
     4
 10
-684.18639599999995
 20
462.18589999999989
 30
0.0
 40
64.0
  1
ピッチ20×5
 41
0.9
  0
LINE
  5
104
  8
SIZE
  6
CONTINUOUS
 62
    30
 39
50.0
 10
-528.13602500000002
 20
567.39537900000005
 30
0.0
 11
-686.79174899999987
 21
567.39537900000005
 31
0.0
  0
TEXT
  5
105
  8
NOTE
  6
CONTINUOUS
 62
     4
 10
250.99428299999991
 20
462.12850999999989
 30
0.0
 40
64.0
  1
ピッチ20×5
 41
0.9
  0
LINE
  5
106
  8
SIZE
  6
CONTINUOUS
 62
    30
 39
50.0
 10
561.20394999999985
 20
567.33798899999988
 30
0.0
 11
698.51737200000002
 21
567.33798899999988
 31
0.0
  0
LINE
  5
107
  8
DETAIL
  6
DASHED
 62
     5
 10
62.5
 20
50.001540999999989
 30
0.0
 11
62.5
 21
0.001541
 31
0.0
  0
LINE
  5
108
  8
DETAIL
  6
DASHED
 62
     5
 10
137.5
 20
50.001540999999989
 30
0.0
 11
137.5
 21
0.001541
 31
0.0
  0
ARC
  5
109
  8
DETAIL
  6
DASHED
 62
     5
 10
118.75
 20
27.109923999999999
 30
0.0
 40
29.590347000000001
 50
50.679879
 51
129.320121
  0
ARC
  5
10A
  8
DETAIL
  6
DASHED
 62
     5
 10
81.25
 20
27.109923999999999
 30
0.0
 40
29.590347000000001
 50
50.679879
 51
129.320121
  0
ARC
  5
10B
  8
DETAIL
  6
DASHED
 62
     5
 10
81.25
 20
72.893158
 30
0.0
 40
29.590347000000001
 50
230.679879
 51
309.32012099999992
  0
LINE
  5
10C
  8
BASIS
  6
DASHDOT
 62
     6
 10
100.0
 20
67.222383999999991
 30
0.0
 11
100.0
 21
-40.851633999999997
 31
0.0
  0
ARC
  5
10D
  8
DETAIL
  6
DASHED
 62
     5
 10
-81.25
 20
27.10909199999999
 30
0.0
 40
29.590347000000001
 50
50.679879
 51
129.320121
  0
LINE
  5
10E
  8
DETAIL
  6
DASHED
 62
     5
 10
-137.5
 20
50.000709000000001
 30
0.0
 11
-137.5
 21
0.000709
 31
0.0
  0
ARC
  5
10F
  8
DETAIL
  6
DASHED
 62
     5
 10
-118.75
 20
27.10909199999999
 30
0.0
 40
29.590347000000001
 50
50.679879
 51
129.320121
  0
ARC
  5
110
  8
DETAIL
  6
DASHED
 62
     5
 10
-118.75
 20
72.892325999999997
 30
0.0
 40
29.590347000000001
 50
230.679879
 51
309.32012099999992
  0
LINE
  5
111
  8
DETAIL
  6
DASHED
 62
     5
 10
-62.5
 20
50.000709000000001
 30
0.0
 11
-62.5
 21
0.000709
 31
0.0
  0
LINE
  5
112
  8
BASIS
  6
DASHDOT
 62
     6
 10
-100.0
 20
67.221552000000003
 30
0.0
 11
-100.0
 21
-40.852466
 31
0.0
  0
LINE
  5
113
  8
SIZE
  6
CONTINUOUS
 62
    30
 10
-100.0
 20
87.221552000000017
 30
0.0
 11
-100.0
 21
797.84800899999993
 31
0.0
  0
LINE
  5
114
  8
SIZE
  6
CONTINUOUS
 62
    30
 10
100.0
 20
87.222384000000005
 30
0.0
 11
100.0
 21
797.84800899999993
 31
0.0
  0
LINE
  5
115
  8
SIZE
  6
CONTINUOUS
 62
    30
 10
-88.0
 20
777.84800899999993
 30
0.0
 11
88.0
 21
777.84800899999993
 31
0.0
  0
CIRCLE
  5
116
  8
SIZE
  6
CONTINUOUS
 62
    30
 10
-100.0
 20
777.84800899999993
 30
0.0
 40
6.0
  0
LINE
  5
117
  8
SIZE
  6
CONTINUOUS
 62
    30
 10
-100.0
 20
777.84800899999993
 30
0.0
 11
-88.0
 21
777.84800899999993
 31
0.0
  0
CIRCLE
  5
118
  8
SIZE
  6
CONTINUOUS
 62
    30
 10
100.0
 20
777.84800899999993
 30
0.0
 40
6.0
  0
LINE
  5
119
  8
SIZE
  6
CONTINUOUS
 62
    30
 10
100.0
 20
777.84800899999993
 30
0.0
 11
88.0
 21
777.84800899999993
 31
0.0
  0
TEXT
  5
11A
  8
SIZE
  6
CONTINUOUS
 62
    30
 10
-74.05714285714285
 20
802.84800899999982
 30
0.0
 40
64.0
  1
200
 41
0.9
 72
     1
 11
0.0
 21
802.84800899999982
 31
0.0
  0
LINE
  5
11E
  8
SIZE
  6
CONTINUOUS
 62
    30
 10
-175.0
 20
87.220843000000002
 30
0.0
 11
-175.0
 21
988.51314200000002
 31
0.0
  0
LINE
  5
11F
  8
SIZE
  6
CONTINUOUS
 62
    30
 10
175.0
 20
87.220843000000002
 30
0.0
 11
175.0
 21
988.51314200000002
 31
0.0
  0
LINE
  5
120
  8
SIZE
  6
CONTINUOUS
 62
    30
 10
-163.0
 20
968.51314200000013
 30
0.0
 11
163.0
 21
968.51314200000013
 31
0.0
  0
CIRCLE
  5
121
  8
SIZE
  6
CONTINUOUS
 62
    30
 10
-175.0
 20
968.51314200000013
 30
0.0
 40
6.0
  0
LINE
  5
122
  8
SIZE
  6
CONTINUOUS
 62
    30
 10
-175.0
 20
968.51314200000013
 30
0.0
 11
-163.0
 21
968.51314200000013
 31
0.0
  0
CIRCLE
  5
123
  8
SIZE
  6
CONTINUOUS
 62
    30
 10
175.0
 20
968.51314200000013
 30
0.0
 40
6.0
  0
LINE
  5
124
  8
SIZE
  6
CONTINUOUS
 62
    30
 10
175.0
 20
968.51314200000013
 30
0.0
 11
163.0
 21
968.51314200000013
 31
0.0
  0
TEXT
  5
125
  8
SIZE
  6
CONTINUOUS
 62
    30
 10
-74.05714285714285
 20
993.51314200000013
 30
0.0
 40
64.0
  1
350
 41
0.9
 72
     1
 11
0.0
 21
993.51314200000013
 31
0.0
  0
LINE
  5
129
  8
SIZE
  6
CONTINUOUS
 62
    30
 10
100.0
 20
87.222384000000005
 30
0.0
 11
100.0
 21
797.84800899999993
 31
0.0
  0
LINE
  5
12A
  8
SIZE
  6
CONTINUOUS
 62
    30
 10
175.0
 20
87.220843000000002
 30
0.0
 11
175.0
 21
797.84800899999993
 31
0.0
  0
LINE
  5
12B
  8
SIZE
  6
CONTINUOUS
 62
    30
 10
112.0
 20
777.84800899999993
 30
0.0
 11
163.0
 21
777.84800899999993
 31
0.0
  0
LINE
  5
12C
  8
SIZE
  6
CONTINUOUS
 62
    30
 10
478.62857100000002
 20
777.84800899999993
 30
0.0
 11
175.0
 21
777.84800899999993
 31
0.0
  0
TEXT
  5
12D
  8
SIZE
  6
CONTINUOUS
 62
    30
 10
360.37142857142851
 20
802.84800899999982
 30
0.0
 40
64.0
  1
75
 41
0.9
 72
     1
 11
407.0
 21
802.84800899999982
 31
0.0
  0
CIRCLE
  5
12E
  8
SIZE
  6
CONTINUOUS
 62
    30
 10
100.0
 20
777.84800899999993
 30
0.0
 40
6.0
  0
LINE
  5
12F
  8
SIZE
  6
CONTINUOUS
 62
    30
 10
100.0
 20
777.84800899999993
 30
0.0
 11
112.0
 21
777.84800899999993
 31
0.0
  0
CIRCLE
  5
130
  8
SIZE
  6
CONTINUOUS
 62
    30
 10
175.0
 20
777.84800899999993
 30
0.0
 40
6.0
  0
LINE
  5
131
  8
SIZE
  6
CONTINUOUS
 62
    30
 10
175.0
 20
777.84800899999993
 30
0.0
 11
163.0
 21
777.84800899999993
 31
0.0
  0
LINE
  5
135
  8
SIZE
  6
CONTINUOUS
 62
    30
 10
-100.0
 20
87.221552000000017
 30
0.0
 11
-100.0
 21
797.84800899999993
 31
0.0
  0
LINE
  5
136
  8
SIZE
  6
CONTINUOUS
 62
    30
 10
-175.0
 20
87.220843000000002
 30
0.0
 11
-175.0
 21
797.84800899999993
 31
0.0
  0
LINE
  5
137
  8
SIZE
  6
CONTINUOUS
 62
    30
 10
-112.0
 20
777.84800899999993
 30
0.0
 11
-163.0
 21
777.84800899999993
 31
0.0
  0
LINE
  5
138
  8
SIZE
  6
CONTINUOUS
 62
    30
 10
-494.62857100000002
 20
777.84800899999993
 30
0.0
 11
-175.0
 21
777.84800899999993
 31
0.0
  0
TEXT
  5
139
  8
SIZE
  6
CONTINUOUS
 62
    30
 10
-469.62857142857138
 20
802.84800899999982
 30
0.0
 40
64.0
  1
75
 41
0.9
 72
     1
 11
-423.0
 21
802.84800899999982
 31
0.0
  0
CIRCLE
  5
13A
  8
SIZE
  6
CONTINUOUS
 62
    30
 10
-100.0
 20
777.84800899999993
 30
0.0
 40
6.0
  0
LINE
  5
13B
  8
SIZE
  6
CONTINUOUS
 62
    30
 10
-100.0
 20
777.84800899999993
 30
0.0
 11
-112.0
 21
777.84800899999993
 31
0.0
  0
CIRCLE
  5
13C
  8
SIZE
  6
CONTINUOUS
 62
    30
 10
-175.0
 20
777.84800899999993
 30
0.0
 40
6.0
  0
LINE
  5
13D
  8
SIZE
  6
CONTINUOUS
 62
    30
 10
-175.0
 20
777.84800899999993
 30
0.0
 11
-163.0
 21
777.84800899999993
 31
0.0
  0
TEXT
  5
141
  8
NOTE
  6
CONTINUOUS
 62
     4
 10
285.96286499999991
 20
208.407904
 30
0.0
 40
64.0
  1
（φ80～φ90壁穴）
 41
0.9
  0
TEXT
  5
142
  8
NOTE
  6
CONTINUOUS
 62
     4
 10
467.7554429999999
 20
338.38314400000002
 30
0.0
 40
64.0
  1
室外給気口
 41
0.9
  0
LINE
  5
143
  8
NOTE
  6
CONTINUOUS
 62
     4
 10
294.82126
 20
308.953283
 30
0.0
 11
952.69694499999991
 21
308.953283
 31
0.0
  0
TEXT
  5
144
  8
NOTE
  6
CONTINUOUS
 62
     4
 10
-974.14384700000005
 20
216.31676699999991
 30
0.0
 40
64.0
  1
（φ80～φ90壁穴）
 41
0.9
  0
TEXT
  5
145
  8
NOTE
  6
CONTINUOUS
 62
     4
 10
-796.28255599999989
 20
347.41667999999987
 30
0.0
 40
64.0
  1
室外排気口
 41
0.9
  0
LINE
  5
146
  8
NOTE
  6
CONTINUOUS
 62
     4
 10
-303.90215000000001
 20
316.02115400000002
 30
0.0
 11
-957.56548399999997
 21
316.02115400000002
 31
0.0
  0
TEXT
  5
147
  8
NOTE
  6
CONTINUOUS
 62
     4
 10
-130.51743999999999
 20
891.345643
 30
0.0
 40
64.0
  1
（最大）
 41
0.9
  0
TEXT
  5
148
  8
NOTE
  6
CONTINUOUS
 62
     4
 10
-129.01314600000001
 20
686.25778699999989
 30
0.0
 40
64.0
  1
（最小）
 41
0.9
  0
TEXT
  5
149
  8
NOTE
  6
CONTINUOUS
 62
     4
 10
227.17170200000001
 20
692.29365999999993
 30
0.0
 40
64.0
  1
（可動寸法）
 41
0.9
  0
TEXT
  5
14A
  8
NOTE
  6
CONTINUOUS
 62
     4
 10
-609.5661419999999
 20
692.78096200000005
 30
0.0
 40
64.0
  1
（可動寸法）
 41
0.9
  0
LINE
  5
14B
  8
SIZE
  6
CONTINUOUS
 62
    30
 10
290.37187699999993
 20
0.00225
 30
0.0
 11
623.92197999999985
 21
0.00225
 31
0.0
  0
LINE
  5
14C
  8
SIZE
  6
CONTINUOUS
 62
    30
 10
289.86169200000001
 20
-184.99774999999991
 30
0.0
 11
623.92197999999985
 21
-184.99774999999991
 31
0.0
  0
LINE
  5
14D
  8
SIZE
  6
CONTINUOUS
 62
    30
 10
603.92197999999985
 20
12.00225
 30
0.0
 11
603.92197999999985
 21
24.00225
 31
0.0
  0
LINE
  5
14E
  8
SIZE
  6
CONTINUOUS
 62
    30
 10
603.92197999999985
 20
-196.99774999999991
 30
0.0
 11
603.92197999999985
 21
-208.99774999999991
 31
0.0
  0
LINE
  5
14F
  8
SIZE
  6
CONTINUOUS
 62
    30
 10
603.92197999999985
 20
0.00225
 30
0.0
 11
603.92197999999985
 21
-184.99774999999991
 31
0.0
  0
CIRCLE
  5
150
  8
SIZE
  6
CONTINUOUS
 62
    30
 10
603.92197999999985
 20
0.00225
 30
0.0
 40
6.0
  0
LINE
  5
151
  8
SIZE
  6
CONTINUOUS
 62
    30
 10
603.92197999999985
 20
0.00225
 30
0.0
 11
603.92197999999985
 21
12.00225
 31
0.0
  0
CIRCLE
  5
152
  8
SIZE
  6
CONTINUOUS
 62
    30
 10
603.92197999999985
 20
-184.99774999999991
 30
0.0
 40
6.0
  0
LINE
  5
153
  8
SIZE
  6
CONTINUOUS
 62
    30
 10
603.92197999999985
 20
-184.99774999999991
 30
0.0
 11
603.92197999999985
 21
-196.99774999999991
 31
0.0
  0
TEXT
  5
154
  8
SIZE
  6
CONTINUOUS
 62
    30
 10
578.92197999999985
 20
-161.06917857142849
 30
0.0
 40
64.0
  1
185
 50
90.0
 41
0.9
 72
     1
 11
578.92197999999985
 21
-92.497749999999996
 31
0.0
  0
TEXT
  5
158
  8
NOTE
  6
CONTINUOUS
 62
     4
 10
837.62665599999991
 20
-255.838797
 30
0.0
 40
64.0
  1
壁厚
 50
90.0
 41
0.9
  0
TEXT
  5
159
  8
NOTE
  6
CONTINUOUS
 62
     4
 10
-660.58823600000005
 20
94.013068000000004
 30
0.0
 40
64.0
  1
52-φ6
 41
0.9
  0
LINE
  5
15A
  8
NOTE
  6
CONTINUOUS
 62
     4
 10
-357.52953300000001
 20
64.583207000000002
 30
0.0
 11
-679.60902899999985
 21
64.583207000000002
 31
0.0
  0
LINE
  5
15B
  8
NOTE
  6
CONTINUOUS
 62
     4
 39
50.0
 10
-303.90215000000001
 20
316.02115400000002
 30
0.0
 11
-212.5
 21
26.315387999999999
 31
0.0
  0
LINE
  5
15C
  8
NOTE
  6
CONTINUOUS
 62
     4
 39
50.0
 10
294.82126
 20
308.953283
 30
0.0
 11
212.5
 21
31.557117999999999
 31
0.0
  0
LINE
  5
15D
  8
NOTE
  6
CONTINUOUS
 62
     4
 10
-233.99815599999999
 20
60.047113000000003
 30
0.0
 11
-212.5
 21
26.315387999999999
 31
0.0
  0
LINE
  5
15E
  8
NOTE
  6
CONTINUOUS
 62
     4
 10
-212.5
 20
26.315387999999999
 30
0.0
 11
-214.25208599999991
 21
66.276996999999994
 31
0.0
  0
LINE
  5
15F
  8
NOTE
  6
CONTINUOUS
 62
     4
 10
213.56732
 20
71.542876000000007
 30
0.0
 11
212.5
 21
31.557117999999999
 31
0.0
  0
LINE
  5
160
  8
NOTE
  6
CONTINUOUS
 62
     4
 10
212.5
 20
31.557117999999999
 30
0.0
 11
233.41720499999991
 21
65.652140000000003
 31
0.0
  0
LINE
  5
161
  8
SIZE
  6
CONTINUOUS
 62
    30
 39
50.0
 10
364.71288599999991
 20
777.84800899999993
 30
0.0
 11
610.0
 21
777.84800899999993
 31
0.0
  0
LINE
  5
162
  8
SIZE
  6
CONTINUOUS
 62
    30
 39
50.0
 10
-365.130762
 20
777.84800899999993
 30
0.0
 11
-599.0
 21
777.84800899999993
 31
0.0
  0
LINE
  5
163
  8
OUTLINE
  6
CONTINUOUS
 62
     3
 10
-275.0
 20
-114.2
 30
0.0
 11
275.00802799999991
 21
-114.19775
 31
0.0
  0
LINE
  5
164
  8
OUTLINE
  6
CONTINUOUS
 62
     3
 10
-275.00007199999999
 20
-115.0
 30
0.0
 11
275.0
 21
-114.99775
 31
0.0
  0
LINE
  5
165
  8
OUTLINE
  6
CONTINUOUS
 62
     3
 10
-270.37187699999998
 20
0.0
 30
0.0
 11
270.37187699999998
 21
0.00225
 31
0.0
  0
LINE
  5
166
  8
OUTLINE
  6
CONTINUOUS
 62
     3
 10
-269.86169200000001
 20
-185.0
 30
0.0
 11
269.86169200000001
 21
-184.99774999999991
 31
0.0
  0
LINE
  5
167
  8
OUTLINE
  6
CONTINUOUS
 62
     3
 10
-272.88997499999999
 20
-180.66392999999999
 30
0.0
 11
-275.00007199999999
 21
-115.0
 31
0.0
  0
ARC
  5
168
  8
OUTLINE
  6
CONTINUOUS
 62
     3
 10
-267.89682699999997
 20
-180.40225000000001
 30
0.0
 40
5.0
 50
183.0
 51
246.86038300000001
  0
LINE
  5
169
  8
OUTLINE
  6
CONTINUOUS
 62
     3
 10
-275.0
 20
-114.00225
 30
0.0
 11
-270.37187699999998
 21
0.0
 31
0.0
  0
LINE
  5
16A
  8
OUTLINE
  6
CONTINUOUS
 62
     3
 10
-275.0
 20
-114.2
 30
0.0
 11
-275.0
 21
-114.00225
 31
0.0
  0
LINE
  5
16B
  8
OUTLINE
  6
CONTINUOUS
 62
     3
 10
-274.59370999999987
 20
-114.20225000000001
 30
0.0
 11
-274.51370999999989
 21
-115.00225
 31
0.0
  0
LINE
  5
16C
  8
OUTLINE
  6
CONTINUOUS
 62
     3
 10
275.00802799999991
 20
-114.19775
 30
0.0
 11
270.37187699999998
 21
0.00225
 31
0.0
  0
LINE
  5
16D
  8
OUTLINE
  6
CONTINUOUS
 62
     3
 10
272.88997499999999
 20
-180.66167999999999
 30
0.0
 11
275.0
 21
-115.0
 31
0.0
  0
ARC
  5
16E
  8
OUTLINE
  6
CONTINUOUS
 62
     3
 10
267.89682699999997
 20
-180.40000000000001
 30
0.0
 40
5.0
 50
293.13961699999987
 51
357.0
  0
LINE
  5
16F
  8
OUTLINE
  6
CONTINUOUS
 62
     3
 10
274.55098900000002
 20
-114.2
 30
0.0
 11
274.47098899999997
 21
-115.0
 31
0.0
  0
TEXT
  5
17D
  8
ETC
  6
CONTINUOUS
 62
    61
 10
1004.655107944581
 20
909.0
 30
0.0
 40
50.0
  1
VL-16EU2
 41
0.9
  0
TEXT
  5
17E
  8
ETC
  6
CONTINUOUS
 62
    61
 10
868.99999666070551
 20
1081.8924203844799
 30
0.0
 40
64.0
  1
VL-16EU2_6
 41
0.9
  0
TEXT
  5
17F
  8
ETC
  6
CONTINUOUS
 62
    61
 10
872.22388966070537
 20
978.93626738448017
 30
0.0
 40
64.0
  1
換気扇
 41
0.9
  0
ENDSEC
  0
EOF
