  0
SECTION
  2
HEADER
  9
$ACADVER
  1
AC1009
  9
$INSBASE
 10
0.0
 20
0.0
 30
0.0
  9
$EXTMIN
 10
-971.48555399999998
 20
-651.19770400000004
 30
0.0
  9
$EXTMAX
 10
1324.837051787772
 20
738.80487842071523
 30
50.0
  9
$LIMMIN
 10
-2970.0
 20
-2100.0
  9
$LIMMAX
 10
2970.0
 20
2100.0
  9
$ORTHOMODE
 70
     0
  9
$REGENMODE
 70
     0
  9
$FILLMODE
 70
     1
  9
$QTEXTMODE
 70
     0
  9
$MIRRTEXT
 70
     0
  9
$DRAGMODE
 70
     2
  9
$LTSCALE
 40
20.0
  9
$OSMODE
 70
   167
  9
$ATTMODE
 70
     1
  9
$TEXTSIZE
 40
64.0
  9
$TRACEWID
 40
0.05
  9
$TEXTSTYLE
  7
STANDARD
  9
$CLAYER
  8
SIZE
  9
$CELTYPE
  6
CONTINUOUS
  9
$CECOLOR
 62
    30
  9
$DIMSCALE
 40
1.0
  9
$DIMASZ
 40
12.0
  9
$DIMEXO
 40
20.0
  9
$DIMDLI
 40
200.0
  9
$DIMRND
 40
0.0
  9
$DIMDLE
 40
0.0
  9
$DIMEXE
 40
20.0
  9
$DIMTP
 40
0.0
  9
$DIMTM
 40
0.0
  9
$DIMTXT
 40
64.0
  9
$DIMCEN
 40
0.09
  9
$DIMTSZ
 40
0.0
  9
$DIMTOL
 70
     0
  9
$DIMLIM
 70
     0
  9
$DIMTIH
 70
     0
  9
$DIMTOH
 70
     0
  9
$DIMSE1
 70
     0
  9
$DIMSE2
 70
     0
  9
$DIMTAD
 70
     1
  9
$DIMZIN
 70
     8
  9
$DIMBLK
  1
DOT1
  9
$DIMASO
 70
     1
  9
$DIMSHO
 70
     0
  9
$DIMPOST
  1

  9
$DIMAPOST
  1

  9
$DIMALT
 70
     0
  9
$DIMALTD
 70
     2
  9
$DIMALTF
 40
25.399999999999999
  9
$DIMLFAC
 40
1.0
  9
$DIMTOFL
 70
     1
  9
$DIMTVP
 40
0.0
  9
$DIMTIX
 70
     1
  9
$DIMSOXD
 70
     0
  9
$DIMSAH
 70
     1
  9
$DIMBLK1
  1
ORIGIN
  9
$DIMBLK2
  1
ORIGIN
  9
$DIMSTYLE
  2
STANDARD
  9
$DIMCLRD
 70
     7
  9
$DIMCLRE
 70
     7
  9
$DIMCLRT
 70
     7
  9
$DIMTFAC
 40
1.0
  9
$DIMGAP
 40
25.0
  9
$LUNITS
 70
     2
  9
$LUPREC
 70
     4
  9
$SKETCHINC
 40
0.1
  9
$FILLETRAD
 40
4.0
  9
$AUNITS
 70
     1
  9
$AUPREC
 70
     3
  9
$MENU
  1
ACAD
  9
$ELEVATION
 40
0.0
  9
$PELEVATION
 40
0.0
  9
$THICKNESS
 40
50.0
  9
$LIMCHECK
 70
     0
  9
$BLIPMODE
 70
     0
  9
$CHAMFERA
 40
0.0
  9
$CHAMFERB
 40
0.0
  9
$SKPOLY
 70
     0
  9
$TDCREATE
 40
2453097.5814316659
  9
$TDUPDATE
 40
2454152.8260094682
  9
$TDINDWG
 40
0.162285162
  9
$TDUSRTIMER
 40
0.1622849884
  9
$USRTIMER
 70
     1
  9
$ANGBASE
 50
0.0
  9
$ANGDIR
 70
     0
  9
$PDMODE
 70
     3
  9
$PDSIZE
 40
-2.0
  9
$PLINEWID
 40
0.0
  9
$COORDS
 70
     0
  9
$SPLFRAME
 70
     0
  9
$SPLINETYPE
 70
     6
  9
$SPLINESEGS
 70
     8
  9
$ATTDIA
 70
     0
  9
$ATTREQ
 70
     1
  9
$HANDLING
 70
 22529
  9
$HANDSEED
  5
399
  9
$SURFTAB1
 70
     6
  9
$SURFTAB2
 70
     6
  9
$SURFTYPE
 70
     6
  9
$SURFU
 70
     6
  9
$SURFV
 70
     6
  9
$UCSNAME
  2

  9
$UCSORG
 10
0.0
 20
0.0
 30
0.0
  9
$UCSXDIR
 10
1.0
 20
0.0
 30
0.0
  9
$UCSYDIR
 10
0.0
 20
1.0
 30
0.0
  9
$PUCSNAME
  2

  9
$PUCSORG
 10
0.0
 20
0.0
 30
0.0
  9
$PUCSXDIR
 10
1.0
 20
0.0
 30
0.0
  9
$PUCSYDIR
 10
0.0
 20
1.0
 30
0.0
  9
$USERI1
 70
     0
  9
$USERI2
 70
     0
  9
$USERI3
 70
     0
  9
$USERI4
 70
     0
  9
$USERI5
 70
     0
  9
$USERR1
 40
20.0
  9
$USERR2
 40
0.0
  9
$USERR3
 40
0.0
  9
$USERR4
 40
0.0
  9
$USERR5
 40
0.0
  9
$WORLDVIEW
 70
     1
  9
$SHADEDGE
 70
     3
  9
$SHADEDIF
 70
    70
  9
$TILEMODE
 70
     1
  9
$MAXACTVP
 70
    48
  9
$PLIMCHECK
 70
     0
  9
$PEXTMIN
 10
-1.0000000000000000E+020
 20
-1.0000000000000000E+020
 30
-1.0000000000000000E+020
  9
$PEXTMAX
 10
1.0000000000000000E+020
 20
1.0000000000000000E+020
 30
1.0000000000000000E+020
  9
$PLIMMIN
 10
0.0
 20
0.0
  9
$PLIMMAX
 10
12.0
 20
9.0
  9
$UNITMODE
 70
     0
  9
$VISRETAIN
 70
     0
  9
$PLINEGEN
 70
     0
  9
$PSLTSCALE
 70
     0
  0
ENDSEC
  0
SECTION
  2
TABLES
  0
TABLE
  2
VPORT
 70
     3
  0
VPORT
  2
*ACTIVE
 70
     0
 10
0.0
 20
0.0
 11
1.0
 21
1.0
 12
160.04441512340071
 22
40.099526999999632
 13
0.0
 23
0.0
 14
1.0
 24
1.0
 15
0.0
 25
0.0
 16
0.0
 26
0.0
 36
1.0
 17
0.0
 27
0.0
 37
0.0
 40
1561.3461062729471
 41
1.710526315789473
 42
50.0
 43
0.0
 44
0.0
 50
0.0
 51
0.0
 71
     0
 72
  1000
 73
     1
 74
     0
 75
     0
 76
     0
 77
     0
 78
     0
  0
ENDTAB
  0
TABLE
  2
LTYPE
 70
     2
  0
LTYPE
  2
CONTINUOUS
 70
     0
  3
実線
 72
    65
 73
     0
 40
0.0
  0
LTYPE
  2
DASHDOT
 70
     0
  3
____ _ ____ _ ____ _ ____ _ ____ _ ____ _ ____
 72
    65
 73
     4
 40
5.5
 49
4.0
 49
-0.6
 49
0.3
 49
-0.6
  0
ENDTAB
  0
TABLE
  2
LAYER
 70
    12
  0
LAYER
  2
0
 70
     0
 62
     7
  6
CONTINUOUS
  0
LAYER
  2
SIZE
 70
     0
 62
    30
  6
CONTINUOUS
  0
LAYER
  2
BASIS
 70
     0
 62
     6
  6
DASHDOT
  0
LAYER
  2
OUTLINE
 70
     0
 62
     3
  6
CONTINUOUS
  0
LAYER
  2
DETAIL
 70
     0
 62
     5
  6
CONTINUOUS
  0
LAYER
  2
ARRANGE
 70
     0
 62
     1
  6
CONTINUOUS
  0
LAYER
  2
DEFPOINTS
 70
     0
 62
     7
  6
CONTINUOUS
  0
LAYER
  2
ETC
 70
     0
 62
    61
  6
CONTINUOUS
  0
LAYER
  2
NOTE
 70
     0
 62
     4
  6
CONTINUOUS
  0
LAYER
  2
SERVICESPACE
 70
     0
 62
     2
  6
DASHDOT
  0
LAYER
  2
FIX
 70
     0
 62
    11
  6
CONTINUOUS
  0
LAYER
  2
SYMBOLLINE
 70
     0
 62
    15
  6
CONTINUOUS
  0
ENDTAB
  0
TABLE
  2
STYLE
 70
     1
  0
STYLE
  2
STANDARD
 70
     0
 40
64.0
 41
0.9
 50
0.0
 71
     0
 42
64.0
  3
SIMPLEX.shx
  4
BIGFONT.shx
  0
ENDTAB
  0
TABLE
  2
VIEW
 70
     1
  0
VIEW
  2
ALL
 70
     0
 40
4282.6198079999986
 10
0.0
 20
41.309903999999989
 41
5940.0
 11
0.0
 21
0.0
 31
1.0
 12
0.0
 22
0.0
 32
0.0
 42
50.0
 43
0.0
 44
0.0
 50
0.0
 71
     0
  0
ENDTAB
  0
TABLE
  2
UCS
 70
     0
  0
ENDTAB
  0
TABLE
  2
APPID
 70
     2
  0
APPID
  2
ACAD
 70
     0
  0
APPID
  2
AUTOCAD_POSTSCRIPT_FIGURE
 70
     0
  0
ENDTAB
  0
TABLE
  2
DIMSTYLE
 70
     1
  0
DIMSTYLE
  2
STANDARD
 70
     0
  3

  4

  5

  6

  7

 40
1.0
 41
0.18
 42
0.0625
 43
0.38
 44
0.18
 45
0.0
 46
0.0
 47
0.0
 48
0.0
140
0.18
141
0.09
142
0.0
143
25.399999999999999
144
1.0
145
0.0
146
1.0
147
0.09
 71
     0
 72
     0
 73
     1
 74
     1
 75
     0
 76
     0
 77
     0
 78
     0
170
     0
171
     2
172
     0
173
     0
174
     0
175
     0
176
     7
177
     7
178
     7
  0
ENDTAB
  0
ENDSEC
  0
SECTION
  2
BLOCKS
  0
BLOCK
  8
0
  2
$MODEL_SPACE
 70
     0
 10
0.0
 20
0.0
 30
0.0
  3
$MODEL_SPACE
  1

  0
ENDBLK
  5
20
  8
0
  0
BLOCK
 67
     1
  8
0
  2
$PAPER_SPACE
 70
     0
 10
0.0
 20
0.0
 30
0.0
  3
$PAPER_SPACE
  1

  0
ENDBLK
  5
1C
 67
     1
  8
0
  0
BLOCK
  8
0
  2
DOT1
 70
     0
 10
0.0
 20
0.0
 30
0.0
  3
DOT1
  1

  0
CIRCLE
  5
36
  8
SIZE
  6
CONTINUOUS
 62
     7
 10
0.0
 20
0.0
 30
0.0
 40
3.0
  0
ENDBLK
  5
37
  8
0
  0
BLOCK
  8
0
  2
_ORIGIN
 70
     0
 10
0.0
 20
0.0
 30
0.0
  3
_ORIGIN
  1

  0
CIRCLE
  5
3A
  8
0
  6
CONTINUOUS
 62
     7
 10
0.0
 20
0.0
 30
0.0
 40
0.5
  0
LINE
  5
3B
  8
0
  6
CONTINUOUS
 62
     7
 10
0.0
 20
0.0
 30
0.0
 11
-1.0
 21
0.0
 31
0.0
  0
ENDBLK
  5
3C
  8
0
  0
ENDSEC
  0
SECTION
  2
ENTITIES
  0
LINE
  5
3D
  8
BASIS
  6
DASHDOT
 62
     6
 10
0.0
 20
-184.35250899999991
 30
0.0
 11
0.0
 21
186.68224900000001
 31
0.0
  0
LINE
  5
3E
  8
BASIS
  6
DASHDOT
 62
     6
 10
-342.84594499999997
 20
0.0
 30
0.0
 11
344.05209100000002
 21
0.0
 31
0.0
  0
LINE
  5
3F
  8
SIZE
  6
CONTINUOUS
 62
    30
 10
310.0
 20
148.51918699999999
 30
0.0
 11
310.0
 21
465.849604
 31
0.0
  0
LINE
  5
40
  8
SIZE
  6
CONTINUOUS
 62
    30
 10
-310.0
 20
148.51918699999999
 30
0.0
 11
-310.0
 21
465.849604
 31
0.0
  0
LINE
  5
41
  8
SIZE
  6
CONTINUOUS
 62
    30
 10
298.0
 20
445.84960399999989
 30
0.0
 11
-298.0
 21
445.84960399999989
 31
0.0
  0
CIRCLE
  5
42
  8
SIZE
  6
CONTINUOUS
 62
    30
 10
310.0
 20
445.84960399999989
 30
0.0
 40
6.0
  0
LINE
  5
43
  8
SIZE
  6
CONTINUOUS
 62
    30
 10
310.0
 20
445.84960399999989
 30
0.0
 11
298.0
 21
445.84960399999989
 31
0.0
  0
CIRCLE
  5
44
  8
SIZE
  6
CONTINUOUS
 62
    30
 10
-310.0
 20
445.84960399999989
 30
0.0
 40
6.0
  0
LINE
  5
45
  8
SIZE
  6
CONTINUOUS
 62
    30
 10
-310.0
 20
445.84960399999989
 30
0.0
 11
-298.0
 21
445.84960399999989
 31
0.0
  0
TEXT
  5
46
  8
SIZE
  6
CONTINUOUS
 62
    30
 10
-74.05714285714285
 20
470.84960399999989
 30
0.0
 40
64.0
  1
620
 41
0.9
 72
     1
 11
0.0
 21
470.84960399999989
 31
0.0
  0
POINT
  5
4A
  8
ARRANGE
  6
CONTINUOUS
 62
     1
 10
0.0
 20
0.0
 30
0.0
 39
50.0
  0
CIRCLE
  5
4B
  8
ARRANGE
  6
CONTINUOUS
 62
     1
 39
50.0
 10
0.0
 20
0.0
 30
0.0
 40
40.0
  0
LINE
  5
4C
  8
SIZE
  6
CONTINUOUS
 62
    30
 10
316.01918699999987
 20
142.5
 30
0.0
 11
620.17031599999996
 21
142.5
 31
0.0
  0
LINE
  5
4D
  8
SIZE
  6
CONTINUOUS
 62
    30
 10
316.01918699999987
 20
-142.5
 30
0.0
 11
620.17031599999996
 21
-142.5
 31
0.0
  0
LINE
  5
4E
  8
SIZE
  6
CONTINUOUS
 62
    30
 10
600.17031599999996
 20
130.49999999999989
 30
0.0
 11
600.17031599999996
 21
-130.49999999999989
 31
0.0
  0
CIRCLE
  5
4F
  8
SIZE
  6
CONTINUOUS
 62
    30
 10
600.17031599999996
 20
142.5
 30
0.0
 40
6.0
  0
LINE
  5
50
  8
SIZE
  6
CONTINUOUS
 62
    30
 10
600.17031599999996
 20
142.5
 30
0.0
 11
600.17031599999996
 21
130.49999999999989
 31
0.0
  0
CIRCLE
  5
51
  8
SIZE
  6
CONTINUOUS
 62
    30
 10
600.17031599999996
 20
-142.5
 30
0.0
 40
6.0
  0
LINE
  5
52
  8
SIZE
  6
CONTINUOUS
 62
    30
 10
600.17031599999996
 20
-142.5
 30
0.0
 11
600.17031599999996
 21
-130.49999999999989
 31
0.0
  0
TEXT
  5
53
  8
SIZE
  6
CONTINUOUS
 62
    30
 10
575.17031599999996
 20
-74.057142857142821
 30
0.0
 40
64.0
  1
285
 50
90.0
 41
0.9
 72
     1
 11
575.17031599999996
 21
0.0
 31
0.0
  0
LINE
  5
57
  8
SIZE
  6
CONTINUOUS
 62
    30
 10
-358.28084599999988
 20
0.0
 30
0.0
 11
-902.48555399999987
 21
0.0
 31
0.0
  0
LINE
  5
58
  8
SIZE
  6
CONTINUOUS
 62
    30
 10
-380.0
 20
-243.0
 30
0.0
 11
-902.48555399999987
 21
-243.0
 31
0.0
  0
LINE
  5
59
  8
SIZE
  6
CONTINUOUS
 62
    30
 10
-882.48555399999987
 20
-12.0
 30
0.0
 11
-882.48555399999987
 21
-231.0
 31
0.0
  0
LINE
  5
5A
  8
SIZE
  6
CONTINUOUS
 62
    30
 10
-882.48555399999987
 20
-532.87074599999994
 30
0.0
 11
-882.48555399999987
 21
-243.0
 31
0.0
  0
TEXT
  5
5B
  8
SIZE
  6
CONTINUOUS
 62
    30
 10
-907.48555399999987
 20
-507.87074585714282
 30
0.0
 40
64.0
  1
243
 50
90.0
 41
0.9
 72
     1
 11
-907.48555399999987
 21
-433.813603
 31
0.0
  0
CIRCLE
  5
5C
  8
SIZE
  6
CONTINUOUS
 62
    30
 10
-882.48555399999987
 20
0.0
 30
0.0
 40
6.0
  0
LINE
  5
5D
  8
SIZE
  6
CONTINUOUS
 62
    30
 10
-882.48555399999987
 20
0.0
 30
0.0
 11
-882.48555399999987
 21
-12.0
 31
0.0
  0
CIRCLE
  5
5E
  8
SIZE
  6
CONTINUOUS
 62
    30
 10
-882.48555399999987
 20
-243.0
 30
0.0
 40
6.0
  0
LINE
  5
5F
  8
SIZE
  6
CONTINUOUS
 62
    30
 10
-882.48555399999987
 20
-243.0
 30
0.0
 11
-882.48555399999987
 21
-231.0
 31
0.0
  0
LINE
  5
63
  8
SIZE
  6
CONTINUOUS
 62
    30
 10
-380.0
 20
203.0
 30
0.0
 11
-902.48555399999987
 21
203.0
 31
0.0
  0
LINE
  5
64
  8
SIZE
  6
CONTINUOUS
 62
    30
 10
-362.84594499999997
 20
0.0
 30
0.0
 11
-902.48555399999987
 21
0.0
 31
0.0
  0
LINE
  5
65
  8
SIZE
  6
CONTINUOUS
 62
    30
 10
-882.48555399999987
 20
191.0
 30
0.0
 11
-882.48555399999987
 21
12.0
 31
0.0
  0
LINE
  5
66
  8
SIZE
  6
CONTINUOUS
 62
    30
 10
-882.48555399999987
 20
538.46592199999986
 30
0.0
 11
-882.48555399999987
 21
203.0
 31
0.0
  0
TEXT
  5
67
  8
SIZE
  6
CONTINUOUS
 62
    30
 10
-907.48555399999987
 20
365.3516361428571
 30
0.0
 40
64.0
  1
203
 50
90.0
 41
0.9
 72
     1
 11
-907.48555399999987
 21
439.40877899999992
 31
0.0
  0
CIRCLE
  5
68
  8
SIZE
  6
CONTINUOUS
 62
    30
 10
-882.48555399999987
 20
203.0
 30
0.0
 40
6.0
  0
LINE
  5
69
  8
SIZE
  6
CONTINUOUS
 62
    30
 10
-882.48555399999987
 20
203.0
 30
0.0
 11
-882.48555399999987
 21
191.0
 31
0.0
  0
CIRCLE
  5
6A
  8
SIZE
  6
CONTINUOUS
 62
    30
 10
-882.48555399999987
 20
0.0
 30
0.0
 40
6.0
  0
LINE
  5
6B
  8
SIZE
  6
CONTINUOUS
 62
    30
 10
-882.48555399999987
 20
0.0
 30
0.0
 11
-882.48555399999987
 21
12.0
 31
0.0
  0
LINE
  5
6F
  8
SIZE
  6
CONTINUOUS
 62
    30
 39
50.0
 10
-882.48555399999987
 20
-532.87074599999994
 30
0.0
 11
-882.48555399999987
 21
-651.19770400000004
 31
0.0
  0
TEXT
  5
70
  8
NOTE
  6
CONTINUOUS
 62
     4
 10
-784.64987199999985
 20
-620.59829899999988
 30
0.0
 40
64.0
  1
下面より243以上
 50
90.0
 41
0.9
  0
LINE
  5
71
  8
SIZE
  6
CONTINUOUS
 62
    30
 39
50.0
 10
-882.48555399999987
 20
538.46592199999986
 30
0.0
 11
-882.48555399999987
 21
728.27635899999996
 31
0.0
  0
TEXT
  5
72
  8
NOTE
  6
CONTINUOUS
 62
     4
 10
-789.627253
 20
74.457401000000004
 30
0.0
 40
64.0
  1
天井面より203以上
 50
90.0
 41
0.9
  0
LINE
  5
73
  8
SIZE
  6
CONTINUOUS
 62
    30
 39
50.0
 10
635.95340899999985
 20
-523.74268300000006
 30
0.0
 11
763.88038499999993
 21
-523.74268300000006
 31
0.0
  0
LINE
  5
74
  8
SIZE
  6
CONTINUOUS
 62
    30
 39
50.0
 10
-630.56634599999995
 20
-523.74268300000006
 30
0.0
 11
-739.71130000000005
 21
-523.74268300000006
 31
0.0
  0
LINE
  5
75
  8
SIZE
  6
CONTINUOUS
 62
    30
 10
0.0
 20
-204.352509
 30
0.0
 11
0.0
 21
-543.74268300000006
 31
0.0
  0
LINE
  5
76
  8
SIZE
  6
CONTINUOUS
 62
    30
 10
360.0
 20
-263.0
 30
0.0
 11
360.0
 21
-543.74268300000006
 31
0.0
  0
LINE
  5
77
  8
SIZE
  6
CONTINUOUS
 62
    30
 10
12.0
 20
-523.74268300000006
 30
0.0
 11
348.0
 21
-523.74268300000006
 31
0.0
  0
LINE
  5
78
  8
SIZE
  6
CONTINUOUS
 62
    30
 10
635.95340899999985
 20
-523.74268300000006
 30
0.0
 11
360.0
 21
-523.74268300000006
 31
0.0
  0
TEXT
  5
79
  8
SIZE
  6
CONTINUOUS
 62
    30
 10
462.8391231428572
 20
-498.742683
 30
0.0
 40
64.0
  1
360
 41
0.9
 72
     1
 11
536.89626599999997
 21
-498.742683
 31
0.0
  0
CIRCLE
  5
7A
  8
SIZE
  6
CONTINUOUS
 62
    30
 10
0.0
 20
-523.74268300000006
 30
0.0
 40
6.0
  0
LINE
  5
7B
  8
SIZE
  6
CONTINUOUS
 62
    30
 10
0.0
 20
-523.74268300000006
 30
0.0
 11
12.0
 21
-523.74268300000006
 31
0.0
  0
CIRCLE
  5
7C
  8
SIZE
  6
CONTINUOUS
 62
    30
 10
360.0
 20
-523.74268300000006
 30
0.0
 40
6.0
  0
LINE
  5
7D
  8
SIZE
  6
CONTINUOUS
 62
    30
 10
360.0
 20
-523.74268300000006
 30
0.0
 11
348.0
 21
-523.74268300000006
 31
0.0
  0
LINE
  5
81
  8
SIZE
  6
CONTINUOUS
 62
    30
 10
0.0
 20
-204.352509
 30
0.0
 11
0.0
 21
-543.74268300000006
 31
0.0
  0
LINE
  5
82
  8
SIZE
  6
CONTINUOUS
 62
    30
 10
-360.0
 20
-263.0
 30
0.0
 11
-360.0
 21
-543.74268300000006
 31
0.0
  0
LINE
  5
83
  8
SIZE
  6
CONTINUOUS
 62
    30
 10
-12.0
 20
-523.74268300000006
 30
0.0
 11
-348.0
 21
-523.74268300000006
 31
0.0
  0
LINE
  5
84
  8
SIZE
  6
CONTINUOUS
 62
    30
 10
-630.56634599999995
 20
-523.74268300000006
 30
0.0
 11
-360.0
 21
-523.74268300000006
 31
0.0
  0
TEXT
  5
85
  8
SIZE
  6
CONTINUOUS
 62
    30
 10
-605.56634585714278
 20
-498.742683
 30
0.0
 40
64.0
  1
360
 41
0.9
 72
     1
 11
-531.50920299999996
 21
-498.742683
 31
0.0
  0
CIRCLE
  5
86
  8
SIZE
  6
CONTINUOUS
 62
    30
 10
0.0
 20
-523.74268300000006
 30
0.0
 40
6.0
  0
LINE
  5
87
  8
SIZE
  6
CONTINUOUS
 62
    30
 10
0.0
 20
-523.74268300000006
 30
0.0
 11
-12.0
 21
-523.74268300000006
 31
0.0
  0
CIRCLE
  5
88
  8
SIZE
  6
CONTINUOUS
 62
    30
 10
-360.0
 20
-523.74268300000006
 30
0.0
 40
6.0
  0
LINE
  5
89
  8
SIZE
  6
CONTINUOUS
 62
    30
 10
-360.0
 20
-523.74268300000006
 30
0.0
 11
-348.0
 21
-523.74268300000006
 31
0.0
  0
TEXT
  5
8D
  8
NOTE
  6
CONTINUOUS
 62
     4
 10
-681.22075499999994
 20
-647.36226199999999
 30
0.0
 40
64.0
  1
左側壁より360以上
 41
0.9
  0
TEXT
  5
8E
  8
NOTE
  6
CONTINUOUS
 62
     4
 10
61.39732399999999
 20
-647.47815800000001
 30
0.0
 40
64.0
  1
右側壁より360以上
 41
0.9
  0
LINE
  5
8F
  8
SERVICESPACE
  6
DASHDOT
 62
     2
 10
-360.0
 20
203.0
 30
0.0
 11
360.0
 21
203.0
 31
0.0
  0
LINE
  5
90
  8
SERVICESPACE
  6
DASHDOT
 62
     2
 10
-360.0
 20
-243.0
 30
0.0
 11
-360.0
 21
203.0
 31
0.0
  0
LINE
  5
91
  8
SERVICESPACE
  6
DASHDOT
 62
     2
 10
-360.0
 20
-243.0
 30
0.0
 11
360.0
 21
-243.0
 31
0.0
  0
LINE
  5
92
  8
SERVICESPACE
  6
DASHDOT
 62
     2
 10
360.0
 20
-243.0
 30
0.0
 11
360.0
 21
203.0
 31
0.0
  0
LINE
  5
93
  8
DETAIL
  6
CONTINUOUS
 62
     5
 10
-296.01918699999999
 20
142.5
 30
0.0
 11
296.01918699999999
 21
142.5
 31
0.0
  0
LINE
  5
94
  8
DETAIL
  6
CONTINUOUS
 62
     5
 10
292.48166099999992
 20
138.96247500000001
 30
0.0
 11
-292.48166099999992
 21
138.96247500000001
 31
0.0
  0
LINE
  5
95
  8
DETAIL
  6
CONTINUOUS
 62
     5
 10
296.01918699999999
 20
-142.5
 30
0.0
 11
-296.01918699999999
 21
-142.5
 31
0.0
  0
LINE
  5
96
  8
DETAIL
  6
CONTINUOUS
 62
     5
 10
-310.0
 20
-128.51918699999999
 30
0.0
 11
-310.0
 21
128.51918699999999
 31
0.0
  0
LINE
  5
97
  8
DETAIL
  6
CONTINUOUS
 62
     5
 10
-306.46247499999998
 20
124.981661
 30
0.0
 11
-306.46247499999998
 21
-124.981661
 31
0.0
  0
LINE
  5
98
  8
DETAIL
  6
CONTINUOUS
 62
     5
 10
-296.01918699999999
 20
-142.5
 30
0.0
 11
-297.31141400000001
 21
-142.44030099999989
 31
0.0
  0
LINE
  5
99
  8
DETAIL
  6
CONTINUOUS
 62
     5
 10
-297.31141400000001
 20
-142.44030099999989
 30
0.0
 11
-298.59223500000002
 21
-142.26172800000001
 31
0.0
  0
LINE
  5
9A
  8
DETAIL
  6
CONTINUOUS
 62
     5
 10
-298.59223500000002
 20
-142.26172800000001
 30
0.0
 11
-299.84981299999993
 21
-141.96608699999999
 31
0.0
  0
LINE
  5
9B
  8
DETAIL
  6
CONTINUOUS
 62
     5
 10
-299.84981299999993
 20
-141.96608699999999
 30
0.0
 11
-301.07504699999998
 21
-141.55558199999999
 31
0.0
  0
LINE
  5
9C
  8
DETAIL
  6
CONTINUOUS
 62
     5
 10
-301.07504699999998
 20
-141.55558199999999
 30
0.0
 11
-302.25563999999991
 21
-141.03445600000001
 31
0.0
  0
LINE
  5
9D
  8
DETAIL
  6
CONTINUOUS
 62
     5
 10
-302.25563999999991
 20
-141.03445600000001
 30
0.0
 11
-303.38389000000001
 21
-140.406161
 31
0.0
  0
LINE
  5
9E
  8
DETAIL
  6
CONTINUOUS
 62
     5
 10
-303.38389000000001
 20
-140.406161
 30
0.0
 11
-304.44784700000002
 21
-139.6774429999999
 31
0.0
  0
LINE
  5
9F
  8
DETAIL
  6
CONTINUOUS
 62
     5
 10
-304.44784700000002
 20
-139.6774429999999
 30
0.0
 11
-305.44107999999989
 21
-138.852732
 31
0.0
  0
LINE
  5
A0
  8
DETAIL
  6
CONTINUOUS
 62
     5
 10
-305.44107999999989
 20
-138.852732
 30
0.0
 11
-306.35273199999989
 21
-137.94108
 31
0.0
  0
LINE
  5
A1
  8
DETAIL
  6
CONTINUOUS
 62
     5
 10
-306.35273199999989
 20
-137.94108
 30
0.0
 11
-307.17744299999998
 21
-136.947847
 31
0.0
  0
LINE
  5
A2
  8
DETAIL
  6
CONTINUOUS
 62
     5
 10
-307.17744299999998
 20
-136.947847
 30
0.0
 11
-307.906161
 21
-135.88388999999989
 31
0.0
  0
LINE
  5
A3
  8
DETAIL
  6
CONTINUOUS
 62
     5
 10
-307.906161
 20
-135.88388999999989
 30
0.0
 11
-308.53445599999992
 21
-134.75563999999989
 31
0.0
  0
LINE
  5
A4
  8
DETAIL
  6
CONTINUOUS
 62
     5
 10
-308.53445599999992
 20
-134.75563999999989
 30
0.0
 11
-309.0555819999999
 21
-133.5750469999999
 31
0.0
  0
LINE
  5
A5
  8
DETAIL
  6
CONTINUOUS
 62
     5
 10
-309.0555819999999
 20
-133.5750469999999
 30
0.0
 11
-309.46608700000002
 21
-132.3498129999999
 31
0.0
  0
LINE
  5
A6
  8
DETAIL
  6
CONTINUOUS
 62
     5
 10
-309.46608700000002
 20
-132.3498129999999
 30
0.0
 11
-309.76172800000001
 21
-131.09223499999999
 31
0.0
  0
LINE
  5
A7
  8
DETAIL
  6
CONTINUOUS
 62
     5
 10
-309.76172800000001
 20
-131.09223499999999
 30
0.0
 11
-309.94030099999992
 21
-129.8114139999999
 31
0.0
  0
LINE
  5
A8
  8
DETAIL
  6
CONTINUOUS
 62
     5
 10
-309.94030099999992
 20
-129.8114139999999
 30
0.0
 11
-310.0
 21
-128.51918699999999
 31
0.0
  0
LINE
  5
A9
  8
DETAIL
  6
CONTINUOUS
 62
     5
 10
-292.48166099999992
 20
-138.96247500000001
 30
0.0
 11
-293.77396599999997
 21
-138.90276900000001
 31
0.0
  0
LINE
  5
AA
  8
DETAIL
  6
CONTINUOUS
 62
     5
 10
-293.77396599999997
 20
-138.90276900000001
 30
0.0
 11
-295.05454400000002
 21
-138.724234
 31
0.0
  0
LINE
  5
AB
  8
DETAIL
  6
CONTINUOUS
 62
     5
 10
-295.05454400000002
 20
-138.724234
 30
0.0
 11
-296.31253099999992
 21
-138.42849299999989
 31
0.0
  0
LINE
  5
AC
  8
DETAIL
  6
CONTINUOUS
 62
     5
 10
-296.31253099999992
 20
-138.42849299999989
 30
0.0
 11
-297.53727900000001
 21
-138.01814999999991
 31
0.0
  0
LINE
  5
AD
  8
DETAIL
  6
CONTINUOUS
 62
     5
 10
-297.53727900000001
 20
-138.01814999999991
 30
0.0
 11
-298.71844599999991
 21
-137.49676599999989
 31
0.0
  0
LINE
  5
AE
  8
DETAIL
  6
CONTINUOUS
 62
     5
 10
-298.71844599999991
 20
-137.49676599999989
 30
0.0
 11
-299.84607299999999
 21
-136.86881699999989
 31
0.0
  0
LINE
  5
AF
  8
DETAIL
  6
CONTINUOUS
 62
     5
 10
-299.84607299999999
 20
-136.86881699999989
 30
0.0
 11
-300.910662
 21
-136.13965999999999
 31
0.0
  0
LINE
  5
B0
  8
DETAIL
  6
CONTINUOUS
 62
     5
 10
-300.910662
 20
-136.13965999999999
 30
0.0
 11
-301.90325300000001
 21
-135.315482
 31
0.0
  0
LINE
  5
B1
  8
DETAIL
  6
CONTINUOUS
 62
     5
 10
-301.90325300000001
 20
-135.315482
 30
0.0
 11
-302.81548500000002
 21
-134.40325000000001
 31
0.0
  0
LINE
  5
B2
  8
DETAIL
  6
CONTINUOUS
 62
     5
 10
-302.81548500000002
 20
-134.40325000000001
 30
0.0
 11
-303.63966299999998
 21
-133.41065900000001
 31
0.0
  0
LINE
  5
B3
  8
DETAIL
  6
CONTINUOUS
 62
     5
 10
-303.63966299999998
 20
-133.41065900000001
 30
0.0
 11
-304.36881899999992
 21
-132.34607
 31
0.0
  0
LINE
  5
B4
  8
DETAIL
  6
CONTINUOUS
 62
     5
 10
-304.36881899999992
 20
-132.34607
 30
0.0
 11
-304.99676699999998
 21
-131.21844400000001
 31
0.0
  0
LINE
  5
B5
  8
DETAIL
  6
CONTINUOUS
 62
     5
 10
-304.99676699999998
 20
-131.21844400000001
 30
0.0
 11
-305.51815099999999
 21
-130.0372769999999
 31
0.0
  0
LINE
  5
B6
  8
DETAIL
  6
CONTINUOUS
 62
     5
 10
-305.51815099999999
 20
-130.0372769999999
 30
0.0
 11
-305.928493
 21
-128.81253000000001
 31
0.0
  0
LINE
  5
B7
  8
DETAIL
  6
CONTINUOUS
 62
     5
 10
-305.928493
 20
-128.81253000000001
 30
0.0
 11
-306.22423399999991
 21
-127.55454399999989
 31
0.0
  0
LINE
  5
B8
  8
DETAIL
  6
CONTINUOUS
 62
     5
 10
-306.22423399999991
 20
-127.55454399999989
 30
0.0
 11
-306.40276899999992
 21
-126.2739659999999
 31
0.0
  0
LINE
  5
B9
  8
DETAIL
  6
CONTINUOUS
 62
     5
 10
-306.40276899999992
 20
-126.2739659999999
 30
0.0
 11
-306.46247499999998
 21
-124.981661
 31
0.0
  0
LINE
  5
BA
  8
DETAIL
  6
CONTINUOUS
 62
     5
 10
-310.0
 20
128.51918699999999
 30
0.0
 11
-309.94030099999992
 21
129.8114139999999
 31
0.0
  0
LINE
  5
BB
  8
DETAIL
  6
CONTINUOUS
 62
     5
 10
-309.94030099999992
 20
129.8114139999999
 30
0.0
 11
-309.76172800000001
 21
131.09223499999999
 31
0.0
  0
LINE
  5
BC
  8
DETAIL
  6
CONTINUOUS
 62
     5
 10
-309.76172800000001
 20
131.09223499999999
 30
0.0
 11
-309.46608700000002
 21
132.3498129999999
 31
0.0
  0
LINE
  5
BD
  8
DETAIL
  6
CONTINUOUS
 62
     5
 10
-309.46608700000002
 20
132.3498129999999
 30
0.0
 11
-309.0555819999999
 21
133.5750469999999
 31
0.0
  0
LINE
  5
BE
  8
DETAIL
  6
CONTINUOUS
 62
     5
 10
-309.0555819999999
 20
133.5750469999999
 30
0.0
 11
-308.53445599999992
 21
134.75563999999989
 31
0.0
  0
LINE
  5
BF
  8
DETAIL
  6
CONTINUOUS
 62
     5
 10
-308.53445599999992
 20
134.75563999999989
 30
0.0
 11
-307.906161
 21
135.88388999999989
 31
0.0
  0
LINE
  5
C0
  8
DETAIL
  6
CONTINUOUS
 62
     5
 10
-307.906161
 20
135.88388999999989
 30
0.0
 11
-307.17744299999998
 21
136.947847
 31
0.0
  0
LINE
  5
C1
  8
DETAIL
  6
CONTINUOUS
 62
     5
 10
-307.17744299999998
 20
136.947847
 30
0.0
 11
-306.35273199999989
 21
137.94108
 31
0.0
  0
LINE
  5
C2
  8
DETAIL
  6
CONTINUOUS
 62
     5
 10
-306.35273199999989
 20
137.94108
 30
0.0
 11
-305.44107999999989
 21
138.852732
 31
0.0
  0
LINE
  5
C3
  8
DETAIL
  6
CONTINUOUS
 62
     5
 10
-305.44107999999989
 20
138.852732
 30
0.0
 11
-304.44784700000002
 21
139.6774429999999
 31
0.0
  0
LINE
  5
C4
  8
DETAIL
  6
CONTINUOUS
 62
     5
 10
-304.44784700000002
 20
139.6774429999999
 30
0.0
 11
-303.38389000000001
 21
140.406161
 31
0.0
  0
LINE
  5
C5
  8
DETAIL
  6
CONTINUOUS
 62
     5
 10
-303.38389000000001
 20
140.406161
 30
0.0
 11
-302.25563999999991
 21
141.03445600000001
 31
0.0
  0
LINE
  5
C6
  8
DETAIL
  6
CONTINUOUS
 62
     5
 10
-302.25563999999991
 20
141.03445600000001
 30
0.0
 11
-301.07504699999998
 21
141.55558199999999
 31
0.0
  0
LINE
  5
C7
  8
DETAIL
  6
CONTINUOUS
 62
     5
 10
-301.07504699999998
 20
141.55558199999999
 30
0.0
 11
-299.84981299999993
 21
141.96608699999999
 31
0.0
  0
LINE
  5
C8
  8
DETAIL
  6
CONTINUOUS
 62
     5
 10
-299.84981299999993
 20
141.96608699999999
 30
0.0
 11
-298.59223500000002
 21
142.26172800000001
 31
0.0
  0
LINE
  5
C9
  8
DETAIL
  6
CONTINUOUS
 62
     5
 10
-298.59223500000002
 20
142.26172800000001
 30
0.0
 11
-297.31141400000001
 21
142.44030099999989
 31
0.0
  0
LINE
  5
CA
  8
DETAIL
  6
CONTINUOUS
 62
     5
 10
-297.31141400000001
 20
142.44030099999989
 30
0.0
 11
-296.01918699999999
 21
142.5
 31
0.0
  0
LINE
  5
CB
  8
DETAIL
  6
CONTINUOUS
 62
     5
 10
-306.46247499999998
 20
124.981661
 30
0.0
 11
-306.40276899999992
 21
126.2739659999999
 31
0.0
  0
LINE
  5
CC
  8
DETAIL
  6
CONTINUOUS
 62
     5
 10
-306.40276899999992
 20
126.2739659999999
 30
0.0
 11
-306.22423399999991
 21
127.55454399999989
 31
0.0
  0
LINE
  5
CD
  8
DETAIL
  6
CONTINUOUS
 62
     5
 10
-306.22423399999991
 20
127.55454399999989
 30
0.0
 11
-305.928493
 21
128.81253100000001
 31
0.0
  0
LINE
  5
CE
  8
DETAIL
  6
CONTINUOUS
 62
     5
 10
-305.928493
 20
128.81253100000001
 30
0.0
 11
-305.51814999999988
 21
130.03727900000001
 31
0.0
  0
LINE
  5
CF
  8
DETAIL
  6
CONTINUOUS
 62
     5
 10
-305.51814999999988
 20
130.03727900000001
 30
0.0
 11
-304.99676599999998
 21
131.218446
 31
0.0
  0
LINE
  5
D0
  8
DETAIL
  6
CONTINUOUS
 62
     5
 10
-304.99676599999998
 20
131.218446
 30
0.0
 11
-304.36881699999992
 21
132.3460729999999
 31
0.0
  0
LINE
  5
D1
  8
DETAIL
  6
CONTINUOUS
 62
     5
 10
-304.36881699999992
 20
132.3460729999999
 30
0.0
 11
-303.63965999999988
 21
133.410662
 31
0.0
  0
LINE
  5
D2
  8
DETAIL
  6
CONTINUOUS
 62
     5
 10
-303.63965999999988
 20
133.410662
 30
0.0
 11
-302.81548199999992
 21
134.40325300000001
 31
0.0
  0
LINE
  5
D3
  8
DETAIL
  6
CONTINUOUS
 62
     5
 10
-302.81548199999992
 20
134.40325300000001
 30
0.0
 11
-301.90325000000001
 21
135.31548499999991
 31
0.0
  0
LINE
  5
D4
  8
DETAIL
  6
CONTINUOUS
 62
     5
 10
-301.90325000000001
 20
135.31548499999991
 30
0.0
 11
-300.91065900000001
 21
136.1396629999999
 31
0.0
  0
LINE
  5
D5
  8
DETAIL
  6
CONTINUOUS
 62
     5
 10
-300.91065900000001
 20
136.1396629999999
 30
0.0
 11
-299.84606999999988
 21
136.868819
 31
0.0
  0
LINE
  5
D6
  8
DETAIL
  6
CONTINUOUS
 62
     5
 10
-299.84606999999988
 20
136.868819
 30
0.0
 11
-298.71844399999998
 21
137.49676699999989
 31
0.0
  0
LINE
  5
D7
  8
DETAIL
  6
CONTINUOUS
 62
     5
 10
-298.71844399999998
 20
137.49676699999989
 30
0.0
 11
-297.53727700000002
 21
138.0181509999999
 31
0.0
  0
LINE
  5
D8
  8
DETAIL
  6
CONTINUOUS
 62
     5
 10
-297.53727700000002
 20
138.0181509999999
 30
0.0
 11
-296.31252999999992
 21
138.42849299999989
 31
0.0
  0
LINE
  5
D9
  8
DETAIL
  6
CONTINUOUS
 62
     5
 10
-296.31252999999992
 20
138.42849299999989
 30
0.0
 11
-295.05454400000002
 21
138.724234
 31
0.0
  0
LINE
  5
DA
  8
DETAIL
  6
CONTINUOUS
 62
     5
 10
-295.05454400000002
 20
138.724234
 30
0.0
 11
-293.77396599999997
 21
138.90276900000001
 31
0.0
  0
LINE
  5
DB
  8
DETAIL
  6
CONTINUOUS
 62
     5
 10
-293.77396599999997
 20
138.90276900000001
 30
0.0
 11
-292.48166099999992
 21
138.96247500000001
 31
0.0
  0
LINE
  5
DC
  8
DETAIL
  6
CONTINUOUS
 62
     5
 10
310.0
 20
128.51918699999999
 30
0.0
 11
310.0
 21
-128.51918699999999
 31
0.0
  0
LINE
  5
DD
  8
DETAIL
  6
CONTINUOUS
 62
     5
 10
306.46247499999998
 20
-124.981661
 30
0.0
 11
306.46247499999998
 21
124.981661
 31
0.0
  0
LINE
  5
DE
  8
DETAIL
  6
CONTINUOUS
 62
     5
 10
-292.48166099999992
 20
-138.96247500000001
 30
0.0
 11
-66.0
 21
-138.96247500000001
 31
0.0
  0
LINE
  5
DF
  8
DETAIL
  6
CONTINUOUS
 62
     5
 10
310.0
 20
-128.51918699999999
 30
0.0
 11
309.94030099999992
 21
-129.8114139999999
 31
0.0
  0
LINE
  5
E0
  8
DETAIL
  6
CONTINUOUS
 62
     5
 10
309.94030099999992
 20
-129.8114139999999
 30
0.0
 11
309.76172800000001
 21
-131.09223499999999
 31
0.0
  0
LINE
  5
E1
  8
DETAIL
  6
CONTINUOUS
 62
     5
 10
309.76172800000001
 20
-131.09223499999999
 30
0.0
 11
309.46608700000002
 21
-132.3498129999999
 31
0.0
  0
LINE
  5
E2
  8
DETAIL
  6
CONTINUOUS
 62
     5
 10
309.46608700000002
 20
-132.3498129999999
 30
0.0
 11
309.0555819999999
 21
-133.5750469999999
 31
0.0
  0
LINE
  5
E3
  8
DETAIL
  6
CONTINUOUS
 62
     5
 10
309.0555819999999
 20
-133.5750469999999
 30
0.0
 11
308.53445599999992
 21
-134.75563999999989
 31
0.0
  0
LINE
  5
E4
  8
DETAIL
  6
CONTINUOUS
 62
     5
 10
308.53445599999992
 20
-134.75563999999989
 30
0.0
 11
307.906161
 21
-135.88388999999989
 31
0.0
  0
LINE
  5
E5
  8
DETAIL
  6
CONTINUOUS
 62
     5
 10
307.906161
 20
-135.88388999999989
 30
0.0
 11
307.17744299999998
 21
-136.947847
 31
0.0
  0
LINE
  5
E6
  8
DETAIL
  6
CONTINUOUS
 62
     5
 10
307.17744299999998
 20
-136.947847
 30
0.0
 11
306.35273199999989
 21
-137.94108
 31
0.0
  0
LINE
  5
E7
  8
DETAIL
  6
CONTINUOUS
 62
     5
 10
306.35273199999989
 20
-137.94108
 30
0.0
 11
305.44107999999989
 21
-138.852732
 31
0.0
  0
LINE
  5
E8
  8
DETAIL
  6
CONTINUOUS
 62
     5
 10
305.44107999999989
 20
-138.852732
 30
0.0
 11
304.44784700000002
 21
-139.6774429999999
 31
0.0
  0
LINE
  5
E9
  8
DETAIL
  6
CONTINUOUS
 62
     5
 10
304.44784700000002
 20
-139.6774429999999
 30
0.0
 11
303.38389000000001
 21
-140.406161
 31
0.0
  0
LINE
  5
EA
  8
DETAIL
  6
CONTINUOUS
 62
     5
 10
303.38389000000001
 20
-140.406161
 30
0.0
 11
302.25563999999991
 21
-141.03445600000001
 31
0.0
  0
LINE
  5
EB
  8
DETAIL
  6
CONTINUOUS
 62
     5
 10
302.25563999999991
 20
-141.03445600000001
 30
0.0
 11
301.07504699999998
 21
-141.55558199999999
 31
0.0
  0
LINE
  5
EC
  8
DETAIL
  6
CONTINUOUS
 62
     5
 10
301.07504699999998
 20
-141.55558199999999
 30
0.0
 11
299.84981299999993
 21
-141.96608699999999
 31
0.0
  0
LINE
  5
ED
  8
DETAIL
  6
CONTINUOUS
 62
     5
 10
299.84981299999993
 20
-141.96608699999999
 30
0.0
 11
298.59223500000002
 21
-142.26172800000001
 31
0.0
  0
LINE
  5
EE
  8
DETAIL
  6
CONTINUOUS
 62
     5
 10
298.59223500000002
 20
-142.26172800000001
 30
0.0
 11
297.31141400000001
 21
-142.44030099999989
 31
0.0
  0
LINE
  5
EF
  8
DETAIL
  6
CONTINUOUS
 62
     5
 10
297.31141400000001
 20
-142.44030099999989
 30
0.0
 11
296.01918699999999
 21
-142.5
 31
0.0
  0
LINE
  5
F0
  8
DETAIL
  6
CONTINUOUS
 62
     5
 10
292.48166099999992
 20
-138.96247500000001
 30
0.0
 11
293.77396599999997
 21
-138.90276900000001
 31
0.0
  0
LINE
  5
F1
  8
DETAIL
  6
CONTINUOUS
 62
     5
 10
293.77396599999997
 20
-138.90276900000001
 30
0.0
 11
295.05454400000002
 21
-138.724234
 31
0.0
  0
LINE
  5
F2
  8
DETAIL
  6
CONTINUOUS
 62
     5
 10
295.05454400000002
 20
-138.724234
 30
0.0
 11
296.31253099999992
 21
-138.42849299999989
 31
0.0
  0
LINE
  5
F3
  8
DETAIL
  6
CONTINUOUS
 62
     5
 10
296.31253099999992
 20
-138.42849299999989
 30
0.0
 11
297.53727900000001
 21
-138.01814999999991
 31
0.0
  0
LINE
  5
F4
  8
DETAIL
  6
CONTINUOUS
 62
     5
 10
297.53727900000001
 20
-138.01814999999991
 30
0.0
 11
298.71844599999991
 21
-137.49676599999989
 31
0.0
  0
LINE
  5
F5
  8
DETAIL
  6
CONTINUOUS
 62
     5
 10
298.71844599999991
 20
-137.49676599999989
 30
0.0
 11
299.84607299999999
 21
-136.86881699999989
 31
0.0
  0
LINE
  5
F6
  8
DETAIL
  6
CONTINUOUS
 62
     5
 10
299.84607299999999
 20
-136.86881699999989
 30
0.0
 11
300.910662
 21
-136.13965999999999
 31
0.0
  0
LINE
  5
F7
  8
DETAIL
  6
CONTINUOUS
 62
     5
 10
300.910662
 20
-136.13965999999999
 30
0.0
 11
301.90325300000001
 21
-135.315482
 31
0.0
  0
LINE
  5
F8
  8
DETAIL
  6
CONTINUOUS
 62
     5
 10
301.90325300000001
 20
-135.315482
 30
0.0
 11
302.81548500000002
 21
-134.40325000000001
 31
0.0
  0
LINE
  5
F9
  8
DETAIL
  6
CONTINUOUS
 62
     5
 10
302.81548500000002
 20
-134.40325000000001
 30
0.0
 11
303.63966299999998
 21
-133.41065900000001
 31
0.0
  0
LINE
  5
FA
  8
DETAIL
  6
CONTINUOUS
 62
     5
 10
303.63966299999998
 20
-133.41065900000001
 30
0.0
 11
304.36881899999992
 21
-132.34607
 31
0.0
  0
LINE
  5
FB
  8
DETAIL
  6
CONTINUOUS
 62
     5
 10
304.36881899999992
 20
-132.34607
 30
0.0
 11
304.99676699999998
 21
-131.21844400000001
 31
0.0
  0
LINE
  5
FC
  8
DETAIL
  6
CONTINUOUS
 62
     5
 10
304.99676699999998
 20
-131.21844400000001
 30
0.0
 11
305.51815099999999
 21
-130.0372769999999
 31
0.0
  0
LINE
  5
FD
  8
DETAIL
  6
CONTINUOUS
 62
     5
 10
305.51815099999999
 20
-130.0372769999999
 30
0.0
 11
305.928493
 21
-128.81253000000001
 31
0.0
  0
LINE
  5
FE
  8
DETAIL
  6
CONTINUOUS
 62
     5
 10
305.928493
 20
-128.81253000000001
 30
0.0
 11
306.22423399999991
 21
-127.55454399999989
 31
0.0
  0
LINE
  5
FF
  8
DETAIL
  6
CONTINUOUS
 62
     5
 10
306.22423399999991
 20
-127.55454399999989
 30
0.0
 11
306.40276899999992
 21
-126.2739659999999
 31
0.0
  0
LINE
  5
100
  8
DETAIL
  6
CONTINUOUS
 62
     5
 10
306.40276899999992
 20
-126.2739659999999
 30
0.0
 11
306.46247499999998
 21
-124.981661
 31
0.0
  0
LINE
  5
101
  8
DETAIL
  6
CONTINUOUS
 62
     5
 10
296.01918699999999
 20
142.5
 30
0.0
 11
297.31141400000001
 21
142.44030099999989
 31
0.0
  0
LINE
  5
102
  8
DETAIL
  6
CONTINUOUS
 62
     5
 10
297.31141400000001
 20
142.44030099999989
 30
0.0
 11
298.59223500000002
 21
142.26172800000001
 31
0.0
  0
LINE
  5
103
  8
DETAIL
  6
CONTINUOUS
 62
     5
 10
298.59223500000002
 20
142.26172800000001
 30
0.0
 11
299.84981299999993
 21
141.96608699999999
 31
0.0
  0
LINE
  5
104
  8
DETAIL
  6
CONTINUOUS
 62
     5
 10
299.84981299999993
 20
141.96608699999999
 30
0.0
 11
301.07504699999998
 21
141.55558199999999
 31
0.0
  0
LINE
  5
105
  8
DETAIL
  6
CONTINUOUS
 62
     5
 10
301.07504699999998
 20
141.55558199999999
 30
0.0
 11
302.25563999999991
 21
141.03445600000001
 31
0.0
  0
LINE
  5
106
  8
DETAIL
  6
CONTINUOUS
 62
     5
 10
302.25563999999991
 20
141.03445600000001
 30
0.0
 11
303.38389000000001
 21
140.406161
 31
0.0
  0
LINE
  5
107
  8
DETAIL
  6
CONTINUOUS
 62
     5
 10
303.38389000000001
 20
140.406161
 30
0.0
 11
304.44784700000002
 21
139.6774429999999
 31
0.0
  0
LINE
  5
108
  8
DETAIL
  6
CONTINUOUS
 62
     5
 10
304.44784700000002
 20
139.6774429999999
 30
0.0
 11
305.44107999999989
 21
138.852732
 31
0.0
  0
LINE
  5
109
  8
DETAIL
  6
CONTINUOUS
 62
     5
 10
305.44107999999989
 20
138.852732
 30
0.0
 11
306.35273199999989
 21
137.94108
 31
0.0
  0
LINE
  5
10A
  8
DETAIL
  6
CONTINUOUS
 62
     5
 10
306.35273199999989
 20
137.94108
 30
0.0
 11
307.17744299999998
 21
136.947847
 31
0.0
  0
LINE
  5
10B
  8
DETAIL
  6
CONTINUOUS
 62
     5
 10
307.17744299999998
 20
136.947847
 30
0.0
 11
307.906161
 21
135.88388999999989
 31
0.0
  0
LINE
  5
10C
  8
DETAIL
  6
CONTINUOUS
 62
     5
 10
307.906161
 20
135.88388999999989
 30
0.0
 11
308.53445599999992
 21
134.75563999999989
 31
0.0
  0
LINE
  5
10D
  8
DETAIL
  6
CONTINUOUS
 62
     5
 10
308.53445599999992
 20
134.75563999999989
 30
0.0
 11
309.0555819999999
 21
133.5750469999999
 31
0.0
  0
LINE
  5
10E
  8
DETAIL
  6
CONTINUOUS
 62
     5
 10
309.0555819999999
 20
133.5750469999999
 30
0.0
 11
309.46608700000002
 21
132.3498129999999
 31
0.0
  0
LINE
  5
10F
  8
DETAIL
  6
CONTINUOUS
 62
     5
 10
309.46608700000002
 20
132.3498129999999
 30
0.0
 11
309.76172800000001
 21
131.09223499999999
 31
0.0
  0
LINE
  5
110
  8
DETAIL
  6
CONTINUOUS
 62
     5
 10
309.76172800000001
 20
131.09223499999999
 30
0.0
 11
309.94030099999992
 21
129.8114139999999
 31
0.0
  0
LINE
  5
111
  8
DETAIL
  6
CONTINUOUS
 62
     5
 10
309.94030099999992
 20
129.8114139999999
 30
0.0
 11
310.0
 21
128.51918699999999
 31
0.0
  0
LINE
  5
112
  8
DETAIL
  6
CONTINUOUS
 62
     5
 10
292.48166099999992
 20
138.96247500000001
 30
0.0
 11
293.77396599999997
 21
138.90276900000001
 31
0.0
  0
LINE
  5
113
  8
DETAIL
  6
CONTINUOUS
 62
     5
 10
293.77396599999997
 20
138.90276900000001
 30
0.0
 11
295.05454400000002
 21
138.724234
 31
0.0
  0
LINE
  5
114
  8
DETAIL
  6
CONTINUOUS
 62
     5
 10
295.05454400000002
 20
138.724234
 30
0.0
 11
296.31253099999992
 21
138.42849299999989
 31
0.0
  0
LINE
  5
115
  8
DETAIL
  6
CONTINUOUS
 62
     5
 10
296.31253099999992
 20
138.42849299999989
 30
0.0
 11
297.53727900000001
 21
138.01814999999991
 31
0.0
  0
LINE
  5
116
  8
DETAIL
  6
CONTINUOUS
 62
     5
 10
297.53727900000001
 20
138.01814999999991
 30
0.0
 11
298.71844599999991
 21
137.49676599999989
 31
0.0
  0
LINE
  5
117
  8
DETAIL
  6
CONTINUOUS
 62
     5
 10
298.71844599999991
 20
137.49676599999989
 30
0.0
 11
299.84607299999999
 21
136.86881699999989
 31
0.0
  0
LINE
  5
118
  8
DETAIL
  6
CONTINUOUS
 62
     5
 10
299.84607299999999
 20
136.86881699999989
 30
0.0
 11
300.910662
 21
136.13965999999999
 31
0.0
  0
LINE
  5
119
  8
DETAIL
  6
CONTINUOUS
 62
     5
 10
300.910662
 20
136.13965999999999
 30
0.0
 11
301.90325300000001
 21
135.315482
 31
0.0
  0
LINE
  5
11A
  8
DETAIL
  6
CONTINUOUS
 62
     5
 10
301.90325300000001
 20
135.315482
 30
0.0
 11
302.81548500000002
 21
134.40325000000001
 31
0.0
  0
LINE
  5
11B
  8
DETAIL
  6
CONTINUOUS
 62
     5
 10
302.81548500000002
 20
134.40325000000001
 30
0.0
 11
303.63966299999998
 21
133.41065900000001
 31
0.0
  0
LINE
  5
11C
  8
DETAIL
  6
CONTINUOUS
 62
     5
 10
303.63966299999998
 20
133.41065900000001
 30
0.0
 11
304.36881899999992
 21
132.34607
 31
0.0
  0
LINE
  5
11D
  8
DETAIL
  6
CONTINUOUS
 62
     5
 10
304.36881899999992
 20
132.34607
 30
0.0
 11
304.99676699999998
 21
131.21844400000001
 31
0.0
  0
LINE
  5
11E
  8
DETAIL
  6
CONTINUOUS
 62
     5
 10
304.99676699999998
 20
131.21844400000001
 30
0.0
 11
305.51815099999999
 21
130.0372769999999
 31
0.0
  0
LINE
  5
11F
  8
DETAIL
  6
CONTINUOUS
 62
     5
 10
305.51815099999999
 20
130.0372769999999
 30
0.0
 11
305.928493
 21
128.81253000000001
 31
0.0
  0
LINE
  5
120
  8
DETAIL
  6
CONTINUOUS
 62
     5
 10
305.928493
 20
128.81253000000001
 30
0.0
 11
306.22423399999991
 21
127.55454399999989
 31
0.0
  0
LINE
  5
121
  8
DETAIL
  6
CONTINUOUS
 62
     5
 10
306.22423399999991
 20
127.55454399999989
 30
0.0
 11
306.40276899999992
 21
126.2739659999999
 31
0.0
  0
LINE
  5
122
  8
DETAIL
  6
CONTINUOUS
 62
     5
 10
306.40276899999992
 20
126.2739659999999
 30
0.0
 11
306.46247499999998
 21
124.981661
 31
0.0
  0
LINE
  5
123
  8
OUTLINE
  6
CONTINUOUS
 62
     3
 10
296.01918699999999
 20
-142.5
 30
0.0
 11
-296.01918699999999
 21
-142.5
 31
0.0
  0
LINE
  5
124
  8
OUTLINE
  6
CONTINUOUS
 62
     3
 10
-296.01918699999999
 20
142.5
 30
0.0
 11
296.01918699999999
 21
142.5
 31
0.0
  0
LINE
  5
125
  8
OUTLINE
  6
CONTINUOUS
 62
     3
 10
-310.0
 20
-128.51918699999999
 30
0.0
 11
-310.0
 21
128.51918699999999
 31
0.0
  0
LINE
  5
126
  8
OUTLINE
  6
CONTINUOUS
 62
     3
 10
-309.94030099999992
 20
-129.8114139999999
 30
0.0
 11
-310.0
 21
-128.51918699999999
 31
0.0
  0
LINE
  5
127
  8
OUTLINE
  6
CONTINUOUS
 62
     3
 10
-309.76172800000001
 20
-131.09223499999999
 30
0.0
 11
-309.94030099999992
 21
-129.8114139999999
 31
0.0
  0
LINE
  5
128
  8
OUTLINE
  6
CONTINUOUS
 62
     3
 10
-309.46608700000002
 20
-132.3498129999999
 30
0.0
 11
-309.76172800000001
 21
-131.09223499999999
 31
0.0
  0
LINE
  5
129
  8
OUTLINE
  6
CONTINUOUS
 62
     3
 10
-309.0555819999999
 20
-133.5750469999999
 30
0.0
 11
-309.46608700000002
 21
-132.3498129999999
 31
0.0
  0
LINE
  5
12A
  8
OUTLINE
  6
CONTINUOUS
 62
     3
 10
-308.53445599999992
 20
-134.75563999999989
 30
0.0
 11
-309.0555819999999
 21
-133.5750469999999
 31
0.0
  0
LINE
  5
12B
  8
OUTLINE
  6
CONTINUOUS
 62
     3
 10
-307.906161
 20
-135.88388999999989
 30
0.0
 11
-308.53445599999992
 21
-134.75563999999989
 31
0.0
  0
LINE
  5
12C
  8
OUTLINE
  6
CONTINUOUS
 62
     3
 10
-307.17744299999998
 20
-136.947847
 30
0.0
 11
-307.906161
 21
-135.88388999999989
 31
0.0
  0
LINE
  5
12D
  8
OUTLINE
  6
CONTINUOUS
 62
     3
 10
-306.35273199999989
 20
-137.94108
 30
0.0
 11
-307.17744299999998
 21
-136.947847
 31
0.0
  0
LINE
  5
12E
  8
OUTLINE
  6
CONTINUOUS
 62
     3
 10
-305.44107999999989
 20
-138.852732
 30
0.0
 11
-306.35273199999989
 21
-137.94108
 31
0.0
  0
LINE
  5
12F
  8
OUTLINE
  6
CONTINUOUS
 62
     3
 10
-304.44784700000002
 20
-139.6774429999999
 30
0.0
 11
-305.44107999999989
 21
-138.852732
 31
0.0
  0
LINE
  5
130
  8
OUTLINE
  6
CONTINUOUS
 62
     3
 10
-303.38389000000001
 20
-140.406161
 30
0.0
 11
-304.44784700000002
 21
-139.6774429999999
 31
0.0
  0
LINE
  5
131
  8
OUTLINE
  6
CONTINUOUS
 62
     3
 10
-302.25563999999991
 20
-141.03445600000001
 30
0.0
 11
-303.38389000000001
 21
-140.406161
 31
0.0
  0
LINE
  5
132
  8
OUTLINE
  6
CONTINUOUS
 62
     3
 10
-301.07504699999998
 20
-141.55558199999999
 30
0.0
 11
-302.25563999999991
 21
-141.03445600000001
 31
0.0
  0
LINE
  5
133
  8
OUTLINE
  6
CONTINUOUS
 62
     3
 10
-299.84981299999993
 20
-141.96608699999999
 30
0.0
 11
-301.07504699999998
 21
-141.55558199999999
 31
0.0
  0
LINE
  5
134
  8
OUTLINE
  6
CONTINUOUS
 62
     3
 10
-298.59223500000002
 20
-142.26172800000001
 30
0.0
 11
-299.84981299999993
 21
-141.96608699999999
 31
0.0
  0
LINE
  5
135
  8
OUTLINE
  6
CONTINUOUS
 62
     3
 10
-297.31141400000001
 20
-142.44030099999989
 30
0.0
 11
-298.59223500000002
 21
-142.26172800000001
 31
0.0
  0
LINE
  5
136
  8
OUTLINE
  6
CONTINUOUS
 62
     3
 10
-296.01918699999999
 20
-142.5
 30
0.0
 11
-297.31141400000001
 21
-142.44030099999989
 31
0.0
  0
LINE
  5
137
  8
OUTLINE
  6
CONTINUOUS
 62
     3
 10
-297.31141400000001
 20
142.44030099999989
 30
0.0
 11
-296.01918699999999
 21
142.5
 31
0.0
  0
LINE
  5
138
  8
OUTLINE
  6
CONTINUOUS
 62
     3
 10
-298.59223500000002
 20
142.26172800000001
 30
0.0
 11
-297.31141400000001
 21
142.44030099999989
 31
0.0
  0
LINE
  5
139
  8
OUTLINE
  6
CONTINUOUS
 62
     3
 10
-299.84981299999993
 20
141.96608699999999
 30
0.0
 11
-298.59223500000002
 21
142.26172800000001
 31
0.0
  0
LINE
  5
13A
  8
OUTLINE
  6
CONTINUOUS
 62
     3
 10
-301.07504699999998
 20
141.55558199999999
 30
0.0
 11
-299.84981299999993
 21
141.96608699999999
 31
0.0
  0
LINE
  5
13B
  8
OUTLINE
  6
CONTINUOUS
 62
     3
 10
-302.25563999999991
 20
141.03445600000001
 30
0.0
 11
-301.07504699999998
 21
141.55558199999999
 31
0.0
  0
LINE
  5
13C
  8
OUTLINE
  6
CONTINUOUS
 62
     3
 10
-303.38389000000001
 20
140.406161
 30
0.0
 11
-302.25563999999991
 21
141.03445600000001
 31
0.0
  0
LINE
  5
13D
  8
OUTLINE
  6
CONTINUOUS
 62
     3
 10
-304.44784700000002
 20
139.6774429999999
 30
0.0
 11
-303.38389000000001
 21
140.406161
 31
0.0
  0
LINE
  5
13E
  8
OUTLINE
  6
CONTINUOUS
 62
     3
 10
-305.44107999999989
 20
138.852732
 30
0.0
 11
-304.44784700000002
 21
139.6774429999999
 31
0.0
  0
LINE
  5
13F
  8
OUTLINE
  6
CONTINUOUS
 62
     3
 10
-306.35273199999989
 20
137.94108
 30
0.0
 11
-305.44107999999989
 21
138.852732
 31
0.0
  0
LINE
  5
140
  8
OUTLINE
  6
CONTINUOUS
 62
     3
 10
-307.17744299999998
 20
136.947847
 30
0.0
 11
-306.35273199999989
 21
137.94108
 31
0.0
  0
LINE
  5
141
  8
OUTLINE
  6
CONTINUOUS
 62
     3
 10
-307.906161
 20
135.88388999999989
 30
0.0
 11
-307.17744299999998
 21
136.947847
 31
0.0
  0
LINE
  5
142
  8
OUTLINE
  6
CONTINUOUS
 62
     3
 10
-308.53445599999992
 20
134.75563999999989
 30
0.0
 11
-307.906161
 21
135.88388999999989
 31
0.0
  0
LINE
  5
143
  8
OUTLINE
  6
CONTINUOUS
 62
     3
 10
-309.0555819999999
 20
133.5750469999999
 30
0.0
 11
-308.53445599999992
 21
134.75563999999989
 31
0.0
  0
LINE
  5
144
  8
OUTLINE
  6
CONTINUOUS
 62
     3
 10
-309.46608700000002
 20
132.3498129999999
 30
0.0
 11
-309.0555819999999
 21
133.5750469999999
 31
0.0
  0
LINE
  5
145
  8
OUTLINE
  6
CONTINUOUS
 62
     3
 10
-309.76172800000001
 20
131.09223499999999
 30
0.0
 11
-309.46608700000002
 21
132.3498129999999
 31
0.0
  0
LINE
  5
146
  8
OUTLINE
  6
CONTINUOUS
 62
     3
 10
-309.94030099999992
 20
129.8114139999999
 30
0.0
 11
-309.76172800000001
 21
131.09223499999999
 31
0.0
  0
LINE
  5
147
  8
OUTLINE
  6
CONTINUOUS
 62
     3
 10
-310.0
 20
128.51918699999999
 30
0.0
 11
-309.94030099999992
 21
129.8114139999999
 31
0.0
  0
LINE
  5
148
  8
OUTLINE
  6
CONTINUOUS
 62
     3
 10
310.0
 20
128.51918699999999
 30
0.0
 11
310.0
 21
-128.51918699999999
 31
0.0
  0
LINE
  5
149
  8
OUTLINE
  6
CONTINUOUS
 62
     3
 10
309.0555819999999
 20
-133.5750469999999
 30
0.0
 11
308.53445599999992
 21
-134.75563999999989
 31
0.0
  0
LINE
  5
14A
  8
OUTLINE
  6
CONTINUOUS
 62
     3
 10
297.31141400000001
 20
-142.44030099999989
 30
0.0
 11
296.01918699999999
 21
-142.5
 31
0.0
  0
LINE
  5
14B
  8
OUTLINE
  6
CONTINUOUS
 62
     3
 10
298.59223500000002
 20
-142.26172800000001
 30
0.0
 11
297.31141400000001
 21
-142.44030099999989
 31
0.0
  0
LINE
  5
14C
  8
OUTLINE
  6
CONTINUOUS
 62
     3
 10
299.84981299999993
 20
-141.96608699999999
 30
0.0
 11
298.59223500000002
 21
-142.26172800000001
 31
0.0
  0
LINE
  5
14D
  8
OUTLINE
  6
CONTINUOUS
 62
     3
 10
301.07504699999998
 20
-141.55558199999999
 30
0.0
 11
299.84981299999993
 21
-141.96608699999999
 31
0.0
  0
LINE
  5
14E
  8
OUTLINE
  6
CONTINUOUS
 62
     3
 10
302.25563999999991
 20
-141.03445600000001
 30
0.0
 11
301.07504699999998
 21
-141.55558199999999
 31
0.0
  0
LINE
  5
14F
  8
OUTLINE
  6
CONTINUOUS
 62
     3
 10
303.38389000000001
 20
-140.406161
 30
0.0
 11
302.25563999999991
 21
-141.03445600000001
 31
0.0
  0
LINE
  5
150
  8
OUTLINE
  6
CONTINUOUS
 62
     3
 10
304.44784700000002
 20
-139.6774429999999
 30
0.0
 11
303.38389000000001
 21
-140.406161
 31
0.0
  0
LINE
  5
151
  8
OUTLINE
  6
CONTINUOUS
 62
     3
 10
305.44107999999989
 20
-138.852732
 30
0.0
 11
304.44784700000002
 21
-139.6774429999999
 31
0.0
  0
LINE
  5
152
  8
OUTLINE
  6
CONTINUOUS
 62
     3
 10
306.35273199999989
 20
-137.94108
 30
0.0
 11
305.44107999999989
 21
-138.852732
 31
0.0
  0
LINE
  5
153
  8
OUTLINE
  6
CONTINUOUS
 62
     3
 10
307.17744299999998
 20
-136.947847
 30
0.0
 11
306.35273199999989
 21
-137.94108
 31
0.0
  0
LINE
  5
154
  8
OUTLINE
  6
CONTINUOUS
 62
     3
 10
307.906161
 20
-135.88388999999989
 30
0.0
 11
307.17744299999998
 21
-136.947847
 31
0.0
  0
LINE
  5
155
  8
OUTLINE
  6
CONTINUOUS
 62
     3
 10
308.53445599999992
 20
-134.75563999999989
 30
0.0
 11
307.906161
 21
-135.88388999999989
 31
0.0
  0
LINE
  5
156
  8
OUTLINE
  6
CONTINUOUS
 62
     3
 10
309.46608700000002
 20
-132.3498129999999
 30
0.0
 11
309.0555819999999
 21
-133.5750469999999
 31
0.0
  0
LINE
  5
157
  8
OUTLINE
  6
CONTINUOUS
 62
     3
 10
309.76172800000001
 20
-131.09223499999999
 30
0.0
 11
309.46608700000002
 21
-132.3498129999999
 31
0.0
  0
LINE
  5
158
  8
OUTLINE
  6
CONTINUOUS
 62
     3
 10
309.94030099999992
 20
-129.8114139999999
 30
0.0
 11
309.76172800000001
 21
-131.09223499999999
 31
0.0
  0
LINE
  5
159
  8
OUTLINE
  6
CONTINUOUS
 62
     3
 10
310.0
 20
-128.51918699999999
 30
0.0
 11
309.94030099999992
 21
-129.8114139999999
 31
0.0
  0
LINE
  5
15A
  8
OUTLINE
  6
CONTINUOUS
 62
     3
 10
308.53445599999992
 20
134.75563999999989
 30
0.0
 11
309.0555819999999
 21
133.5750469999999
 31
0.0
  0
LINE
  5
15B
  8
OUTLINE
  6
CONTINUOUS
 62
     3
 10
307.906161
 20
135.88388999999989
 30
0.0
 11
308.53445599999992
 21
134.75563999999989
 31
0.0
  0
LINE
  5
15C
  8
OUTLINE
  6
CONTINUOUS
 62
     3
 10
307.17744299999998
 20
136.947847
 30
0.0
 11
307.906161
 21
135.88388999999989
 31
0.0
  0
LINE
  5
15D
  8
OUTLINE
  6
CONTINUOUS
 62
     3
 10
306.35273199999989
 20
137.94108
 30
0.0
 11
307.17744299999998
 21
136.947847
 31
0.0
  0
LINE
  5
15E
  8
OUTLINE
  6
CONTINUOUS
 62
     3
 10
305.44107999999989
 20
138.852732
 30
0.0
 11
306.35273199999989
 21
137.94108
 31
0.0
  0
LINE
  5
15F
  8
OUTLINE
  6
CONTINUOUS
 62
     3
 10
304.44784700000002
 20
139.6774429999999
 30
0.0
 11
305.44107999999989
 21
138.852732
 31
0.0
  0
LINE
  5
160
  8
OUTLINE
  6
CONTINUOUS
 62
     3
 10
303.38389000000001
 20
140.406161
 30
0.0
 11
304.44784700000002
 21
139.6774429999999
 31
0.0
  0
LINE
  5
161
  8
OUTLINE
  6
CONTINUOUS
 62
     3
 10
302.25563999999991
 20
141.03445600000001
 30
0.0
 11
303.38389000000001
 21
140.406161
 31
0.0
  0
LINE
  5
162
  8
OUTLINE
  6
CONTINUOUS
 62
     3
 10
301.07504699999998
 20
141.55558199999999
 30
0.0
 11
302.25563999999991
 21
141.03445600000001
 31
0.0
  0
LINE
  5
163
  8
OUTLINE
  6
CONTINUOUS
 62
     3
 10
299.84981299999993
 20
141.96608699999999
 30
0.0
 11
301.07504699999998
 21
141.55558199999999
 31
0.0
  0
LINE
  5
164
  8
OUTLINE
  6
CONTINUOUS
 62
     3
 10
298.59223500000002
 20
142.26172800000001
 30
0.0
 11
299.84981299999993
 21
141.96608699999999
 31
0.0
  0
LINE
  5
165
  8
OUTLINE
  6
CONTINUOUS
 62
     3
 10
297.31141400000001
 20
142.44030099999989
 30
0.0
 11
298.59223500000002
 21
142.26172800000001
 31
0.0
  0
LINE
  5
166
  8
OUTLINE
  6
CONTINUOUS
 62
     3
 10
296.01918699999999
 20
142.5
 30
0.0
 11
297.31141400000001
 21
142.44030099999989
 31
0.0
  0
LINE
  5
167
  8
OUTLINE
  6
CONTINUOUS
 62
     3
 10
309.94030099999992
 20
129.8114139999999
 30
0.0
 11
310.0
 21
128.51918699999999
 31
0.0
  0
LINE
  5
168
  8
OUTLINE
  6
CONTINUOUS
 62
     3
 10
309.76172800000001
 20
131.09223499999999
 30
0.0
 11
309.94030099999992
 21
129.8114139999999
 31
0.0
  0
LINE
  5
169
  8
OUTLINE
  6
CONTINUOUS
 62
     3
 10
309.46608700000002
 20
132.3498129999999
 30
0.0
 11
309.76172800000001
 21
131.09223499999999
 31
0.0
  0
LINE
  5
16A
  8
OUTLINE
  6
CONTINUOUS
 62
     3
 10
309.0555819999999
 20
133.5750469999999
 30
0.0
 11
309.46608700000002
 21
132.3498129999999
 31
0.0
  0
LINE
  5
16B
  8
DETAIL
  6
CONTINUOUS
 62
     5
 10
-295.0
 20
99.0
 30
0.0
 11
295.0
 21
99.0
 31
0.0
  0
LINE
  5
16C
  8
DETAIL
  6
CONTINUOUS
 62
     5
 10
-295.0
 20
95.0
 30
0.0
 11
295.0
 21
95.0
 31
0.0
  0
LINE
  5
16D
  8
DETAIL
  6
CONTINUOUS
 62
     5
 10
-295.0
 20
92.0
 30
0.0
 11
295.0
 21
92.0
 31
0.0
  0
LINE
  5
16E
  8
DETAIL
  6
CONTINUOUS
 62
     5
 10
-295.0
 20
88.0
 30
0.0
 11
295.0
 21
88.0
 31
0.0
  0
LINE
  5
16F
  8
DETAIL
  6
CONTINUOUS
 62
     5
 10
-295.0
 20
85.0
 30
0.0
 11
295.0
 21
85.0
 31
0.0
  0
LINE
  5
170
  8
DETAIL
  6
CONTINUOUS
 62
     5
 10
-295.0
 20
81.0
 30
0.0
 11
295.0
 21
81.0
 31
0.0
  0
LINE
  5
171
  8
DETAIL
  6
CONTINUOUS
 62
     5
 10
-295.0
 20
78.0
 30
0.0
 11
295.0
 21
78.0
 31
0.0
  0
LINE
  5
172
  8
DETAIL
  6
CONTINUOUS
 62
     5
 10
-295.0
 20
74.0
 30
0.0
 11
295.0
 21
74.0
 31
0.0
  0
LINE
  5
173
  8
DETAIL
  6
CONTINUOUS
 62
     5
 10
-295.0
 20
71.0
 30
0.0
 11
295.0
 21
71.0
 31
0.0
  0
LINE
  5
174
  8
DETAIL
  6
CONTINUOUS
 62
     5
 10
-295.0
 20
67.0
 30
0.0
 11
295.0
 21
67.0
 31
0.0
  0
LINE
  5
175
  8
DETAIL
  6
CONTINUOUS
 62
     5
 10
-295.0
 20
64.0
 30
0.0
 11
295.0
 21
64.0
 31
0.0
  0
LINE
  5
176
  8
DETAIL
  6
CONTINUOUS
 62
     5
 10
-295.0
 20
60.0
 30
0.0
 11
295.0
 21
60.0
 31
0.0
  0
LINE
  5
177
  8
DETAIL
  6
CONTINUOUS
 62
     5
 10
-295.0
 20
57.0
 30
0.0
 11
295.0
 21
57.0
 31
0.0
  0
LINE
  5
178
  8
DETAIL
  6
CONTINUOUS
 62
     5
 10
-295.0
 20
53.0
 30
0.0
 11
295.0
 21
53.0
 31
0.0
  0
LINE
  5
179
  8
DETAIL
  6
CONTINUOUS
 62
     5
 10
-295.0
 20
50.0
 30
0.0
 11
295.0
 21
50.0
 31
0.0
  0
LINE
  5
17A
  8
DETAIL
  6
CONTINUOUS
 62
     5
 10
-295.0
 20
46.0
 30
0.0
 11
295.0
 21
46.0
 31
0.0
  0
LINE
  5
17B
  8
DETAIL
  6
CONTINUOUS
 62
     5
 10
-295.0
 20
43.0
 30
0.0
 11
295.0
 21
43.0
 31
0.0
  0
LINE
  5
17C
  8
DETAIL
  6
CONTINUOUS
 62
     5
 10
-295.0
 20
39.0
 30
0.0
 11
295.0
 21
39.0
 31
0.0
  0
LINE
  5
17D
  8
DETAIL
  6
CONTINUOUS
 62
     5
 10
-295.0
 20
36.0
 30
0.0
 11
295.0
 21
36.0
 31
0.0
  0
LINE
  5
17E
  8
DETAIL
  6
CONTINUOUS
 62
     5
 10
-295.0
 20
32.0
 30
0.0
 11
295.0
 21
32.0
 31
0.0
  0
LINE
  5
17F
  8
DETAIL
  6
CONTINUOUS
 62
     5
 10
-295.0
 20
29.0
 30
0.0
 11
295.0
 21
29.0
 31
0.0
  0
LINE
  5
180
  8
DETAIL
  6
CONTINUOUS
 62
     5
 10
-295.0
 20
25.0
 30
0.0
 11
295.0
 21
25.0
 31
0.0
  0
LINE
  5
181
  8
DETAIL
  6
CONTINUOUS
 62
     5
 10
-295.0
 20
22.0
 30
0.0
 11
295.0
 21
22.0
 31
0.0
  0
LINE
  5
182
  8
DETAIL
  6
CONTINUOUS
 62
     5
 10
-295.0
 20
18.0
 30
0.0
 11
295.0
 21
18.0
 31
0.0
  0
LINE
  5
183
  8
DETAIL
  6
CONTINUOUS
 62
     5
 10
-295.0
 20
15.0
 30
0.0
 11
295.0
 21
15.0
 31
0.0
  0
LINE
  5
184
  8
DETAIL
  6
CONTINUOUS
 62
     5
 10
-295.0
 20
11.0
 30
0.0
 11
295.0
 21
11.0
 31
0.0
  0
LINE
  5
185
  8
DETAIL
  6
CONTINUOUS
 62
     5
 10
-295.0
 20
8.0
 30
0.0
 11
295.0
 21
8.0
 31
0.0
  0
LINE
  5
186
  8
DETAIL
  6
CONTINUOUS
 62
     5
 10
-295.0
 20
4.0
 30
0.0
 11
295.0
 21
4.0
 31
0.0
  0
LINE
  5
187
  8
DETAIL
  6
CONTINUOUS
 62
     5
 10
-295.0
 20
1.0
 30
0.0
 11
295.0
 21
1.0
 31
0.0
  0
LINE
  5
188
  8
DETAIL
  6
CONTINUOUS
 62
     5
 10
-295.0
 20
-3.0
 30
0.0
 11
295.0
 21
-3.0
 31
0.0
  0
LINE
  5
189
  8
DETAIL
  6
CONTINUOUS
 62
     5
 10
-295.0
 20
-6.0
 30
0.0
 11
295.0
 21
-6.0
 31
0.0
  0
LINE
  5
18A
  8
DETAIL
  6
CONTINUOUS
 62
     5
 10
-295.0
 20
-10.0
 30
0.0
 11
295.0
 21
-10.0
 31
0.0
  0
LINE
  5
18B
  8
DETAIL
  6
CONTINUOUS
 62
     5
 10
-295.0
 20
-13.0
 30
0.0
 11
295.0
 21
-13.0
 31
0.0
  0
LINE
  5
18C
  8
DETAIL
  6
CONTINUOUS
 62
     5
 10
-295.0
 20
-17.0
 30
0.0
 11
295.0
 21
-17.0
 31
0.0
  0
LINE
  5
18D
  8
DETAIL
  6
CONTINUOUS
 62
     5
 10
-295.0
 20
-20.0
 30
0.0
 11
295.0
 21
-20.0
 31
0.0
  0
LINE
  5
18E
  8
DETAIL
  6
CONTINUOUS
 62
     5
 10
-295.0
 20
-24.0
 30
0.0
 11
295.0
 21
-24.0
 31
0.0
  0
LINE
  5
18F
  8
DETAIL
  6
CONTINUOUS
 62
     5
 10
-295.0
 20
-27.0
 30
0.0
 11
295.0
 21
-27.0
 31
0.0
  0
LINE
  5
190
  8
DETAIL
  6
CONTINUOUS
 62
     5
 10
-295.0
 20
-31.0
 30
0.0
 11
295.0
 21
-31.0
 31
0.0
  0
LINE
  5
191
  8
DETAIL
  6
CONTINUOUS
 62
     5
 10
-295.0
 20
-34.0
 30
0.0
 11
295.0
 21
-34.0
 31
0.0
  0
LINE
  5
192
  8
DETAIL
  6
CONTINUOUS
 62
     5
 10
-295.0
 20
-38.0
 30
0.0
 11
295.0
 21
-38.0
 31
0.0
  0
LINE
  5
193
  8
DETAIL
  6
CONTINUOUS
 62
     5
 10
-295.0
 20
-41.0
 30
0.0
 11
295.0
 21
-41.0
 31
0.0
  0
LINE
  5
194
  8
DETAIL
  6
CONTINUOUS
 62
     5
 10
-295.0
 20
-45.0
 30
0.0
 11
295.0
 21
-45.0
 31
0.0
  0
LINE
  5
195
  8
DETAIL
  6
CONTINUOUS
 62
     5
 10
-295.0
 20
-48.0
 30
0.0
 11
295.0
 21
-48.0
 31
0.0
  0
LINE
  5
196
  8
DETAIL
  6
CONTINUOUS
 62
     5
 10
-295.0
 20
-52.0
 30
0.0
 11
295.0
 21
-52.0
 31
0.0
  0
LINE
  5
197
  8
DETAIL
  6
CONTINUOUS
 62
     5
 10
-295.0
 20
-55.0
 30
0.0
 11
295.0
 21
-55.0
 31
0.0
  0
LINE
  5
198
  8
DETAIL
  6
CONTINUOUS
 62
     5
 10
-295.0
 20
-59.0
 30
0.0
 11
295.0
 21
-59.0
 31
0.0
  0
LINE
  5
199
  8
DETAIL
  6
CONTINUOUS
 62
     5
 10
-295.0
 20
-62.0
 30
0.0
 11
295.0
 21
-62.0
 31
0.0
  0
LINE
  5
19A
  8
DETAIL
  6
CONTINUOUS
 62
     5
 10
-295.0
 20
-66.0
 30
0.0
 11
295.0
 21
-66.0
 31
0.0
  0
LINE
  5
19B
  8
DETAIL
  6
CONTINUOUS
 62
     5
 10
-295.0
 20
-69.0
 30
0.0
 11
295.0
 21
-69.0
 31
0.0
  0
LINE
  5
19C
  8
DETAIL
  6
CONTINUOUS
 62
     5
 10
-295.0
 20
-73.0
 30
0.0
 11
295.0
 21
-73.0
 31
0.0
  0
ARC
  5
19D
  8
DETAIL
  6
CONTINUOUS
 62
     5
 10
-295.0
 20
-37.5
 30
0.0
 40
0.5
 50
180.0
 51
270.0
  0
LINE
  5
19E
  8
DETAIL
  6
CONTINUOUS
 62
     5
 10
61.0
 20
-34.0
 30
0.0
 11
61.0
 21
-38.0
 31
0.0
  0
LINE
  5
19F
  8
DETAIL
  6
CONTINUOUS
 62
     5
 10
58.0
 20
-34.0
 30
0.0
 11
58.0
 21
-38.0
 31
0.0
  0
LINE
  5
1A0
  8
DETAIL
  6
CONTINUOUS
 62
     5
 10
-58.0
 20
-34.0
 30
0.0
 11
-58.0
 21
-38.0
 31
0.0
  0
LINE
  5
1A1
  8
DETAIL
  6
CONTINUOUS
 62
     5
 10
-61.0
 20
-34.0
 30
0.0
 11
-61.0
 21
-38.0
 31
0.0
  0
LINE
  5
1A2
  8
DETAIL
  6
CONTINUOUS
 62
     5
 10
-177.0
 20
-34.0
 30
0.0
 11
-177.0
 21
-38.0
 31
0.0
  0
LINE
  5
1A3
  8
DETAIL
  6
CONTINUOUS
 62
     5
 10
-180.0
 20
-34.0
 30
0.0
 11
-180.0
 21
-38.0
 31
0.0
  0
LINE
  5
1A4
  8
DETAIL
  6
CONTINUOUS
 62
     5
 10
-275.49999999999989
 20
-34.0
 30
0.0
 11
-275.49999999999989
 21
-38.0
 31
0.0
  0
ARC
  5
1A5
  8
DETAIL
  6
CONTINUOUS
 62
     5
 10
-295.0
 20
-72.5
 30
0.0
 40
0.5
 50
180.0
 51
270.0
  0
ARC
  5
1A6
  8
DETAIL
  6
CONTINUOUS
 62
     5
 10
-295.0
 20
-41.5
 30
0.0
 40
0.5
 50
90.0
 51
180.0
  0
ARC
  5
1A7
  8
DETAIL
  6
CONTINUOUS
 62
     5
 10
-295.0
 20
-44.5
 30
0.0
 40
0.5
 50
180.0
 51
270.0
  0
ARC
  5
1A8
  8
DETAIL
  6
CONTINUOUS
 62
     5
 10
-295.0
 20
-48.5
 30
0.0
 40
0.5
 50
90.0
 51
180.0
  0
ARC
  5
1A9
  8
DETAIL
  6
CONTINUOUS
 62
     5
 10
-295.0
 20
-51.5
 30
0.0
 40
0.5
 50
180.0
 51
270.0
  0
ARC
  5
1AA
  8
DETAIL
  6
CONTINUOUS
 62
     5
 10
-295.0
 20
-55.5
 30
0.0
 40
0.5
 50
90.0
 51
180.0
  0
ARC
  5
1AB
  8
DETAIL
  6
CONTINUOUS
 62
     5
 10
-295.0
 20
-58.5
 30
0.0
 40
0.5
 50
180.0
 51
270.0
  0
ARC
  5
1AC
  8
DETAIL
  6
CONTINUOUS
 62
     5
 10
-295.0
 20
-62.5
 30
0.0
 40
0.5
 50
90.0
 51
180.0
  0
ARC
  5
1AD
  8
DETAIL
  6
CONTINUOUS
 62
     5
 10
-295.0
 20
-65.5
 30
0.0
 40
0.5
 50
180.0
 51
270.0
  0
ARC
  5
1AE
  8
DETAIL
  6
CONTINUOUS
 62
     5
 10
-295.0
 20
-69.5
 30
0.0
 40
0.5
 50
90.0
 51
180.0
  0
LINE
  5
1AF
  8
DETAIL
  6
CONTINUOUS
 62
     5
 10
-275.49999999999989
 20
-69.0
 30
0.0
 11
-275.49999999999989
 21
-73.0
 31
0.0
  0
LINE
  5
1B0
  8
DETAIL
  6
CONTINUOUS
 62
     5
 10
-275.49999999999989
 20
-62.0
 30
0.0
 11
-275.49999999999989
 21
-66.0
 31
0.0
  0
LINE
  5
1B1
  8
DETAIL
  6
CONTINUOUS
 62
     5
 10
-275.49999999999989
 20
-55.0
 30
0.0
 11
-275.49999999999989
 21
-59.0
 31
0.0
  0
LINE
  5
1B2
  8
DETAIL
  6
CONTINUOUS
 62
     5
 10
-275.49999999999989
 20
-48.0
 30
0.0
 11
-275.49999999999989
 21
-52.0
 31
0.0
  0
LINE
  5
1B3
  8
DETAIL
  6
CONTINUOUS
 62
     5
 10
-275.49999999999989
 20
-41.0
 30
0.0
 11
-275.49999999999989
 21
-45.0
 31
0.0
  0
LINE
  5
1B4
  8
DETAIL
  6
CONTINUOUS
 62
     5
 10
-295.5
 20
-72.5
 30
0.0
 11
-295.5
 21
-69.5
 31
0.0
  0
LINE
  5
1B5
  8
DETAIL
  6
CONTINUOUS
 62
     5
 10
-295.5
 20
-62.5
 30
0.0
 11
-295.5
 21
-65.5
 31
0.0
  0
LINE
  5
1B6
  8
DETAIL
  6
CONTINUOUS
 62
     5
 10
-295.5
 20
-55.5
 30
0.0
 11
-295.5
 21
-58.5
 31
0.0
  0
LINE
  5
1B7
  8
DETAIL
  6
CONTINUOUS
 62
     5
 10
-295.5
 20
-48.5
 30
0.0
 11
-295.5
 21
-51.5
 31
0.0
  0
LINE
  5
1B8
  8
DETAIL
  6
CONTINUOUS
 62
     5
 10
-295.5
 20
-41.5
 30
0.0
 11
-295.5
 21
-44.5
 31
0.0
  0
LINE
  5
1B9
  8
DETAIL
  6
CONTINUOUS
 62
     5
 10
-177.0
 20
-69.0
 30
0.0
 11
-177.0
 21
-73.0
 31
0.0
  0
LINE
  5
1BA
  8
DETAIL
  6
CONTINUOUS
 62
     5
 10
-177.0
 20
-62.0
 30
0.0
 11
-177.0
 21
-66.0
 31
0.0
  0
LINE
  5
1BB
  8
DETAIL
  6
CONTINUOUS
 62
     5
 10
-177.0
 20
-55.0
 30
0.0
 11
-177.0
 21
-59.0
 31
0.0
  0
LINE
  5
1BC
  8
DETAIL
  6
CONTINUOUS
 62
     5
 10
-177.0
 20
-48.0
 30
0.0
 11
-177.0
 21
-52.0
 31
0.0
  0
LINE
  5
1BD
  8
DETAIL
  6
CONTINUOUS
 62
     5
 10
-177.0
 20
-41.0
 30
0.0
 11
-177.0
 21
-45.0
 31
0.0
  0
LINE
  5
1BE
  8
DETAIL
  6
CONTINUOUS
 62
     5
 10
-180.0
 20
-69.0
 30
0.0
 11
-180.0
 21
-73.0
 31
0.0
  0
LINE
  5
1BF
  8
DETAIL
  6
CONTINUOUS
 62
     5
 10
-180.0
 20
-62.0
 30
0.0
 11
-180.0
 21
-66.0
 31
0.0
  0
LINE
  5
1C0
  8
DETAIL
  6
CONTINUOUS
 62
     5
 10
-180.0
 20
-55.0
 30
0.0
 11
-180.0
 21
-59.0
 31
0.0
  0
LINE
  5
1C1
  8
DETAIL
  6
CONTINUOUS
 62
     5
 10
-180.0
 20
-48.0
 30
0.0
 11
-180.0
 21
-52.0
 31
0.0
  0
LINE
  5
1C2
  8
DETAIL
  6
CONTINUOUS
 62
     5
 10
-180.0
 20
-41.0
 30
0.0
 11
-180.0
 21
-45.0
 31
0.0
  0
LINE
  5
1C3
  8
DETAIL
  6
CONTINUOUS
 62
     5
 10
-58.0
 20
-69.0
 30
0.0
 11
-58.0
 21
-73.0
 31
0.0
  0
LINE
  5
1C4
  8
DETAIL
  6
CONTINUOUS
 62
     5
 10
-58.0
 20
-62.0
 30
0.0
 11
-58.0
 21
-66.0
 31
0.0
  0
LINE
  5
1C5
  8
DETAIL
  6
CONTINUOUS
 62
     5
 10
-58.0
 20
-55.0
 30
0.0
 11
-58.0
 21
-59.0
 31
0.0
  0
LINE
  5
1C6
  8
DETAIL
  6
CONTINUOUS
 62
     5
 10
-58.0
 20
-48.0
 30
0.0
 11
-58.0
 21
-52.0
 31
0.0
  0
LINE
  5
1C7
  8
DETAIL
  6
CONTINUOUS
 62
     5
 10
-58.0
 20
-41.0
 30
0.0
 11
-58.0
 21
-45.0
 31
0.0
  0
LINE
  5
1C8
  8
DETAIL
  6
CONTINUOUS
 62
     5
 10
-61.0
 20
-69.0
 30
0.0
 11
-61.0
 21
-73.0
 31
0.0
  0
LINE
  5
1C9
  8
DETAIL
  6
CONTINUOUS
 62
     5
 10
-61.0
 20
-62.0
 30
0.0
 11
-61.0
 21
-66.0
 31
0.0
  0
LINE
  5
1CA
  8
DETAIL
  6
CONTINUOUS
 62
     5
 10
-61.0
 20
-55.0
 30
0.0
 11
-61.0
 21
-59.0
 31
0.0
  0
LINE
  5
1CB
  8
DETAIL
  6
CONTINUOUS
 62
     5
 10
-61.0
 20
-48.0
 30
0.0
 11
-61.0
 21
-52.0
 31
0.0
  0
LINE
  5
1CC
  8
DETAIL
  6
CONTINUOUS
 62
     5
 10
-61.0
 20
-41.0
 30
0.0
 11
-61.0
 21
-45.0
 31
0.0
  0
LINE
  5
1CD
  8
DETAIL
  6
CONTINUOUS
 62
     5
 10
61.0
 20
-69.0
 30
0.0
 11
61.0
 21
-73.0
 31
0.0
  0
LINE
  5
1CE
  8
DETAIL
  6
CONTINUOUS
 62
     5
 10
61.0
 20
-62.0
 30
0.0
 11
61.0
 21
-66.0
 31
0.0
  0
LINE
  5
1CF
  8
DETAIL
  6
CONTINUOUS
 62
     5
 10
61.0
 20
-55.0
 30
0.0
 11
61.0
 21
-59.0
 31
0.0
  0
LINE
  5
1D0
  8
DETAIL
  6
CONTINUOUS
 62
     5
 10
61.0
 20
-48.0
 30
0.0
 11
61.0
 21
-52.0
 31
0.0
  0
LINE
  5
1D1
  8
DETAIL
  6
CONTINUOUS
 62
     5
 10
61.0
 20
-41.0
 30
0.0
 11
61.0
 21
-45.0
 31
0.0
  0
LINE
  5
1D2
  8
DETAIL
  6
CONTINUOUS
 62
     5
 10
58.0
 20
-69.0
 30
0.0
 11
58.0
 21
-73.0
 31
0.0
  0
LINE
  5
1D3
  8
DETAIL
  6
CONTINUOUS
 62
     5
 10
58.0
 20
-62.0
 30
0.0
 11
58.0
 21
-66.0
 31
0.0
  0
LINE
  5
1D4
  8
DETAIL
  6
CONTINUOUS
 62
     5
 10
58.0
 20
-55.0
 30
0.0
 11
58.0
 21
-59.0
 31
0.0
  0
LINE
  5
1D5
  8
DETAIL
  6
CONTINUOUS
 62
     5
 10
58.0
 20
-48.0
 30
0.0
 11
58.0
 21
-52.0
 31
0.0
  0
LINE
  5
1D6
  8
DETAIL
  6
CONTINUOUS
 62
     5
 10
58.0
 20
-41.0
 30
0.0
 11
58.0
 21
-45.0
 31
0.0
  0
ARC
  5
1D7
  8
DETAIL
  6
CONTINUOUS
 62
     5
 10
-295.0
 20
42.5
 30
0.0
 40
0.5
 50
90.0
 51
180.0
  0
ARC
  5
1D8
  8
DETAIL
  6
CONTINUOUS
 62
     5
 10
-295.0
 20
39.5
 30
0.0
 40
0.5
 50
180.0
 51
270.0
  0
ARC
  5
1D9
  8
DETAIL
  6
CONTINUOUS
 62
     5
 10
-295.0
 20
35.5
 30
0.0
 40
0.5
 50
90.0
 51
180.0
  0
ARC
  5
1DA
  8
DETAIL
  6
CONTINUOUS
 62
     5
 10
-295.0
 20
32.5
 30
0.0
 40
0.5
 50
180.0
 51
270.0
  0
ARC
  5
1DB
  8
DETAIL
  6
CONTINUOUS
 62
     5
 10
-295.0
 20
28.5
 30
0.0
 40
0.5
 50
90.0
 51
180.0
  0
ARC
  5
1DC
  8
DETAIL
  6
CONTINUOUS
 62
     5
 10
-295.0
 20
25.5
 30
0.0
 40
0.5
 50
180.0
 51
270.0
  0
ARC
  5
1DD
  8
DETAIL
  6
CONTINUOUS
 62
     5
 10
-295.0
 20
21.499999999999989
 30
0.0
 40
0.5
 50
90.0
 51
180.0
  0
ARC
  5
1DE
  8
DETAIL
  6
CONTINUOUS
 62
     5
 10
-295.0
 20
18.5
 30
0.0
 40
0.5
 50
180.0
 51
270.0
  0
ARC
  5
1DF
  8
DETAIL
  6
CONTINUOUS
 62
     5
 10
-295.0
 20
14.5
 30
0.0
 40
0.5
 50
90.0
 51
180.0
  0
ARC
  5
1E0
  8
DETAIL
  6
CONTINUOUS
 62
     5
 10
-295.0
 20
11.5
 30
0.0
 40
0.5
 50
180.0
 51
270.0
  0
ARC
  5
1E1
  8
DETAIL
  6
CONTINUOUS
 62
     5
 10
-295.0
 20
7.5
 30
0.0
 40
0.5
 50
90.0
 51
180.0
  0
ARC
  5
1E2
  8
DETAIL
  6
CONTINUOUS
 62
     5
 10
-295.0
 20
4.5
 30
0.0
 40
0.5
 50
180.0
 51
270.0
  0
ARC
  5
1E3
  8
DETAIL
  6
CONTINUOUS
 62
     5
 10
-295.0
 20
0.5
 30
0.0
 40
0.5
 50
90.0
 51
180.0
  0
ARC
  5
1E4
  8
DETAIL
  6
CONTINUOUS
 62
     5
 10
-295.0
 20
-2.5
 30
0.0
 40
0.5
 50
180.0
 51
270.0
  0
ARC
  5
1E5
  8
DETAIL
  6
CONTINUOUS
 62
     5
 10
-295.0
 20
-6.5
 30
0.0
 40
0.5
 50
90.0
 51
180.0
  0
ARC
  5
1E6
  8
DETAIL
  6
CONTINUOUS
 62
     5
 10
-295.0
 20
-9.5
 30
0.0
 40
0.5
 50
180.0
 51
270.0
  0
ARC
  5
1E7
  8
DETAIL
  6
CONTINUOUS
 62
     5
 10
-295.0
 20
-13.5
 30
0.0
 40
0.5
 50
90.0
 51
180.0
  0
ARC
  5
1E8
  8
DETAIL
  6
CONTINUOUS
 62
     5
 10
-295.0
 20
-16.5
 30
0.0
 40
0.5
 50
180.0
 51
270.0
  0
ARC
  5
1E9
  8
DETAIL
  6
CONTINUOUS
 62
     5
 10
-295.0
 20
-20.5
 30
0.0
 40
0.5
 50
90.0
 51
180.0
  0
ARC
  5
1EA
  8
DETAIL
  6
CONTINUOUS
 62
     5
 10
-295.0
 20
-23.5
 30
0.0
 40
0.5
 50
180.0
 51
270.0
  0
ARC
  5
1EB
  8
DETAIL
  6
CONTINUOUS
 62
     5
 10
-295.0
 20
-27.5
 30
0.0
 40
0.5
 50
90.0
 51
180.0
  0
ARC
  5
1EC
  8
DETAIL
  6
CONTINUOUS
 62
     5
 10
-295.0
 20
-30.5
 30
0.0
 40
0.5
 50
180.0
 51
270.0
  0
ARC
  5
1ED
  8
DETAIL
  6
CONTINUOUS
 62
     5
 10
-295.0
 20
-34.5
 30
0.0
 40
0.5
 50
90.0
 51
180.0
  0
LINE
  5
1EE
  8
DETAIL
  6
CONTINUOUS
 62
     5
 10
-275.49999999999989
 20
-27.0
 30
0.0
 11
-275.49999999999989
 21
-31.0
 31
0.0
  0
LINE
  5
1EF
  8
DETAIL
  6
CONTINUOUS
 62
     5
 10
-275.49999999999989
 20
-20.0
 30
0.0
 11
-275.49999999999989
 21
-24.0
 31
0.0
  0
LINE
  5
1F0
  8
DETAIL
  6
CONTINUOUS
 62
     5
 10
-275.49999999999989
 20
-13.0
 30
0.0
 11
-275.49999999999989
 21
-17.0
 31
0.0
  0
LINE
  5
1F1
  8
DETAIL
  6
CONTINUOUS
 62
     5
 10
-275.49999999999989
 20
-6.0
 30
0.0
 11
-275.49999999999989
 21
-10.0
 31
0.0
  0
LINE
  5
1F2
  8
DETAIL
  6
CONTINUOUS
 62
     5
 10
-275.49999999999989
 20
1.0
 30
0.0
 11
-275.49999999999989
 21
-3.0
 31
0.0
  0
LINE
  5
1F3
  8
DETAIL
  6
CONTINUOUS
 62
     5
 10
-275.49999999999989
 20
8.0
 30
0.0
 11
-275.49999999999989
 21
4.0
 31
0.0
  0
LINE
  5
1F4
  8
DETAIL
  6
CONTINUOUS
 62
     5
 10
-275.49999999999989
 20
15.0
 30
0.0
 11
-275.49999999999989
 21
11.0
 31
0.0
  0
LINE
  5
1F5
  8
DETAIL
  6
CONTINUOUS
 62
     5
 10
-275.49999999999989
 20
22.0
 30
0.0
 11
-275.49999999999989
 21
18.0
 31
0.0
  0
LINE
  5
1F6
  8
DETAIL
  6
CONTINUOUS
 62
     5
 10
-275.49999999999989
 20
29.0
 30
0.0
 11
-275.49999999999989
 21
25.0
 31
0.0
  0
LINE
  5
1F7
  8
DETAIL
  6
CONTINUOUS
 62
     5
 10
-275.49999999999989
 20
36.0
 30
0.0
 11
-275.49999999999989
 21
32.0
 31
0.0
  0
LINE
  5
1F8
  8
DETAIL
  6
CONTINUOUS
 62
     5
 10
-275.49999999999989
 20
43.0
 30
0.0
 11
-275.49999999999989
 21
39.0
 31
0.0
  0
LINE
  5
1F9
  8
DETAIL
  6
CONTINUOUS
 62
     5
 10
-295.5
 20
-34.5
 30
0.0
 11
-295.5
 21
-37.5
 31
0.0
  0
LINE
  5
1FA
  8
DETAIL
  6
CONTINUOUS
 62
     5
 10
-295.5
 20
-27.5
 30
0.0
 11
-295.5
 21
-30.5
 31
0.0
  0
LINE
  5
1FB
  8
DETAIL
  6
CONTINUOUS
 62
     5
 10
-295.5
 20
-20.5
 30
0.0
 11
-295.5
 21
-23.5
 31
0.0
  0
LINE
  5
1FC
  8
DETAIL
  6
CONTINUOUS
 62
     5
 10
-295.5
 20
-13.5
 30
0.0
 11
-295.5
 21
-16.5
 31
0.0
  0
LINE
  5
1FD
  8
DETAIL
  6
CONTINUOUS
 62
     5
 10
-295.5
 20
-6.5
 30
0.0
 11
-295.5
 21
-9.5
 31
0.0
  0
LINE
  5
1FE
  8
DETAIL
  6
CONTINUOUS
 62
     5
 10
-295.5
 20
0.5
 30
0.0
 11
-295.5
 21
-2.5
 31
0.0
  0
LINE
  5
1FF
  8
DETAIL
  6
CONTINUOUS
 62
     5
 10
-295.5
 20
7.5
 30
0.0
 11
-295.5
 21
4.5
 31
0.0
  0
LINE
  5
200
  8
DETAIL
  6
CONTINUOUS
 62
     5
 10
-295.5
 20
14.5
 30
0.0
 11
-295.5
 21
11.5
 31
0.0
  0
LINE
  5
201
  8
DETAIL
  6
CONTINUOUS
 62
     5
 10
-295.5
 20
21.499999999999989
 30
0.0
 11
-295.5
 21
18.5
 31
0.0
  0
LINE
  5
202
  8
DETAIL
  6
CONTINUOUS
 62
     5
 10
-295.5
 20
28.5
 30
0.0
 11
-295.5
 21
25.5
 31
0.0
  0
LINE
  5
203
  8
DETAIL
  6
CONTINUOUS
 62
     5
 10
-295.5
 20
35.5
 30
0.0
 11
-295.5
 21
32.5
 31
0.0
  0
LINE
  5
204
  8
DETAIL
  6
CONTINUOUS
 62
     5
 10
-295.5
 20
42.5
 30
0.0
 11
-295.5
 21
39.5
 31
0.0
  0
ARC
  5
205
  8
DETAIL
  6
CONTINUOUS
 62
     5
 10
-295.0
 20
98.500000000000014
 30
0.0
 40
0.5
 50
90.0
 51
180.0
  0
ARC
  5
206
  8
DETAIL
  6
CONTINUOUS
 62
     5
 10
-295.0
 20
95.5
 30
0.0
 40
0.5
 50
180.0
 51
270.0
  0
ARC
  5
207
  8
DETAIL
  6
CONTINUOUS
 62
     5
 10
-295.0
 20
91.5
 30
0.0
 40
0.5
 50
90.0
 51
180.0
  0
ARC
  5
208
  8
DETAIL
  6
CONTINUOUS
 62
     5
 10
-295.0
 20
88.499999999999986
 30
0.0
 40
0.5
 50
180.0
 51
270.0
  0
ARC
  5
209
  8
DETAIL
  6
CONTINUOUS
 62
     5
 10
-295.0
 20
84.500000000000014
 30
0.0
 40
0.5
 50
90.0
 51
180.0
  0
ARC
  5
20A
  8
DETAIL
  6
CONTINUOUS
 62
     5
 10
-295.0
 20
81.5
 30
0.0
 40
0.5
 50
180.0
 51
270.0
  0
ARC
  5
20B
  8
DETAIL
  6
CONTINUOUS
 62
     5
 10
-295.0
 20
77.5
 30
0.0
 40
0.5
 50
90.0
 51
180.0
  0
ARC
  5
20C
  8
DETAIL
  6
CONTINUOUS
 62
     5
 10
-295.0
 20
74.5
 30
0.0
 40
0.5
 50
180.0
 51
270.0
  0
ARC
  5
20D
  8
DETAIL
  6
CONTINUOUS
 62
     5
 10
-295.0
 20
70.5
 30
0.0
 40
0.5
 50
90.0
 51
180.0
  0
ARC
  5
20E
  8
DETAIL
  6
CONTINUOUS
 62
     5
 10
-295.0
 20
67.5
 30
0.0
 40
0.5
 50
180.0
 51
270.0
  0
ARC
  5
20F
  8
DETAIL
  6
CONTINUOUS
 62
     5
 10
-295.0
 20
63.5
 30
0.0
 40
0.5
 50
90.0
 51
180.0
  0
ARC
  5
210
  8
DETAIL
  6
CONTINUOUS
 62
     5
 10
-295.0
 20
60.5
 30
0.0
 40
0.5
 50
180.0
 51
270.0
  0
ARC
  5
211
  8
DETAIL
  6
CONTINUOUS
 62
     5
 10
-295.0
 20
56.5
 30
0.0
 40
0.5
 50
90.0
 51
180.0
  0
ARC
  5
212
  8
DETAIL
  6
CONTINUOUS
 62
     5
 10
-295.0
 20
53.5
 30
0.0
 40
0.5
 50
180.0
 51
270.0
  0
ARC
  5
213
  8
DETAIL
  6
CONTINUOUS
 62
     5
 10
-295.0
 20
49.5
 30
0.0
 40
0.5
 50
90.0
 51
180.0
  0
ARC
  5
214
  8
DETAIL
  6
CONTINUOUS
 62
     5
 10
-295.0
 20
46.5
 30
0.0
 40
0.5
 50
180.0
 51
270.0
  0
LINE
  5
215
  8
DETAIL
  6
CONTINUOUS
 62
     5
 10
-275.49999999999989
 20
50.0
 30
0.0
 11
-275.49999999999989
 21
46.0
 31
0.0
  0
LINE
  5
216
  8
DETAIL
  6
CONTINUOUS
 62
     5
 10
-275.49999999999989
 20
57.0
 30
0.0
 11
-275.49999999999989
 21
53.0
 31
0.0
  0
LINE
  5
217
  8
DETAIL
  6
CONTINUOUS
 62
     5
 10
-275.49999999999989
 20
64.0
 30
0.0
 11
-275.49999999999989
 21
60.0
 31
0.0
  0
LINE
  5
218
  8
DETAIL
  6
CONTINUOUS
 62
     5
 10
-275.49999999999989
 20
71.0
 30
0.0
 11
-275.49999999999989
 21
67.0
 31
0.0
  0
LINE
  5
219
  8
DETAIL
  6
CONTINUOUS
 62
     5
 10
-275.49999999999989
 20
78.0
 30
0.0
 11
-275.49999999999989
 21
74.0
 31
0.0
  0
LINE
  5
21A
  8
DETAIL
  6
CONTINUOUS
 62
     5
 10
-275.49999999999989
 20
85.0
 30
0.0
 11
-275.49999999999989
 21
81.0
 31
0.0
  0
LINE
  5
21B
  8
DETAIL
  6
CONTINUOUS
 62
     5
 10
-275.49999999999989
 20
92.0
 30
0.0
 11
-275.49999999999989
 21
88.0
 31
0.0
  0
LINE
  5
21C
  8
DETAIL
  6
CONTINUOUS
 62
     5
 10
-275.49999999999989
 20
99.0
 30
0.0
 11
-275.49999999999989
 21
95.0
 31
0.0
  0
LINE
  5
21D
  8
DETAIL
  6
CONTINUOUS
 62
     5
 10
-295.5
 20
95.5
 30
0.0
 11
-295.5
 21
98.500000000000014
 31
0.0
  0
LINE
  5
21E
  8
DETAIL
  6
CONTINUOUS
 62
     5
 10
-295.5
 20
49.5
 30
0.0
 11
-295.5
 21
46.5
 31
0.0
  0
LINE
  5
21F
  8
DETAIL
  6
CONTINUOUS
 62
     5
 10
-295.5
 20
56.5
 30
0.0
 11
-295.5
 21
53.5
 31
0.0
  0
LINE
  5
220
  8
DETAIL
  6
CONTINUOUS
 62
     5
 10
-295.5
 20
63.5
 30
0.0
 11
-295.5
 21
60.5
 31
0.0
  0
LINE
  5
221
  8
DETAIL
  6
CONTINUOUS
 62
     5
 10
-295.5
 20
70.5
 30
0.0
 11
-295.5
 21
67.5
 31
0.0
  0
LINE
  5
222
  8
DETAIL
  6
CONTINUOUS
 62
     5
 10
-295.5
 20
77.5
 30
0.0
 11
-295.5
 21
74.5
 31
0.0
  0
LINE
  5
223
  8
DETAIL
  6
CONTINUOUS
 62
     5
 10
-295.5
 20
84.500000000000014
 30
0.0
 11
-295.5
 21
81.5
 31
0.0
  0
LINE
  5
224
  8
DETAIL
  6
CONTINUOUS
 62
     5
 10
-295.5
 20
91.5
 30
0.0
 11
-295.5
 21
88.499999999999986
 31
0.0
  0
LINE
  5
225
  8
DETAIL
  6
CONTINUOUS
 62
     5
 10
-177.0
 20
-27.0
 30
0.0
 11
-177.0
 21
-31.0
 31
0.0
  0
LINE
  5
226
  8
DETAIL
  6
CONTINUOUS
 62
     5
 10
-177.0
 20
-20.0
 30
0.0
 11
-177.0
 21
-24.0
 31
0.0
  0
LINE
  5
227
  8
DETAIL
  6
CONTINUOUS
 62
     5
 10
-177.0
 20
-13.0
 30
0.0
 11
-177.0
 21
-17.0
 31
0.0
  0
LINE
  5
228
  8
DETAIL
  6
CONTINUOUS
 62
     5
 10
-177.0
 20
-6.0
 30
0.0
 11
-177.0
 21
-10.0
 31
0.0
  0
LINE
  5
229
  8
DETAIL
  6
CONTINUOUS
 62
     5
 10
-177.0
 20
1.0
 30
0.0
 11
-177.0
 21
-3.0
 31
0.0
  0
LINE
  5
22A
  8
DETAIL
  6
CONTINUOUS
 62
     5
 10
-177.0
 20
8.0
 30
0.0
 11
-177.0
 21
4.0
 31
0.0
  0
LINE
  5
22B
  8
DETAIL
  6
CONTINUOUS
 62
     5
 10
-177.0
 20
15.0
 30
0.0
 11
-177.0
 21
11.0
 31
0.0
  0
LINE
  5
22C
  8
DETAIL
  6
CONTINUOUS
 62
     5
 10
-177.0
 20
22.0
 30
0.0
 11
-177.0
 21
18.0
 31
0.0
  0
LINE
  5
22D
  8
DETAIL
  6
CONTINUOUS
 62
     5
 10
-177.0
 20
29.0
 30
0.0
 11
-177.0
 21
25.0
 31
0.0
  0
LINE
  5
22E
  8
DETAIL
  6
CONTINUOUS
 62
     5
 10
-177.0
 20
36.0
 30
0.0
 11
-177.0
 21
32.0
 31
0.0
  0
LINE
  5
22F
  8
DETAIL
  6
CONTINUOUS
 62
     5
 10
-177.0
 20
43.0
 30
0.0
 11
-177.0
 21
39.0
 31
0.0
  0
LINE
  5
230
  8
DETAIL
  6
CONTINUOUS
 62
     5
 10
-180.0
 20
-27.0
 30
0.0
 11
-180.0
 21
-31.0
 31
0.0
  0
LINE
  5
231
  8
DETAIL
  6
CONTINUOUS
 62
     5
 10
-180.0
 20
-20.0
 30
0.0
 11
-180.0
 21
-24.0
 31
0.0
  0
LINE
  5
232
  8
DETAIL
  6
CONTINUOUS
 62
     5
 10
-180.0
 20
-13.0
 30
0.0
 11
-180.0
 21
-17.0
 31
0.0
  0
LINE
  5
233
  8
DETAIL
  6
CONTINUOUS
 62
     5
 10
-180.0
 20
-6.0
 30
0.0
 11
-180.0
 21
-10.0
 31
0.0
  0
LINE
  5
234
  8
DETAIL
  6
CONTINUOUS
 62
     5
 10
-180.0
 20
1.0
 30
0.0
 11
-180.0
 21
-3.0
 31
0.0
  0
LINE
  5
235
  8
DETAIL
  6
CONTINUOUS
 62
     5
 10
-180.0
 20
8.0
 30
0.0
 11
-180.0
 21
4.0
 31
0.0
  0
LINE
  5
236
  8
DETAIL
  6
CONTINUOUS
 62
     5
 10
-180.0
 20
15.0
 30
0.0
 11
-180.0
 21
11.0
 31
0.0
  0
LINE
  5
237
  8
DETAIL
  6
CONTINUOUS
 62
     5
 10
-180.0
 20
22.0
 30
0.0
 11
-180.0
 21
18.0
 31
0.0
  0
LINE
  5
238
  8
DETAIL
  6
CONTINUOUS
 62
     5
 10
-180.0
 20
29.0
 30
0.0
 11
-180.0
 21
25.0
 31
0.0
  0
LINE
  5
239
  8
DETAIL
  6
CONTINUOUS
 62
     5
 10
-180.0
 20
36.0
 30
0.0
 11
-180.0
 21
32.0
 31
0.0
  0
LINE
  5
23A
  8
DETAIL
  6
CONTINUOUS
 62
     5
 10
-180.0
 20
43.0
 30
0.0
 11
-180.0
 21
39.0
 31
0.0
  0
LINE
  5
23B
  8
DETAIL
  6
CONTINUOUS
 62
     5
 10
-177.0
 20
50.0
 30
0.0
 11
-177.0
 21
46.0
 31
0.0
  0
LINE
  5
23C
  8
DETAIL
  6
CONTINUOUS
 62
     5
 10
-177.0
 20
57.0
 30
0.0
 11
-177.0
 21
53.0
 31
0.0
  0
LINE
  5
23D
  8
DETAIL
  6
CONTINUOUS
 62
     5
 10
-177.0
 20
64.0
 30
0.0
 11
-177.0
 21
60.0
 31
0.0
  0
LINE
  5
23E
  8
DETAIL
  6
CONTINUOUS
 62
     5
 10
-177.0
 20
71.0
 30
0.0
 11
-177.0
 21
67.0
 31
0.0
  0
LINE
  5
23F
  8
DETAIL
  6
CONTINUOUS
 62
     5
 10
-177.0
 20
78.0
 30
0.0
 11
-177.0
 21
74.0
 31
0.0
  0
LINE
  5
240
  8
DETAIL
  6
CONTINUOUS
 62
     5
 10
-177.0
 20
85.0
 30
0.0
 11
-177.0
 21
81.0
 31
0.0
  0
LINE
  5
241
  8
DETAIL
  6
CONTINUOUS
 62
     5
 10
-177.0
 20
92.0
 30
0.0
 11
-177.0
 21
88.0
 31
0.0
  0
LINE
  5
242
  8
DETAIL
  6
CONTINUOUS
 62
     5
 10
-177.0
 20
99.0
 30
0.0
 11
-177.0
 21
95.0
 31
0.0
  0
LINE
  5
243
  8
DETAIL
  6
CONTINUOUS
 62
     5
 10
-180.0
 20
50.0
 30
0.0
 11
-180.0
 21
46.0
 31
0.0
  0
LINE
  5
244
  8
DETAIL
  6
CONTINUOUS
 62
     5
 10
-180.0
 20
57.0
 30
0.0
 11
-180.0
 21
53.0
 31
0.0
  0
LINE
  5
245
  8
DETAIL
  6
CONTINUOUS
 62
     5
 10
-180.0
 20
64.0
 30
0.0
 11
-180.0
 21
60.0
 31
0.0
  0
LINE
  5
246
  8
DETAIL
  6
CONTINUOUS
 62
     5
 10
-180.0
 20
71.0
 30
0.0
 11
-180.0
 21
67.0
 31
0.0
  0
LINE
  5
247
  8
DETAIL
  6
CONTINUOUS
 62
     5
 10
-180.0
 20
78.0
 30
0.0
 11
-180.0
 21
74.0
 31
0.0
  0
LINE
  5
248
  8
DETAIL
  6
CONTINUOUS
 62
     5
 10
-180.0
 20
85.0
 30
0.0
 11
-180.0
 21
81.0
 31
0.0
  0
LINE
  5
249
  8
DETAIL
  6
CONTINUOUS
 62
     5
 10
-180.0
 20
92.0
 30
0.0
 11
-180.0
 21
88.0
 31
0.0
  0
LINE
  5
24A
  8
DETAIL
  6
CONTINUOUS
 62
     5
 10
-180.0
 20
99.0
 30
0.0
 11
-180.0
 21
95.0
 31
0.0
  0
LINE
  5
24B
  8
DETAIL
  6
CONTINUOUS
 62
     5
 10
-58.0
 20
-27.0
 30
0.0
 11
-58.0
 21
-31.0
 31
0.0
  0
LINE
  5
24C
  8
DETAIL
  6
CONTINUOUS
 62
     5
 10
-58.0
 20
-20.0
 30
0.0
 11
-58.0
 21
-24.0
 31
0.0
  0
LINE
  5
24D
  8
DETAIL
  6
CONTINUOUS
 62
     5
 10
-58.0
 20
-13.0
 30
0.0
 11
-58.0
 21
-17.0
 31
0.0
  0
LINE
  5
24E
  8
DETAIL
  6
CONTINUOUS
 62
     5
 10
-58.0
 20
-6.0
 30
0.0
 11
-58.0
 21
-10.0
 31
0.0
  0
LINE
  5
24F
  8
DETAIL
  6
CONTINUOUS
 62
     5
 10
-58.0
 20
1.0
 30
0.0
 11
-58.0
 21
-3.0
 31
0.0
  0
LINE
  5
250
  8
DETAIL
  6
CONTINUOUS
 62
     5
 10
-58.0
 20
8.0
 30
0.0
 11
-58.0
 21
4.0
 31
0.0
  0
LINE
  5
251
  8
DETAIL
  6
CONTINUOUS
 62
     5
 10
-58.0
 20
15.0
 30
0.0
 11
-58.0
 21
11.0
 31
0.0
  0
LINE
  5
252
  8
DETAIL
  6
CONTINUOUS
 62
     5
 10
-58.0
 20
22.0
 30
0.0
 11
-58.0
 21
18.0
 31
0.0
  0
LINE
  5
253
  8
DETAIL
  6
CONTINUOUS
 62
     5
 10
-58.0
 20
29.0
 30
0.0
 11
-58.0
 21
25.0
 31
0.0
  0
LINE
  5
254
  8
DETAIL
  6
CONTINUOUS
 62
     5
 10
-58.0
 20
36.0
 30
0.0
 11
-58.0
 21
32.0
 31
0.0
  0
LINE
  5
255
  8
DETAIL
  6
CONTINUOUS
 62
     5
 10
-58.0
 20
43.0
 30
0.0
 11
-58.0
 21
39.0
 31
0.0
  0
LINE
  5
256
  8
DETAIL
  6
CONTINUOUS
 62
     5
 10
-61.0
 20
-27.0
 30
0.0
 11
-61.0
 21
-31.0
 31
0.0
  0
LINE
  5
257
  8
DETAIL
  6
CONTINUOUS
 62
     5
 10
-61.0
 20
-20.0
 30
0.0
 11
-61.0
 21
-24.0
 31
0.0
  0
LINE
  5
258
  8
DETAIL
  6
CONTINUOUS
 62
     5
 10
-61.0
 20
-13.0
 30
0.0
 11
-61.0
 21
-17.0
 31
0.0
  0
LINE
  5
259
  8
DETAIL
  6
CONTINUOUS
 62
     5
 10
-61.0
 20
-6.0
 30
0.0
 11
-61.0
 21
-10.0
 31
0.0
  0
LINE
  5
25A
  8
DETAIL
  6
CONTINUOUS
 62
     5
 10
-61.0
 20
1.0
 30
0.0
 11
-61.0
 21
-3.0
 31
0.0
  0
LINE
  5
25B
  8
DETAIL
  6
CONTINUOUS
 62
     5
 10
-61.0
 20
8.0
 30
0.0
 11
-61.0
 21
4.0
 31
0.0
  0
LINE
  5
25C
  8
DETAIL
  6
CONTINUOUS
 62
     5
 10
-61.0
 20
15.0
 30
0.0
 11
-61.0
 21
11.0
 31
0.0
  0
LINE
  5
25D
  8
DETAIL
  6
CONTINUOUS
 62
     5
 10
-61.0
 20
22.0
 30
0.0
 11
-61.0
 21
18.0
 31
0.0
  0
LINE
  5
25E
  8
DETAIL
  6
CONTINUOUS
 62
     5
 10
-61.0
 20
29.0
 30
0.0
 11
-61.0
 21
25.0
 31
0.0
  0
LINE
  5
25F
  8
DETAIL
  6
CONTINUOUS
 62
     5
 10
-61.0
 20
36.0
 30
0.0
 11
-61.0
 21
32.0
 31
0.0
  0
LINE
  5
260
  8
DETAIL
  6
CONTINUOUS
 62
     5
 10
-61.0
 20
43.0
 30
0.0
 11
-61.0
 21
39.0
 31
0.0
  0
LINE
  5
261
  8
DETAIL
  6
CONTINUOUS
 62
     5
 10
-58.0
 20
50.0
 30
0.0
 11
-58.0
 21
46.0
 31
0.0
  0
LINE
  5
262
  8
DETAIL
  6
CONTINUOUS
 62
     5
 10
-58.0
 20
57.0
 30
0.0
 11
-58.0
 21
53.0
 31
0.0
  0
LINE
  5
263
  8
DETAIL
  6
CONTINUOUS
 62
     5
 10
-58.0
 20
64.0
 30
0.0
 11
-58.0
 21
60.0
 31
0.0
  0
LINE
  5
264
  8
DETAIL
  6
CONTINUOUS
 62
     5
 10
-58.0
 20
71.0
 30
0.0
 11
-58.0
 21
67.0
 31
0.0
  0
LINE
  5
265
  8
DETAIL
  6
CONTINUOUS
 62
     5
 10
-58.0
 20
78.0
 30
0.0
 11
-58.0
 21
74.0
 31
0.0
  0
LINE
  5
266
  8
DETAIL
  6
CONTINUOUS
 62
     5
 10
-58.0
 20
85.0
 30
0.0
 11
-58.0
 21
81.0
 31
0.0
  0
LINE
  5
267
  8
DETAIL
  6
CONTINUOUS
 62
     5
 10
-58.0
 20
92.0
 30
0.0
 11
-58.0
 21
88.0
 31
0.0
  0
LINE
  5
268
  8
DETAIL
  6
CONTINUOUS
 62
     5
 10
-58.0
 20
99.0
 30
0.0
 11
-58.0
 21
95.0
 31
0.0
  0
LINE
  5
269
  8
DETAIL
  6
CONTINUOUS
 62
     5
 10
-61.0
 20
50.0
 30
0.0
 11
-61.0
 21
46.0
 31
0.0
  0
LINE
  5
26A
  8
DETAIL
  6
CONTINUOUS
 62
     5
 10
-61.0
 20
57.0
 30
0.0
 11
-61.0
 21
53.0
 31
0.0
  0
LINE
  5
26B
  8
DETAIL
  6
CONTINUOUS
 62
     5
 10
-61.0
 20
64.0
 30
0.0
 11
-61.0
 21
60.0
 31
0.0
  0
LINE
  5
26C
  8
DETAIL
  6
CONTINUOUS
 62
     5
 10
-61.0
 20
71.0
 30
0.0
 11
-61.0
 21
67.0
 31
0.0
  0
LINE
  5
26D
  8
DETAIL
  6
CONTINUOUS
 62
     5
 10
-61.0
 20
78.0
 30
0.0
 11
-61.0
 21
74.0
 31
0.0
  0
LINE
  5
26E
  8
DETAIL
  6
CONTINUOUS
 62
     5
 10
-61.0
 20
85.0
 30
0.0
 11
-61.0
 21
81.0
 31
0.0
  0
LINE
  5
26F
  8
DETAIL
  6
CONTINUOUS
 62
     5
 10
-61.0
 20
92.0
 30
0.0
 11
-61.0
 21
88.0
 31
0.0
  0
LINE
  5
270
  8
DETAIL
  6
CONTINUOUS
 62
     5
 10
-61.0
 20
99.0
 30
0.0
 11
-61.0
 21
95.0
 31
0.0
  0
LINE
  5
271
  8
DETAIL
  6
CONTINUOUS
 62
     5
 10
61.0
 20
-27.0
 30
0.0
 11
61.0
 21
-31.0
 31
0.0
  0
LINE
  5
272
  8
DETAIL
  6
CONTINUOUS
 62
     5
 10
61.0
 20
-20.0
 30
0.0
 11
61.0
 21
-24.0
 31
0.0
  0
LINE
  5
273
  8
DETAIL
  6
CONTINUOUS
 62
     5
 10
61.0
 20
-13.0
 30
0.0
 11
61.0
 21
-17.0
 31
0.0
  0
LINE
  5
274
  8
DETAIL
  6
CONTINUOUS
 62
     5
 10
61.0
 20
-6.0
 30
0.0
 11
61.0
 21
-10.0
 31
0.0
  0
LINE
  5
275
  8
DETAIL
  6
CONTINUOUS
 62
     5
 10
61.0
 20
1.0
 30
0.0
 11
61.0
 21
-3.0
 31
0.0
  0
LINE
  5
276
  8
DETAIL
  6
CONTINUOUS
 62
     5
 10
61.0
 20
8.0
 30
0.0
 11
61.0
 21
4.0
 31
0.0
  0
LINE
  5
277
  8
DETAIL
  6
CONTINUOUS
 62
     5
 10
61.0
 20
15.0
 30
0.0
 11
61.0
 21
11.0
 31
0.0
  0
LINE
  5
278
  8
DETAIL
  6
CONTINUOUS
 62
     5
 10
61.0
 20
22.0
 30
0.0
 11
61.0
 21
18.0
 31
0.0
  0
LINE
  5
279
  8
DETAIL
  6
CONTINUOUS
 62
     5
 10
61.0
 20
29.0
 30
0.0
 11
61.0
 21
25.0
 31
0.0
  0
LINE
  5
27A
  8
DETAIL
  6
CONTINUOUS
 62
     5
 10
61.0
 20
36.0
 30
0.0
 11
61.0
 21
32.0
 31
0.0
  0
LINE
  5
27B
  8
DETAIL
  6
CONTINUOUS
 62
     5
 10
61.0
 20
43.0
 30
0.0
 11
61.0
 21
39.0
 31
0.0
  0
LINE
  5
27C
  8
DETAIL
  6
CONTINUOUS
 62
     5
 10
58.0
 20
-27.0
 30
0.0
 11
58.0
 21
-31.0
 31
0.0
  0
LINE
  5
27D
  8
DETAIL
  6
CONTINUOUS
 62
     5
 10
58.0
 20
-20.0
 30
0.0
 11
58.0
 21
-24.0
 31
0.0
  0
LINE
  5
27E
  8
DETAIL
  6
CONTINUOUS
 62
     5
 10
58.0
 20
-13.0
 30
0.0
 11
58.0
 21
-17.0
 31
0.0
  0
LINE
  5
27F
  8
DETAIL
  6
CONTINUOUS
 62
     5
 10
58.0
 20
-6.0
 30
0.0
 11
58.0
 21
-10.0
 31
0.0
  0
LINE
  5
280
  8
DETAIL
  6
CONTINUOUS
 62
     5
 10
58.0
 20
1.0
 30
0.0
 11
58.0
 21
-3.0
 31
0.0
  0
LINE
  5
281
  8
DETAIL
  6
CONTINUOUS
 62
     5
 10
58.0
 20
8.0
 30
0.0
 11
58.0
 21
4.0
 31
0.0
  0
LINE
  5
282
  8
DETAIL
  6
CONTINUOUS
 62
     5
 10
58.0
 20
15.0
 30
0.0
 11
58.0
 21
11.0
 31
0.0
  0
LINE
  5
283
  8
DETAIL
  6
CONTINUOUS
 62
     5
 10
58.0
 20
22.0
 30
0.0
 11
58.0
 21
18.0
 31
0.0
  0
LINE
  5
284
  8
DETAIL
  6
CONTINUOUS
 62
     5
 10
58.0
 20
29.0
 30
0.0
 11
58.0
 21
25.0
 31
0.0
  0
LINE
  5
285
  8
DETAIL
  6
CONTINUOUS
 62
     5
 10
58.0
 20
36.0
 30
0.0
 11
58.0
 21
32.0
 31
0.0
  0
LINE
  5
286
  8
DETAIL
  6
CONTINUOUS
 62
     5
 10
58.0
 20
43.0
 30
0.0
 11
58.0
 21
39.0
 31
0.0
  0
LINE
  5
287
  8
DETAIL
  6
CONTINUOUS
 62
     5
 10
61.0
 20
50.0
 30
0.0
 11
61.0
 21
46.0
 31
0.0
  0
LINE
  5
288
  8
DETAIL
  6
CONTINUOUS
 62
     5
 10
61.0
 20
57.0
 30
0.0
 11
61.0
 21
53.0
 31
0.0
  0
LINE
  5
289
  8
DETAIL
  6
CONTINUOUS
 62
     5
 10
61.0
 20
64.0
 30
0.0
 11
61.0
 21
60.0
 31
0.0
  0
LINE
  5
28A
  8
DETAIL
  6
CONTINUOUS
 62
     5
 10
61.0
 20
71.0
 30
0.0
 11
61.0
 21
67.0
 31
0.0
  0
LINE
  5
28B
  8
DETAIL
  6
CONTINUOUS
 62
     5
 10
61.0
 20
78.0
 30
0.0
 11
61.0
 21
74.0
 31
0.0
  0
LINE
  5
28C
  8
DETAIL
  6
CONTINUOUS
 62
     5
 10
61.0
 20
85.0
 30
0.0
 11
61.0
 21
81.0
 31
0.0
  0
LINE
  5
28D
  8
DETAIL
  6
CONTINUOUS
 62
     5
 10
61.0
 20
92.0
 30
0.0
 11
61.0
 21
88.0
 31
0.0
  0
LINE
  5
28E
  8
DETAIL
  6
CONTINUOUS
 62
     5
 10
61.0
 20
99.0
 30
0.0
 11
61.0
 21
95.0
 31
0.0
  0
LINE
  5
28F
  8
DETAIL
  6
CONTINUOUS
 62
     5
 10
58.0
 20
50.0
 30
0.0
 11
58.0
 21
46.0
 31
0.0
  0
LINE
  5
290
  8
DETAIL
  6
CONTINUOUS
 62
     5
 10
58.0
 20
57.0
 30
0.0
 11
58.0
 21
53.0
 31
0.0
  0
LINE
  5
291
  8
DETAIL
  6
CONTINUOUS
 62
     5
 10
58.0
 20
64.0
 30
0.0
 11
58.0
 21
60.0
 31
0.0
  0
LINE
  5
292
  8
DETAIL
  6
CONTINUOUS
 62
     5
 10
58.0
 20
71.0
 30
0.0
 11
58.0
 21
67.0
 31
0.0
  0
LINE
  5
293
  8
DETAIL
  6
CONTINUOUS
 62
     5
 10
58.0
 20
78.0
 30
0.0
 11
58.0
 21
74.0
 31
0.0
  0
LINE
  5
294
  8
DETAIL
  6
CONTINUOUS
 62
     5
 10
58.0
 20
85.0
 30
0.0
 11
58.0
 21
81.0
 31
0.0
  0
LINE
  5
295
  8
DETAIL
  6
CONTINUOUS
 62
     5
 10
58.0
 20
92.0
 30
0.0
 11
58.0
 21
88.0
 31
0.0
  0
LINE
  5
296
  8
DETAIL
  6
CONTINUOUS
 62
     5
 10
58.0
 20
99.0
 30
0.0
 11
58.0
 21
95.0
 31
0.0
  0
ARC
  5
297
  8
DETAIL
  6
CONTINUOUS
 62
     5
 10
295.0
 20
-37.5
 30
0.0
 40
0.5
 50
270.0
 51
0.0
  0
LINE
  5
298
  8
DETAIL
  6
CONTINUOUS
 62
     5
 10
275.49999999999989
 20
-34.0
 30
0.0
 11
275.49999999999989
 21
-38.0
 31
0.0
  0
LINE
  5
299
  8
DETAIL
  6
CONTINUOUS
 62
     5
 10
180.0
 20
-34.0
 30
0.0
 11
180.0
 21
-38.0
 31
0.0
  0
LINE
  5
29A
  8
DETAIL
  6
CONTINUOUS
 62
     5
 10
177.0
 20
-34.0
 30
0.0
 11
177.0
 21
-38.0
 31
0.0
  0
LINE
  5
29B
  8
DETAIL
  6
CONTINUOUS
 62
     5
 10
180.0
 20
-69.0
 30
0.0
 11
180.0
 21
-73.0
 31
0.0
  0
LINE
  5
29C
  8
DETAIL
  6
CONTINUOUS
 62
     5
 10
180.0
 20
-62.0
 30
0.0
 11
180.0
 21
-66.0
 31
0.0
  0
LINE
  5
29D
  8
DETAIL
  6
CONTINUOUS
 62
     5
 10
180.0
 20
-55.0
 30
0.0
 11
180.0
 21
-59.0
 31
0.0
  0
LINE
  5
29E
  8
DETAIL
  6
CONTINUOUS
 62
     5
 10
180.0
 20
-48.0
 30
0.0
 11
180.0
 21
-52.0
 31
0.0
  0
LINE
  5
29F
  8
DETAIL
  6
CONTINUOUS
 62
     5
 10
180.0
 20
-41.0
 30
0.0
 11
180.0
 21
-45.0
 31
0.0
  0
LINE
  5
2A0
  8
DETAIL
  6
CONTINUOUS
 62
     5
 10
177.0
 20
-69.0
 30
0.0
 11
177.0
 21
-73.0
 31
0.0
  0
LINE
  5
2A1
  8
DETAIL
  6
CONTINUOUS
 62
     5
 10
177.0
 20
-62.0
 30
0.0
 11
177.0
 21
-66.0
 31
0.0
  0
LINE
  5
2A2
  8
DETAIL
  6
CONTINUOUS
 62
     5
 10
177.0
 20
-55.0
 30
0.0
 11
177.0
 21
-59.0
 31
0.0
  0
LINE
  5
2A3
  8
DETAIL
  6
CONTINUOUS
 62
     5
 10
177.0
 20
-48.0
 30
0.0
 11
177.0
 21
-52.0
 31
0.0
  0
LINE
  5
2A4
  8
DETAIL
  6
CONTINUOUS
 62
     5
 10
177.0
 20
-41.0
 30
0.0
 11
177.0
 21
-45.0
 31
0.0
  0
ARC
  5
2A5
  8
DETAIL
  6
CONTINUOUS
 62
     5
 10
295.0
 20
-72.5
 30
0.0
 40
0.5
 50
270.0
 51
0.0
  0
ARC
  5
2A6
  8
DETAIL
  6
CONTINUOUS
 62
     5
 10
295.0
 20
-41.5
 30
0.0
 40
0.5
 50
0.0
 51
90.0
  0
ARC
  5
2A7
  8
DETAIL
  6
CONTINUOUS
 62
     5
 10
295.0
 20
-44.5
 30
0.0
 40
0.5
 50
270.0
 51
0.0
  0
ARC
  5
2A8
  8
DETAIL
  6
CONTINUOUS
 62
     5
 10
295.0
 20
-48.5
 30
0.0
 40
0.5
 50
0.0
 51
90.0
  0
ARC
  5
2A9
  8
DETAIL
  6
CONTINUOUS
 62
     5
 10
295.0
 20
-51.5
 30
0.0
 40
0.5
 50
270.0
 51
0.0
  0
ARC
  5
2AA
  8
DETAIL
  6
CONTINUOUS
 62
     5
 10
295.0
 20
-55.5
 30
0.0
 40
0.5
 50
0.0
 51
90.0
  0
ARC
  5
2AB
  8
DETAIL
  6
CONTINUOUS
 62
     5
 10
295.0
 20
-58.5
 30
0.0
 40
0.5
 50
270.0
 51
0.0
  0
ARC
  5
2AC
  8
DETAIL
  6
CONTINUOUS
 62
     5
 10
295.0
 20
-62.5
 30
0.0
 40
0.5
 50
0.0
 51
90.0
  0
ARC
  5
2AD
  8
DETAIL
  6
CONTINUOUS
 62
     5
 10
295.0
 20
-65.5
 30
0.0
 40
0.5
 50
270.0
 51
0.0
  0
ARC
  5
2AE
  8
DETAIL
  6
CONTINUOUS
 62
     5
 10
295.0
 20
-69.5
 30
0.0
 40
0.5
 50
0.0
 51
90.0
  0
LINE
  5
2AF
  8
DETAIL
  6
CONTINUOUS
 62
     5
 10
295.5
 20
-72.5
 30
0.0
 11
295.5
 21
-69.5
 31
0.0
  0
LINE
  5
2B0
  8
DETAIL
  6
CONTINUOUS
 62
     5
 10
295.5
 20
-62.5
 30
0.0
 11
295.5
 21
-65.5
 31
0.0
  0
LINE
  5
2B1
  8
DETAIL
  6
CONTINUOUS
 62
     5
 10
295.5
 20
-55.5
 30
0.0
 11
295.5
 21
-58.5
 31
0.0
  0
LINE
  5
2B2
  8
DETAIL
  6
CONTINUOUS
 62
     5
 10
295.5
 20
-48.5
 30
0.0
 11
295.5
 21
-51.5
 31
0.0
  0
LINE
  5
2B3
  8
DETAIL
  6
CONTINUOUS
 62
     5
 10
295.5
 20
-41.5
 30
0.0
 11
295.5
 21
-44.5
 31
0.0
  0
LINE
  5
2B4
  8
DETAIL
  6
CONTINUOUS
 62
     5
 10
275.49999999999989
 20
-69.0
 30
0.0
 11
275.49999999999989
 21
-73.0
 31
0.0
  0
LINE
  5
2B5
  8
DETAIL
  6
CONTINUOUS
 62
     5
 10
275.49999999999989
 20
-62.0
 30
0.0
 11
275.49999999999989
 21
-66.0
 31
0.0
  0
LINE
  5
2B6
  8
DETAIL
  6
CONTINUOUS
 62
     5
 10
275.49999999999989
 20
-55.0
 30
0.0
 11
275.49999999999989
 21
-59.0
 31
0.0
  0
LINE
  5
2B7
  8
DETAIL
  6
CONTINUOUS
 62
     5
 10
275.49999999999989
 20
-48.0
 30
0.0
 11
275.49999999999989
 21
-52.0
 31
0.0
  0
LINE
  5
2B8
  8
DETAIL
  6
CONTINUOUS
 62
     5
 10
275.49999999999989
 20
-41.0
 30
0.0
 11
275.49999999999989
 21
-45.0
 31
0.0
  0
LINE
  5
2B9
  8
DETAIL
  6
CONTINUOUS
 62
     5
 10
180.0
 20
-27.0
 30
0.0
 11
180.0
 21
-31.0
 31
0.0
  0
LINE
  5
2BA
  8
DETAIL
  6
CONTINUOUS
 62
     5
 10
180.0
 20
-20.0
 30
0.0
 11
180.0
 21
-24.0
 31
0.0
  0
LINE
  5
2BB
  8
DETAIL
  6
CONTINUOUS
 62
     5
 10
180.0
 20
-13.0
 30
0.0
 11
180.0
 21
-17.0
 31
0.0
  0
LINE
  5
2BC
  8
DETAIL
  6
CONTINUOUS
 62
     5
 10
180.0
 20
-6.0
 30
0.0
 11
180.0
 21
-10.0
 31
0.0
  0
LINE
  5
2BD
  8
DETAIL
  6
CONTINUOUS
 62
     5
 10
180.0
 20
1.0
 30
0.0
 11
180.0
 21
-3.0
 31
0.0
  0
LINE
  5
2BE
  8
DETAIL
  6
CONTINUOUS
 62
     5
 10
180.0
 20
8.0
 30
0.0
 11
180.0
 21
4.0
 31
0.0
  0
LINE
  5
2BF
  8
DETAIL
  6
CONTINUOUS
 62
     5
 10
180.0
 20
15.0
 30
0.0
 11
180.0
 21
11.0
 31
0.0
  0
LINE
  5
2C0
  8
DETAIL
  6
CONTINUOUS
 62
     5
 10
180.0
 20
22.0
 30
0.0
 11
180.0
 21
18.0
 31
0.0
  0
LINE
  5
2C1
  8
DETAIL
  6
CONTINUOUS
 62
     5
 10
180.0
 20
29.0
 30
0.0
 11
180.0
 21
25.0
 31
0.0
  0
LINE
  5
2C2
  8
DETAIL
  6
CONTINUOUS
 62
     5
 10
180.0
 20
36.0
 30
0.0
 11
180.0
 21
32.0
 31
0.0
  0
LINE
  5
2C3
  8
DETAIL
  6
CONTINUOUS
 62
     5
 10
180.0
 20
43.0
 30
0.0
 11
180.0
 21
39.0
 31
0.0
  0
LINE
  5
2C4
  8
DETAIL
  6
CONTINUOUS
 62
     5
 10
177.0
 20
-27.0
 30
0.0
 11
177.0
 21
-31.0
 31
0.0
  0
LINE
  5
2C5
  8
DETAIL
  6
CONTINUOUS
 62
     5
 10
177.0
 20
-20.0
 30
0.0
 11
177.0
 21
-24.0
 31
0.0
  0
LINE
  5
2C6
  8
DETAIL
  6
CONTINUOUS
 62
     5
 10
177.0
 20
-13.0
 30
0.0
 11
177.0
 21
-17.0
 31
0.0
  0
LINE
  5
2C7
  8
DETAIL
  6
CONTINUOUS
 62
     5
 10
177.0
 20
-6.0
 30
0.0
 11
177.0
 21
-10.0
 31
0.0
  0
LINE
  5
2C8
  8
DETAIL
  6
CONTINUOUS
 62
     5
 10
177.0
 20
1.0
 30
0.0
 11
177.0
 21
-3.0
 31
0.0
  0
LINE
  5
2C9
  8
DETAIL
  6
CONTINUOUS
 62
     5
 10
177.0
 20
8.0
 30
0.0
 11
177.0
 21
4.0
 31
0.0
  0
LINE
  5
2CA
  8
DETAIL
  6
CONTINUOUS
 62
     5
 10
177.0
 20
15.0
 30
0.0
 11
177.0
 21
11.0
 31
0.0
  0
LINE
  5
2CB
  8
DETAIL
  6
CONTINUOUS
 62
     5
 10
177.0
 20
22.0
 30
0.0
 11
177.0
 21
18.0
 31
0.0
  0
LINE
  5
2CC
  8
DETAIL
  6
CONTINUOUS
 62
     5
 10
177.0
 20
29.0
 30
0.0
 11
177.0
 21
25.0
 31
0.0
  0
LINE
  5
2CD
  8
DETAIL
  6
CONTINUOUS
 62
     5
 10
177.0
 20
36.0
 30
0.0
 11
177.0
 21
32.0
 31
0.0
  0
LINE
  5
2CE
  8
DETAIL
  6
CONTINUOUS
 62
     5
 10
177.0
 20
43.0
 30
0.0
 11
177.0
 21
39.0
 31
0.0
  0
LINE
  5
2CF
  8
DETAIL
  6
CONTINUOUS
 62
     5
 10
180.0
 20
50.0
 30
0.0
 11
180.0
 21
46.0
 31
0.0
  0
LINE
  5
2D0
  8
DETAIL
  6
CONTINUOUS
 62
     5
 10
180.0
 20
57.0
 30
0.0
 11
180.0
 21
53.0
 31
0.0
  0
LINE
  5
2D1
  8
DETAIL
  6
CONTINUOUS
 62
     5
 10
180.0
 20
64.0
 30
0.0
 11
180.0
 21
60.0
 31
0.0
  0
LINE
  5
2D2
  8
DETAIL
  6
CONTINUOUS
 62
     5
 10
180.0
 20
71.0
 30
0.0
 11
180.0
 21
67.0
 31
0.0
  0
LINE
  5
2D3
  8
DETAIL
  6
CONTINUOUS
 62
     5
 10
180.0
 20
78.0
 30
0.0
 11
180.0
 21
74.0
 31
0.0
  0
LINE
  5
2D4
  8
DETAIL
  6
CONTINUOUS
 62
     5
 10
180.0
 20
85.0
 30
0.0
 11
180.0
 21
81.0
 31
0.0
  0
LINE
  5
2D5
  8
DETAIL
  6
CONTINUOUS
 62
     5
 10
180.0
 20
92.0
 30
0.0
 11
180.0
 21
88.0
 31
0.0
  0
LINE
  5
2D6
  8
DETAIL
  6
CONTINUOUS
 62
     5
 10
180.0
 20
99.0
 30
0.0
 11
180.0
 21
95.0
 31
0.0
  0
LINE
  5
2D7
  8
DETAIL
  6
CONTINUOUS
 62
     5
 10
177.0
 20
50.0
 30
0.0
 11
177.0
 21
46.0
 31
0.0
  0
LINE
  5
2D8
  8
DETAIL
  6
CONTINUOUS
 62
     5
 10
177.0
 20
57.0
 30
0.0
 11
177.0
 21
53.0
 31
0.0
  0
LINE
  5
2D9
  8
DETAIL
  6
CONTINUOUS
 62
     5
 10
177.0
 20
64.0
 30
0.0
 11
177.0
 21
60.0
 31
0.0
  0
LINE
  5
2DA
  8
DETAIL
  6
CONTINUOUS
 62
     5
 10
177.0
 20
71.0
 30
0.0
 11
177.0
 21
67.0
 31
0.0
  0
LINE
  5
2DB
  8
DETAIL
  6
CONTINUOUS
 62
     5
 10
177.0
 20
78.0
 30
0.0
 11
177.0
 21
74.0
 31
0.0
  0
LINE
  5
2DC
  8
DETAIL
  6
CONTINUOUS
 62
     5
 10
177.0
 20
85.0
 30
0.0
 11
177.0
 21
81.0
 31
0.0
  0
LINE
  5
2DD
  8
DETAIL
  6
CONTINUOUS
 62
     5
 10
177.0
 20
92.0
 30
0.0
 11
177.0
 21
88.0
 31
0.0
  0
LINE
  5
2DE
  8
DETAIL
  6
CONTINUOUS
 62
     5
 10
177.0
 20
99.0
 30
0.0
 11
177.0
 21
95.0
 31
0.0
  0
ARC
  5
2DF
  8
DETAIL
  6
CONTINUOUS
 62
     5
 10
295.0
 20
42.5
 30
0.0
 40
0.5
 50
0.0
 51
90.0
  0
ARC
  5
2E0
  8
DETAIL
  6
CONTINUOUS
 62
     5
 10
295.0
 20
39.5
 30
0.0
 40
0.5
 50
270.0
 51
0.0
  0
ARC
  5
2E1
  8
DETAIL
  6
CONTINUOUS
 62
     5
 10
295.0
 20
35.5
 30
0.0
 40
0.5
 50
0.0
 51
90.0
  0
ARC
  5
2E2
  8
DETAIL
  6
CONTINUOUS
 62
     5
 10
295.0
 20
32.5
 30
0.0
 40
0.5
 50
270.0
 51
0.0
  0
ARC
  5
2E3
  8
DETAIL
  6
CONTINUOUS
 62
     5
 10
295.0
 20
28.5
 30
0.0
 40
0.5
 50
0.0
 51
90.0
  0
ARC
  5
2E4
  8
DETAIL
  6
CONTINUOUS
 62
     5
 10
295.0
 20
25.5
 30
0.0
 40
0.5
 50
270.0
 51
0.0
  0
ARC
  5
2E5
  8
DETAIL
  6
CONTINUOUS
 62
     5
 10
295.0
 20
21.499999999999989
 30
0.0
 40
0.5
 50
0.0
 51
90.0
  0
ARC
  5
2E6
  8
DETAIL
  6
CONTINUOUS
 62
     5
 10
295.0
 20
18.5
 30
0.0
 40
0.5
 50
270.0
 51
0.0
  0
ARC
  5
2E7
  8
DETAIL
  6
CONTINUOUS
 62
     5
 10
295.0
 20
14.5
 30
0.0
 40
0.5
 50
0.0
 51
90.0
  0
ARC
  5
2E8
  8
DETAIL
  6
CONTINUOUS
 62
     5
 10
295.0
 20
11.5
 30
0.0
 40
0.5
 50
270.0
 51
0.0
  0
ARC
  5
2E9
  8
DETAIL
  6
CONTINUOUS
 62
     5
 10
295.0
 20
7.5
 30
0.0
 40
0.5
 50
0.0
 51
90.0
  0
ARC
  5
2EA
  8
DETAIL
  6
CONTINUOUS
 62
     5
 10
295.0
 20
4.5
 30
0.0
 40
0.5
 50
270.0
 51
0.0
  0
ARC
  5
2EB
  8
DETAIL
  6
CONTINUOUS
 62
     5
 10
295.0
 20
0.5
 30
0.0
 40
0.5
 50
0.0
 51
90.0
  0
ARC
  5
2EC
  8
DETAIL
  6
CONTINUOUS
 62
     5
 10
295.0
 20
-2.5
 30
0.0
 40
0.5
 50
270.0
 51
0.0
  0
ARC
  5
2ED
  8
DETAIL
  6
CONTINUOUS
 62
     5
 10
295.0
 20
-6.5
 30
0.0
 40
0.5
 50
0.0
 51
90.0
  0
ARC
  5
2EE
  8
DETAIL
  6
CONTINUOUS
 62
     5
 10
295.0
 20
-9.5
 30
0.0
 40
0.5
 50
270.0
 51
0.0
  0
ARC
  5
2EF
  8
DETAIL
  6
CONTINUOUS
 62
     5
 10
295.0
 20
-13.5
 30
0.0
 40
0.5
 50
0.0
 51
90.0
  0
ARC
  5
2F0
  8
DETAIL
  6
CONTINUOUS
 62
     5
 10
295.0
 20
-16.5
 30
0.0
 40
0.5
 50
270.0
 51
0.0
  0
ARC
  5
2F1
  8
DETAIL
  6
CONTINUOUS
 62
     5
 10
295.0
 20
-20.5
 30
0.0
 40
0.5
 50
0.0
 51
90.0
  0
ARC
  5
2F2
  8
DETAIL
  6
CONTINUOUS
 62
     5
 10
295.0
 20
-23.5
 30
0.0
 40
0.5
 50
270.0
 51
0.0
  0
ARC
  5
2F3
  8
DETAIL
  6
CONTINUOUS
 62
     5
 10
295.0
 20
-27.5
 30
0.0
 40
0.5
 50
0.0
 51
90.0
  0
ARC
  5
2F4
  8
DETAIL
  6
CONTINUOUS
 62
     5
 10
295.0
 20
-30.5
 30
0.0
 40
0.5
 50
270.0
 51
0.0
  0
ARC
  5
2F5
  8
DETAIL
  6
CONTINUOUS
 62
     5
 10
295.0
 20
-34.5
 30
0.0
 40
0.5
 50
0.0
 51
90.0
  0
LINE
  5
2F6
  8
DETAIL
  6
CONTINUOUS
 62
     5
 10
295.5
 20
-34.5
 30
0.0
 11
295.5
 21
-37.5
 31
0.0
  0
LINE
  5
2F7
  8
DETAIL
  6
CONTINUOUS
 62
     5
 10
295.5
 20
-27.5
 30
0.0
 11
295.5
 21
-30.5
 31
0.0
  0
LINE
  5
2F8
  8
DETAIL
  6
CONTINUOUS
 62
     5
 10
295.5
 20
-20.5
 30
0.0
 11
295.5
 21
-23.5
 31
0.0
  0
LINE
  5
2F9
  8
DETAIL
  6
CONTINUOUS
 62
     5
 10
295.5
 20
-13.5
 30
0.0
 11
295.5
 21
-16.5
 31
0.0
  0
LINE
  5
2FA
  8
DETAIL
  6
CONTINUOUS
 62
     5
 10
295.5
 20
-6.5
 30
0.0
 11
295.5
 21
-9.5
 31
0.0
  0
LINE
  5
2FB
  8
DETAIL
  6
CONTINUOUS
 62
     5
 10
295.5
 20
0.5
 30
0.0
 11
295.5
 21
-2.5
 31
0.0
  0
LINE
  5
2FC
  8
DETAIL
  6
CONTINUOUS
 62
     5
 10
295.5
 20
7.5
 30
0.0
 11
295.5
 21
4.5
 31
0.0
  0
LINE
  5
2FD
  8
DETAIL
  6
CONTINUOUS
 62
     5
 10
295.5
 20
14.5
 30
0.0
 11
295.5
 21
11.5
 31
0.0
  0
LINE
  5
2FE
  8
DETAIL
  6
CONTINUOUS
 62
     5
 10
295.5
 20
21.499999999999989
 30
0.0
 11
295.5
 21
18.5
 31
0.0
  0
LINE
  5
2FF
  8
DETAIL
  6
CONTINUOUS
 62
     5
 10
295.5
 20
28.5
 30
0.0
 11
295.5
 21
25.5
 31
0.0
  0
LINE
  5
300
  8
DETAIL
  6
CONTINUOUS
 62
     5
 10
295.5
 20
35.5
 30
0.0
 11
295.5
 21
32.5
 31
0.0
  0
LINE
  5
301
  8
DETAIL
  6
CONTINUOUS
 62
     5
 10
295.5
 20
42.5
 30
0.0
 11
295.5
 21
39.5
 31
0.0
  0
LINE
  5
302
  8
DETAIL
  6
CONTINUOUS
 62
     5
 10
275.49999999999989
 20
-27.0
 30
0.0
 11
275.49999999999989
 21
-31.0
 31
0.0
  0
LINE
  5
303
  8
DETAIL
  6
CONTINUOUS
 62
     5
 10
275.49999999999989
 20
-20.0
 30
0.0
 11
275.49999999999989
 21
-24.0
 31
0.0
  0
LINE
  5
304
  8
DETAIL
  6
CONTINUOUS
 62
     5
 10
275.49999999999989
 20
-13.0
 30
0.0
 11
275.49999999999989
 21
-17.0
 31
0.0
  0
LINE
  5
305
  8
DETAIL
  6
CONTINUOUS
 62
     5
 10
275.49999999999989
 20
-6.0
 30
0.0
 11
275.49999999999989
 21
-10.0
 31
0.0
  0
LINE
  5
306
  8
DETAIL
  6
CONTINUOUS
 62
     5
 10
275.49999999999989
 20
1.0
 30
0.0
 11
275.49999999999989
 21
-3.0
 31
0.0
  0
LINE
  5
307
  8
DETAIL
  6
CONTINUOUS
 62
     5
 10
275.49999999999989
 20
8.0
 30
0.0
 11
275.49999999999989
 21
4.0
 31
0.0
  0
LINE
  5
308
  8
DETAIL
  6
CONTINUOUS
 62
     5
 10
275.49999999999989
 20
15.0
 30
0.0
 11
275.49999999999989
 21
11.0
 31
0.0
  0
LINE
  5
309
  8
DETAIL
  6
CONTINUOUS
 62
     5
 10
275.49999999999989
 20
22.0
 30
0.0
 11
275.49999999999989
 21
18.0
 31
0.0
  0
LINE
  5
30A
  8
DETAIL
  6
CONTINUOUS
 62
     5
 10
275.49999999999989
 20
29.0
 30
0.0
 11
275.49999999999989
 21
25.0
 31
0.0
  0
LINE
  5
30B
  8
DETAIL
  6
CONTINUOUS
 62
     5
 10
275.49999999999989
 20
36.0
 30
0.0
 11
275.49999999999989
 21
32.0
 31
0.0
  0
LINE
  5
30C
  8
DETAIL
  6
CONTINUOUS
 62
     5
 10
275.49999999999989
 20
43.0
 30
0.0
 11
275.49999999999989
 21
39.0
 31
0.0
  0
ARC
  5
30D
  8
DETAIL
  6
CONTINUOUS
 62
     5
 10
295.0
 20
98.500000000000014
 30
0.0
 40
0.5
 50
0.0
 51
90.0
  0
ARC
  5
30E
  8
DETAIL
  6
CONTINUOUS
 62
     5
 10
295.0
 20
95.5
 30
0.0
 40
0.5
 50
270.0
 51
0.0
  0
ARC
  5
30F
  8
DETAIL
  6
CONTINUOUS
 62
     5
 10
295.0
 20
91.5
 30
0.0
 40
0.5
 50
0.0
 51
90.0
  0
ARC
  5
310
  8
DETAIL
  6
CONTINUOUS
 62
     5
 10
295.0
 20
88.499999999999986
 30
0.0
 40
0.5
 50
270.0
 51
0.0
  0
ARC
  5
311
  8
DETAIL
  6
CONTINUOUS
 62
     5
 10
295.0
 20
84.500000000000014
 30
0.0
 40
0.5
 50
0.0
 51
90.0
  0
ARC
  5
312
  8
DETAIL
  6
CONTINUOUS
 62
     5
 10
295.0
 20
81.5
 30
0.0
 40
0.5
 50
270.0
 51
0.0
  0
ARC
  5
313
  8
DETAIL
  6
CONTINUOUS
 62
     5
 10
295.0
 20
77.5
 30
0.0
 40
0.5
 50
0.0
 51
90.0
  0
ARC
  5
314
  8
DETAIL
  6
CONTINUOUS
 62
     5
 10
295.0
 20
74.5
 30
0.0
 40
0.5
 50
270.0
 51
0.0
  0
ARC
  5
315
  8
DETAIL
  6
CONTINUOUS
 62
     5
 10
295.0
 20
70.5
 30
0.0
 40
0.5
 50
0.0
 51
90.0
  0
ARC
  5
316
  8
DETAIL
  6
CONTINUOUS
 62
     5
 10
295.0
 20
67.5
 30
0.0
 40
0.5
 50
270.0
 51
0.0
  0
ARC
  5
317
  8
DETAIL
  6
CONTINUOUS
 62
     5
 10
295.0
 20
63.5
 30
0.0
 40
0.5
 50
0.0
 51
90.0
  0
ARC
  5
318
  8
DETAIL
  6
CONTINUOUS
 62
     5
 10
295.0
 20
60.5
 30
0.0
 40
0.5
 50
270.0
 51
0.0
  0
ARC
  5
319
  8
DETAIL
  6
CONTINUOUS
 62
     5
 10
295.0
 20
56.5
 30
0.0
 40
0.5
 50
0.0
 51
90.0
  0
ARC
  5
31A
  8
DETAIL
  6
CONTINUOUS
 62
     5
 10
295.0
 20
53.5
 30
0.0
 40
0.5
 50
270.0
 51
0.0
  0
ARC
  5
31B
  8
DETAIL
  6
CONTINUOUS
 62
     5
 10
295.0
 20
49.5
 30
0.0
 40
0.5
 50
0.0
 51
90.0
  0
ARC
  5
31C
  8
DETAIL
  6
CONTINUOUS
 62
     5
 10
295.0
 20
46.5
 30
0.0
 40
0.5
 50
270.0
 51
0.0
  0
LINE
  5
31D
  8
DETAIL
  6
CONTINUOUS
 62
     5
 10
295.5
 20
95.5
 30
0.0
 11
295.5
 21
98.500000000000014
 31
0.0
  0
LINE
  5
31E
  8
DETAIL
  6
CONTINUOUS
 62
     5
 10
295.5
 20
49.5
 30
0.0
 11
295.5
 21
46.5
 31
0.0
  0
LINE
  5
31F
  8
DETAIL
  6
CONTINUOUS
 62
     5
 10
295.5
 20
56.5
 30
0.0
 11
295.5
 21
53.5
 31
0.0
  0
LINE
  5
320
  8
DETAIL
  6
CONTINUOUS
 62
     5
 10
295.5
 20
63.5
 30
0.0
 11
295.5
 21
60.5
 31
0.0
  0
LINE
  5
321
  8
DETAIL
  6
CONTINUOUS
 62
     5
 10
295.5
 20
70.5
 30
0.0
 11
295.5
 21
67.5
 31
0.0
  0
LINE
  5
322
  8
DETAIL
  6
CONTINUOUS
 62
     5
 10
295.5
 20
77.5
 30
0.0
 11
295.5
 21
74.5
 31
0.0
  0
LINE
  5
323
  8
DETAIL
  6
CONTINUOUS
 62
     5
 10
295.5
 20
84.500000000000014
 30
0.0
 11
295.5
 21
81.5
 31
0.0
  0
LINE
  5
324
  8
DETAIL
  6
CONTINUOUS
 62
     5
 10
295.5
 20
91.5
 30
0.0
 11
295.5
 21
88.499999999999986
 31
0.0
  0
LINE
  5
325
  8
DETAIL
  6
CONTINUOUS
 62
     5
 10
275.49999999999989
 20
95.0
 30
0.0
 11
275.49999999999989
 21
99.0
 31
0.0
  0
LINE
  5
326
  8
DETAIL
  6
CONTINUOUS
 62
     5
 10
275.49999999999989
 20
50.0
 30
0.0
 11
275.49999999999989
 21
46.0
 31
0.0
  0
LINE
  5
327
  8
DETAIL
  6
CONTINUOUS
 62
     5
 10
275.49999999999989
 20
57.0
 30
0.0
 11
275.49999999999989
 21
53.0
 31
0.0
  0
LINE
  5
328
  8
DETAIL
  6
CONTINUOUS
 62
     5
 10
275.49999999999989
 20
64.0
 30
0.0
 11
275.49999999999989
 21
60.0
 31
0.0
  0
LINE
  5
329
  8
DETAIL
  6
CONTINUOUS
 62
     5
 10
275.49999999999989
 20
71.0
 30
0.0
 11
275.49999999999989
 21
67.0
 31
0.0
  0
LINE
  5
32A
  8
DETAIL
  6
CONTINUOUS
 62
     5
 10
275.49999999999989
 20
78.0
 30
0.0
 11
275.49999999999989
 21
74.0
 31
0.0
  0
LINE
  5
32B
  8
DETAIL
  6
CONTINUOUS
 62
     5
 10
275.49999999999989
 20
85.0
 30
0.0
 11
275.49999999999989
 21
81.0
 31
0.0
  0
LINE
  5
32C
  8
DETAIL
  6
CONTINUOUS
 62
     5
 10
275.49999999999989
 20
92.0
 30
0.0
 11
275.49999999999989
 21
88.0
 31
0.0
  0
ARC
  5
32D
  8
DETAIL
  6
CONTINUOUS
 62
     5
 10
0.0
 20
-303.0
 30
0.0
 40
201.0
 50
72.729995000000002
 51
107.2700049999999
  0
LINE
  5
32E
  8
DETAIL
  6
CONTINUOUS
 62
     5
 10
66.0
 20
-136.25
 30
0.0
 11
-66.0
 21
-136.25
 31
0.0
  0
LINE
  5
32F
  8
DETAIL
  6
CONTINUOUS
 62
     5
 10
-66.0
 20
-138.96247500000001
 30
0.0
 11
-66.0
 21
-119.65606099999999
 31
0.0
  0
LINE
  5
330
  8
DETAIL
  6
CONTINUOUS
 62
     5
 10
-66.002479000000008
 20
-138.6868959999999
 30
0.0
 11
-66.0
 21
-138.64634099999989
 31
0.0
  0
LINE
  5
331
  8
DETAIL
  6
CONTINUOUS
 62
     5
 10
-66.010209000000003
 20
-138.72810799999999
 30
0.0
 11
-66.002479000000008
 21
-138.6868959999999
 31
0.0
  0
LINE
  5
332
  8
DETAIL
  6
CONTINUOUS
 62
     5
 10
-66.023526000000004
 20
-138.76906099999999
 30
0.0
 11
-66.010209000000003
 21
-138.72810799999999
 31
0.0
  0
LINE
  5
333
  8
DETAIL
  6
CONTINUOUS
 62
     5
 10
-66.042709000000002
 20
-138.8089149999999
 30
0.0
 11
-66.023526000000004
 21
-138.76906099999999
 31
0.0
  0
LINE
  5
334
  8
DETAIL
  6
CONTINUOUS
 62
     5
 10
-66.068044999999984
 20
-138.84682699999991
 30
0.0
 11
-66.042709000000002
 21
-138.8089149999999
 31
0.0
  0
LINE
  5
335
  8
DETAIL
  6
CONTINUOUS
 62
     5
 10
-66.099888000000007
 20
-138.88186799999991
 30
0.0
 11
-66.068044999999984
 21
-138.84682699999991
 31
0.0
  0
LINE
  5
336
  8
DETAIL
  6
CONTINUOUS
 62
     5
 10
-66.138691000000009
 20
-138.91288599999999
 30
0.0
 11
-66.099888000000007
 21
-138.88186799999991
 31
0.0
  0
LINE
  5
337
  8
DETAIL
  6
CONTINUOUS
 62
     5
 10
-66.184964000000008
 20
-138.93831
 30
0.0
 11
-66.138691000000009
 21
-138.91288599999999
 31
0.0
  0
LINE
  5
338
  8
DETAIL
  6
CONTINUOUS
 62
     5
 10
-66.238973000000001
 20
-138.9558649999999
 30
0.0
 11
-66.184964000000008
 21
-138.93831
 31
0.0
  0
LINE
  5
339
  8
DETAIL
  6
CONTINUOUS
 62
     5
 10
-66.299999999999983
 20
-138.96247500000001
 30
0.0
 11
-66.238973000000001
 21
-138.9558649999999
 31
0.0
  0
ARC
  5
33A
  8
DETAIL
  6
CONTINUOUS
 62
     5
 10
-57.0
 20
-119.65606099999999
 30
0.0
 40
9.0
 50
107.2700049999999
 51
180.0
  0
LINE
  5
33B
  8
DETAIL
  6
CONTINUOUS
 62
     5
 10
66.0
 20
-138.96247500000001
 30
0.0
 11
66.0
 21
-119.65606099999999
 31
0.0
  0
CIRCLE
  5
33C
  8
DETAIL
  6
CONTINUOUS
 62
     5
 10
0.0
 20
-124.5
 30
0.0
 40
2.5
  0
LINE
  5
33D
  8
DETAIL
  6
CONTINUOUS
 62
     5
 10
66.002479000000008
 20
-138.6868959999999
 30
0.0
 11
66.0
 21
-138.64634099999989
 31
0.0
  0
LINE
  5
33E
  8
DETAIL
  6
CONTINUOUS
 62
     5
 10
66.010209000000003
 20
-138.72810799999999
 30
0.0
 11
66.002479000000008
 21
-138.6868959999999
 31
0.0
  0
LINE
  5
33F
  8
DETAIL
  6
CONTINUOUS
 62
     5
 10
66.023526000000004
 20
-138.76906099999999
 30
0.0
 11
66.010209000000003
 21
-138.72810799999999
 31
0.0
  0
LINE
  5
340
  8
DETAIL
  6
CONTINUOUS
 62
     5
 10
66.042709000000002
 20
-138.8089149999999
 30
0.0
 11
66.023526000000004
 21
-138.76906099999999
 31
0.0
  0
LINE
  5
341
  8
DETAIL
  6
CONTINUOUS
 62
     5
 10
66.068044999999984
 20
-138.84682699999991
 30
0.0
 11
66.042709000000002
 21
-138.8089149999999
 31
0.0
  0
LINE
  5
342
  8
DETAIL
  6
CONTINUOUS
 62
     5
 10
66.099888000000007
 20
-138.88186799999991
 30
0.0
 11
66.068044999999984
 21
-138.84682699999991
 31
0.0
  0
LINE
  5
343
  8
DETAIL
  6
CONTINUOUS
 62
     5
 10
66.138691000000009
 20
-138.91288599999999
 30
0.0
 11
66.099888000000007
 21
-138.88186799999991
 31
0.0
  0
LINE
  5
344
  8
DETAIL
  6
CONTINUOUS
 62
     5
 10
66.184964000000008
 20
-138.93831
 30
0.0
 11
66.138691000000009
 21
-138.91288599999999
 31
0.0
  0
LINE
  5
345
  8
DETAIL
  6
CONTINUOUS
 62
     5
 10
66.238973000000001
 20
-138.9558649999999
 30
0.0
 11
66.184964000000008
 21
-138.93831
 31
0.0
  0
LINE
  5
346
  8
DETAIL
  6
CONTINUOUS
 62
     5
 10
66.299999999999983
 20
-138.96247500000001
 30
0.0
 11
66.238973000000001
 21
-138.9558649999999
 31
0.0
  0
ARC
  5
347
  8
DETAIL
  6
CONTINUOUS
 62
     5
 10
57.0
 20
-119.65606099999999
 30
0.0
 40
9.0
 50
0.0
 51
72.729995000000002
  0
LINE
  5
348
  8
DETAIL
  6
CONTINUOUS
 62
     5
 10
66.0
 20
-138.96247500000001
 30
0.0
 11
292.48166099999992
 21
-138.96247500000001
 31
0.0
  0
TEXT
  5
355
  8
ETC
  6
CONTINUOUS
 62
    61
 10
854.85889310937728
 20
497.07887805908189
 30
0.0
 40
50.0
  1
VL-18EUH2
 41
0.9
  0
TEXT
  5
356
  8
ETC
  6
CONTINUOUS
 62
    61
 10
721.40848035919964
 20
674.80487842071511
 30
0.0
 40
64.0
  1
VL-18EUH2_2
 41
0.9
  0
TEXT
  5
357
  8
ETC
  6
CONTINUOUS
 62
    61
 10
724.63237435919973
 20
571.84872542071514
 30
0.0
 40
64.0
  1
換気扇
 41
0.9
  0
ENDSEC
  0
EOF
