  0
SECTION
  2
HEADER
  9
$ACADVER
  1
AC1009
  9
$INSBASE
 10
0.0
 20
0.0
 30
0.0
  9
$EXTMIN
 10
-1389.3181340000001
 20
-1162.2681039999991
 30
0.0
  9
$EXTMAX
 10
1656.917540837336
 20
1106.788031
 30
50.0
  9
$LIMMIN
 10
-2970.0
 20
-2100.0
  9
$LIMMAX
 10
2970.0
 20
2100.0
  9
$ORTHOMODE
 70
     1
  9
$REGENMODE
 70
     0
  9
$FILLMODE
 70
     1
  9
$QTEXTMODE
 70
     0
  9
$MIRRTEXT
 70
     0
  9
$DRAGMODE
 70
     2
  9
$LTSCALE
 40
20.0
  9
$OSMODE
 70
   167
  9
$ATTMODE
 70
     1
  9
$TEXTSIZE
 40
64.0
  9
$TRACEWID
 40
0.05
  9
$TEXTSTYLE
  7
STANDARD
  9
$CLAYER
  8
SIZE
  9
$CELTYPE
  6
CONTINUOUS
  9
$CECOLOR
 62
    30
  9
$DIMSCALE
 40
1.0
  9
$DIMASZ
 40
12.0
  9
$DIMEXO
 40
20.0
  9
$DIMDLI
 40
200.0
  9
$DIMRND
 40
0.0
  9
$DIMDLE
 40
0.0
  9
$DIMEXE
 40
20.0
  9
$DIMTP
 40
0.0
  9
$DIMTM
 40
0.0
  9
$DIMTXT
 40
64.0
  9
$DIMCEN
 40
0.09
  9
$DIMTSZ
 40
0.0
  9
$DIMTOL
 70
     0
  9
$DIMLIM
 70
     0
  9
$DIMTIH
 70
     0
  9
$DIMTOH
 70
     0
  9
$DIMSE1
 70
     0
  9
$DIMSE2
 70
     0
  9
$DIMTAD
 70
     1
  9
$DIMZIN
 70
     8
  9
$DIMBLK
  1
DOT1
  9
$DIMASO
 70
     1
  9
$DIMSHO
 70
     0
  9
$DIMPOST
  1

  9
$DIMAPOST
  1

  9
$DIMALT
 70
     0
  9
$DIMALTD
 70
     2
  9
$DIMALTF
 40
25.399999999999999
  9
$DIMLFAC
 40
1.0
  9
$DIMTOFL
 70
     1
  9
$DIMTVP
 40
0.0
  9
$DIMTIX
 70
     1
  9
$DIMSOXD
 70
     0
  9
$DIMSAH
 70
     1
  9
$DIMBLK1
  1
ORIGIN
  9
$DIMBLK2
  1
ORIGIN
  9
$DIMSTYLE
  2
STANDARD
  9
$DIMCLRD
 70
     7
  9
$DIMCLRE
 70
     7
  9
$DIMCLRT
 70
     7
  9
$DIMTFAC
 40
1.0
  9
$DIMGAP
 40
25.0
  9
$LUNITS
 70
     2
  9
$LUPREC
 70
     4
  9
$SKETCHINC
 40
0.1
  9
$FILLETRAD
 40
4.0
  9
$AUNITS
 70
     1
  9
$AUPREC
 70
     3
  9
$MENU
  1
ACAD
  9
$ELEVATION
 40
0.0
  9
$PELEVATION
 40
0.0
  9
$THICKNESS
 40
50.0
  9
$LIMCHECK
 70
     0
  9
$BLIPMODE
 70
     0
  9
$CHAMFERA
 40
0.0
  9
$CHAMFERB
 40
0.0
  9
$SKPOLY
 70
     0
  9
$TDCREATE
 40
2453097.5814316659
  9
$TDUPDATE
 40
2454152.8306631478
  9
$TDINDWG
 40
0.1608234722
  9
$TDUSRTIMER
 40
0.1608234722
  9
$USRTIMER
 70
     1
  9
$ANGBASE
 50
0.0
  9
$ANGDIR
 70
     0
  9
$PDMODE
 70
     3
  9
$PDSIZE
 40
-2.0
  9
$PLINEWID
 40
0.0
  9
$COORDS
 70
     0
  9
$SPLFRAME
 70
     0
  9
$SPLINETYPE
 70
     6
  9
$SPLINESEGS
 70
     8
  9
$ATTDIA
 70
     0
  9
$ATTREQ
 70
     1
  9
$HANDLING
 70
 22529
  9
$HANDSEED
  5
4D4
  9
$SURFTAB1
 70
     6
  9
$SURFTAB2
 70
     6
  9
$SURFTYPE
 70
     6
  9
$SURFU
 70
     6
  9
$SURFV
 70
     6
  9
$UCSNAME
  2

  9
$UCSORG
 10
0.0
 20
0.0
 30
0.0
  9
$UCSXDIR
 10
1.0
 20
0.0
 30
0.0
  9
$UCSYDIR
 10
0.0
 20
1.0
 30
0.0
  9
$PUCSNAME
  2

  9
$PUCSORG
 10
0.0
 20
0.0
 30
0.0
  9
$PUCSXDIR
 10
1.0
 20
0.0
 30
0.0
  9
$PUCSYDIR
 10
0.0
 20
1.0
 30
0.0
  9
$USERI1
 70
     0
  9
$USERI2
 70
     0
  9
$USERI3
 70
     0
  9
$USERI4
 70
     0
  9
$USERI5
 70
     0
  9
$USERR1
 40
20.0
  9
$USERR2
 40
0.0
  9
$USERR3
 40
0.0
  9
$USERR4
 40
0.0
  9
$USERR5
 40
0.0
  9
$WORLDVIEW
 70
     1
  9
$SHADEDGE
 70
     3
  9
$SHADEDIF
 70
    70
  9
$TILEMODE
 70
     1
  9
$MAXACTVP
 70
    48
  9
$PLIMCHECK
 70
     0
  9
$PEXTMIN
 10
-1.0000000000000000E+020
 20
-1.0000000000000000E+020
 30
-1.0000000000000000E+020
  9
$PEXTMAX
 10
1.0000000000000000E+020
 20
1.0000000000000000E+020
 30
1.0000000000000000E+020
  9
$PLIMMIN
 10
0.0
 20
0.0
  9
$PLIMMAX
 10
12.0
 20
9.0
  9
$UNITMODE
 70
     0
  9
$VISRETAIN
 70
     0
  9
$PLINEGEN
 70
     0
  9
$PSLTSCALE
 70
     0
  0
ENDSEC
  0
SECTION
  2
TABLES
  0
TABLE
  2
VPORT
 70
     4
  0
VPORT
  2
*ACTIVE
 70
     0
 10
0.0
 20
0.0
 11
1.0
 21
1.0
 12
113.0449496220599
 22
-27.739522949132379
 13
0.0
 23
0.0
 14
1.0
 24
1.0
 15
0.0
 25
0.0
 16
0.0
 26
0.0
 36
1.0
 17
0.0
 27
0.0
 37
0.0
 40
2286.858558233137
 41
1.710526315789473
 42
50.0
 43
0.0
 44
0.0
 50
0.0
 51
0.0
 71
     0
 72
  1000
 73
     1
 74
     0
 75
     0
 76
     0
 77
     0
 78
     0
  0
ENDTAB
  0
TABLE
  2
LTYPE
 70
     3
  0
LTYPE
  2
CONTINUOUS
 70
     0
  3
実線
 72
    65
 73
     0
 40
0.0
  0
LTYPE
  2
DASHDOT
 70
     0
  3
____ _ ____ _ ____ _ ____ _ ____ _ ____ _ ____
 72
    65
 73
     4
 40
5.5
 49
4.0
 49
-0.6
 49
0.3
 49
-0.6
  0
LTYPE
  2
DASHED
 70
     0
  3
-- -- -- -- -- -- -- -- -- -- -- -- -- -- --
 72
    65
 73
     2
 40
0.75
 49
0.5
 49
-0.25
  0
ENDTAB
  0
TABLE
  2
LAYER
 70
    12
  0
LAYER
  2
0
 70
     0
 62
     7
  6
CONTINUOUS
  0
LAYER
  2
SIZE
 70
     0
 62
    30
  6
CONTINUOUS
  0
LAYER
  2
BASIS
 70
     0
 62
     6
  6
DASHDOT
  0
LAYER
  2
OUTLINE
 70
     0
 62
     3
  6
CONTINUOUS
  0
LAYER
  2
DETAIL
 70
     0
 62
     5
  6
CONTINUOUS
  0
LAYER
  2
ARRANGE
 70
     0
 62
     1
  6
CONTINUOUS
  0
LAYER
  2
DEFPOINTS
 70
     0
 62
     7
  6
CONTINUOUS
  0
LAYER
  2
ETC
 70
     0
 62
    61
  6
CONTINUOUS
  0
LAYER
  2
FIX
 70
     0
 62
    11
  6
CONTINUOUS
  0
LAYER
  2
NOTE
 70
     0
 62
     4
  6
CONTINUOUS
  0
LAYER
  2
SERVICESPACE
 70
     0
 62
     2
  6
DASHDOT
  0
LAYER
  2
SYMBOLLINE
 70
     0
 62
    15
  6
CONTINUOUS
  0
ENDTAB
  0
TABLE
  2
STYLE
 70
     1
  0
STYLE
  2
STANDARD
 70
     0
 40
64.0
 41
0.9
 50
0.0
 71
     0
 42
64.0
  3
SIMPLEX.shx
  4
BIGFONT.shx
  0
ENDTAB
  0
TABLE
  2
VIEW
 70
     1
  0
VIEW
  2
ALL
 70
     0
 40
4282.6198079999986
 10
0.0
 20
41.309903999999989
 41
5940.0
 11
0.0
 21
0.0
 31
1.0
 12
0.0
 22
0.0
 32
0.0
 42
50.0
 43
0.0
 44
0.0
 50
0.0
 71
     0
  0
ENDTAB
  0
TABLE
  2
UCS
 70
     0
  0
ENDTAB
  0
TABLE
  2
APPID
 70
     2
  0
APPID
  2
ACAD
 70
     0
  0
APPID
  2
AUTOCAD_POSTSCRIPT_FIGURE
 70
     0
  0
ENDTAB
  0
TABLE
  2
DIMSTYLE
 70
     1
  0
DIMSTYLE
  2
STANDARD
 70
     0
  3

  4

  5

  6

  7

 40
1.0
 41
0.18
 42
0.0625
 43
0.38
 44
0.18
 45
0.0
 46
0.0
 47
0.0
 48
0.0
140
0.18
141
0.09
142
0.0
143
25.399999999999999
144
1.0
145
0.0
146
1.0
147
0.09
 71
     0
 72
     0
 73
     1
 74
     1
 75
     0
 76
     0
 77
     0
 78
     0
170
     0
171
     2
172
     0
173
     0
174
     0
175
     0
176
     7
177
     7
178
     7
  0
ENDTAB
  0
ENDSEC
  0
SECTION
  2
BLOCKS
  0
BLOCK
  8
0
  2
$MODEL_SPACE
 70
     0
 10
0.0
 20
0.0
 30
0.0
  3
$MODEL_SPACE
  1

  0
ENDBLK
  5
20
  8
0
  0
BLOCK
 67
     1
  8
0
  2
$PAPER_SPACE
 70
     0
 10
0.0
 20
0.0
 30
0.0
  3
$PAPER_SPACE
  1

  0
ENDBLK
  5
1C
 67
     1
  8
0
  0
BLOCK
  8
0
  2
DOT1
 70
     0
 10
0.0
 20
0.0
 30
0.0
  3
DOT1
  1

  0
CIRCLE
  5
37
  8
SIZE
  6
CONTINUOUS
 62
     7
 10
0.0
 20
0.0
 30
0.0
 40
3.0
  0
ENDBLK
  5
38
  8
0
  0
BLOCK
  8
0
  2
_ORIGIN
 70
     0
 10
0.0
 20
0.0
 30
0.0
  3
_ORIGIN
  1

  0
CIRCLE
  5
3B
  8
0
  6
CONTINUOUS
 62
     7
 10
0.0
 20
0.0
 30
0.0
 40
0.5
  0
LINE
  5
3C
  8
0
  6
CONTINUOUS
 62
     7
 10
0.0
 20
0.0
 30
0.0
 11
-1.0
 21
0.0
 31
0.0
  0
ENDBLK
  5
3D
  8
0
  0
ENDSEC
  0
SECTION
  2
ENTITIES
  0
LINE
  5
3E
  8
BASIS
  6
DASHDOT
 62
     6
 10
0.0
 20
-184.35250899999991
 30
0.0
 11
0.0
 21
186.68224900000001
 31
0.0
  0
LINE
  5
3F
  8
BASIS
  6
DASHDOT
 62
     6
 10
-342.84594499999997
 20
0.0
 30
0.0
 11
344.05209100000002
 21
0.0
 31
0.0
  0
LINE
  5
40
  8
SIZE
  6
CONTINUOUS
 62
    30
 10
310.0
 20
148.51918699999999
 30
0.0
 11
310.0
 21
1037.788031
 31
0.0
  0
LINE
  5
41
  8
SIZE
  6
CONTINUOUS
 62
    30
 10
-310.0
 20
148.51918699999999
 30
0.0
 11
-310.0
 21
1037.788031
 31
0.0
  0
LINE
  5
42
  8
SIZE
  6
CONTINUOUS
 62
    30
 10
298.0
 20
1017.788031
 30
0.0
 11
-298.0
 21
1017.788031
 31
0.0
  0
CIRCLE
  5
43
  8
SIZE
  6
CONTINUOUS
 62
    30
 10
310.0
 20
1017.788031
 30
0.0
 40
6.0
  0
LINE
  5
44
  8
SIZE
  6
CONTINUOUS
 62
    30
 10
310.0
 20
1017.788031
 30
0.0
 11
298.0
 21
1017.788031
 31
0.0
  0
CIRCLE
  5
45
  8
SIZE
  6
CONTINUOUS
 62
    30
 10
-310.0
 20
1017.788031
 30
0.0
 40
6.0
  0
LINE
  5
46
  8
SIZE
  6
CONTINUOUS
 62
    30
 10
-310.0
 20
1017.788031
 30
0.0
 11
-298.0
 21
1017.788031
 31
0.0
  0
TEXT
  5
47
  8
SIZE
  6
CONTINUOUS
 62
    30
 10
-74.05714285714285
 20
1042.788031
 30
0.0
 40
64.0
  1
620
 41
0.9
 72
     1
 11
0.0
 21
1042.788031
 31
0.0
  0
POINT
  5
4B
  8
ARRANGE
  6
CONTINUOUS
 62
     1
 10
0.0
 20
0.0
 30
0.0
 39
50.0
  0
CIRCLE
  5
4C
  8
ARRANGE
  6
CONTINUOUS
 62
     1
 39
50.0
 10
0.0
 20
0.0
 30
0.0
 40
40.0
  0
LINE
  5
4D
  8
DETAIL
  6
CONTINUOUS
 62
     5
 10
-244.0
 20
-121.5
 30
0.0
 11
-244.0
 21
90.5
 31
0.0
  0
LINE
  5
4E
  8
DETAIL
  6
CONTINUOUS
 62
     5
 10
244.0
 20
90.5
 30
0.0
 11
244.0
 21
-121.5
 31
0.0
  0
LINE
  5
4F
  8
BASIS
  6
DASHDOT
 62
     6
 10
175.0
 20
40.368198999999997
 30
0.0
 11
175.0
 21
-91.589452000000009
 31
0.0
  0
LINE
  5
50
  8
DETAIL
  6
CONTINUOUS
 62
     5
 10
-233.0
 20
-131.49999999999989
 30
0.0
 11
233.0
 21
-131.49999999999989
 31
0.0
  0
LINE
  5
51
  8
DETAIL
  6
CONTINUOUS
 62
     5
 10
210.49999999999989
 20
-130.90000000000001
 30
0.0
 11
-210.49999999999989
 21
-130.90000000000001
 31
0.0
  0
LINE
  5
52
  8
DETAIL
  6
CONTINUOUS
 62
     5
 10
-233.0
 20
-131.49999999999989
 30
0.0
 11
-233.0
 21
-130.90000000000001
 31
0.0
  0
LINE
  5
53
  8
DETAIL
  6
CONTINUOUS
 62
     5
 10
-233.0
 20
-130.90000000000001
 30
0.0
 11
-233.0
 21
-130.0
 31
0.0
  0
LINE
  5
54
  8
DETAIL
  6
CONTINUOUS
 62
     5
 10
-234.0
 20
-131.49999999999989
 30
0.0
 11
-234.0
 21
-130.0
 31
0.0
  0
ARC
  5
55
  8
DETAIL
  6
CONTINUOUS
 62
     5
 10
-233.49999999999989
 20
-130.0
 30
0.0
 40
0.5
 50
0.0
 51
180.0
  0
ARC
  5
56
  8
DETAIL
  6
CONTINUOUS
 62
     5
 10
-234.0
 20
-121.5
 30
0.0
 40
10.0
 50
180.0
 51
270.0
  0
LINE
  5
57
  8
DETAIL
  6
CONTINUOUS
 62
     5
 10
-224.67556200000001
 20
-127.170087
 30
0.0
 11
-224.91421399999999
 21
-127.31421400000001
 31
0.0
  0
LINE
  5
58
  8
DETAIL
  6
CONTINUOUS
 62
     5
 10
-224.91421399999999
 20
-127.31421400000001
 30
0.0
 11
-225.11803999999989
 21
-127.48296599999991
 31
0.0
  0
LINE
  5
59
  8
DETAIL
  6
CONTINUOUS
 62
     5
 10
-225.11803999999989
 20
-127.48296599999991
 30
0.0
 11
-225.282015
 21
-127.67217699999991
 31
0.0
  0
LINE
  5
5A
  8
DETAIL
  6
CONTINUOUS
 62
     5
 10
-225.282015
 20
-127.67217699999991
 30
0.0
 11
-225.4021149999999
 21
-127.8772009999999
 31
0.0
  0
LINE
  5
5B
  8
DETAIL
  6
CONTINUOUS
 62
     5
 10
-225.4021149999999
 20
-127.8772009999999
 30
0.0
 11
-225.47537700000001
 21
-128.092983
 31
0.0
  0
LINE
  5
5C
  8
DETAIL
  6
CONTINUOUS
 62
     5
 10
-225.47537700000001
 20
-128.092983
 30
0.0
 11
-225.49999999999989
 21
-128.31421399999999
 31
0.0
  0
LINE
  5
5D
  8
DETAIL
  6
CONTINUOUS
 62
     5
 10
-211.3244379999999
 20
-127.170087
 30
0.0
 11
-211.5920229999999
 21
-127.05413899999991
 31
0.0
  0
LINE
  5
5E
  8
DETAIL
  6
CONTINUOUS
 62
     5
 10
-211.5920229999999
 20
-127.05413899999991
 30
0.0
 11
-211.88197099999991
 21
-126.96921500000001
 31
0.0
  0
LINE
  5
5F
  8
DETAIL
  6
CONTINUOUS
 62
     5
 10
-211.88197099999991
 20
-126.96921500000001
 30
0.0
 11
-212.18713199999991
 21
-126.917411
 31
0.0
  0
LINE
  5
60
  8
DETAIL
  6
CONTINUOUS
 62
     5
 10
-212.18713199999991
 20
-126.917411
 30
0.0
 11
-212.5
 21
-126.90000000000001
 31
0.0
  0
LINE
  5
61
  8
DETAIL
  6
CONTINUOUS
 62
     5
 10
-211.5920229999999
 20
-127.4784029999999
 30
0.0
 11
-211.3244379999999
 21
-127.594351
 31
0.0
  0
LINE
  5
62
  8
DETAIL
  6
CONTINUOUS
 62
     5
 10
-211.3244379999999
 20
-127.594351
 30
0.0
 11
-211.0857859999999
 21
-127.7384779999999
 31
0.0
  0
LINE
  5
63
  8
DETAIL
  6
CONTINUOUS
 62
     5
 10
-211.0857859999999
 20
-127.7384779999999
 30
0.0
 11
-210.88195999999999
 21
-127.9072299999999
 31
0.0
  0
LINE
  5
64
  8
DETAIL
  6
CONTINUOUS
 62
     5
 10
-210.88195999999999
 20
-127.9072299999999
 30
0.0
 11
-210.717985
 21
-128.09644099999991
 31
0.0
  0
LINE
  5
65
  8
DETAIL
  6
CONTINUOUS
 62
     5
 10
-210.717985
 20
-128.09644099999991
 30
0.0
 11
-210.59788499999999
 21
-128.30146499999989
 31
0.0
  0
LINE
  5
66
  8
DETAIL
  6
CONTINUOUS
 62
     5
 10
-210.59788499999999
 20
-128.30146499999989
 30
0.0
 11
-210.52462299999999
 21
-128.517247
 31
0.0
  0
LINE
  5
67
  8
DETAIL
  6
CONTINUOUS
 62
     5
 10
-210.49999999999989
 20
-131.49999999999989
 30
0.0
 11
-210.49999999999989
 21
-128.31421399999999
 31
0.0
  0
LINE
  5
68
  8
DETAIL
  6
CONTINUOUS
 62
     5
 10
-225.49999999999989
 20
-128.73847799999999
 30
0.0
 11
-225.47537700000001
 21
-128.517247
 31
0.0
  0
LINE
  5
69
  8
DETAIL
  6
CONTINUOUS
 62
     5
 10
-225.47537700000001
 20
-128.517247
 30
0.0
 11
-225.4021149999999
 21
-128.30146499999989
 31
0.0
  0
LINE
  5
6A
  8
DETAIL
  6
CONTINUOUS
 62
     5
 10
-225.4021149999999
 20
-128.30146499999989
 30
0.0
 11
-225.282015
 21
-128.09644099999991
 31
0.0
  0
LINE
  5
6B
  8
DETAIL
  6
CONTINUOUS
 62
     5
 10
-225.282015
 20
-128.09644099999991
 30
0.0
 11
-225.11803999999989
 21
-127.9072299999999
 31
0.0
  0
LINE
  5
6C
  8
DETAIL
  6
CONTINUOUS
 62
     5
 10
-225.11803999999989
 20
-127.9072299999999
 30
0.0
 11
-224.91421399999999
 21
-127.7384779999999
 31
0.0
  0
LINE
  5
6D
  8
DETAIL
  6
CONTINUOUS
 62
     5
 10
-224.91421399999999
 20
-127.7384779999999
 30
0.0
 11
-224.67556200000001
 21
-127.594351
 31
0.0
  0
LINE
  5
6E
  8
DETAIL
  6
CONTINUOUS
 62
     5
 10
-224.67556200000001
 20
-127.594351
 30
0.0
 11
-224.4079769999999
 21
-127.4784029999999
 31
0.0
  0
LINE
  5
6F
  8
DETAIL
  6
CONTINUOUS
 62
     5
 10
-225.49999999999989
 20
-131.49999999999989
 30
0.0
 11
-225.49999999999989
 21
-128.31421399999999
 31
0.0
  0
LINE
  5
70
  8
DETAIL
  6
CONTINUOUS
 62
     5
 10
-210.49999999999989
 20
-128.31421399999999
 30
0.0
 11
-210.52462299999999
 21
-128.092983
 31
0.0
  0
LINE
  5
71
  8
DETAIL
  6
CONTINUOUS
 62
     5
 10
-210.52462299999999
 20
-128.092983
 30
0.0
 11
-210.59788499999999
 21
-127.8772009999999
 31
0.0
  0
LINE
  5
72
  8
DETAIL
  6
CONTINUOUS
 62
     5
 10
-210.59788499999999
 20
-127.8772009999999
 30
0.0
 11
-210.717985
 21
-127.67217699999991
 31
0.0
  0
LINE
  5
73
  8
DETAIL
  6
CONTINUOUS
 62
     5
 10
-210.717985
 20
-127.67217699999991
 30
0.0
 11
-210.88195999999999
 21
-127.48296599999991
 31
0.0
  0
LINE
  5
74
  8
DETAIL
  6
CONTINUOUS
 62
     5
 10
-210.88195999999999
 20
-127.48296599999991
 30
0.0
 11
-211.0857859999999
 21
-127.31421400000001
 31
0.0
  0
LINE
  5
75
  8
DETAIL
  6
CONTINUOUS
 62
     5
 10
-211.0857859999999
 20
-127.31421400000001
 30
0.0
 11
-211.3244379999999
 21
-127.170087
 31
0.0
  0
LINE
  5
76
  8
DETAIL
  6
CONTINUOUS
 62
     5
 10
-210.52462299999999
 20
-128.517247
 30
0.0
 11
-210.49999999999989
 21
-128.73847799999999
 31
0.0
  0
LINE
  5
77
  8
DETAIL
  6
CONTINUOUS
 62
     5
 10
-212.5
 20
-127.3242639999999
 30
0.0
 11
-212.18713199999991
 21
-127.3416749999999
 31
0.0
  0
LINE
  5
78
  8
DETAIL
  6
CONTINUOUS
 62
     5
 10
-212.18713199999991
 20
-127.3416749999999
 30
0.0
 11
-211.88197099999991
 21
-127.3934789999999
 31
0.0
  0
LINE
  5
79
  8
DETAIL
  6
CONTINUOUS
 62
     5
 10
-211.88197099999991
 20
-127.3934789999999
 30
0.0
 11
-211.5920229999999
 21
-127.4784029999999
 31
0.0
  0
LINE
  5
7A
  8
DETAIL
  6
CONTINUOUS
 62
     5
 10
-223.49999999999989
 20
-127.3242639999999
 30
0.0
 11
-212.5
 21
-127.3242639999999
 31
0.0
  0
LINE
  5
7B
  8
DETAIL
  6
CONTINUOUS
 62
     5
 10
-223.49999999999989
 20
-126.90000000000001
 30
0.0
 11
-212.5
 21
-126.90000000000001
 31
0.0
  0
LINE
  5
7C
  8
DETAIL
  6
CONTINUOUS
 62
     5
 10
-223.49999999999989
 20
-126.90000000000001
 30
0.0
 11
-223.8128679999999
 21
-126.917411
 31
0.0
  0
LINE
  5
7D
  8
DETAIL
  6
CONTINUOUS
 62
     5
 10
-223.8128679999999
 20
-126.917411
 30
0.0
 11
-224.11802899999989
 21
-126.96921500000001
 31
0.0
  0
LINE
  5
7E
  8
DETAIL
  6
CONTINUOUS
 62
     5
 10
-224.11802899999989
 20
-126.96921500000001
 30
0.0
 11
-224.4079769999999
 21
-127.05413899999991
 31
0.0
  0
LINE
  5
7F
  8
DETAIL
  6
CONTINUOUS
 62
     5
 10
-224.4079769999999
 20
-127.05413899999991
 30
0.0
 11
-224.67556200000001
 21
-127.170087
 31
0.0
  0
LINE
  5
80
  8
DETAIL
  6
CONTINUOUS
 62
     5
 10
-224.4079769999999
 20
-127.4784029999999
 30
0.0
 11
-224.11802899999989
 21
-127.3934789999999
 31
0.0
  0
LINE
  5
81
  8
DETAIL
  6
CONTINUOUS
 62
     5
 10
-224.11802899999989
 20
-127.3934789999999
 30
0.0
 11
-223.8128679999999
 21
-127.3416749999999
 31
0.0
  0
LINE
  5
82
  8
DETAIL
  6
CONTINUOUS
 62
     5
 10
-223.8128679999999
 20
-127.3416749999999
 30
0.0
 11
-223.49999999999989
 21
-127.3242639999999
 31
0.0
  0
LINE
  5
83
  8
DETAIL
  6
CONTINUOUS
 62
     5
 10
-225.49999999999989
 20
-130.90000000000001
 30
0.0
 11
-233.0
 21
-130.90000000000001
 31
0.0
  0
LINE
  5
84
  8
DETAIL
  6
CONTINUOUS
 62
     5
 10
224.67556200000001
 20
-127.170087
 30
0.0
 11
224.4079769999999
 21
-127.05413899999991
 31
0.0
  0
LINE
  5
85
  8
DETAIL
  6
CONTINUOUS
 62
     5
 10
224.4079769999999
 20
-127.05413899999991
 30
0.0
 11
224.11802899999989
 21
-126.96921500000001
 31
0.0
  0
LINE
  5
86
  8
DETAIL
  6
CONTINUOUS
 62
     5
 10
224.11802899999989
 20
-126.96921500000001
 30
0.0
 11
223.8128679999999
 21
-126.917411
 31
0.0
  0
LINE
  5
87
  8
DETAIL
  6
CONTINUOUS
 62
     5
 10
223.8128679999999
 20
-126.917411
 30
0.0
 11
223.49999999999989
 21
-126.90000000000001
 31
0.0
  0
LINE
  5
88
  8
DETAIL
  6
CONTINUOUS
 62
     5
 10
224.4079769999999
 20
-127.4784029999999
 30
0.0
 11
224.67556200000001
 21
-127.594351
 31
0.0
  0
LINE
  5
89
  8
DETAIL
  6
CONTINUOUS
 62
     5
 10
224.67556200000001
 20
-127.594351
 30
0.0
 11
224.91421399999999
 21
-127.7384779999999
 31
0.0
  0
LINE
  5
8A
  8
DETAIL
  6
CONTINUOUS
 62
     5
 10
224.91421399999999
 20
-127.7384779999999
 30
0.0
 11
225.11803999999989
 21
-127.9072299999999
 31
0.0
  0
LINE
  5
8B
  8
DETAIL
  6
CONTINUOUS
 62
     5
 10
225.11803999999989
 20
-127.9072299999999
 30
0.0
 11
225.282015
 21
-128.09644099999991
 31
0.0
  0
LINE
  5
8C
  8
DETAIL
  6
CONTINUOUS
 62
     5
 10
225.282015
 20
-128.09644099999991
 30
0.0
 11
225.4021149999999
 21
-128.30146499999989
 31
0.0
  0
LINE
  5
8D
  8
DETAIL
  6
CONTINUOUS
 62
     5
 10
225.4021149999999
 20
-128.30146499999989
 30
0.0
 11
225.47537700000001
 21
-128.517247
 31
0.0
  0
LINE
  5
8E
  8
DETAIL
  6
CONTINUOUS
 62
     5
 10
234.0
 20
-131.49999999999989
 30
0.0
 11
234.0
 21
-130.0
 31
0.0
  0
LINE
  5
8F
  8
DETAIL
  6
CONTINUOUS
 62
     5
 10
233.0
 20
-131.49999999999989
 30
0.0
 11
233.0
 21
-130.90000000000001
 31
0.0
  0
LINE
  5
90
  8
DETAIL
  6
CONTINUOUS
 62
     5
 10
233.0
 20
-130.90000000000001
 30
0.0
 11
233.0
 21
-130.0
 31
0.0
  0
ARC
  5
91
  8
DETAIL
  6
CONTINUOUS
 62
     5
 10
233.49999999999989
 20
-130.0
 30
0.0
 40
0.5
 50
0.0
 51
180.0
  0
LINE
  5
92
  8
DETAIL
  6
CONTINUOUS
 62
     5
 10
225.49999999999989
 20
-131.49999999999989
 30
0.0
 11
225.49999999999989
 21
-128.31421399999999
 31
0.0
  0
LINE
  5
93
  8
DETAIL
  6
CONTINUOUS
 62
     5
 10
210.49999999999989
 20
-128.73847799999999
 30
0.0
 11
210.52462299999999
 21
-128.517247
 31
0.0
  0
LINE
  5
94
  8
DETAIL
  6
CONTINUOUS
 62
     5
 10
210.52462299999999
 20
-128.517247
 30
0.0
 11
210.59788499999999
 21
-128.30146499999989
 31
0.0
  0
LINE
  5
95
  8
DETAIL
  6
CONTINUOUS
 62
     5
 10
210.59788499999999
 20
-128.30146499999989
 30
0.0
 11
210.717985
 21
-128.09644099999991
 31
0.0
  0
LINE
  5
96
  8
DETAIL
  6
CONTINUOUS
 62
     5
 10
210.717985
 20
-128.09644099999991
 30
0.0
 11
210.88195999999999
 21
-127.9072299999999
 31
0.0
  0
LINE
  5
97
  8
DETAIL
  6
CONTINUOUS
 62
     5
 10
210.88195999999999
 20
-127.9072299999999
 30
0.0
 11
211.0857859999999
 21
-127.7384779999999
 31
0.0
  0
LINE
  5
98
  8
DETAIL
  6
CONTINUOUS
 62
     5
 10
211.0857859999999
 20
-127.7384779999999
 30
0.0
 11
211.3244379999999
 21
-127.594351
 31
0.0
  0
LINE
  5
99
  8
DETAIL
  6
CONTINUOUS
 62
     5
 10
211.3244379999999
 20
-127.594351
 30
0.0
 11
211.5920229999999
 21
-127.4784029999999
 31
0.0
  0
LINE
  5
9A
  8
DETAIL
  6
CONTINUOUS
 62
     5
 10
210.49999999999989
 20
-131.49999999999989
 30
0.0
 11
210.49999999999989
 21
-128.31421399999999
 31
0.0
  0
LINE
  5
9B
  8
DETAIL
  6
CONTINUOUS
 62
     5
 10
225.49999999999989
 20
-128.31421399999999
 30
0.0
 11
225.47537700000001
 21
-128.092983
 31
0.0
  0
LINE
  5
9C
  8
DETAIL
  6
CONTINUOUS
 62
     5
 10
225.47537700000001
 20
-128.092983
 30
0.0
 11
225.4021149999999
 21
-127.8772009999999
 31
0.0
  0
LINE
  5
9D
  8
DETAIL
  6
CONTINUOUS
 62
     5
 10
225.4021149999999
 20
-127.8772009999999
 30
0.0
 11
225.282015
 21
-127.67217699999991
 31
0.0
  0
LINE
  5
9E
  8
DETAIL
  6
CONTINUOUS
 62
     5
 10
225.282015
 20
-127.67217699999991
 30
0.0
 11
225.11803999999989
 21
-127.48296599999991
 31
0.0
  0
LINE
  5
9F
  8
DETAIL
  6
CONTINUOUS
 62
     5
 10
225.11803999999989
 20
-127.48296599999991
 30
0.0
 11
224.91421399999999
 21
-127.31421400000001
 31
0.0
  0
LINE
  5
A0
  8
DETAIL
  6
CONTINUOUS
 62
     5
 10
224.91421399999999
 20
-127.31421400000001
 30
0.0
 11
224.67556200000001
 21
-127.170087
 31
0.0
  0
LINE
  5
A1
  8
DETAIL
  6
CONTINUOUS
 62
     5
 10
225.47537700000001
 20
-128.517247
 30
0.0
 11
225.49999999999989
 21
-128.73847799999999
 31
0.0
  0
LINE
  5
A2
  8
DETAIL
  6
CONTINUOUS
 62
     5
 10
211.3244379999999
 20
-127.170087
 30
0.0
 11
211.0857859999999
 21
-127.31421400000001
 31
0.0
  0
LINE
  5
A3
  8
DETAIL
  6
CONTINUOUS
 62
     5
 10
211.0857859999999
 20
-127.31421400000001
 30
0.0
 11
210.88195999999999
 21
-127.48296599999991
 31
0.0
  0
LINE
  5
A4
  8
DETAIL
  6
CONTINUOUS
 62
     5
 10
210.88195999999999
 20
-127.48296599999991
 30
0.0
 11
210.717985
 21
-127.67217699999991
 31
0.0
  0
LINE
  5
A5
  8
DETAIL
  6
CONTINUOUS
 62
     5
 10
210.717985
 20
-127.67217699999991
 30
0.0
 11
210.59788499999999
 21
-127.8772009999999
 31
0.0
  0
LINE
  5
A6
  8
DETAIL
  6
CONTINUOUS
 62
     5
 10
210.59788499999999
 20
-127.8772009999999
 30
0.0
 11
210.52462299999999
 21
-128.092983
 31
0.0
  0
LINE
  5
A7
  8
DETAIL
  6
CONTINUOUS
 62
     5
 10
210.52462299999999
 20
-128.092983
 30
0.0
 11
210.49999999999989
 21
-128.31421399999999
 31
0.0
  0
LINE
  5
A8
  8
DETAIL
  6
CONTINUOUS
 62
     5
 10
211.5920229999999
 20
-127.4784029999999
 30
0.0
 11
211.88197099999991
 21
-127.3934789999999
 31
0.0
  0
LINE
  5
A9
  8
DETAIL
  6
CONTINUOUS
 62
     5
 10
211.88197099999991
 20
-127.3934789999999
 30
0.0
 11
212.18713199999991
 21
-127.3416749999999
 31
0.0
  0
LINE
  5
AA
  8
DETAIL
  6
CONTINUOUS
 62
     5
 10
212.18713199999991
 20
-127.3416749999999
 30
0.0
 11
212.5
 21
-127.3242639999999
 31
0.0
  0
LINE
  5
AB
  8
DETAIL
  6
CONTINUOUS
 62
     5
 10
212.5
 20
-126.90000000000001
 30
0.0
 11
212.18713199999991
 21
-126.917411
 31
0.0
  0
LINE
  5
AC
  8
DETAIL
  6
CONTINUOUS
 62
     5
 10
212.18713199999991
 20
-126.917411
 30
0.0
 11
211.88197099999991
 21
-126.96921500000001
 31
0.0
  0
LINE
  5
AD
  8
DETAIL
  6
CONTINUOUS
 62
     5
 10
211.88197099999991
 20
-126.96921500000001
 30
0.0
 11
211.5920229999999
 21
-127.05413899999991
 31
0.0
  0
LINE
  5
AE
  8
DETAIL
  6
CONTINUOUS
 62
     5
 10
211.5920229999999
 20
-127.05413899999991
 30
0.0
 11
211.3244379999999
 21
-127.170087
 31
0.0
  0
LINE
  5
AF
  8
DETAIL
  6
CONTINUOUS
 62
     5
 10
233.0
 20
-130.90000000000001
 30
0.0
 11
225.49999999999989
 21
-130.90000000000001
 31
0.0
  0
LINE
  5
B0
  8
DETAIL
  6
CONTINUOUS
 62
     5
 10
212.5
 20
-127.3242639999999
 30
0.0
 11
223.49999999999989
 21
-127.3242639999999
 31
0.0
  0
LINE
  5
B1
  8
DETAIL
  6
CONTINUOUS
 62
     5
 10
212.5
 20
-126.90000000000001
 30
0.0
 11
223.49999999999989
 21
-126.90000000000001
 31
0.0
  0
LINE
  5
B2
  8
DETAIL
  6
CONTINUOUS
 62
     5
 10
223.49999999999989
 20
-127.3242639999999
 30
0.0
 11
223.8128679999999
 21
-127.3416749999999
 31
0.0
  0
LINE
  5
B3
  8
DETAIL
  6
CONTINUOUS
 62
     5
 10
223.8128679999999
 20
-127.3416749999999
 30
0.0
 11
224.11802899999989
 21
-127.3934789999999
 31
0.0
  0
LINE
  5
B4
  8
DETAIL
  6
CONTINUOUS
 62
     5
 10
224.11802899999989
 20
-127.3934789999999
 30
0.0
 11
224.4079769999999
 21
-127.4784029999999
 31
0.0
  0
ARC
  5
B5
  8
DETAIL
  6
CONTINUOUS
 62
     5
 10
234.0
 20
-121.5
 30
0.0
 40
10.0
 50
270.0
 51
0.0
  0
LINE
  5
B6
  8
DETAIL
  6
CONTINUOUS
 62
     5
 10
233.0
 20
99.900000000000006
 30
0.0
 11
-233.0
 21
99.900000000000006
 31
0.0
  0
LINE
  5
B7
  8
DETAIL
  6
CONTINUOUS
 62
     5
 10
151.5
 20
100.5
 30
0.0
 11
-151.5
 21
100.5
 31
0.0
  0
LINE
  5
B8
  8
DETAIL
  6
CONTINUOUS
 62
     5
 10
-170.5
 20
100.5
 30
0.0
 11
-233.0
 21
100.5
 31
0.0
  0
LINE
  5
B9
  8
DETAIL
  6
CONTINUOUS
 62
     5
 10
-233.0
 20
99.900000000000006
 30
0.0
 11
-233.0
 21
99.0
 31
0.0
  0
LINE
  5
BA
  8
DETAIL
  6
CONTINUOUS
 62
     5
 10
-233.0
 20
99.900000000000006
 30
0.0
 11
-233.0
 21
100.5
 31
0.0
  0
LINE
  5
BB
  8
DETAIL
  6
CONTINUOUS
 62
     5
 10
-234.0
 20
100.5
 30
0.0
 11
-234.0
 21
99.0
 31
0.0
  0
ARC
  5
BC
  8
DETAIL
  6
CONTINUOUS
 62
     5
 10
-233.49999999999989
 20
99.0
 30
0.0
 40
0.5
 50
180.0
 51
0.0
  0
ARC
  5
BD
  8
DETAIL
  6
CONTINUOUS
 62
     5
 10
-234.0
 20
90.5
 30
0.0
 40
10.0
 50
90.0
 51
180.0
  0
LINE
  5
BE
  8
DETAIL
  6
CONTINUOUS
 62
     5
 10
-154.56976299999999
 20
108.2228989999999
 30
0.0
 11
-154.865095
 21
108.339951
 31
0.0
  0
LINE
  5
BF
  8
DETAIL
  6
CONTINUOUS
 62
     5
 10
-154.865095
 20
108.339951
 30
0.0
 11
-155.176669
 21
108.41140799999999
 31
0.0
  0
LINE
  5
C0
  8
DETAIL
  6
CONTINUOUS
 62
     5
 10
-155.176669
 20
108.41140799999999
 30
0.0
 11
-155.496476
 21
108.435434
 31
0.0
  0
LINE
  5
C1
  8
DETAIL
  6
CONTINUOUS
 62
     5
 10
-153.57774499999991
 20
107.095123
 30
0.0
 11
-151.621285
 21
100.8849789999999
 31
0.0
  0
LINE
  5
C2
  8
DETAIL
  6
CONTINUOUS
 62
     5
 10
-153.57774499999991
 20
106.88010199999999
 30
0.0
 11
-151.621285
 21
100.66995799999999
 31
0.0
  0
LINE
  5
C3
  8
DETAIL
  6
CONTINUOUS
 62
     5
 10
-153.57774499999991
 20
107.095123
 30
0.0
 11
-153.6926719999999
 21
107.37477699999999
 31
0.0
  0
LINE
  5
C4
  8
DETAIL
  6
CONTINUOUS
 62
     5
 10
-153.6926719999999
 20
107.37477699999999
 30
0.0
 11
-153.85401899999991
 21
107.633674
 31
0.0
  0
LINE
  5
C5
  8
DETAIL
  6
CONTINUOUS
 62
     5
 10
-153.85401899999991
 20
107.633674
 30
0.0
 11
-154.057637
 21
107.86515799999999
 31
0.0
  0
LINE
  5
C6
  8
DETAIL
  6
CONTINUOUS
 62
     5
 10
-154.057637
 20
107.86515799999999
 30
0.0
 11
-154.29828299999991
 21
108.0632649999999
 31
0.0
  0
LINE
  5
C7
  8
DETAIL
  6
CONTINUOUS
 62
     5
 10
-155.496476
 20
108.22041299999999
 30
0.0
 11
-155.176669
 21
108.1963879999999
 31
0.0
  0
LINE
  5
C8
  8
DETAIL
  6
CONTINUOUS
 62
     5
 10
-155.176669
 20
108.1963879999999
 30
0.0
 11
-154.865095
 21
108.12493000000001
 31
0.0
  0
LINE
  5
C9
  8
DETAIL
  6
CONTINUOUS
 62
     5
 10
-151.621285
 20
100.8849789999999
 30
0.0
 11
-151.60107099999991
 21
100.7776199999999
 31
0.0
  0
LINE
  5
CA
  8
DETAIL
  6
CONTINUOUS
 62
     5
 10
-151.60107099999991
 20
100.7776199999999
 30
0.0
 11
-151.58085700000001
 21
100.683205
 31
0.0
  0
LINE
  5
CB
  8
DETAIL
  6
CONTINUOUS
 62
     5
 10
-151.58085700000001
 20
100.683205
 30
0.0
 11
-151.560642
 21
100.605524
 31
0.0
  0
LINE
  5
CC
  8
DETAIL
  6
CONTINUOUS
 62
     5
 10
-151.560642
 20
100.605524
 30
0.0
 11
-151.54042799999999
 21
100.5476969999999
 31
0.0
  0
LINE
  5
CD
  8
DETAIL
  6
CONTINUOUS
 62
     5
 10
-151.54042799999999
 20
100.5476969999999
 30
0.0
 11
-151.5202139999999
 21
100.5120449999999
 31
0.0
  0
LINE
  5
CE
  8
DETAIL
  6
CONTINUOUS
 62
     5
 10
-166.50352399999991
 20
108.22041299999999
 30
0.0
 11
-155.496476
 21
108.22041299999999
 31
0.0
  0
LINE
  5
CF
  8
DETAIL
  6
CONTINUOUS
 62
     5
 10
-166.50352399999991
 20
108.435434
 30
0.0
 11
-155.496476
 21
108.435434
 31
0.0
  0
LINE
  5
D0
  8
DETAIL
  6
CONTINUOUS
 62
     5
 10
-151.621285
 20
100.66995799999999
 30
0.0
 11
-151.60395800000001
 21
100.484521
 31
0.0
  0
LINE
  5
D1
  8
DETAIL
  6
CONTINUOUS
 62
     5
 10
-151.60395800000001
 20
100.484521
 30
0.0
 11
-151.58663200000001
 21
100.3172549999999
 31
0.0
  0
LINE
  5
D2
  8
DETAIL
  6
CONTINUOUS
 62
     5
 10
-151.58663200000001
 20
100.3172549999999
 30
0.0
 11
-151.56930600000001
 21
100.17310000000001
 31
0.0
  0
LINE
  5
D3
  8
DETAIL
  6
CONTINUOUS
 62
     5
 10
-151.56930600000001
 20
100.17310000000001
 30
0.0
 11
-151.55197899999999
 21
100.05631099999989
 31
0.0
  0
LINE
  5
D4
  8
DETAIL
  6
CONTINUOUS
 62
     5
 10
-151.55197899999999
 20
100.05631099999989
 30
0.0
 11
-151.53465299999991
 21
99.970336000000003
 31
0.0
  0
LINE
  5
D5
  8
DETAIL
  6
CONTINUOUS
 62
     5
 10
-151.53465299999991
 20
99.970336000000003
 30
0.0
 11
-151.517326
 21
99.917715000000001
 31
0.0
  0
LINE
  5
D6
  8
DETAIL
  6
CONTINUOUS
 62
     5
 10
-151.517326
 20
99.917715000000001
 30
0.0
 11
-151.5
 21
99.900000000000006
 31
0.0
  0
LINE
  5
D7
  8
DETAIL
  6
CONTINUOUS
 62
     5
 10
-166.50352399999991
 20
108.435434
 30
0.0
 11
-166.82333099999991
 21
108.41140799999999
 31
0.0
  0
LINE
  5
D8
  8
DETAIL
  6
CONTINUOUS
 62
     5
 10
-166.82333099999991
 20
108.41140799999999
 30
0.0
 11
-167.134905
 21
108.339951
 31
0.0
  0
LINE
  5
D9
  8
DETAIL
  6
CONTINUOUS
 62
     5
 10
-167.134905
 20
108.339951
 30
0.0
 11
-167.43023700000001
 21
108.2228989999999
 31
0.0
  0
LINE
  5
DA
  8
DETAIL
  6
CONTINUOUS
 62
     5
 10
-167.43023700000001
 20
108.2228989999999
 30
0.0
 11
-167.701717
 21
108.0632649999999
 31
0.0
  0
LINE
  5
DB
  8
DETAIL
  6
CONTINUOUS
 62
     5
 10
-151.5
 20
100.5
 30
0.0
 11
-151.5
 21
99.900000000000006
 31
0.0
  0
LINE
  5
DC
  8
DETAIL
  6
CONTINUOUS
 62
     5
 10
-151.621285
 20
100.8849789999999
 30
0.0
 11
-151.621285
 21
100.66995799999999
 31
0.0
  0
LINE
  5
DD
  8
DETAIL
  6
CONTINUOUS
 62
     5
 10
-167.134905
 20
108.12493000000001
 30
0.0
 11
-166.82333099999991
 21
108.1963879999999
 31
0.0
  0
LINE
  5
DE
  8
DETAIL
  6
CONTINUOUS
 62
     5
 10
-166.82333099999991
 20
108.1963879999999
 30
0.0
 11
-166.50352399999991
 21
108.22041299999999
 31
0.0
  0
LINE
  5
DF
  8
DETAIL
  6
CONTINUOUS
 62
     5
 10
-170.39604199999999
 20
100.484521
 30
0.0
 11
-170.41336799999991
 21
100.3172549999999
 31
0.0
  0
LINE
  5
E0
  8
DETAIL
  6
CONTINUOUS
 62
     5
 10
-170.41336799999991
 20
100.3172549999999
 30
0.0
 11
-170.4306939999999
 21
100.17310000000001
 31
0.0
  0
LINE
  5
E1
  8
DETAIL
  6
CONTINUOUS
 62
     5
 10
-170.4306939999999
 20
100.17310000000001
 30
0.0
 11
-170.4480209999999
 21
100.05631099999989
 31
0.0
  0
LINE
  5
E2
  8
DETAIL
  6
CONTINUOUS
 62
     5
 10
-170.4480209999999
 20
100.05631099999989
 30
0.0
 11
-170.46534700000001
 21
99.970336000000003
 31
0.0
  0
LINE
  5
E3
  8
DETAIL
  6
CONTINUOUS
 62
     5
 10
-170.46534700000001
 20
99.970336000000003
 30
0.0
 11
-170.482674
 21
99.917715000000001
 31
0.0
  0
LINE
  5
E4
  8
DETAIL
  6
CONTINUOUS
 62
     5
 10
-170.482674
 20
99.917715000000001
 30
0.0
 11
-170.5
 21
99.900000000000006
 31
0.0
  0
LINE
  5
E5
  8
DETAIL
  6
CONTINUOUS
 62
     5
 10
-170.378715
 20
100.66995799999999
 30
0.0
 11
-170.39604199999999
 21
100.484521
 31
0.0
  0
LINE
  5
E6
  8
DETAIL
  6
CONTINUOUS
 62
     5
 10
-170.378715
 20
100.8849789999999
 30
0.0
 11
-170.378715
 21
100.66995799999999
 31
0.0
  0
LINE
  5
E7
  8
DETAIL
  6
CONTINUOUS
 62
     5
 10
-170.5
 20
100.5
 30
0.0
 11
-170.5
 21
99.900000000000006
 31
0.0
  0
LINE
  5
E8
  8
DETAIL
  6
CONTINUOUS
 62
     5
 10
-170.47978599999999
 20
100.5120449999999
 30
0.0
 11
-170.5
 21
100.5
 31
0.0
  0
LINE
  5
E9
  8
DETAIL
  6
CONTINUOUS
 62
     5
 10
-167.701717
 20
108.0632649999999
 30
0.0
 11
-167.942363
 21
107.86515799999999
 31
0.0
  0
LINE
  5
EA
  8
DETAIL
  6
CONTINUOUS
 62
     5
 10
-167.942363
 20
107.86515799999999
 30
0.0
 11
-168.14598099999989
 21
107.633674
 31
0.0
  0
LINE
  5
EB
  8
DETAIL
  6
CONTINUOUS
 62
     5
 10
-168.14598099999989
 20
107.633674
 30
0.0
 11
-168.30732800000001
 21
107.37477699999999
 31
0.0
  0
LINE
  5
EC
  8
DETAIL
  6
CONTINUOUS
 62
     5
 10
-168.30732800000001
 20
107.37477699999999
 30
0.0
 11
-168.42225500000001
 21
107.095123
 31
0.0
  0
LINE
  5
ED
  8
DETAIL
  6
CONTINUOUS
 62
     5
 10
-168.42225500000001
 20
106.88010199999999
 30
0.0
 11
-168.30732800000001
 21
107.159756
 31
0.0
  0
LINE
  5
EE
  8
DETAIL
  6
CONTINUOUS
 62
     5
 10
-168.30732800000001
 20
107.159756
 30
0.0
 11
-168.14598099999989
 21
107.41865300000001
 31
0.0
  0
LINE
  5
EF
  8
DETAIL
  6
CONTINUOUS
 62
     5
 10
-168.14598099999989
 20
107.41865300000001
 30
0.0
 11
-167.942363
 21
107.650137
 31
0.0
  0
LINE
  5
F0
  8
DETAIL
  6
CONTINUOUS
 62
     5
 10
-167.942363
 20
107.650137
 30
0.0
 11
-167.701717
 21
107.84824399999989
 31
0.0
  0
LINE
  5
F1
  8
DETAIL
  6
CONTINUOUS
 62
     5
 10
-167.701717
 20
107.84824399999989
 30
0.0
 11
-167.43023700000001
 21
108.00787800000001
 31
0.0
  0
LINE
  5
F2
  8
DETAIL
  6
CONTINUOUS
 62
     5
 10
-167.43023700000001
 20
108.00787800000001
 30
0.0
 11
-167.134905
 21
108.12493000000001
 31
0.0
  0
LINE
  5
F3
  8
DETAIL
  6
CONTINUOUS
 62
     5
 10
-170.378715
 20
100.66995799999999
 30
0.0
 11
-168.42225500000001
 21
106.88010199999999
 31
0.0
  0
LINE
  5
F4
  8
DETAIL
  6
CONTINUOUS
 62
     5
 10
-170.378715
 20
100.8849789999999
 30
0.0
 11
-168.42225500000001
 21
107.095123
 31
0.0
  0
LINE
  5
F5
  8
DETAIL
  6
CONTINUOUS
 62
     5
 10
-170.378715
 20
100.8849789999999
 30
0.0
 11
-170.39892900000001
 21
100.7776199999999
 31
0.0
  0
LINE
  5
F6
  8
DETAIL
  6
CONTINUOUS
 62
     5
 10
-170.39892900000001
 20
100.7776199999999
 30
0.0
 11
-170.41914299999991
 21
100.683205
 31
0.0
  0
LINE
  5
F7
  8
DETAIL
  6
CONTINUOUS
 62
     5
 10
-170.41914299999991
 20
100.683205
 30
0.0
 11
-170.439358
 21
100.605524
 31
0.0
  0
LINE
  5
F8
  8
DETAIL
  6
CONTINUOUS
 62
     5
 10
-170.439358
 20
100.605524
 30
0.0
 11
-170.45957200000001
 21
100.5476969999999
 31
0.0
  0
LINE
  5
F9
  8
DETAIL
  6
CONTINUOUS
 62
     5
 10
-170.45957200000001
 20
100.5476969999999
 30
0.0
 11
-170.47978599999999
 21
100.5120449999999
 31
0.0
  0
LINE
  5
FA
  8
DETAIL
  6
CONTINUOUS
 62
     5
 10
-154.865095
 20
108.12493000000001
 30
0.0
 11
-154.56976299999999
 21
108.00787800000001
 31
0.0
  0
LINE
  5
FB
  8
DETAIL
  6
CONTINUOUS
 62
     5
 10
-154.56976299999999
 20
108.00787800000001
 30
0.0
 11
-154.29828299999991
 21
107.84824399999989
 31
0.0
  0
LINE
  5
FC
  8
DETAIL
  6
CONTINUOUS
 62
     5
 10
-154.29828299999991
 20
107.84824399999989
 30
0.0
 11
-154.057637
 21
107.650137
 31
0.0
  0
LINE
  5
FD
  8
DETAIL
  6
CONTINUOUS
 62
     5
 10
-154.057637
 20
107.650137
 30
0.0
 11
-153.85401899999991
 21
107.41865300000001
 31
0.0
  0
LINE
  5
FE
  8
DETAIL
  6
CONTINUOUS
 62
     5
 10
-153.85401899999991
 20
107.41865300000001
 30
0.0
 11
-153.6926719999999
 21
107.159756
 31
0.0
  0
LINE
  5
FF
  8
DETAIL
  6
CONTINUOUS
 62
     5
 10
-153.6926719999999
 20
107.159756
 30
0.0
 11
-153.57774499999991
 21
106.88010199999999
 31
0.0
  0
LINE
  5
100
  8
DETAIL
  6
CONTINUOUS
 62
     5
 10
-151.5202139999999
 20
100.5120449999999
 30
0.0
 11
-151.5
 21
100.5
 31
0.0
  0
LINE
  5
101
  8
DETAIL
  6
CONTINUOUS
 62
     5
 10
-154.29828299999991
 20
108.0632649999999
 30
0.0
 11
-154.56976299999999
 21
108.2228989999999
 31
0.0
  0
LINE
  5
102
  8
DETAIL
  6
CONTINUOUS
 62
     5
 10
233.0
 20
100.5
 30
0.0
 11
170.5
 21
100.5
 31
0.0
  0
LINE
  5
103
  8
DETAIL
  6
CONTINUOUS
 62
     5
 10
154.29828299999991
 20
108.0632649999999
 30
0.0
 11
154.057637
 21
107.86515799999999
 31
0.0
  0
LINE
  5
104
  8
DETAIL
  6
CONTINUOUS
 62
     5
 10
154.057637
 20
107.86515799999999
 30
0.0
 11
153.85401899999991
 21
107.633674
 31
0.0
  0
LINE
  5
105
  8
DETAIL
  6
CONTINUOUS
 62
     5
 10
153.85401899999991
 20
107.633674
 30
0.0
 11
153.6926719999999
 21
107.37477699999999
 31
0.0
  0
LINE
  5
106
  8
DETAIL
  6
CONTINUOUS
 62
     5
 10
153.6926719999999
 20
107.37477699999999
 30
0.0
 11
153.57774499999991
 21
107.095123
 31
0.0
  0
LINE
  5
107
  8
DETAIL
  6
CONTINUOUS
 62
     5
 10
151.5202139999999
 20
100.5120449999999
 30
0.0
 11
151.5
 21
100.5
 31
0.0
  0
LINE
  5
108
  8
DETAIL
  6
CONTINUOUS
 62
     5
 10
154.865095
 20
108.12493000000001
 30
0.0
 11
155.176669
 21
108.1963879999999
 31
0.0
  0
LINE
  5
109
  8
DETAIL
  6
CONTINUOUS
 62
     5
 10
155.176669
 20
108.1963879999999
 30
0.0
 11
155.496476
 21
108.22041299999999
 31
0.0
  0
LINE
  5
10A
  8
DETAIL
  6
CONTINUOUS
 62
     5
 10
155.496476
 20
108.435434
 30
0.0
 11
155.176669
 21
108.41140799999999
 31
0.0
  0
LINE
  5
10B
  8
DETAIL
  6
CONTINUOUS
 62
     5
 10
155.176669
 20
108.41140799999999
 30
0.0
 11
154.865095
 21
108.339951
 31
0.0
  0
LINE
  5
10C
  8
DETAIL
  6
CONTINUOUS
 62
     5
 10
154.865095
 20
108.339951
 30
0.0
 11
154.56976299999999
 21
108.2228989999999
 31
0.0
  0
LINE
  5
10D
  8
DETAIL
  6
CONTINUOUS
 62
     5
 10
154.56976299999999
 20
108.2228989999999
 30
0.0
 11
154.29828299999991
 21
108.0632649999999
 31
0.0
  0
LINE
  5
10E
  8
DETAIL
  6
CONTINUOUS
 62
     5
 10
155.496476
 20
108.22041299999999
 30
0.0
 11
166.50352399999991
 21
108.22041299999999
 31
0.0
  0
LINE
  5
10F
  8
DETAIL
  6
CONTINUOUS
 62
     5
 10
155.496476
 20
108.435434
 30
0.0
 11
166.50352399999991
 21
108.435434
 31
0.0
  0
LINE
  5
110
  8
DETAIL
  6
CONTINUOUS
 62
     5
 10
166.50352399999991
 20
108.22041299999999
 30
0.0
 11
166.82333099999991
 21
108.1963879999999
 31
0.0
  0
LINE
  5
111
  8
DETAIL
  6
CONTINUOUS
 62
     5
 10
166.82333099999991
 20
108.1963879999999
 30
0.0
 11
167.134905
 21
108.12493000000001
 31
0.0
  0
LINE
  5
112
  8
DETAIL
  6
CONTINUOUS
 62
     5
 10
168.42225500000001
 20
107.095123
 30
0.0
 11
168.30732800000001
 21
107.37477699999999
 31
0.0
  0
LINE
  5
113
  8
DETAIL
  6
CONTINUOUS
 62
     5
 10
168.30732800000001
 20
107.37477699999999
 30
0.0
 11
168.14598099999989
 21
107.633674
 31
0.0
  0
LINE
  5
114
  8
DETAIL
  6
CONTINUOUS
 62
     5
 10
168.14598099999989
 20
107.633674
 30
0.0
 11
167.942363
 21
107.86515799999999
 31
0.0
  0
LINE
  5
115
  8
DETAIL
  6
CONTINUOUS
 62
     5
 10
167.942363
 20
107.86515799999999
 30
0.0
 11
167.701717
 21
108.0632649999999
 31
0.0
  0
LINE
  5
116
  8
DETAIL
  6
CONTINUOUS
 62
     5
 10
170.378715
 20
100.66995799999999
 30
0.0
 11
170.39604199999999
 21
100.484521
 31
0.0
  0
LINE
  5
117
  8
DETAIL
  6
CONTINUOUS
 62
     5
 10
170.39604199999999
 20
100.484521
 30
0.0
 11
170.41336799999991
 21
100.3172549999999
 31
0.0
  0
LINE
  5
118
  8
DETAIL
  6
CONTINUOUS
 62
     5
 10
170.41336799999991
 20
100.3172549999999
 30
0.0
 11
170.4306939999999
 21
100.17310000000001
 31
0.0
  0
LINE
  5
119
  8
DETAIL
  6
CONTINUOUS
 62
     5
 10
170.4306939999999
 20
100.17310000000001
 30
0.0
 11
170.4480209999999
 21
100.05631099999989
 31
0.0
  0
LINE
  5
11A
  8
DETAIL
  6
CONTINUOUS
 62
     5
 10
170.4480209999999
 20
100.05631099999989
 30
0.0
 11
170.46534700000001
 21
99.970336000000003
 31
0.0
  0
LINE
  5
11B
  8
DETAIL
  6
CONTINUOUS
 62
     5
 10
170.46534700000001
 20
99.970336000000003
 30
0.0
 11
170.482674
 21
99.917715000000001
 31
0.0
  0
LINE
  5
11C
  8
DETAIL
  6
CONTINUOUS
 62
     5
 10
170.482674
 20
99.917715000000001
 30
0.0
 11
170.5
 21
99.900000000000006
 31
0.0
  0
LINE
  5
11D
  8
DETAIL
  6
CONTINUOUS
 62
     5
 10
170.378715
 20
100.8849789999999
 30
0.0
 11
170.39892900000001
 21
100.7776199999999
 31
0.0
  0
LINE
  5
11E
  8
DETAIL
  6
CONTINUOUS
 62
     5
 10
170.39892900000001
 20
100.7776199999999
 30
0.0
 11
170.41914299999991
 21
100.683205
 31
0.0
  0
LINE
  5
11F
  8
DETAIL
  6
CONTINUOUS
 62
     5
 10
170.41914299999991
 20
100.683205
 30
0.0
 11
170.439358
 21
100.605524
 31
0.0
  0
LINE
  5
120
  8
DETAIL
  6
CONTINUOUS
 62
     5
 10
170.439358
 20
100.605524
 30
0.0
 11
170.45957200000001
 21
100.5476969999999
 31
0.0
  0
LINE
  5
121
  8
DETAIL
  6
CONTINUOUS
 62
     5
 10
170.45957200000001
 20
100.5476969999999
 30
0.0
 11
170.47978599999999
 21
100.5120449999999
 31
0.0
  0
LINE
  5
122
  8
DETAIL
  6
CONTINUOUS
 62
     5
 10
168.42225500000001
 20
107.095123
 30
0.0
 11
170.378715
 21
100.8849789999999
 31
0.0
  0
LINE
  5
123
  8
DETAIL
  6
CONTINUOUS
 62
     5
 10
168.42225500000001
 20
106.88010199999999
 30
0.0
 11
170.378715
 21
100.66995799999999
 31
0.0
  0
LINE
  5
124
  8
DETAIL
  6
CONTINUOUS
 62
     5
 10
170.47978599999999
 20
100.5120449999999
 30
0.0
 11
170.5
 21
100.5
 31
0.0
  0
LINE
  5
125
  8
DETAIL
  6
CONTINUOUS
 62
     5
 10
167.701717
 20
108.0632649999999
 30
0.0
 11
167.43023700000001
 21
108.2228989999999
 31
0.0
  0
LINE
  5
126
  8
DETAIL
  6
CONTINUOUS
 62
     5
 10
167.43023700000001
 20
108.2228989999999
 30
0.0
 11
167.134905
 21
108.339951
 31
0.0
  0
LINE
  5
127
  8
DETAIL
  6
CONTINUOUS
 62
     5
 10
167.134905
 20
108.339951
 30
0.0
 11
166.82333099999991
 21
108.41140799999999
 31
0.0
  0
LINE
  5
128
  8
DETAIL
  6
CONTINUOUS
 62
     5
 10
166.82333099999991
 20
108.41140799999999
 30
0.0
 11
166.50352399999991
 21
108.435434
 31
0.0
  0
LINE
  5
129
  8
DETAIL
  6
CONTINUOUS
 62
     5
 10
170.5
 20
100.5
 30
0.0
 11
170.5
 21
99.900000000000006
 31
0.0
  0
LINE
  5
12A
  8
DETAIL
  6
CONTINUOUS
 62
     5
 10
170.378715
 20
100.8849789999999
 30
0.0
 11
170.378715
 21
100.66995799999999
 31
0.0
  0
LINE
  5
12B
  8
DETAIL
  6
CONTINUOUS
 62
     5
 10
167.134905
 20
108.12493000000001
 30
0.0
 11
167.43023700000001
 21
108.00787800000001
 31
0.0
  0
LINE
  5
12C
  8
DETAIL
  6
CONTINUOUS
 62
     5
 10
167.43023700000001
 20
108.00787800000001
 30
0.0
 11
167.701717
 21
107.84824399999989
 31
0.0
  0
LINE
  5
12D
  8
DETAIL
  6
CONTINUOUS
 62
     5
 10
167.701717
 20
107.84824399999989
 30
0.0
 11
167.942363
 21
107.650137
 31
0.0
  0
LINE
  5
12E
  8
DETAIL
  6
CONTINUOUS
 62
     5
 10
167.942363
 20
107.650137
 30
0.0
 11
168.14598099999989
 21
107.41865300000001
 31
0.0
  0
LINE
  5
12F
  8
DETAIL
  6
CONTINUOUS
 62
     5
 10
168.14598099999989
 20
107.41865300000001
 30
0.0
 11
168.30732800000001
 21
107.159756
 31
0.0
  0
LINE
  5
130
  8
DETAIL
  6
CONTINUOUS
 62
     5
 10
168.30732800000001
 20
107.159756
 30
0.0
 11
168.42225500000001
 21
106.88010199999999
 31
0.0
  0
LINE
  5
131
  8
DETAIL
  6
CONTINUOUS
 62
     5
 10
151.621285
 20
100.8849789999999
 30
0.0
 11
151.621285
 21
100.66995799999999
 31
0.0
  0
LINE
  5
132
  8
DETAIL
  6
CONTINUOUS
 62
     5
 10
151.5
 20
100.5
 30
0.0
 11
151.5
 21
99.900000000000006
 31
0.0
  0
LINE
  5
133
  8
DETAIL
  6
CONTINUOUS
 62
     5
 10
151.60395800000001
 20
100.484521
 30
0.0
 11
151.58663200000001
 21
100.3172549999999
 31
0.0
  0
LINE
  5
134
  8
DETAIL
  6
CONTINUOUS
 62
     5
 10
151.58663200000001
 20
100.3172549999999
 30
0.0
 11
151.56930600000001
 21
100.17310000000001
 31
0.0
  0
LINE
  5
135
  8
DETAIL
  6
CONTINUOUS
 62
     5
 10
151.56930600000001
 20
100.17310000000001
 30
0.0
 11
151.55197899999999
 21
100.05631099999989
 31
0.0
  0
LINE
  5
136
  8
DETAIL
  6
CONTINUOUS
 62
     5
 10
151.55197899999999
 20
100.05631099999989
 30
0.0
 11
151.53465299999991
 21
99.970336000000003
 31
0.0
  0
LINE
  5
137
  8
DETAIL
  6
CONTINUOUS
 62
     5
 10
151.53465299999991
 20
99.970336000000003
 30
0.0
 11
151.517326
 21
99.917715000000001
 31
0.0
  0
LINE
  5
138
  8
DETAIL
  6
CONTINUOUS
 62
     5
 10
151.517326
 20
99.917715000000001
 30
0.0
 11
151.5
 21
99.900000000000006
 31
0.0
  0
LINE
  5
139
  8
DETAIL
  6
CONTINUOUS
 62
     5
 10
151.621285
 20
100.66995799999999
 30
0.0
 11
151.60395800000001
 21
100.484521
 31
0.0
  0
LINE
  5
13A
  8
DETAIL
  6
CONTINUOUS
 62
     5
 10
151.621285
 20
100.8849789999999
 30
0.0
 11
151.60107099999991
 21
100.7776199999999
 31
0.0
  0
LINE
  5
13B
  8
DETAIL
  6
CONTINUOUS
 62
     5
 10
151.60107099999991
 20
100.7776199999999
 30
0.0
 11
151.58085700000001
 21
100.683205
 31
0.0
  0
LINE
  5
13C
  8
DETAIL
  6
CONTINUOUS
 62
     5
 10
151.58085700000001
 20
100.683205
 30
0.0
 11
151.560642
 21
100.605524
 31
0.0
  0
LINE
  5
13D
  8
DETAIL
  6
CONTINUOUS
 62
     5
 10
151.560642
 20
100.605524
 30
0.0
 11
151.54042799999999
 21
100.5476969999999
 31
0.0
  0
LINE
  5
13E
  8
DETAIL
  6
CONTINUOUS
 62
     5
 10
151.54042799999999
 20
100.5476969999999
 30
0.0
 11
151.5202139999999
 21
100.5120449999999
 31
0.0
  0
LINE
  5
13F
  8
DETAIL
  6
CONTINUOUS
 62
     5
 10
151.621285
 20
100.66995799999999
 30
0.0
 11
153.57774499999991
 21
106.88010199999999
 31
0.0
  0
LINE
  5
140
  8
DETAIL
  6
CONTINUOUS
 62
     5
 10
151.621285
 20
100.8849789999999
 30
0.0
 11
153.57774499999991
 21
107.095123
 31
0.0
  0
LINE
  5
141
  8
DETAIL
  6
CONTINUOUS
 62
     5
 10
153.57774499999991
 20
106.88010199999999
 30
0.0
 11
153.6926719999999
 21
107.159756
 31
0.0
  0
LINE
  5
142
  8
DETAIL
  6
CONTINUOUS
 62
     5
 10
153.6926719999999
 20
107.159756
 30
0.0
 11
153.85401899999991
 21
107.41865300000001
 31
0.0
  0
LINE
  5
143
  8
DETAIL
  6
CONTINUOUS
 62
     5
 10
153.85401899999991
 20
107.41865300000001
 30
0.0
 11
154.057637
 21
107.650137
 31
0.0
  0
LINE
  5
144
  8
DETAIL
  6
CONTINUOUS
 62
     5
 10
154.057637
 20
107.650137
 30
0.0
 11
154.29828299999991
 21
107.84824399999989
 31
0.0
  0
LINE
  5
145
  8
DETAIL
  6
CONTINUOUS
 62
     5
 10
154.29828299999991
 20
107.84824399999989
 30
0.0
 11
154.56976299999999
 21
108.00787800000001
 31
0.0
  0
LINE
  5
146
  8
DETAIL
  6
CONTINUOUS
 62
     5
 10
154.56976299999999
 20
108.00787800000001
 30
0.0
 11
154.865095
 21
108.12493000000001
 31
0.0
  0
LINE
  5
147
  8
DETAIL
  6
CONTINUOUS
 62
     5
 10
234.0
 20
100.5
 30
0.0
 11
234.0
 21
99.0
 31
0.0
  0
LINE
  5
148
  8
DETAIL
  6
CONTINUOUS
 62
     5
 10
233.0
 20
99.900000000000006
 30
0.0
 11
233.0
 21
99.0
 31
0.0
  0
LINE
  5
149
  8
DETAIL
  6
CONTINUOUS
 62
     5
 10
233.0
 20
99.900000000000006
 30
0.0
 11
233.0
 21
100.5
 31
0.0
  0
ARC
  5
14A
  8
DETAIL
  6
CONTINUOUS
 62
     5
 10
233.49999999999989
 20
99.0
 30
0.0
 40
0.5
 50
180.0
 51
0.0
  0
ARC
  5
14B
  8
DETAIL
  6
CONTINUOUS
 62
     5
 10
234.0
 20
90.5
 30
0.0
 40
10.0
 50
0.0
 51
90.0
  0
LINE
  5
14C
  8
NOTE
  6
CONTINUOUS
 62
     4
 10
277.49999999999989
 20
-80.0
 30
0.0
 11
277.49999999999989
 21
-120.0
 31
0.0
  0
LINE
  5
14D
  8
NOTE
  6
CONTINUOUS
 62
     4
 10
297.5
 20
-100.0
 30
0.0
 11
257.5
 21
-100.0
 31
0.0
  0
LINE
  5
14E
  8
SIZE
  6
CONTINUOUS
 62
    30
 10
-221.0
 20
132.0
 30
0.0
 11
-221.0
 21
919.21812299999999
 31
0.0
  0
LINE
  5
14F
  8
SIZE
  6
CONTINUOUS
 62
    30
 10
221.0
 20
132.0
 30
0.0
 11
221.0
 21
919.21812299999999
 31
0.0
  0
LINE
  5
150
  8
SIZE
  6
CONTINUOUS
 62
    30
 10
-209.0
 20
899.21812299999988
 30
0.0
 11
209.0
 21
899.21812299999988
 31
0.0
  0
CIRCLE
  5
151
  8
SIZE
  6
CONTINUOUS
 62
    30
 10
-221.0
 20
899.21812299999988
 30
0.0
 40
6.0
  0
LINE
  5
152
  8
SIZE
  6
CONTINUOUS
 62
    30
 10
-221.0
 20
899.21812299999988
 30
0.0
 11
-209.0
 21
899.21812299999988
 31
0.0
  0
CIRCLE
  5
153
  8
SIZE
  6
CONTINUOUS
 62
    30
 10
221.0
 20
899.21812299999988
 30
0.0
 40
6.0
  0
LINE
  5
154
  8
SIZE
  6
CONTINUOUS
 62
    30
 10
221.0
 20
899.21812299999988
 30
0.0
 11
209.0
 21
899.21812299999988
 31
0.0
  0
TEXT
  5
155
  8
SIZE
  6
CONTINUOUS
 62
    30
 10
-74.05714285714285
 20
924.21812299999988
 30
0.0
 40
64.0
  1
442
 41
0.9
 72
     1
 11
0.0
 21
924.21812299999988
 31
0.0
  0
LINE
  5
159
  8
SIZE
  6
CONTINUOUS
 62
    30
 10
-221.0
 20
132.0
 30
0.0
 11
-221.0
 21
793.79361900000004
 31
0.0
  0
LINE
  5
15A
  8
SIZE
  6
CONTINUOUS
 62
    30
 10
-121.0
 20
132.0
 30
0.0
 11
-121.0
 21
793.79361900000004
 31
0.0
  0
LINE
  5
15B
  8
SIZE
  6
CONTINUOUS
 62
    30
 10
-209.0
 20
773.79361900000004
 30
0.0
 11
-133.0
 21
773.79361900000004
 31
0.0
  0
LINE
  5
15C
  8
SIZE
  6
CONTINUOUS
 62
    30
 10
-571.21849699999996
 20
773.79361900000004
 30
0.0
 11
-221.0
 21
773.79361900000004
 31
0.0
  0
TEXT
  5
15D
  8
SIZE
  6
CONTINUOUS
 62
    30
 10
-546.21849657142855
 20
798.79361900000004
 30
0.0
 40
64.0
  1
100
 41
0.9
 72
     1
 11
-477.64706799999999
 21
798.79361900000004
 31
0.0
  0
CIRCLE
  5
15E
  8
SIZE
  6
CONTINUOUS
 62
    30
 10
-221.0
 20
773.79361900000004
 30
0.0
 40
6.0
  0
LINE
  5
15F
  8
SIZE
  6
CONTINUOUS
 62
    30
 10
-221.0
 20
773.79361900000004
 30
0.0
 11
-209.0
 21
773.79361900000004
 31
0.0
  0
CIRCLE
  5
160
  8
SIZE
  6
CONTINUOUS
 62
    30
 10
-121.0
 20
773.79361900000004
 30
0.0
 40
6.0
  0
LINE
  5
161
  8
SIZE
  6
CONTINUOUS
 62
    30
 10
-121.0
 20
773.79361900000004
 30
0.0
 11
-133.0
 21
773.79361900000004
 31
0.0
  0
LINE
  5
165
  8
SIZE
  6
CONTINUOUS
 62
    30
 10
221.0
 20
132.0
 30
0.0
 11
221.0
 21
793.79361900000004
 31
0.0
  0
LINE
  5
166
  8
SIZE
  6
CONTINUOUS
 62
    30
 10
121.0
 20
132.0
 30
0.0
 11
121.0
 21
793.79361900000004
 31
0.0
  0
LINE
  5
167
  8
SIZE
  6
CONTINUOUS
 62
    30
 10
209.0
 20
773.79361900000004
 30
0.0
 11
133.0
 21
773.79361900000004
 31
0.0
  0
LINE
  5
168
  8
SIZE
  6
CONTINUOUS
 62
    30
 10
614.55600400000003
 20
773.79361900000004
 30
0.0
 11
221.0
 21
773.79361900000004
 31
0.0
  0
TEXT
  5
169
  8
SIZE
  6
CONTINUOUS
 62
    30
 10
452.41314642857139
 20
798.79361900000004
 30
0.0
 40
64.0
  1
100
 41
0.9
 72
     1
 11
520.98457499999995
 21
798.79361900000004
 31
0.0
  0
CIRCLE
  5
16A
  8
SIZE
  6
CONTINUOUS
 62
    30
 10
221.0
 20
773.79361900000004
 30
0.0
 40
6.0
  0
LINE
  5
16B
  8
SIZE
  6
CONTINUOUS
 62
    30
 10
221.0
 20
773.79361900000004
 30
0.0
 11
209.0
 21
773.79361900000004
 31
0.0
  0
CIRCLE
  5
16C
  8
SIZE
  6
CONTINUOUS
 62
    30
 10
121.0
 20
773.79361900000004
 30
0.0
 40
6.0
  0
LINE
  5
16D
  8
SIZE
  6
CONTINUOUS
 62
    30
 10
121.0
 20
773.79361900000004
 30
0.0
 11
133.0
 21
773.79361900000004
 31
0.0
  0
TEXT
  5
171
  8
NOTE
  6
CONTINUOUS
 62
     4
 10
-761.14401299999997
 20
670.41388099999995
 30
0.0
 40
64.0
  1
ピッチ20×5
 41
0.9
  0
TEXT
  5
172
  8
NOTE
  6
CONTINUOUS
 62
     4
 10
331.98838799999987
 20
667.56995800000004
 30
0.0
 40
64.0
  1
ピッチ20×5
 41
0.9
  0
LINE
  5
173
  8
SIZE
  6
CONTINUOUS
 62
    30
 39
50.0
 10
614.55600400000003
 20
773.79361900000004
 30
0.0
 11
757.128244
 21
773.79361900000004
 31
0.0
  0
LINE
  5
174
  8
SIZE
  6
CONTINUOUS
 62
    30
 39
50.0
 10
-542.76745099999994
 20
773.79361900000004
 30
0.0
 11
-742.24178399999994
 21
773.79361900000004
 31
0.0
  0
LINE
  5
175
  8
SIZE
  6
CONTINUOUS
 62
    30
 10
358.28084599999988
 20
0.0
 30
0.0
 11
790.62802799999986
 21
0.0
 31
0.0
  0
LINE
  5
176
  8
SIZE
  6
CONTINUOUS
 62
    30
 10
310.0
 20
-85.0
 30
0.0
 11
790.62802799999986
 21
-85.0
 31
0.0
  0
LINE
  5
177
  8
SIZE
  6
CONTINUOUS
 62
    30
 10
770.62802799999986
 20
-12.0
 30
0.0
 11
770.62802799999986
 21
-73.0
 31
0.0
  0
LINE
  5
178
  8
SIZE
  6
CONTINUOUS
 62
    30
 10
770.62802799999986
 20
251.33804099999989
 30
0.0
 11
770.62802799999986
 21
0.0
 31
0.0
  0
TEXT
  5
179
  8
SIZE
  6
CONTINUOUS
 62
    30
 10
745.62802799999986
 20
133.08089857142849
 30
0.0
 40
64.0
  1
85
 50
90.0
 41
0.9
 72
     1
 11
745.62802799999986
 21
179.7094699999999
 31
0.0
  0
CIRCLE
  5
17A
  8
SIZE
  6
CONTINUOUS
 62
    30
 10
770.62802799999986
 20
0.0
 30
0.0
 40
6.0
  0
LINE
  5
17B
  8
SIZE
  6
CONTINUOUS
 62
    30
 10
770.62802799999986
 20
0.0
 30
0.0
 11
770.62802799999986
 21
-12.0
 31
0.0
  0
CIRCLE
  5
17C
  8
SIZE
  6
CONTINUOUS
 62
    30
 10
770.62802799999986
 20
-85.0
 30
0.0
 40
6.0
  0
LINE
  5
17D
  8
SIZE
  6
CONTINUOUS
 62
    30
 10
770.62802799999986
 20
-85.0
 30
0.0
 11
770.62802799999986
 21
-73.0
 31
0.0
  0
LINE
  5
181
  8
SIZE
  6
CONTINUOUS
 62
    30
 10
-254.0
 20
-131.49999999999989
 30
0.0
 11
-873.48168999999996
 21
-131.49999999999989
 31
0.0
  0
LINE
  5
182
  8
SIZE
  6
CONTINUOUS
 62
    30
 10
-254.0
 20
100.5
 30
0.0
 11
-873.48168999999996
 21
100.5
 31
0.0
  0
LINE
  5
183
  8
SIZE
  6
CONTINUOUS
 62
    30
 10
-853.48168999999996
 20
-119.5
 30
0.0
 11
-853.48168999999996
 21
88.499999999999986
 31
0.0
  0
CIRCLE
  5
184
  8
SIZE
  6
CONTINUOUS
 62
    30
 10
-853.48168999999996
 20
-131.49999999999989
 30
0.0
 40
6.0
  0
LINE
  5
185
  8
SIZE
  6
CONTINUOUS
 62
    30
 10
-853.48168999999996
 20
-131.49999999999989
 30
0.0
 11
-853.48168999999996
 21
-119.5
 31
0.0
  0
CIRCLE
  5
186
  8
SIZE
  6
CONTINUOUS
 62
    30
 10
-853.48168999999996
 20
100.5
 30
0.0
 40
6.0
  0
LINE
  5
187
  8
SIZE
  6
CONTINUOUS
 62
    30
 10
-853.48168999999996
 20
100.5
 30
0.0
 11
-853.48168999999996
 21
88.499999999999986
 31
0.0
  0
TEXT
  5
188
  8
SIZE
  6
CONTINUOUS
 62
    30
 10
-878.48168999999996
 20
-89.557142857142836
 30
0.0
 40
64.0
  1
232
 50
90.0
 41
0.9
 72
     1
 11
-878.48168999999996
 21
-15.5
 31
0.0
  0
LINE
  5
18C
  8
SIZE
  6
CONTINUOUS
 62
    30
 10
-316.01918699999987
 20
142.5
 30
0.0
 11
-999.58712799999989
 21
142.5
 31
0.0
  0
LINE
  5
18D
  8
SIZE
  6
CONTINUOUS
 62
    30
 10
-316.01918699999987
 20
-142.5
 30
0.0
 11
-999.58712799999989
 21
-142.5
 31
0.0
  0
LINE
  5
18E
  8
SIZE
  6
CONTINUOUS
 62
    30
 10
-979.58712799999978
 20
130.49999999999989
 30
0.0
 11
-979.58712799999978
 21
-130.49999999999989
 31
0.0
  0
CIRCLE
  5
18F
  8
SIZE
  6
CONTINUOUS
 62
    30
 10
-979.58712799999978
 20
142.5
 30
0.0
 40
6.0
  0
LINE
  5
190
  8
SIZE
  6
CONTINUOUS
 62
    30
 10
-979.58712799999978
 20
142.5
 30
0.0
 11
-979.58712799999978
 21
130.49999999999989
 31
0.0
  0
CIRCLE
  5
191
  8
SIZE
  6
CONTINUOUS
 62
    30
 10
-979.58712799999978
 20
-142.5
 30
0.0
 40
6.0
  0
LINE
  5
192
  8
SIZE
  6
CONTINUOUS
 62
    30
 10
-979.58712799999978
 20
-142.5
 30
0.0
 11
-979.58712799999978
 21
-130.49999999999989
 31
0.0
  0
TEXT
  5
193
  8
SIZE
  6
CONTINUOUS
 62
    30
 10
-1004.587127999999
 20
-74.057142857142821
 30
0.0
 40
64.0
  1
285
 50
90.0
 41
0.9
 72
     1
 11
-1004.587127999999
 21
0.0
 31
0.0
  0
LINE
  5
197
  8
SIZE
  6
CONTINUOUS
 62
    30
 10
-260.15551599999998
 20
-25.0
 30
0.0
 11
-740.42370300000005
 21
-25.0
 31
0.0
  0
LINE
  5
198
  8
SIZE
  6
CONTINUOUS
 62
    30
 10
-260.15551599999998
 20
15.0
 30
0.0
 11
-740.42370300000005
 21
15.0
 31
0.0
  0
LINE
  5
199
  8
SIZE
  6
CONTINUOUS
 62
    30
 10
-720.42370300000005
 20
-37.0
 30
0.0
 11
-720.42370300000005
 21
-49.0
 31
0.0
  0
LINE
  5
19A
  8
SIZE
  6
CONTINUOUS
 62
    30
 10
-720.42370300000005
 20
27.0
 30
0.0
 11
-720.42370300000005
 21
39.0
 31
0.0
  0
LINE
  5
19B
  8
SIZE
  6
CONTINUOUS
 62
    30
 10
-720.42370300000005
 20
352.70691199999999
 30
0.0
 11
-720.42370300000005
 21
15.0
 31
0.0
  0
TEXT
  5
19C
  8
SIZE
  6
CONTINUOUS
 62
    30
 10
-745.42370300000005
 20
234.44976857142851
 30
0.0
 40
64.0
  1
40
 50
90.0
 41
0.9
 72
     1
 11
-745.42370300000005
 21
281.07833999999991
 31
0.0
  0
LINE
  5
19D
  8
SIZE
  6
CONTINUOUS
 62
    30
 10
-720.42370300000005
 20
-25.0
 30
0.0
 11
-720.42370300000005
 21
15.0
 31
0.0
  0
LINE
  5
19E
  8
SIZE
  6
CONTINUOUS
 62
    30
 10
-720.42370300000005
 20
-25.0
 30
0.0
 11
-720.42370300000005
 21
15.0
 31
0.0
  0
CIRCLE
  5
19F
  8
SIZE
  6
CONTINUOUS
 62
    30
 10
-720.42370300000005
 20
-25.0
 30
0.0
 40
6.0
  0
LINE
  5
1A0
  8
SIZE
  6
CONTINUOUS
 62
    30
 10
-720.42370300000005
 20
-25.0
 30
0.0
 11
-720.42370300000005
 21
-37.0
 31
0.0
  0
CIRCLE
  5
1A1
  8
SIZE
  6
CONTINUOUS
 62
    30
 10
-720.42370300000005
 20
15.0
 30
0.0
 40
6.0
  0
LINE
  5
1A2
  8
SIZE
  6
CONTINUOUS
 62
    30
 10
-720.42370300000005
 20
15.0
 30
0.0
 11
-720.42370300000005
 21
27.0
 31
0.0
  0
LINE
  5
1A6
  8
SIZE
  6
CONTINUOUS
 62
    30
 10
-362.84594499999997
 20
0.0
 30
0.0
 11
-597.51079000000004
 21
0.0
 31
0.0
  0
LINE
  5
1A7
  8
SIZE
  6
CONTINUOUS
 62
    30
 10
-260.15551599999998
 20
-25.0
 30
0.0
 11
-597.51079000000004
 21
-25.0
 31
0.0
  0
LINE
  5
1A8
  8
SIZE
  6
CONTINUOUS
 62
    30
 10
-577.51079000000004
 20
12.0
 30
0.0
 11
-577.51079000000004
 21
24.0
 31
0.0
  0
LINE
  5
1A9
  8
SIZE
  6
CONTINUOUS
 62
    30
 10
-577.51079000000004
 20
-37.0
 30
0.0
 11
-577.51079000000004
 21
-49.0
 31
0.0
  0
LINE
  5
1AA
  8
SIZE
  6
CONTINUOUS
 62
    30
 10
-577.51079000000004
 20
-387.49067599999989
 30
0.0
 11
-577.51079000000004
 21
-25.0
 31
0.0
  0
TEXT
  5
1AB
  8
SIZE
  6
CONTINUOUS
 62
    30
 10
-602.51079000000004
 20
-362.49067542857142
 30
0.0
 40
64.0
  1
25
 50
90.0
 41
0.9
 72
     1
 11
-602.51079000000004
 21
-315.86210399999987
 31
0.0
  0
LINE
  5
1AC
  8
SIZE
  6
CONTINUOUS
 62
    30
 10
-577.51079000000004
 20
0.0
 30
0.0
 11
-577.51079000000004
 21
-25.0
 31
0.0
  0
LINE
  5
1AD
  8
SIZE
  6
CONTINUOUS
 62
    30
 10
-577.51079000000004
 20
0.0
 30
0.0
 11
-577.51079000000004
 21
-25.0
 31
0.0
  0
CIRCLE
  5
1AE
  8
SIZE
  6
CONTINUOUS
 62
    30
 10
-577.51079000000004
 20
0.0
 30
0.0
 40
6.0
  0
LINE
  5
1AF
  8
SIZE
  6
CONTINUOUS
 62
    30
 10
-577.51079000000004
 20
0.0
 30
0.0
 11
-577.51079000000004
 21
12.0
 31
0.0
  0
CIRCLE
  5
1B0
  8
SIZE
  6
CONTINUOUS
 62
    30
 10
-577.51079000000004
 20
-25.0
 30
0.0
 40
6.0
  0
LINE
  5
1B1
  8
SIZE
  6
CONTINUOUS
 62
    30
 10
-577.51079000000004
 20
-25.0
 30
0.0
 11
-577.51079000000004
 21
-37.0
 31
0.0
  0
LINE
  5
1B5
  8
SIZE
  6
CONTINUOUS
 62
    30
 10
-254.0
 20
100.5
 30
0.0
 11
-873.48168999999996
 21
100.5
 31
0.0
  0
LINE
  5
1B6
  8
SIZE
  6
CONTINUOUS
 62
    30
 10
-316.01918699999987
 20
142.5
 30
0.0
 11
-873.48168999999996
 21
142.5
 31
0.0
  0
LINE
  5
1B7
  8
SIZE
  6
CONTINUOUS
 62
    30
 10
-853.48168999999996
 20
88.499999999999986
 30
0.0
 11
-853.48168999999996
 21
76.5
 31
0.0
  0
LINE
  5
1B8
  8
SIZE
  6
CONTINUOUS
 62
    30
 10
-853.48168999999996
 20
154.49999999999989
 30
0.0
 11
-853.48168999999996
 21
166.5
 31
0.0
  0
LINE
  5
1B9
  8
SIZE
  6
CONTINUOUS
 62
    30
 10
-853.48168999999996
 20
355.14761199999998
 30
0.0
 11
-853.48168999999996
 21
142.5
 31
0.0
  0
TEXT
  5
1BA
  8
SIZE
  6
CONTINUOUS
 62
    30
 10
-878.48168999999996
 20
236.8904695714285
 30
0.0
 40
64.0
  1
42
 50
90.0
 41
0.9
 72
     1
 11
-878.48168999999996
 21
283.51904100000002
 31
0.0
  0
LINE
  5
1BB
  8
SIZE
  6
CONTINUOUS
 62
    30
 10
-853.48168999999996
 20
100.5
 30
0.0
 11
-853.48168999999996
 21
142.5
 31
0.0
  0
LINE
  5
1BC
  8
SIZE
  6
CONTINUOUS
 62
    30
 10
-853.48168999999996
 20
100.5
 30
0.0
 11
-853.48168999999996
 21
142.5
 31
0.0
  0
CIRCLE
  5
1BD
  8
SIZE
  6
CONTINUOUS
 62
    30
 10
-853.48168999999996
 20
100.5
 30
0.0
 40
6.0
  0
LINE
  5
1BE
  8
SIZE
  6
CONTINUOUS
 62
    30
 10
-853.48168999999996
 20
100.5
 30
0.0
 11
-853.48168999999996
 21
88.499999999999986
 31
0.0
  0
CIRCLE
  5
1BF
  8
SIZE
  6
CONTINUOUS
 62
    30
 10
-853.48168999999996
 20
142.5
 30
0.0
 40
6.0
  0
LINE
  5
1C0
  8
SIZE
  6
CONTINUOUS
 62
    30
 10
-853.48168999999996
 20
142.5
 30
0.0
 11
-853.48168999999996
 21
154.49999999999989
 31
0.0
  0
LINE
  5
1C4
  8
SIZE
  6
CONTINUOUS
 62
    30
 10
310.0
 20
-85.0
 30
0.0
 11
790.62802799999986
 21
-85.0
 31
0.0
  0
LINE
  5
1C5
  8
SIZE
  6
CONTINUOUS
 62
    30
 10
310.0
 20
-115.0
 30
0.0
 11
790.62802799999986
 21
-115.0
 31
0.0
  0
LINE
  5
1C6
  8
SIZE
  6
CONTINUOUS
 62
    30
 10
770.62802799999986
 20
-73.0
 30
0.0
 11
770.62802799999986
 21
-61.0
 31
0.0
  0
LINE
  5
1C7
  8
SIZE
  6
CONTINUOUS
 62
    30
 10
770.62802799999986
 20
-127.0
 30
0.0
 11
770.62802799999986
 21
-139.0
 31
0.0
  0
LINE
  5
1C8
  8
SIZE
  6
CONTINUOUS
 62
    30
 10
770.62802799999986
 20
-289.97600599999993
 30
0.0
 11
770.62802799999986
 21
-115.0
 31
0.0
  0
TEXT
  5
1C9
  8
SIZE
  6
CONTINUOUS
 62
    30
 10
745.62802799999986
 20
-264.9760064285714
 30
0.0
 40
64.0
  1
30
 50
90.0
 41
0.9
 72
     1
 11
745.62802799999986
 21
-218.34743499999999
 31
0.0
  0
LINE
  5
1CA
  8
SIZE
  6
CONTINUOUS
 62
    30
 10
770.62802799999986
 20
-85.0
 30
0.0
 11
770.62802799999986
 21
-115.0
 31
0.0
  0
LINE
  5
1CB
  8
SIZE
  6
CONTINUOUS
 62
    30
 10
770.62802799999986
 20
-85.0
 30
0.0
 11
770.62802799999986
 21
-115.0
 31
0.0
  0
CIRCLE
  5
1CC
  8
SIZE
  6
CONTINUOUS
 62
    30
 10
770.62802799999986
 20
-85.0
 30
0.0
 40
6.0
  0
LINE
  5
1CD
  8
SIZE
  6
CONTINUOUS
 62
    30
 10
770.62802799999986
 20
-85.0
 30
0.0
 11
770.62802799999986
 21
-73.0
 31
0.0
  0
CIRCLE
  5
1CE
  8
SIZE
  6
CONTINUOUS
 62
    30
 10
770.62802799999986
 20
-115.0
 30
0.0
 40
6.0
  0
LINE
  5
1CF
  8
SIZE
  6
CONTINUOUS
 62
    30
 10
770.62802799999986
 20
-115.0
 30
0.0
 11
770.62802799999986
 21
-127.0
 31
0.0
  0
LINE
  5
1D3
  8
SIZE
  6
CONTINUOUS
 62
    30
 10
261.0
 20
92.0
 30
0.0
 11
919.38345600000002
 21
92.0
 31
0.0
  0
LINE
  5
1D4
  8
SIZE
  6
CONTINUOUS
 62
    30
 10
261.0
 20
72.0
 30
0.0
 11
919.38345600000002
 21
72.0
 31
0.0
  0
LINE
  5
1D5
  8
SIZE
  6
CONTINUOUS
 62
    30
 10
899.38345599999991
 20
104.0
 30
0.0
 11
899.38345599999991
 21
116.0
 31
0.0
  0
LINE
  5
1D6
  8
SIZE
  6
CONTINUOUS
 62
    30
 10
899.38345599999991
 20
60.0
 30
0.0
 11
899.38345599999991
 21
48.0
 31
0.0
  0
LINE
  5
1D7
  8
SIZE
  6
CONTINUOUS
 62
    30
 10
899.38345599999991
 20
274.45589200000001
 30
0.0
 11
899.38345599999991
 21
92.0
 31
0.0
  0
TEXT
  5
1D8
  8
SIZE
  6
CONTINUOUS
 62
    30
 10
874.38345599999991
 20
156.19874957142849
 30
0.0
 40
64.0
  1
20
 50
90.0
 41
0.9
 72
     1
 11
874.38345599999991
 21
202.82732100000001
 31
0.0
  0
LINE
  5
1D9
  8
SIZE
  6
CONTINUOUS
 62
    30
 10
899.38345599999991
 20
92.0
 30
0.0
 11
899.38345599999991
 21
72.0
 31
0.0
  0
LINE
  5
1DA
  8
SIZE
  6
CONTINUOUS
 62
    30
 10
899.38345599999991
 20
92.0
 30
0.0
 11
899.38345599999991
 21
72.0
 31
0.0
  0
CIRCLE
  5
1DB
  8
SIZE
  6
CONTINUOUS
 62
    30
 10
899.38345599999991
 20
92.0
 30
0.0
 40
6.0
  0
LINE
  5
1DC
  8
SIZE
  6
CONTINUOUS
 62
    30
 10
899.38345599999991
 20
92.0
 30
0.0
 11
899.38345599999991
 21
104.0
 31
0.0
  0
CIRCLE
  5
1DD
  8
SIZE
  6
CONTINUOUS
 62
    30
 10
899.38345599999991
 20
72.0
 30
0.0
 40
6.0
  0
LINE
  5
1DE
  8
SIZE
  6
CONTINUOUS
 62
    30
 10
899.38345599999991
 20
72.0
 30
0.0
 11
899.38345599999991
 21
60.0
 31
0.0
  0
LINE
  5
1E2
  8
SIZE
  6
CONTINUOUS
 62
    30
 10
261.0
 20
72.0
 30
0.0
 11
1043.9844449999989
 21
72.0
 31
0.0
  0
LINE
  5
1E3
  8
SIZE
  6
CONTINUOUS
 62
    30
 10
364.05209100000002
 20
0.0
 30
0.0
 11
1043.9844449999989
 21
0.0
 31
0.0
  0
LINE
  5
1E4
  8
SIZE
  6
CONTINUOUS
 62
    30
 10
1023.984444999999
 20
84.0
 30
0.0
 11
1023.984444999999
 21
96.0
 31
0.0
  0
LINE
  5
1E5
  8
SIZE
  6
CONTINUOUS
 62
    30
 10
1023.984444999999
 20
-12.0
 30
0.0
 11
1023.984444999999
 21
-24.0
 31
0.0
  0
LINE
  5
1E6
  8
SIZE
  6
CONTINUOUS
 62
    30
 10
1023.984444999999
 20
243.4279129999999
 30
0.0
 11
1023.984444999999
 21
72.0
 31
0.0
  0
TEXT
  5
1E7
  8
SIZE
  6
CONTINUOUS
 62
    30
 10
998.98444499999994
 20
125.17077057142851
 30
0.0
 40
64.0
  1
72
 50
90.0
 41
0.9
 72
     1
 11
998.98444499999994
 21
171.79934199999991
 31
0.0
  0
LINE
  5
1E8
  8
SIZE
  6
CONTINUOUS
 62
    30
 10
1023.984444999999
 20
72.0
 30
0.0
 11
1023.984444999999
 21
0.0
 31
0.0
  0
LINE
  5
1E9
  8
SIZE
  6
CONTINUOUS
 62
    30
 10
1023.984444999999
 20
72.0
 30
0.0
 11
1023.984444999999
 21
0.0
 31
0.0
  0
CIRCLE
  5
1EA
  8
SIZE
  6
CONTINUOUS
 62
    30
 10
1023.984444999999
 20
72.0
 30
0.0
 40
6.0
  0
LINE
  5
1EB
  8
SIZE
  6
CONTINUOUS
 62
    30
 10
1023.984444999999
 20
72.0
 30
0.0
 11
1023.984444999999
 21
84.0
 31
0.0
  0
CIRCLE
  5
1EC
  8
SIZE
  6
CONTINUOUS
 62
    30
 10
1023.984444999999
 20
0.0
 30
0.0
 40
6.0
  0
LINE
  5
1ED
  8
SIZE
  6
CONTINUOUS
 62
    30
 10
1023.984444999999
 20
0.0
 30
0.0
 11
1023.984444999999
 21
-12.0
 31
0.0
  0
LINE
  5
1F1
  8
SIZE
  6
CONTINUOUS
 62
    30
 10
364.05209100000002
 20
0.0
 30
0.0
 11
1043.9844449999989
 21
0.0
 31
0.0
  0
LINE
  5
1F2
  8
SIZE
  6
CONTINUOUS
 62
    30
 10
261.0
 20
-103.0
 30
0.0
 11
1043.9844449999989
 21
-103.0
 31
0.0
  0
LINE
  5
1F3
  8
SIZE
  6
CONTINUOUS
 62
    30
 10
1023.984444999999
 20
-12.0
 30
0.0
 11
1023.984444999999
 21
-91.0
 31
0.0
  0
LINE
  5
1F4
  8
SIZE
  6
CONTINUOUS
 62
    30
 10
1023.984444999999
 20
-314.268012
 30
0.0
 11
1023.984444999999
 21
-103.0
 31
0.0
  0
TEXT
  5
1F5
  8
SIZE
  6
CONTINUOUS
 62
    30
 10
998.98444499999994
 20
-289.26801257142853
 30
0.0
 40
64.0
  1
103
 50
90.0
 41
0.9
 72
     1
 11
998.98444499999994
 21
-220.69658399999989
 31
0.0
  0
CIRCLE
  5
1F6
  8
SIZE
  6
CONTINUOUS
 62
    30
 10
1023.984444999999
 20
0.0
 30
0.0
 40
6.0
  0
LINE
  5
1F7
  8
SIZE
  6
CONTINUOUS
 62
    30
 10
1023.984444999999
 20
0.0
 30
0.0
 11
1023.984444999999
 21
-12.0
 31
0.0
  0
CIRCLE
  5
1F8
  8
SIZE
  6
CONTINUOUS
 62
    30
 10
1023.984444999999
 20
-103.0
 30
0.0
 40
6.0
  0
LINE
  5
1F9
  8
SIZE
  6
CONTINUOUS
 62
    30
 10
1023.984444999999
 20
-103.0
 30
0.0
 11
1023.984444999999
 21
-91.0
 31
0.0
  0
LINE
  5
1FD
  8
SIZE
  6
CONTINUOUS
 62
    30
 10
261.0
 20
-103.0
 30
0.0
 11
919.38345600000002
 21
-103.0
 31
0.0
  0
LINE
  5
1FE
  8
SIZE
  6
CONTINUOUS
 62
    30
 10
261.0
 20
-123.0
 30
0.0
 11
919.38345600000002
 21
-123.0
 31
0.0
  0
LINE
  5
1FF
  8
SIZE
  6
CONTINUOUS
 62
    30
 10
899.38345599999991
 20
-91.0
 30
0.0
 11
899.38345599999991
 21
-79.0
 31
0.0
  0
LINE
  5
200
  8
SIZE
  6
CONTINUOUS
 62
    30
 10
899.38345599999991
 20
-135.0
 30
0.0
 11
899.38345599999991
 21
-147.0
 31
0.0
  0
LINE
  5
201
  8
SIZE
  6
CONTINUOUS
 62
    30
 10
899.38345599999991
 20
-306.894678
 30
0.0
 11
899.38345599999991
 21
-123.0
 31
0.0
  0
TEXT
  5
202
  8
SIZE
  6
CONTINUOUS
 62
    30
 10
874.38345599999991
 20
-281.89467842857141
 30
0.0
 40
64.0
  1
20
 50
90.0
 41
0.9
 72
     1
 11
874.38345599999991
 21
-235.26610699999989
 31
0.0
  0
LINE
  5
203
  8
SIZE
  6
CONTINUOUS
 62
    30
 10
899.38345599999991
 20
-103.0
 30
0.0
 11
899.38345599999991
 21
-123.0
 31
0.0
  0
LINE
  5
204
  8
SIZE
  6
CONTINUOUS
 62
    30
 10
899.38345599999991
 20
-103.0
 30
0.0
 11
899.38345599999991
 21
-123.0
 31
0.0
  0
CIRCLE
  5
205
  8
SIZE
  6
CONTINUOUS
 62
    30
 10
899.38345599999991
 20
-103.0
 30
0.0
 40
6.0
  0
LINE
  5
206
  8
SIZE
  6
CONTINUOUS
 62
    30
 10
899.38345599999991
 20
-103.0
 30
0.0
 11
899.38345599999991
 21
-91.0
 31
0.0
  0
CIRCLE
  5
207
  8
SIZE
  6
CONTINUOUS
 62
    30
 10
899.38345599999991
 20
-123.0
 30
0.0
 40
6.0
  0
LINE
  5
208
  8
SIZE
  6
CONTINUOUS
 62
    30
 10
899.38345599999991
 20
-123.0
 30
0.0
 11
899.38345599999991
 21
-135.0
 31
0.0
  0
LINE
  5
20C
  8
SIZE
  6
CONTINUOUS
 62
    30
 10
-175.0
 20
-111.58945199999999
 30
0.0
 11
-175.0
 21
-732.10796500000004
 31
0.0
  0
LINE
  5
20D
  8
SIZE
  6
CONTINUOUS
 62
    30
 10
175.0
 20
-111.58945199999999
 30
0.0
 11
175.0
 21
-732.10796500000004
 31
0.0
  0
LINE
  5
20E
  8
SIZE
  6
CONTINUOUS
 62
    30
 10
-163.0
 20
-712.10796500000004
 30
0.0
 11
163.0
 21
-712.10796500000004
 31
0.0
  0
CIRCLE
  5
20F
  8
SIZE
  6
CONTINUOUS
 62
    30
 10
-175.0
 20
-712.10796500000004
 30
0.0
 40
6.0
  0
LINE
  5
210
  8
SIZE
  6
CONTINUOUS
 62
    30
 10
-175.0
 20
-712.10796500000004
 30
0.0
 11
-163.0
 21
-712.10796500000004
 31
0.0
  0
CIRCLE
  5
211
  8
SIZE
  6
CONTINUOUS
 62
    30
 10
175.0
 20
-712.10796500000004
 30
0.0
 40
6.0
  0
LINE
  5
212
  8
SIZE
  6
CONTINUOUS
 62
    30
 10
175.0
 20
-712.10796500000004
 30
0.0
 11
163.0
 21
-712.10796500000004
 31
0.0
  0
TEXT
  5
213
  8
SIZE
  6
CONTINUOUS
 62
    30
 10
-74.05714285714285
 20
-687.10796500000004
 30
0.0
 40
64.0
  1
350
 41
0.9
 72
     1
 11
0.0
 21
-687.10796500000004
 31
0.0
  0
TEXT
  5
217
  8
NOTE
  6
CONTINUOUS
 62
     4
 10
-131.35003299999991
 20
-795.84273299999995
 30
0.0
 40
64.0
  1
（最大）
 41
0.9
  0
TEXT
  5
218
  8
NOTE
  6
CONTINUOUS
 62
     4
 10
-196.0419149999999
 20
-582.97109699999987
 30
0.0
 40
64.0
  1
（最小）
 41
0.9
  0
TEXT
  5
219
  8
NOTE
  6
CONTINUOUS
 62
     4
 10
-560.99247999999989
 20
-584.87115900000003
 30
0.0
 40
64.0
  1
（可動寸法）
 41
0.9
  0
TEXT
  5
21A
  8
NOTE
  6
CONTINUOUS
 62
     4
 10
-642.20774800000004
 20
8.8973729999999982
 30
0.0
 40
64.0
  1
（可動寸法）
 50
90.0
 41
0.9
  0
LINE
  5
21B
  8
SIZE
  6
CONTINUOUS
 62
    30
 39
50.0
 10
-720.42370300000005
 20
328.64370099999991
 30
0.0
 11
-720.42370300000005
 21
398.00204100000002
 31
0.0
  0
LINE
  5
21C
  8
SIZE
  6
CONTINUOUS
 62
    30
 10
-125.0
 20
-114.3082939999999
 30
0.0
 11
-125.0
 21
-513.09636799999987
 31
0.0
  0
LINE
  5
21D
  8
SIZE
  6
CONTINUOUS
 62
    30
 10
-175.0
 20
-111.58945199999999
 30
0.0
 11
-175.0
 21
-513.09636799999987
 31
0.0
  0
LINE
  5
21E
  8
SIZE
  6
CONTINUOUS
 62
    30
 10
-113.0
 20
-493.09636799999993
 30
0.0
 11
-101.0
 21
-493.09636799999993
 31
0.0
  0
LINE
  5
21F
  8
SIZE
  6
CONTINUOUS
 62
    30
 10
-187.0
 20
-493.09636799999993
 30
0.0
 11
-199.0
 21
-493.09636799999993
 31
0.0
  0
LINE
  5
220
  8
SIZE
  6
CONTINUOUS
 62
    30
 10
-516.34474099999989
 20
-493.09636799999993
 30
0.0
 11
-175.0
 21
-493.09636799999993
 31
0.0
  0
TEXT
  5
221
  8
SIZE
  6
CONTINUOUS
 62
    30
 10
-491.34474142857141
 20
-468.09636799999993
 30
0.0
 40
64.0
  1
50
 41
0.9
 72
     1
 11
-444.71616999999998
 21
-468.09636799999993
 31
0.0
  0
LINE
  5
222
  8
SIZE
  6
CONTINUOUS
 62
    30
 10
-125.0
 20
-493.09636799999993
 30
0.0
 11
-175.0
 21
-493.09636799999993
 31
0.0
  0
LINE
  5
223
  8
SIZE
  6
CONTINUOUS
 62
    30
 10
-125.0
 20
-493.09636799999993
 30
0.0
 11
-175.0
 21
-493.09636799999993
 31
0.0
  0
CIRCLE
  5
224
  8
SIZE
  6
CONTINUOUS
 62
    30
 10
-125.0
 20
-493.09636799999993
 30
0.0
 40
6.0
  0
LINE
  5
225
  8
SIZE
  6
CONTINUOUS
 62
    30
 10
-125.0
 20
-493.09636799999993
 30
0.0
 11
-113.0
 21
-493.09636799999993
 31
0.0
  0
CIRCLE
  5
226
  8
SIZE
  6
CONTINUOUS
 62
    30
 10
-175.0
 20
-493.09636799999993
 30
0.0
 40
6.0
  0
LINE
  5
227
  8
SIZE
  6
CONTINUOUS
 62
    30
 10
-175.0
 20
-493.09636799999993
 30
0.0
 11
-187.0
 21
-493.09636799999993
 31
0.0
  0
TEXT
  5
22B
  8
NOTE
  6
CONTINUOUS
 62
     4
 10
181.064188
 20
-576.71471699999995
 30
0.0
 40
64.0
  1
（可動寸法）
 41
0.9
  0
TEXT
  5
22C
  8
NOTE
  6
CONTINUOUS
 62
     4
 10
671.50752
 20
435.27757700000001
 30
0.0
 40
64.0
  1
室外給気口
 41
0.9
  0
TEXT
  5
22D
  8
NOTE
  6
CONTINUOUS
 62
     4
 10
-933.08823900000004
 20
576.18810899999994
 30
0.0
 40
64.0
  1
室外排気口
 41
0.9
  0
TEXT
  5
22E
  8
NOTE
  6
CONTINUOUS
 62
     4
 10
-1166.012735999999
 20
445.08819599999998
 30
0.0
 40
64.0
  1
（φ100～φ110壁穴）
 41
0.9
  0
TEXT
  5
22F
  8
NOTE
  6
CONTINUOUS
 62
     4
 10
492.63378699999998
 20
185.18489699999989
 30
0.0
 40
64.0
  1
EL
 41
0.9
  0
LINE
  5
230
  8
NOTE
  6
CONTINUOUS
 62
     4
 10
596.58298000000002
 20
148.62881899999991
 30
0.0
 11
468.55328200000002
 21
148.62881899999991
 31
0.0
  0
LINE
  5
231
  8
NOTE
  6
CONTINUOUS
 62
     4
 10
277.49999999999989
 20
-100.0
 30
0.0
 11
468.55328200000002
 21
148.62881899999991
 31
0.0
  0
LINE
  5
232
  8
NOTE
  6
CONTINUOUS
 62
     4
 10
293.55746399999998
 20
-63.364527000000002
 30
0.0
 11
277.49999999999989
 21
-100.0
 31
0.0
  0
LINE
  5
233
  8
NOTE
  6
CONTINUOUS
 62
     4
 10
277.49999999999989
 20
-100.0
 30
0.0
 11
309.72390799999999
 21
-76.301481999999993
 31
0.0
  0
TEXT
  5
234
  8
NOTE
  6
CONTINUOUS
 62
     4
 10
467.04186499999997
 20
305.30233700000002
 30
0.0
 40
64.0
  1
（φ100～φ110壁穴）
 41
0.9
  0
LINE
  5
235
  8
NOTE
  6
CONTINUOUS
 62
     4
 10
215.5387649999999
 20
4.2678750000000001
 30
0.0
 11
488.8563079999999
 21
405.84771599999988
 31
0.0
  0
LINE
  5
236
  8
NOTE
  6
CONTINUOUS
 62
     4
 10
488.8563079999999
 20
405.84771599999988
 30
0.0
 11
1209.099301
 21
405.84771599999988
 31
0.0
  0
LINE
  5
237
  8
NOTE
  6
CONTINUOUS
 62
     4
 10
228.71942199999989
 20
42.033869000000003
 30
0.0
 11
215.5387649999999
 21
4.2678750000000001
 31
0.0
  0
LINE
  5
238
  8
NOTE
  6
CONTINUOUS
 62
     4
 10
215.5387649999999
 20
4.2678750000000001
 30
0.0
 11
245.836546
 21
30.383856000000002
 31
0.0
  0
LINE
  5
239
  8
NOTE
  6
CONTINUOUS
 62
     4
 39
50.0
 10
-214.21861200000001
 20
6.0145210000000002
 30
0.0
 11
-414.79573900000003
 21
544.79258300000004
 31
0.0
  0
LINE
  5
23A
  8
NOTE
  6
CONTINUOUS
 62
     4
 39
50.0
 10
-414.79573900000003
 20
544.79258300000004
 30
0.0
 11
-1148.9016320000001
 21
544.79258300000004
 31
0.0
  0
LINE
  5
23B
  8
NOTE
  6
CONTINUOUS
 62
     4
 10
489.25914399999999
 20
516.80185400000005
 30
0.0
 11
805.02371600000004
 21
516.80185400000005
 31
0.0
  0
TEXT
  5
23C
  8
NOTE
  6
CONTINUOUS
 62
     4
 10
500.19720899999987
 20
546.23171600000001
 30
0.0
 40
64.0
  1
52-φ6
 41
0.9
  0
LINE
  5
23D
  8
NOTE
  6
CONTINUOUS
 62
     4
 10
221.0
 20
92.0
 30
0.0
 11
489.25914399999999
 21
516.80185400000005
 31
0.0
  0
LINE
  5
23E
  8
NOTE
  6
CONTINUOUS
 62
     4
 10
233.063885
 20
130.13741899999991
 30
0.0
 11
221.0
 21
92.0
 31
0.0
  0
LINE
  5
23F
  8
NOTE
  6
CONTINUOUS
 62
     4
 10
221.0
 20
92.0
 30
0.0
 11
250.5163399999999
 21
118.996031
 31
0.0
  0
LINE
  5
240
  8
NOTE
  6
CONTINUOUS
 62
     4
 10
-237.40088099999991
 20
38.611796999999989
 30
0.0
 11
-214.21861200000001
 21
6.0145210000000002
 31
0.0
  0
LINE
  5
241
  8
NOTE
  6
CONTINUOUS
 62
     4
 10
-214.21861200000001
 20
6.0145210000000002
 30
0.0
 11
-217.996407
 21
45.835724999999989
 31
0.0
  0
LINE
  5
242
  8
SIZE
  6
CONTINUOUS
 62
    30
 10
-358.28084599999988
 20
0.0
 30
0.0
 11
-1320.318133999999
 21
0.0
 31
0.0
  0
LINE
  5
243
  8
SIZE
  6
CONTINUOUS
 62
    30
 10
-380.0
 20
-243.0
 30
0.0
 11
-1320.318133999999
 21
-243.0
 31
0.0
  0
LINE
  5
244
  8
SIZE
  6
CONTINUOUS
 62
    30
 10
-1300.3181340000001
 20
-12.0
 30
0.0
 11
-1300.3181340000001
 21
-231.0
 31
0.0
  0
LINE
  5
245
  8
SIZE
  6
CONTINUOUS
 62
    30
 10
-1300.3181340000001
 20
-532.87074599999994
 30
0.0
 11
-1300.3181340000001
 21
-243.0
 31
0.0
  0
TEXT
  5
246
  8
SIZE
  6
CONTINUOUS
 62
    30
 10
-1325.318133999999
 20
-507.87074585714282
 30
0.0
 40
64.0
  1
243
 50
90.0
 41
0.9
 72
     1
 11
-1325.318133999999
 21
-433.813603
 31
0.0
  0
CIRCLE
  5
247
  8
SIZE
  6
CONTINUOUS
 62
    30
 10
-1300.3181340000001
 20
0.0
 30
0.0
 40
6.0
  0
LINE
  5
248
  8
SIZE
  6
CONTINUOUS
 62
    30
 10
-1300.3181340000001
 20
0.0
 30
0.0
 11
-1300.3181340000001
 21
-12.0
 31
0.0
  0
CIRCLE
  5
249
  8
SIZE
  6
CONTINUOUS
 62
    30
 10
-1300.3181340000001
 20
-243.0
 30
0.0
 40
6.0
  0
LINE
  5
24A
  8
SIZE
  6
CONTINUOUS
 62
    30
 10
-1300.3181340000001
 20
-243.0
 30
0.0
 11
-1300.3181340000001
 21
-231.0
 31
0.0
  0
LINE
  5
24E
  8
SIZE
  6
CONTINUOUS
 62
    30
 10
-380.0
 20
203.0
 30
0.0
 11
-1320.318133999999
 21
203.0
 31
0.0
  0
LINE
  5
24F
  8
SIZE
  6
CONTINUOUS
 62
    30
 10
-362.84594499999997
 20
0.0
 30
0.0
 11
-1320.318133999999
 21
0.0
 31
0.0
  0
LINE
  5
250
  8
SIZE
  6
CONTINUOUS
 62
    30
 10
-1300.3181340000001
 20
191.0
 30
0.0
 11
-1300.3181340000001
 21
12.0
 31
0.0
  0
LINE
  5
251
  8
SIZE
  6
CONTINUOUS
 62
    30
 10
-1300.3181340000001
 20
538.46592199999986
 30
0.0
 11
-1300.3181340000001
 21
203.0
 31
0.0
  0
TEXT
  5
252
  8
SIZE
  6
CONTINUOUS
 62
    30
 10
-1325.318133999999
 20
365.3516361428571
 30
0.0
 40
64.0
  1
203
 50
90.0
 41
0.9
 72
     1
 11
-1325.318133999999
 21
439.40877899999992
 31
0.0
  0
CIRCLE
  5
253
  8
SIZE
  6
CONTINUOUS
 62
    30
 10
-1300.3181340000001
 20
203.0
 30
0.0
 40
6.0
  0
LINE
  5
254
  8
SIZE
  6
CONTINUOUS
 62
    30
 10
-1300.3181340000001
 20
203.0
 30
0.0
 11
-1300.3181340000001
 21
191.0
 31
0.0
  0
CIRCLE
  5
255
  8
SIZE
  6
CONTINUOUS
 62
    30
 10
-1300.3181340000001
 20
0.0
 30
0.0
 40
6.0
  0
LINE
  5
256
  8
SIZE
  6
CONTINUOUS
 62
    30
 10
-1300.3181340000001
 20
0.0
 30
0.0
 11
-1300.3181340000001
 21
12.0
 31
0.0
  0
LINE
  5
25A
  8
SIZE
  6
CONTINUOUS
 62
    30
 39
50.0
 10
-1300.3181340000001
 20
-532.87074599999994
 30
0.0
 11
-1300.3181340000001
 21
-651.19770400000004
 31
0.0
  0
TEXT
  5
25B
  8
NOTE
  6
CONTINUOUS
 62
     4
 10
-1202.4824530000001
 20
-620.59829899999988
 30
0.0
 40
64.0
  1
下面より243以上
 50
90.0
 41
0.9
  0
LINE
  5
25C
  8
SIZE
  6
CONTINUOUS
 62
    30
 39
50.0
 10
-1300.3181340000001
 20
538.46592199999986
 30
0.0
 11
-1300.3181340000001
 21
728.27635899999996
 31
0.0
  0
TEXT
  5
25D
  8
NOTE
  6
CONTINUOUS
 62
     4
 10
-1207.459834
 20
74.457401000000004
 30
0.0
 40
64.0
  1
天井面より203以上
 50
90.0
 41
0.9
  0
LINE
  5
25E
  8
SIZE
  6
CONTINUOUS
 62
    30
 39
50.0
 10
635.95340899999985
 20
-1038.5326289999989
 30
0.0
 11
763.88038499999993
 21
-1038.5326289999989
 31
0.0
  0
LINE
  5
25F
  8
SIZE
  6
CONTINUOUS
 62
    30
 39
50.0
 10
-630.56634599999995
 20
-1038.5326289999989
 30
0.0
 11
-739.71130000000005
 21
-1038.5326289999989
 31
0.0
  0
LINE
  5
260
  8
SIZE
  6
CONTINUOUS
 62
    30
 10
0.0
 20
-204.352508
 30
0.0
 11
0.0
 21
-1058.5326289999989
 31
0.0
  0
LINE
  5
261
  8
SIZE
  6
CONTINUOUS
 62
    30
 10
360.0
 20
-263.0
 30
0.0
 11
360.0
 21
-1058.5326289999989
 31
0.0
  0
LINE
  5
262
  8
SIZE
  6
CONTINUOUS
 62
    30
 10
12.0
 20
-1038.5326289999989
 30
0.0
 11
348.0
 21
-1038.5326289999989
 31
0.0
  0
LINE
  5
263
  8
SIZE
  6
CONTINUOUS
 62
    30
 10
635.95340899999985
 20
-1038.5326289999989
 30
0.0
 11
360.0
 21
-1038.5326289999989
 31
0.0
  0
TEXT
  5
264
  8
SIZE
  6
CONTINUOUS
 62
    30
 10
462.8391231428572
 20
-1013.532628999999
 30
0.0
 40
64.0
  1
360
 41
0.9
 72
     1
 11
536.89626599999997
 21
-1013.532628999999
 31
0.0
  0
CIRCLE
  5
265
  8
SIZE
  6
CONTINUOUS
 62
    30
 10
0.0
 20
-1038.5326289999989
 30
0.0
 40
6.0
  0
LINE
  5
266
  8
SIZE
  6
CONTINUOUS
 62
    30
 10
0.0
 20
-1038.5326289999989
 30
0.0
 11
12.0
 21
-1038.5326289999989
 31
0.0
  0
CIRCLE
  5
267
  8
SIZE
  6
CONTINUOUS
 62
    30
 10
360.0
 20
-1038.5326289999989
 30
0.0
 40
6.0
  0
LINE
  5
268
  8
SIZE
  6
CONTINUOUS
 62
    30
 10
360.0
 20
-1038.5326289999989
 30
0.0
 11
348.0
 21
-1038.5326289999989
 31
0.0
  0
LINE
  5
26C
  8
SIZE
  6
CONTINUOUS
 62
    30
 10
0.0
 20
-204.352508
 30
0.0
 11
0.0
 21
-1058.5326289999989
 31
0.0
  0
LINE
  5
26D
  8
SIZE
  6
CONTINUOUS
 62
    30
 10
-360.0
 20
-263.0
 30
0.0
 11
-360.0
 21
-1058.5326289999989
 31
0.0
  0
LINE
  5
26E
  8
SIZE
  6
CONTINUOUS
 62
    30
 10
-12.0
 20
-1038.5326289999989
 30
0.0
 11
-348.0
 21
-1038.5326289999989
 31
0.0
  0
LINE
  5
26F
  8
SIZE
  6
CONTINUOUS
 62
    30
 10
-630.56634599999995
 20
-1038.5326289999989
 30
0.0
 11
-360.0
 21
-1038.5326289999989
 31
0.0
  0
TEXT
  5
270
  8
SIZE
  6
CONTINUOUS
 62
    30
 10
-605.56634585714278
 20
-1013.532628999999
 30
0.0
 40
64.0
  1
360
 41
0.9
 72
     1
 11
-531.50920299999996
 21
-1013.532628999999
 31
0.0
  0
CIRCLE
  5
271
  8
SIZE
  6
CONTINUOUS
 62
    30
 10
0.0
 20
-1038.5326289999989
 30
0.0
 40
6.0
  0
LINE
  5
272
  8
SIZE
  6
CONTINUOUS
 62
    30
 10
0.0
 20
-1038.5326289999989
 30
0.0
 11
-12.0
 21
-1038.5326289999989
 31
0.0
  0
CIRCLE
  5
273
  8
SIZE
  6
CONTINUOUS
 62
    30
 10
-360.0
 20
-1038.5326289999989
 30
0.0
 40
6.0
  0
LINE
  5
274
  8
SIZE
  6
CONTINUOUS
 62
    30
 10
-360.0
 20
-1038.5326289999989
 30
0.0
 11
-348.0
 21
-1038.5326289999989
 31
0.0
  0
TEXT
  5
278
  8
NOTE
  6
CONTINUOUS
 62
     4
 10
-681.22075499999994
 20
-1162.1522079999991
 30
0.0
 40
64.0
  1
左側壁より360以上
 41
0.9
  0
TEXT
  5
279
  8
NOTE
  6
CONTINUOUS
 62
     4
 10
61.39732399999999
 20
-1162.268104
 30
0.0
 40
64.0
  1
右側壁より360以上
 41
0.9
  0
LINE
  5
27A
  8
SERVICESPACE
  6
DASHDOT
 62
     2
 10
-360.0
 20
203.0
 30
0.0
 11
360.0
 21
203.0
 31
0.0
  0
LINE
  5
27B
  8
SERVICESPACE
  6
DASHDOT
 62
     2
 10
-360.0
 20
-243.0
 30
0.0
 11
-360.0
 21
203.0
 31
0.0
  0
LINE
  5
27C
  8
SERVICESPACE
  6
DASHDOT
 62
     2
 10
-360.0
 20
-243.0
 30
0.0
 11
360.0
 21
-243.0
 31
0.0
  0
LINE
  5
27D
  8
SERVICESPACE
  6
DASHDOT
 62
     2
 10
360.0
 20
-243.0
 30
0.0
 11
360.0
 21
203.0
 31
0.0
  0
CIRCLE
  5
27E
  8
FIX
  6
CONTINUOUS
 62
    11
 39
50.0
 10
-221.0
 20
92.0
 30
0.0
 40
3.0
  0
CIRCLE
  5
27F
  8
FIX
  6
CONTINUOUS
 62
    11
 39
50.0
 10
-201.0
 20
92.0
 30
0.0
 40
3.0
  0
CIRCLE
  5
280
  8
FIX
  6
CONTINUOUS
 62
    11
 39
50.0
 10
-161.0
 20
92.0
 30
0.0
 40
3.0
  0
CIRCLE
  5
281
  8
FIX
  6
CONTINUOUS
 62
    11
 39
50.0
 10
-181.0
 20
92.0
 30
0.0
 40
3.0
  0
CIRCLE
  5
282
  8
FIX
  6
CONTINUOUS
 62
    11
 39
50.0
 10
-141.0
 20
92.0
 30
0.0
 40
3.0
  0
CIRCLE
  5
283
  8
FIX
  6
CONTINUOUS
 62
    11
 39
50.0
 10
-121.0
 20
92.0
 30
0.0
 40
3.0
  0
CIRCLE
  5
284
  8
FIX
  6
CONTINUOUS
 62
    11
 39
50.0
 10
0.0
 20
92.0
 30
0.0
 40
3.0
  0
CIRCLE
  5
285
  8
FIX
  6
CONTINUOUS
 62
    11
 39
50.0
 10
121.0
 20
92.0
 30
0.0
 40
3.0
  0
CIRCLE
  5
286
  8
FIX
  6
CONTINUOUS
 62
    11
 39
50.0
 10
141.0
 20
92.0
 30
0.0
 40
3.0
  0
CIRCLE
  5
287
  8
FIX
  6
CONTINUOUS
 62
    11
 39
50.0
 10
181.0
 20
92.0
 30
0.0
 40
3.0
  0
CIRCLE
  5
288
  8
FIX
  6
CONTINUOUS
 62
    11
 39
50.0
 10
161.0
 20
92.0
 30
0.0
 40
3.0
  0
CIRCLE
  5
289
  8
FIX
  6
CONTINUOUS
 62
    11
 39
50.0
 10
201.0
 20
92.0
 30
0.0
 40
3.0
  0
CIRCLE
  5
28A
  8
FIX
  6
CONTINUOUS
 62
    11
 39
50.0
 10
221.0
 20
92.0
 30
0.0
 40
3.0
  0
CIRCLE
  5
28B
  8
DETAIL
  6
CONTINUOUS
 62
     5
 10
-141.0
 20
92.0
 30
0.0
 40
3.0
  0
CIRCLE
  5
28C
  8
DETAIL
  6
CONTINUOUS
 62
     5
 10
-161.0
 20
92.0
 30
0.0
 40
3.0
  0
CIRCLE
  5
28D
  8
DETAIL
  6
CONTINUOUS
 62
     5
 10
-181.0
 20
92.0
 30
0.0
 40
3.0
  0
CIRCLE
  5
28E
  8
DETAIL
  6
CONTINUOUS
 62
     5
 10
-201.0
 20
92.0
 30
0.0
 40
3.0
  0
CIRCLE
  5
28F
  8
DETAIL
  6
CONTINUOUS
 62
     5
 10
-221.0
 20
92.0
 30
0.0
 40
3.0
  0
CIRCLE
  5
290
  8
DETAIL
  6
CONTINUOUS
 62
     5
 10
-121.0
 20
92.0
 30
0.0
 40
3.0
  0
CIRCLE
  5
291
  8
DETAIL
  6
CONTINUOUS
 62
     5
 10
121.0
 20
92.0
 30
0.0
 40
3.0
  0
CIRCLE
  5
292
  8
DETAIL
  6
CONTINUOUS
 62
     5
 10
0.0
 20
92.0
 30
0.0
 40
3.0
  0
CIRCLE
  5
293
  8
DETAIL
  6
CONTINUOUS
 62
     5
 10
221.0
 20
92.0
 30
0.0
 40
3.0
  0
CIRCLE
  5
294
  8
DETAIL
  6
CONTINUOUS
 62
     5
 10
181.0
 20
92.0
 30
0.0
 40
3.0
  0
CIRCLE
  5
295
  8
DETAIL
  6
CONTINUOUS
 62
     5
 10
201.0
 20
92.0
 30
0.0
 40
3.0
  0
CIRCLE
  5
296
  8
DETAIL
  6
CONTINUOUS
 62
     5
 10
161.0
 20
92.0
 30
0.0
 40
3.0
  0
CIRCLE
  5
297
  8
DETAIL
  6
CONTINUOUS
 62
     5
 10
141.0
 20
92.0
 30
0.0
 40
3.0
  0
LINE
  5
298
  8
NOTE
  6
CONTINUOUS
 62
     4
 10
201.0
 20
72.0
 30
0.0
 11
201.0
 21
112.0
 31
0.0
  0
LINE
  5
299
  8
NOTE
  6
CONTINUOUS
 62
     4
 10
221.0
 20
92.0
 30
0.0
 11
181.0
 21
92.0
 31
0.0
  0
LINE
  5
29A
  8
NOTE
  6
CONTINUOUS
 62
     4
 10
221.0
 20
72.0
 30
0.0
 11
221.0
 21
112.0
 31
0.0
  0
LINE
  5
29B
  8
NOTE
  6
CONTINUOUS
 62
     4
 10
241.0
 20
92.0
 30
0.0
 11
201.0
 21
92.0
 31
0.0
  0
LINE
  5
29C
  8
NOTE
  6
CONTINUOUS
 62
     4
 10
181.0
 20
72.0
 30
0.0
 11
181.0
 21
112.0
 31
0.0
  0
LINE
  5
29D
  8
NOTE
  6
CONTINUOUS
 62
     4
 10
201.0
 20
92.0
 30
0.0
 11
161.0
 21
92.0
 31
0.0
  0
LINE
  5
29E
  8
NOTE
  6
CONTINUOUS
 62
     4
 10
121.0
 20
72.0
 30
0.0
 11
121.0
 21
112.0
 31
0.0
  0
LINE
  5
29F
  8
NOTE
  6
CONTINUOUS
 62
     4
 10
141.0
 20
92.0
 30
0.0
 11
101.0
 21
92.0
 31
0.0
  0
LINE
  5
2A0
  8
NOTE
  6
CONTINUOUS
 62
     4
 10
141.0
 20
72.0
 30
0.0
 11
141.0
 21
112.0
 31
0.0
  0
LINE
  5
2A1
  8
NOTE
  6
CONTINUOUS
 62
     4
 10
161.0
 20
92.0
 30
0.0
 11
121.0
 21
92.0
 31
0.0
  0
LINE
  5
2A2
  8
NOTE
  6
CONTINUOUS
 62
     4
 10
161.0
 20
72.0
 30
0.0
 11
161.0
 21
112.0
 31
0.0
  0
LINE
  5
2A3
  8
NOTE
  6
CONTINUOUS
 62
     4
 10
181.0
 20
92.0
 30
0.0
 11
141.0
 21
92.0
 31
0.0
  0
LINE
  5
2A4
  8
NOTE
  6
CONTINUOUS
 62
     4
 10
0.0
 20
72.0
 30
0.0
 11
0.0
 21
112.0
 31
0.0
  0
LINE
  5
2A5
  8
NOTE
  6
CONTINUOUS
 62
     4
 10
-20.0
 20
92.0
 30
0.0
 11
20.0
 21
92.0
 31
0.0
  0
LINE
  5
2A6
  8
NOTE
  6
CONTINUOUS
 62
     4
 10
-141.0
 20
72.0
 30
0.0
 11
-141.0
 21
112.0
 31
0.0
  0
LINE
  5
2A7
  8
NOTE
  6
CONTINUOUS
 62
     4
 10
-161.0
 20
92.0
 30
0.0
 11
-121.0
 21
92.0
 31
0.0
  0
LINE
  5
2A8
  8
NOTE
  6
CONTINUOUS
 62
     4
 10
-121.0
 20
72.0
 30
0.0
 11
-121.0
 21
112.0
 31
0.0
  0
LINE
  5
2A9
  8
NOTE
  6
CONTINUOUS
 62
     4
 10
-141.0
 20
92.0
 30
0.0
 11
-101.0
 21
92.0
 31
0.0
  0
LINE
  5
2AA
  8
NOTE
  6
CONTINUOUS
 62
     4
 10
-161.0
 20
72.0
 30
0.0
 11
-161.0
 21
112.0
 31
0.0
  0
LINE
  5
2AB
  8
NOTE
  6
CONTINUOUS
 62
     4
 10
-181.0
 20
92.0
 30
0.0
 11
-141.0
 21
92.0
 31
0.0
  0
LINE
  5
2AC
  8
NOTE
  6
CONTINUOUS
 62
     4
 10
-181.0
 20
72.0
 30
0.0
 11
-181.0
 21
112.0
 31
0.0
  0
LINE
  5
2AD
  8
NOTE
  6
CONTINUOUS
 62
     4
 10
-201.0
 20
92.0
 30
0.0
 11
-161.0
 21
92.0
 31
0.0
  0
LINE
  5
2AE
  8
NOTE
  6
CONTINUOUS
 62
     4
 10
-221.0
 20
72.0
 30
0.0
 11
-221.0
 21
112.0
 31
0.0
  0
LINE
  5
2AF
  8
NOTE
  6
CONTINUOUS
 62
     4
 10
-241.0
 20
92.0
 30
0.0
 11
-201.0
 21
92.0
 31
0.0
  0
LINE
  5
2B0
  8
NOTE
  6
CONTINUOUS
 62
     4
 10
-201.0
 20
72.0
 30
0.0
 11
-201.0
 21
112.0
 31
0.0
  0
LINE
  5
2B1
  8
NOTE
  6
CONTINUOUS
 62
     4
 10
-221.0
 20
92.0
 30
0.0
 11
-181.0
 21
92.0
 31
0.0
  0
LINE
  5
2B2
  8
DETAIL
  6
CONTINUOUS
 62
     5
 10
-296.01918699999999
 20
142.5
 30
0.0
 11
296.01918699999999
 21
142.5
 31
0.0
  0
LINE
  5
2B3
  8
DETAIL
  6
CONTINUOUS
 62
     5
 10
292.48166099999992
 20
138.96247500000001
 30
0.0
 11
-292.48166099999992
 21
138.96247500000001
 31
0.0
  0
LINE
  5
2B4
  8
DETAIL
  6
CONTINUOUS
 62
     5
 10
296.01918699999999
 20
-142.5
 30
0.0
 11
-296.01918699999999
 21
-142.5
 31
0.0
  0
LINE
  5
2B5
  8
DETAIL
  6
CONTINUOUS
 62
     5
 10
-310.0
 20
-128.51918699999999
 30
0.0
 11
-310.0
 21
128.51918699999999
 31
0.0
  0
LINE
  5
2B6
  8
DETAIL
  6
CONTINUOUS
 62
     5
 10
-306.46247499999998
 20
124.981661
 30
0.0
 11
-306.46247499999998
 21
-124.981661
 31
0.0
  0
LINE
  5
2B7
  8
DETAIL
  6
CONTINUOUS
 62
     5
 10
-296.01918699999999
 20
-142.5
 30
0.0
 11
-297.31141400000001
 21
-142.44030099999989
 31
0.0
  0
LINE
  5
2B8
  8
DETAIL
  6
CONTINUOUS
 62
     5
 10
-297.31141400000001
 20
-142.44030099999989
 30
0.0
 11
-298.59223500000002
 21
-142.26172800000001
 31
0.0
  0
LINE
  5
2B9
  8
DETAIL
  6
CONTINUOUS
 62
     5
 10
-298.59223500000002
 20
-142.26172800000001
 30
0.0
 11
-299.84981299999993
 21
-141.96608699999999
 31
0.0
  0
LINE
  5
2BA
  8
DETAIL
  6
CONTINUOUS
 62
     5
 10
-299.84981299999993
 20
-141.96608699999999
 30
0.0
 11
-301.07504699999998
 21
-141.55558199999999
 31
0.0
  0
LINE
  5
2BB
  8
DETAIL
  6
CONTINUOUS
 62
     5
 10
-301.07504699999998
 20
-141.55558199999999
 30
0.0
 11
-302.25563999999991
 21
-141.03445600000001
 31
0.0
  0
LINE
  5
2BC
  8
DETAIL
  6
CONTINUOUS
 62
     5
 10
-302.25563999999991
 20
-141.03445600000001
 30
0.0
 11
-303.38389000000001
 21
-140.406161
 31
0.0
  0
LINE
  5
2BD
  8
DETAIL
  6
CONTINUOUS
 62
     5
 10
-303.38389000000001
 20
-140.406161
 30
0.0
 11
-304.44784700000002
 21
-139.6774429999999
 31
0.0
  0
LINE
  5
2BE
  8
DETAIL
  6
CONTINUOUS
 62
     5
 10
-304.44784700000002
 20
-139.6774429999999
 30
0.0
 11
-305.44107999999989
 21
-138.852732
 31
0.0
  0
LINE
  5
2BF
  8
DETAIL
  6
CONTINUOUS
 62
     5
 10
-305.44107999999989
 20
-138.852732
 30
0.0
 11
-306.35273199999989
 21
-137.94108
 31
0.0
  0
LINE
  5
2C0
  8
DETAIL
  6
CONTINUOUS
 62
     5
 10
-306.35273199999989
 20
-137.94108
 30
0.0
 11
-307.17744299999998
 21
-136.947847
 31
0.0
  0
LINE
  5
2C1
  8
DETAIL
  6
CONTINUOUS
 62
     5
 10
-307.17744299999998
 20
-136.947847
 30
0.0
 11
-307.906161
 21
-135.88388999999989
 31
0.0
  0
LINE
  5
2C2
  8
DETAIL
  6
CONTINUOUS
 62
     5
 10
-307.906161
 20
-135.88388999999989
 30
0.0
 11
-308.53445599999992
 21
-134.75563999999989
 31
0.0
  0
LINE
  5
2C3
  8
DETAIL
  6
CONTINUOUS
 62
     5
 10
-308.53445599999992
 20
-134.75563999999989
 30
0.0
 11
-309.0555819999999
 21
-133.5750469999999
 31
0.0
  0
LINE
  5
2C4
  8
DETAIL
  6
CONTINUOUS
 62
     5
 10
-309.0555819999999
 20
-133.5750469999999
 30
0.0
 11
-309.46608700000002
 21
-132.3498129999999
 31
0.0
  0
LINE
  5
2C5
  8
DETAIL
  6
CONTINUOUS
 62
     5
 10
-309.46608700000002
 20
-132.3498129999999
 30
0.0
 11
-309.76172800000001
 21
-131.09223499999999
 31
0.0
  0
LINE
  5
2C6
  8
DETAIL
  6
CONTINUOUS
 62
     5
 10
-309.76172800000001
 20
-131.09223499999999
 30
0.0
 11
-309.94030099999992
 21
-129.8114139999999
 31
0.0
  0
LINE
  5
2C7
  8
DETAIL
  6
CONTINUOUS
 62
     5
 10
-309.94030099999992
 20
-129.8114139999999
 30
0.0
 11
-310.0
 21
-128.51918699999999
 31
0.0
  0
LINE
  5
2C8
  8
DETAIL
  6
CONTINUOUS
 62
     5
 10
-292.48166099999992
 20
-138.96247500000001
 30
0.0
 11
-293.77396599999997
 21
-138.90276900000001
 31
0.0
  0
LINE
  5
2C9
  8
DETAIL
  6
CONTINUOUS
 62
     5
 10
-293.77396599999997
 20
-138.90276900000001
 30
0.0
 11
-295.05454400000002
 21
-138.724234
 31
0.0
  0
LINE
  5
2CA
  8
DETAIL
  6
CONTINUOUS
 62
     5
 10
-295.05454400000002
 20
-138.724234
 30
0.0
 11
-296.31253099999992
 21
-138.42849299999989
 31
0.0
  0
LINE
  5
2CB
  8
DETAIL
  6
CONTINUOUS
 62
     5
 10
-296.31253099999992
 20
-138.42849299999989
 30
0.0
 11
-297.53727900000001
 21
-138.01814999999991
 31
0.0
  0
LINE
  5
2CC
  8
DETAIL
  6
CONTINUOUS
 62
     5
 10
-297.53727900000001
 20
-138.01814999999991
 30
0.0
 11
-298.71844599999991
 21
-137.49676599999989
 31
0.0
  0
LINE
  5
2CD
  8
DETAIL
  6
CONTINUOUS
 62
     5
 10
-298.71844599999991
 20
-137.49676599999989
 30
0.0
 11
-299.84607299999999
 21
-136.86881699999989
 31
0.0
  0
LINE
  5
2CE
  8
DETAIL
  6
CONTINUOUS
 62
     5
 10
-299.84607299999999
 20
-136.86881699999989
 30
0.0
 11
-300.910662
 21
-136.13965999999999
 31
0.0
  0
LINE
  5
2CF
  8
DETAIL
  6
CONTINUOUS
 62
     5
 10
-300.910662
 20
-136.13965999999999
 30
0.0
 11
-301.90325300000001
 21
-135.315482
 31
0.0
  0
LINE
  5
2D0
  8
DETAIL
  6
CONTINUOUS
 62
     5
 10
-301.90325300000001
 20
-135.315482
 30
0.0
 11
-302.81548500000002
 21
-134.40325000000001
 31
0.0
  0
LINE
  5
2D1
  8
DETAIL
  6
CONTINUOUS
 62
     5
 10
-302.81548500000002
 20
-134.40325000000001
 30
0.0
 11
-303.63966299999998
 21
-133.41065900000001
 31
0.0
  0
LINE
  5
2D2
  8
DETAIL
  6
CONTINUOUS
 62
     5
 10
-303.63966299999998
 20
-133.41065900000001
 30
0.0
 11
-304.36881899999992
 21
-132.34607
 31
0.0
  0
LINE
  5
2D3
  8
DETAIL
  6
CONTINUOUS
 62
     5
 10
-304.36881899999992
 20
-132.34607
 30
0.0
 11
-304.99676699999998
 21
-131.21844400000001
 31
0.0
  0
LINE
  5
2D4
  8
DETAIL
  6
CONTINUOUS
 62
     5
 10
-304.99676699999998
 20
-131.21844400000001
 30
0.0
 11
-305.51815099999999
 21
-130.0372769999999
 31
0.0
  0
LINE
  5
2D5
  8
DETAIL
  6
CONTINUOUS
 62
     5
 10
-305.51815099999999
 20
-130.0372769999999
 30
0.0
 11
-305.928493
 21
-128.81253000000001
 31
0.0
  0
LINE
  5
2D6
  8
DETAIL
  6
CONTINUOUS
 62
     5
 10
-305.928493
 20
-128.81253000000001
 30
0.0
 11
-306.22423399999991
 21
-127.55454399999989
 31
0.0
  0
LINE
  5
2D7
  8
DETAIL
  6
CONTINUOUS
 62
     5
 10
-306.22423399999991
 20
-127.55454399999989
 30
0.0
 11
-306.40276899999992
 21
-126.2739659999999
 31
0.0
  0
LINE
  5
2D8
  8
DETAIL
  6
CONTINUOUS
 62
     5
 10
-306.40276899999992
 20
-126.2739659999999
 30
0.0
 11
-306.46247499999998
 21
-124.981661
 31
0.0
  0
LINE
  5
2D9
  8
DETAIL
  6
CONTINUOUS
 62
     5
 10
-310.0
 20
128.51918699999999
 30
0.0
 11
-309.94030099999992
 21
129.8114139999999
 31
0.0
  0
LINE
  5
2DA
  8
DETAIL
  6
CONTINUOUS
 62
     5
 10
-309.94030099999992
 20
129.8114139999999
 30
0.0
 11
-309.76172800000001
 21
131.09223499999999
 31
0.0
  0
LINE
  5
2DB
  8
DETAIL
  6
CONTINUOUS
 62
     5
 10
-309.76172800000001
 20
131.09223499999999
 30
0.0
 11
-309.46608700000002
 21
132.3498129999999
 31
0.0
  0
LINE
  5
2DC
  8
DETAIL
  6
CONTINUOUS
 62
     5
 10
-309.46608700000002
 20
132.3498129999999
 30
0.0
 11
-309.0555819999999
 21
133.5750469999999
 31
0.0
  0
LINE
  5
2DD
  8
DETAIL
  6
CONTINUOUS
 62
     5
 10
-309.0555819999999
 20
133.5750469999999
 30
0.0
 11
-308.53445599999992
 21
134.75563999999989
 31
0.0
  0
LINE
  5
2DE
  8
DETAIL
  6
CONTINUOUS
 62
     5
 10
-308.53445599999992
 20
134.75563999999989
 30
0.0
 11
-307.906161
 21
135.88388999999989
 31
0.0
  0
LINE
  5
2DF
  8
DETAIL
  6
CONTINUOUS
 62
     5
 10
-307.906161
 20
135.88388999999989
 30
0.0
 11
-307.17744299999998
 21
136.947847
 31
0.0
  0
LINE
  5
2E0
  8
DETAIL
  6
CONTINUOUS
 62
     5
 10
-307.17744299999998
 20
136.947847
 30
0.0
 11
-306.35273199999989
 21
137.94108
 31
0.0
  0
LINE
  5
2E1
  8
DETAIL
  6
CONTINUOUS
 62
     5
 10
-306.35273199999989
 20
137.94108
 30
0.0
 11
-305.44107999999989
 21
138.852732
 31
0.0
  0
LINE
  5
2E2
  8
DETAIL
  6
CONTINUOUS
 62
     5
 10
-305.44107999999989
 20
138.852732
 30
0.0
 11
-304.44784700000002
 21
139.6774429999999
 31
0.0
  0
LINE
  5
2E3
  8
DETAIL
  6
CONTINUOUS
 62
     5
 10
-304.44784700000002
 20
139.6774429999999
 30
0.0
 11
-303.38389000000001
 21
140.406161
 31
0.0
  0
LINE
  5
2E4
  8
DETAIL
  6
CONTINUOUS
 62
     5
 10
-303.38389000000001
 20
140.406161
 30
0.0
 11
-302.25563999999991
 21
141.03445600000001
 31
0.0
  0
LINE
  5
2E5
  8
DETAIL
  6
CONTINUOUS
 62
     5
 10
-302.25563999999991
 20
141.03445600000001
 30
0.0
 11
-301.07504699999998
 21
141.55558199999999
 31
0.0
  0
LINE
  5
2E6
  8
DETAIL
  6
CONTINUOUS
 62
     5
 10
-301.07504699999998
 20
141.55558199999999
 30
0.0
 11
-299.84981299999993
 21
141.96608699999999
 31
0.0
  0
LINE
  5
2E7
  8
DETAIL
  6
CONTINUOUS
 62
     5
 10
-299.84981299999993
 20
141.96608699999999
 30
0.0
 11
-298.59223500000002
 21
142.26172800000001
 31
0.0
  0
LINE
  5
2E8
  8
DETAIL
  6
CONTINUOUS
 62
     5
 10
-298.59223500000002
 20
142.26172800000001
 30
0.0
 11
-297.31141400000001
 21
142.44030099999989
 31
0.0
  0
LINE
  5
2E9
  8
DETAIL
  6
CONTINUOUS
 62
     5
 10
-297.31141400000001
 20
142.44030099999989
 30
0.0
 11
-296.01918699999999
 21
142.5
 31
0.0
  0
LINE
  5
2EA
  8
DETAIL
  6
CONTINUOUS
 62
     5
 10
-306.46247499999998
 20
124.981661
 30
0.0
 11
-306.40276899999992
 21
126.2739659999999
 31
0.0
  0
LINE
  5
2EB
  8
DETAIL
  6
CONTINUOUS
 62
     5
 10
-306.40276899999992
 20
126.2739659999999
 30
0.0
 11
-306.22423399999991
 21
127.55454399999989
 31
0.0
  0
LINE
  5
2EC
  8
DETAIL
  6
CONTINUOUS
 62
     5
 10
-306.22423399999991
 20
127.55454399999989
 30
0.0
 11
-305.928493
 21
128.81253100000001
 31
0.0
  0
LINE
  5
2ED
  8
DETAIL
  6
CONTINUOUS
 62
     5
 10
-305.928493
 20
128.81253100000001
 30
0.0
 11
-305.51814999999988
 21
130.03727900000001
 31
0.0
  0
LINE
  5
2EE
  8
DETAIL
  6
CONTINUOUS
 62
     5
 10
-305.51814999999988
 20
130.03727900000001
 30
0.0
 11
-304.99676599999998
 21
131.218446
 31
0.0
  0
LINE
  5
2EF
  8
DETAIL
  6
CONTINUOUS
 62
     5
 10
-304.99676599999998
 20
131.218446
 30
0.0
 11
-304.36881699999992
 21
132.3460729999999
 31
0.0
  0
LINE
  5
2F0
  8
DETAIL
  6
CONTINUOUS
 62
     5
 10
-304.36881699999992
 20
132.3460729999999
 30
0.0
 11
-303.63965999999988
 21
133.410662
 31
0.0
  0
LINE
  5
2F1
  8
DETAIL
  6
CONTINUOUS
 62
     5
 10
-303.63965999999988
 20
133.410662
 30
0.0
 11
-302.81548199999992
 21
134.40325300000001
 31
0.0
  0
LINE
  5
2F2
  8
DETAIL
  6
CONTINUOUS
 62
     5
 10
-302.81548199999992
 20
134.40325300000001
 30
0.0
 11
-301.90325000000001
 21
135.31548499999991
 31
0.0
  0
LINE
  5
2F3
  8
DETAIL
  6
CONTINUOUS
 62
     5
 10
-301.90325000000001
 20
135.31548499999991
 30
0.0
 11
-300.91065900000001
 21
136.1396629999999
 31
0.0
  0
LINE
  5
2F4
  8
DETAIL
  6
CONTINUOUS
 62
     5
 10
-300.91065900000001
 20
136.1396629999999
 30
0.0
 11
-299.84606999999988
 21
136.868819
 31
0.0
  0
LINE
  5
2F5
  8
DETAIL
  6
CONTINUOUS
 62
     5
 10
-299.84606999999988
 20
136.868819
 30
0.0
 11
-298.71844399999998
 21
137.49676699999989
 31
0.0
  0
LINE
  5
2F6
  8
DETAIL
  6
CONTINUOUS
 62
     5
 10
-298.71844399999998
 20
137.49676699999989
 30
0.0
 11
-297.53727700000002
 21
138.0181509999999
 31
0.0
  0
LINE
  5
2F7
  8
DETAIL
  6
CONTINUOUS
 62
     5
 10
-297.53727700000002
 20
138.0181509999999
 30
0.0
 11
-296.31252999999992
 21
138.42849299999989
 31
0.0
  0
LINE
  5
2F8
  8
DETAIL
  6
CONTINUOUS
 62
     5
 10
-296.31252999999992
 20
138.42849299999989
 30
0.0
 11
-295.05454400000002
 21
138.724234
 31
0.0
  0
LINE
  5
2F9
  8
DETAIL
  6
CONTINUOUS
 62
     5
 10
-295.05454400000002
 20
138.724234
 30
0.0
 11
-293.77396599999997
 21
138.90276900000001
 31
0.0
  0
LINE
  5
2FA
  8
DETAIL
  6
CONTINUOUS
 62
     5
 10
-293.77396599999997
 20
138.90276900000001
 30
0.0
 11
-292.48166099999992
 21
138.96247500000001
 31
0.0
  0
LINE
  5
2FB
  8
DETAIL
  6
CONTINUOUS
 62
     5
 10
310.0
 20
128.51918699999999
 30
0.0
 11
310.0
 21
-128.51918699999999
 31
0.0
  0
LINE
  5
2FC
  8
DETAIL
  6
CONTINUOUS
 62
     5
 10
306.46247499999998
 20
-124.981661
 30
0.0
 11
306.46247499999998
 21
124.981661
 31
0.0
  0
LINE
  5
2FD
  8
DETAIL
  6
CONTINUOUS
 62
     5
 10
-292.48166099999992
 20
-138.96247500000001
 30
0.0
 11
292.48166099999992
 21
-138.96247500000001
 31
0.0
  0
LINE
  5
2FE
  8
DETAIL
  6
CONTINUOUS
 62
     5
 10
310.0
 20
-128.51918699999999
 30
0.0
 11
309.94030099999992
 21
-129.8114139999999
 31
0.0
  0
LINE
  5
2FF
  8
DETAIL
  6
CONTINUOUS
 62
     5
 10
309.94030099999992
 20
-129.8114139999999
 30
0.0
 11
309.76172800000001
 21
-131.09223499999999
 31
0.0
  0
LINE
  5
300
  8
DETAIL
  6
CONTINUOUS
 62
     5
 10
309.76172800000001
 20
-131.09223499999999
 30
0.0
 11
309.46608700000002
 21
-132.3498129999999
 31
0.0
  0
LINE
  5
301
  8
DETAIL
  6
CONTINUOUS
 62
     5
 10
309.46608700000002
 20
-132.3498129999999
 30
0.0
 11
309.0555819999999
 21
-133.5750469999999
 31
0.0
  0
LINE
  5
302
  8
DETAIL
  6
CONTINUOUS
 62
     5
 10
309.0555819999999
 20
-133.5750469999999
 30
0.0
 11
308.53445599999992
 21
-134.75563999999989
 31
0.0
  0
LINE
  5
303
  8
DETAIL
  6
CONTINUOUS
 62
     5
 10
308.53445599999992
 20
-134.75563999999989
 30
0.0
 11
307.906161
 21
-135.88388999999989
 31
0.0
  0
LINE
  5
304
  8
DETAIL
  6
CONTINUOUS
 62
     5
 10
307.906161
 20
-135.88388999999989
 30
0.0
 11
307.17744299999998
 21
-136.947847
 31
0.0
  0
LINE
  5
305
  8
DETAIL
  6
CONTINUOUS
 62
     5
 10
307.17744299999998
 20
-136.947847
 30
0.0
 11
306.35273199999989
 21
-137.94108
 31
0.0
  0
LINE
  5
306
  8
DETAIL
  6
CONTINUOUS
 62
     5
 10
306.35273199999989
 20
-137.94108
 30
0.0
 11
305.44107999999989
 21
-138.852732
 31
0.0
  0
LINE
  5
307
  8
DETAIL
  6
CONTINUOUS
 62
     5
 10
305.44107999999989
 20
-138.852732
 30
0.0
 11
304.44784700000002
 21
-139.6774429999999
 31
0.0
  0
LINE
  5
308
  8
DETAIL
  6
CONTINUOUS
 62
     5
 10
304.44784700000002
 20
-139.6774429999999
 30
0.0
 11
303.38389000000001
 21
-140.406161
 31
0.0
  0
LINE
  5
309
  8
DETAIL
  6
CONTINUOUS
 62
     5
 10
303.38389000000001
 20
-140.406161
 30
0.0
 11
302.25563999999991
 21
-141.03445600000001
 31
0.0
  0
LINE
  5
30A
  8
DETAIL
  6
CONTINUOUS
 62
     5
 10
302.25563999999991
 20
-141.03445600000001
 30
0.0
 11
301.07504699999998
 21
-141.55558199999999
 31
0.0
  0
LINE
  5
30B
  8
DETAIL
  6
CONTINUOUS
 62
     5
 10
301.07504699999998
 20
-141.55558199999999
 30
0.0
 11
299.84981299999993
 21
-141.96608699999999
 31
0.0
  0
LINE
  5
30C
  8
DETAIL
  6
CONTINUOUS
 62
     5
 10
299.84981299999993
 20
-141.96608699999999
 30
0.0
 11
298.59223500000002
 21
-142.26172800000001
 31
0.0
  0
LINE
  5
30D
  8
DETAIL
  6
CONTINUOUS
 62
     5
 10
298.59223500000002
 20
-142.26172800000001
 30
0.0
 11
297.31141400000001
 21
-142.44030099999989
 31
0.0
  0
LINE
  5
30E
  8
DETAIL
  6
CONTINUOUS
 62
     5
 10
297.31141400000001
 20
-142.44030099999989
 30
0.0
 11
296.01918699999999
 21
-142.5
 31
0.0
  0
LINE
  5
30F
  8
DETAIL
  6
CONTINUOUS
 62
     5
 10
292.48166099999992
 20
-138.96247500000001
 30
0.0
 11
293.77396599999997
 21
-138.90276900000001
 31
0.0
  0
LINE
  5
310
  8
DETAIL
  6
CONTINUOUS
 62
     5
 10
293.77396599999997
 20
-138.90276900000001
 30
0.0
 11
295.05454400000002
 21
-138.724234
 31
0.0
  0
LINE
  5
311
  8
DETAIL
  6
CONTINUOUS
 62
     5
 10
295.05454400000002
 20
-138.724234
 30
0.0
 11
296.31253099999992
 21
-138.42849299999989
 31
0.0
  0
LINE
  5
312
  8
DETAIL
  6
CONTINUOUS
 62
     5
 10
296.31253099999992
 20
-138.42849299999989
 30
0.0
 11
297.53727900000001
 21
-138.01814999999991
 31
0.0
  0
LINE
  5
313
  8
DETAIL
  6
CONTINUOUS
 62
     5
 10
297.53727900000001
 20
-138.01814999999991
 30
0.0
 11
298.71844599999991
 21
-137.49676599999989
 31
0.0
  0
LINE
  5
314
  8
DETAIL
  6
CONTINUOUS
 62
     5
 10
298.71844599999991
 20
-137.49676599999989
 30
0.0
 11
299.84607299999999
 21
-136.86881699999989
 31
0.0
  0
LINE
  5
315
  8
DETAIL
  6
CONTINUOUS
 62
     5
 10
299.84607299999999
 20
-136.86881699999989
 30
0.0
 11
300.910662
 21
-136.13965999999999
 31
0.0
  0
LINE
  5
316
  8
DETAIL
  6
CONTINUOUS
 62
     5
 10
300.910662
 20
-136.13965999999999
 30
0.0
 11
301.90325300000001
 21
-135.315482
 31
0.0
  0
LINE
  5
317
  8
DETAIL
  6
CONTINUOUS
 62
     5
 10
301.90325300000001
 20
-135.315482
 30
0.0
 11
302.81548500000002
 21
-134.40325000000001
 31
0.0
  0
LINE
  5
318
  8
DETAIL
  6
CONTINUOUS
 62
     5
 10
302.81548500000002
 20
-134.40325000000001
 30
0.0
 11
303.63966299999998
 21
-133.41065900000001
 31
0.0
  0
LINE
  5
319
  8
DETAIL
  6
CONTINUOUS
 62
     5
 10
303.63966299999998
 20
-133.41065900000001
 30
0.0
 11
304.36881899999992
 21
-132.34607
 31
0.0
  0
LINE
  5
31A
  8
DETAIL
  6
CONTINUOUS
 62
     5
 10
304.36881899999992
 20
-132.34607
 30
0.0
 11
304.99676699999998
 21
-131.21844400000001
 31
0.0
  0
LINE
  5
31B
  8
DETAIL
  6
CONTINUOUS
 62
     5
 10
304.99676699999998
 20
-131.21844400000001
 30
0.0
 11
305.51815099999999
 21
-130.0372769999999
 31
0.0
  0
LINE
  5
31C
  8
DETAIL
  6
CONTINUOUS
 62
     5
 10
305.51815099999999
 20
-130.0372769999999
 30
0.0
 11
305.928493
 21
-128.81253000000001
 31
0.0
  0
LINE
  5
31D
  8
DETAIL
  6
CONTINUOUS
 62
     5
 10
305.928493
 20
-128.81253000000001
 30
0.0
 11
306.22423399999991
 21
-127.55454399999989
 31
0.0
  0
LINE
  5
31E
  8
DETAIL
  6
CONTINUOUS
 62
     5
 10
306.22423399999991
 20
-127.55454399999989
 30
0.0
 11
306.40276899999992
 21
-126.2739659999999
 31
0.0
  0
LINE
  5
31F
  8
DETAIL
  6
CONTINUOUS
 62
     5
 10
306.40276899999992
 20
-126.2739659999999
 30
0.0
 11
306.46247499999998
 21
-124.981661
 31
0.0
  0
LINE
  5
320
  8
DETAIL
  6
CONTINUOUS
 62
     5
 10
296.01918699999999
 20
142.5
 30
0.0
 11
297.31141400000001
 21
142.44030099999989
 31
0.0
  0
LINE
  5
321
  8
DETAIL
  6
CONTINUOUS
 62
     5
 10
297.31141400000001
 20
142.44030099999989
 30
0.0
 11
298.59223500000002
 21
142.26172800000001
 31
0.0
  0
LINE
  5
322
  8
DETAIL
  6
CONTINUOUS
 62
     5
 10
298.59223500000002
 20
142.26172800000001
 30
0.0
 11
299.84981299999993
 21
141.96608699999999
 31
0.0
  0
LINE
  5
323
  8
DETAIL
  6
CONTINUOUS
 62
     5
 10
299.84981299999993
 20
141.96608699999999
 30
0.0
 11
301.07504699999998
 21
141.55558199999999
 31
0.0
  0
LINE
  5
324
  8
DETAIL
  6
CONTINUOUS
 62
     5
 10
301.07504699999998
 20
141.55558199999999
 30
0.0
 11
302.25563999999991
 21
141.03445600000001
 31
0.0
  0
LINE
  5
325
  8
DETAIL
  6
CONTINUOUS
 62
     5
 10
302.25563999999991
 20
141.03445600000001
 30
0.0
 11
303.38389000000001
 21
140.406161
 31
0.0
  0
LINE
  5
326
  8
DETAIL
  6
CONTINUOUS
 62
     5
 10
303.38389000000001
 20
140.406161
 30
0.0
 11
304.44784700000002
 21
139.6774429999999
 31
0.0
  0
LINE
  5
327
  8
DETAIL
  6
CONTINUOUS
 62
     5
 10
304.44784700000002
 20
139.6774429999999
 30
0.0
 11
305.44107999999989
 21
138.852732
 31
0.0
  0
LINE
  5
328
  8
DETAIL
  6
CONTINUOUS
 62
     5
 10
305.44107999999989
 20
138.852732
 30
0.0
 11
306.35273199999989
 21
137.94108
 31
0.0
  0
LINE
  5
329
  8
DETAIL
  6
CONTINUOUS
 62
     5
 10
306.35273199999989
 20
137.94108
 30
0.0
 11
307.17744299999998
 21
136.947847
 31
0.0
  0
LINE
  5
32A
  8
DETAIL
  6
CONTINUOUS
 62
     5
 10
307.17744299999998
 20
136.947847
 30
0.0
 11
307.906161
 21
135.88388999999989
 31
0.0
  0
LINE
  5
32B
  8
DETAIL
  6
CONTINUOUS
 62
     5
 10
307.906161
 20
135.88388999999989
 30
0.0
 11
308.53445599999992
 21
134.75563999999989
 31
0.0
  0
LINE
  5
32C
  8
DETAIL
  6
CONTINUOUS
 62
     5
 10
308.53445599999992
 20
134.75563999999989
 30
0.0
 11
309.0555819999999
 21
133.5750469999999
 31
0.0
  0
LINE
  5
32D
  8
DETAIL
  6
CONTINUOUS
 62
     5
 10
309.0555819999999
 20
133.5750469999999
 30
0.0
 11
309.46608700000002
 21
132.3498129999999
 31
0.0
  0
LINE
  5
32E
  8
DETAIL
  6
CONTINUOUS
 62
     5
 10
309.46608700000002
 20
132.3498129999999
 30
0.0
 11
309.76172800000001
 21
131.09223499999999
 31
0.0
  0
LINE
  5
32F
  8
DETAIL
  6
CONTINUOUS
 62
     5
 10
309.76172800000001
 20
131.09223499999999
 30
0.0
 11
309.94030099999992
 21
129.8114139999999
 31
0.0
  0
LINE
  5
330
  8
DETAIL
  6
CONTINUOUS
 62
     5
 10
309.94030099999992
 20
129.8114139999999
 30
0.0
 11
310.0
 21
128.51918699999999
 31
0.0
  0
LINE
  5
331
  8
DETAIL
  6
CONTINUOUS
 62
     5
 10
292.48166099999992
 20
138.96247500000001
 30
0.0
 11
293.77396599999997
 21
138.90276900000001
 31
0.0
  0
LINE
  5
332
  8
DETAIL
  6
CONTINUOUS
 62
     5
 10
293.77396599999997
 20
138.90276900000001
 30
0.0
 11
295.05454400000002
 21
138.724234
 31
0.0
  0
LINE
  5
333
  8
DETAIL
  6
CONTINUOUS
 62
     5
 10
295.05454400000002
 20
138.724234
 30
0.0
 11
296.31253099999992
 21
138.42849299999989
 31
0.0
  0
LINE
  5
334
  8
DETAIL
  6
CONTINUOUS
 62
     5
 10
296.31253099999992
 20
138.42849299999989
 30
0.0
 11
297.53727900000001
 21
138.01814999999991
 31
0.0
  0
LINE
  5
335
  8
DETAIL
  6
CONTINUOUS
 62
     5
 10
297.53727900000001
 20
138.01814999999991
 30
0.0
 11
298.71844599999991
 21
137.49676599999989
 31
0.0
  0
LINE
  5
336
  8
DETAIL
  6
CONTINUOUS
 62
     5
 10
298.71844599999991
 20
137.49676599999989
 30
0.0
 11
299.84607299999999
 21
136.86881699999989
 31
0.0
  0
LINE
  5
337
  8
DETAIL
  6
CONTINUOUS
 62
     5
 10
299.84607299999999
 20
136.86881699999989
 30
0.0
 11
300.910662
 21
136.13965999999999
 31
0.0
  0
LINE
  5
338
  8
DETAIL
  6
CONTINUOUS
 62
     5
 10
300.910662
 20
136.13965999999999
 30
0.0
 11
301.90325300000001
 21
135.315482
 31
0.0
  0
LINE
  5
339
  8
DETAIL
  6
CONTINUOUS
 62
     5
 10
301.90325300000001
 20
135.315482
 30
0.0
 11
302.81548500000002
 21
134.40325000000001
 31
0.0
  0
LINE
  5
33A
  8
DETAIL
  6
CONTINUOUS
 62
     5
 10
302.81548500000002
 20
134.40325000000001
 30
0.0
 11
303.63966299999998
 21
133.41065900000001
 31
0.0
  0
LINE
  5
33B
  8
DETAIL
  6
CONTINUOUS
 62
     5
 10
303.63966299999998
 20
133.41065900000001
 30
0.0
 11
304.36881899999992
 21
132.34607
 31
0.0
  0
LINE
  5
33C
  8
DETAIL
  6
CONTINUOUS
 62
     5
 10
304.36881899999992
 20
132.34607
 30
0.0
 11
304.99676699999998
 21
131.21844400000001
 31
0.0
  0
LINE
  5
33D
  8
DETAIL
  6
CONTINUOUS
 62
     5
 10
304.99676699999998
 20
131.21844400000001
 30
0.0
 11
305.51815099999999
 21
130.0372769999999
 31
0.0
  0
LINE
  5
33E
  8
DETAIL
  6
CONTINUOUS
 62
     5
 10
305.51815099999999
 20
130.0372769999999
 30
0.0
 11
305.928493
 21
128.81253000000001
 31
0.0
  0
LINE
  5
33F
  8
DETAIL
  6
CONTINUOUS
 62
     5
 10
305.928493
 20
128.81253000000001
 30
0.0
 11
306.22423399999991
 21
127.55454399999989
 31
0.0
  0
LINE
  5
340
  8
DETAIL
  6
CONTINUOUS
 62
     5
 10
306.22423399999991
 20
127.55454399999989
 30
0.0
 11
306.40276899999992
 21
126.2739659999999
 31
0.0
  0
LINE
  5
341
  8
DETAIL
  6
CONTINUOUS
 62
     5
 10
306.40276899999992
 20
126.2739659999999
 30
0.0
 11
306.46247499999998
 21
124.981661
 31
0.0
  0
CIRCLE
  5
342
  8
DETAIL
  6
CONTINUOUS
 62
     5
 10
175.0
 20
-25.0
 30
0.0
 40
50.0
  0
LINE
  5
343
  8
BASIS
  6
DASHDOT
 62
     6
 10
109.84448399999999
 20
-25.0
 30
0.0
 11
240.15551600000001
 21
-25.0
 31
0.0
  0
LINE
  5
344
  8
BASIS
  6
DASHDOT
 62
     6
 10
-175.0
 20
75.838793999999993
 30
0.0
 11
-175.0
 21
-91.589452000000009
 31
0.0
  0
CIRCLE
  5
345
  8
DETAIL
  6
CONTINUOUS
 62
     5
 10
-175.0
 20
-25.0
 30
0.0
 40
50.0
  0
LINE
  5
346
  8
BASIS
  6
DASHDOT
 62
     6
 10
-59.374512000000003
 20
-25.0
 30
0.0
 11
-240.15551600000001
 21
-25.0
 31
0.0
  0
LINE
  5
347
  8
BASIS
  6
DASHDOT
 62
     6
 10
-125.0
 20
-94.308293999999975
 30
0.0
 11
-125.0
 21
76.339231999999996
 31
0.0
  0
CIRCLE
  5
348
  8
DETAIL
  6
DASHED
 62
     5
 10
-125.0
 20
-25.0
 30
0.0
 40
50.0
  0
LINE
  5
349
  8
BASIS
  6
DASHDOT
 62
     6
 10
-58.373229000000002
 20
15.0
 30
0.0
 11
-240.15551600000001
 21
15.0
 31
0.0
  0
CIRCLE
  5
34A
  8
DETAIL
  6
DASHED
 62
     5
 10
-175.0
 20
15.0
 30
0.0
 40
50.0
  0
CIRCLE
  5
34B
  8
DETAIL
  6
DASHED
 62
     5
 10
-125.0
 20
15.0
 30
0.0
 40
50.0
  0
LINE
  5
34C
  8
DETAIL
  6
CONTINUOUS
 62
     5
 10
265.0
 20
-115.0
 30
0.0
 11
265.0
 21
-85.0
 31
0.0
  0
LINE
  5
34D
  8
DETAIL
  6
CONTINUOUS
 62
     5
 10
290.0
 20
-115.0
 30
0.0
 11
290.0
 21
-85.0
 31
0.0
  0
LINE
  5
34E
  8
DETAIL
  6
CONTINUOUS
 62
     5
 10
265.0
 20
-85.0
 30
0.0
 11
290.0
 21
-85.0
 31
0.0
  0
LINE
  5
34F
  8
DETAIL
  6
CONTINUOUS
 62
     5
 10
265.0
 20
-115.0
 30
0.0
 11
290.0
 21
-115.0
 31
0.0
  0
LINE
  5
350
  8
SIZE
  6
CONTINUOUS
 62
    30
 10
265.0
 20
-135.0
 30
0.0
 11
265.0
 21
-401.006485
 31
0.0
  0
LINE
  5
351
  8
SIZE
  6
CONTINUOUS
 62
    30
 10
290.0
 20
-135.0
 30
0.0
 11
290.0
 21
-401.006485
 31
0.0
  0
LINE
  5
352
  8
SIZE
  6
CONTINUOUS
 62
    30
 10
253.0
 20
-381.00648499999988
 30
0.0
 11
0.0
 21
-381.00648499999988
 31
0.0
  0
LINE
  5
353
  8
SIZE
  6
CONTINUOUS
 62
    30
 10
302.0
 20
-381.00648499999988
 30
0.0
 11
314.0
 21
-381.00648499999988
 31
0.0
  0
LINE
  5
354
  8
SIZE
  6
CONTINUOUS
 62
    30
 10
525.41214300000001
 20
-381.00648499999988
 30
0.0
 11
290.0
 21
-381.00648499999988
 31
0.0
  0
TEXT
  5
355
  8
SIZE
  6
CONTINUOUS
 62
    30
 10
407.1549995714285
 20
-356.00648499999988
 30
0.0
 40
64.0
  1
25
 41
0.9
 72
     1
 11
453.78357099999999
 21
-356.00648499999988
 31
0.0
  0
LINE
  5
356
  8
SIZE
  6
CONTINUOUS
 62
    30
 10
265.0
 20
-381.00648499999988
 30
0.0
 11
290.0
 21
-381.00648499999988
 31
0.0
  0
LINE
  5
357
  8
SIZE
  6
CONTINUOUS
 62
    30
 10
265.0
 20
-381.00648499999988
 30
0.0
 11
290.0
 21
-381.00648499999988
 31
0.0
  0
CIRCLE
  5
358
  8
SIZE
  6
CONTINUOUS
 62
    30
 10
265.0
 20
-381.00648499999988
 30
0.0
 40
6.0
  0
LINE
  5
359
  8
SIZE
  6
CONTINUOUS
 62
    30
 10
265.0
 20
-381.00648499999988
 30
0.0
 11
253.0
 21
-381.00648499999988
 31
0.0
  0
CIRCLE
  5
35A
  8
SIZE
  6
CONTINUOUS
 62
    30
 10
290.0
 20
-381.00648499999988
 30
0.0
 40
6.0
  0
LINE
  5
35B
  8
SIZE
  6
CONTINUOUS
 62
    30
 10
290.0
 20
-381.00648499999988
 30
0.0
 11
302.0
 21
-381.00648499999988
 31
0.0
  0
CIRCLE
  5
35F
  8
FIX
  6
CONTINUOUS
 62
    11
 39
50.0
 10
-221.0
 20
72.0
 30
0.0
 40
3.0
  0
CIRCLE
  5
360
  8
FIX
  6
CONTINUOUS
 62
    11
 39
50.0
 10
-201.0
 20
72.0
 30
0.0
 40
3.0
  0
CIRCLE
  5
361
  8
FIX
  6
CONTINUOUS
 62
    11
 39
50.0
 10
-161.0
 20
72.0
 30
0.0
 40
3.0
  0
CIRCLE
  5
362
  8
FIX
  6
CONTINUOUS
 62
    11
 39
50.0
 10
-181.0
 20
72.0
 30
0.0
 40
3.0
  0
CIRCLE
  5
363
  8
FIX
  6
CONTINUOUS
 62
    11
 39
50.0
 10
-141.0
 20
72.0
 30
0.0
 40
3.0
  0
CIRCLE
  5
364
  8
FIX
  6
CONTINUOUS
 62
    11
 39
50.0
 10
-121.0
 20
72.0
 30
0.0
 40
3.0
  0
CIRCLE
  5
365
  8
FIX
  6
CONTINUOUS
 62
    11
 39
50.0
 10
0.0
 20
72.0
 30
0.0
 40
3.0
  0
CIRCLE
  5
366
  8
FIX
  6
CONTINUOUS
 62
    11
 39
50.0
 10
121.0
 20
72.0
 30
0.0
 40
3.0
  0
CIRCLE
  5
367
  8
FIX
  6
CONTINUOUS
 62
    11
 39
50.0
 10
141.0
 20
72.0
 30
0.0
 40
3.0
  0
CIRCLE
  5
368
  8
FIX
  6
CONTINUOUS
 62
    11
 39
50.0
 10
181.0
 20
72.0
 30
0.0
 40
3.0
  0
CIRCLE
  5
369
  8
FIX
  6
CONTINUOUS
 62
    11
 39
50.0
 10
161.0
 20
72.0
 30
0.0
 40
3.0
  0
CIRCLE
  5
36A
  8
FIX
  6
CONTINUOUS
 62
    11
 39
50.0
 10
201.0
 20
72.0
 30
0.0
 40
3.0
  0
CIRCLE
  5
36B
  8
FIX
  6
CONTINUOUS
 62
    11
 39
50.0
 10
221.0
 20
72.0
 30
0.0
 40
3.0
  0
CIRCLE
  5
36C
  8
DETAIL
  6
CONTINUOUS
 62
     5
 10
-201.0
 20
72.0
 30
0.0
 40
3.0
  0
CIRCLE
  5
36D
  8
DETAIL
  6
CONTINUOUS
 62
     5
 10
-221.0
 20
72.0
 30
0.0
 40
3.0
  0
CIRCLE
  5
36E
  8
DETAIL
  6
CONTINUOUS
 62
     5
 10
-141.0
 20
72.0
 30
0.0
 40
3.0
  0
CIRCLE
  5
36F
  8
DETAIL
  6
CONTINUOUS
 62
     5
 10
-161.0
 20
72.0
 30
0.0
 40
3.0
  0
CIRCLE
  5
370
  8
DETAIL
  6
CONTINUOUS
 62
     5
 10
-181.0
 20
72.0
 30
0.0
 40
3.0
  0
CIRCLE
  5
371
  8
DETAIL
  6
CONTINUOUS
 62
     5
 10
-121.0
 20
72.0
 30
0.0
 40
3.0
  0
CIRCLE
  5
372
  8
DETAIL
  6
CONTINUOUS
 62
     5
 10
121.0
 20
72.0
 30
0.0
 40
3.0
  0
CIRCLE
  5
373
  8
DETAIL
  6
CONTINUOUS
 62
     5
 10
0.0
 20
72.0
 30
0.0
 40
3.0
  0
CIRCLE
  5
374
  8
DETAIL
  6
CONTINUOUS
 62
     5
 10
181.0
 20
72.0
 30
0.0
 40
3.0
  0
CIRCLE
  5
375
  8
DETAIL
  6
CONTINUOUS
 62
     5
 10
161.0
 20
72.0
 30
0.0
 40
3.0
  0
CIRCLE
  5
376
  8
DETAIL
  6
CONTINUOUS
 62
     5
 10
141.0
 20
72.0
 30
0.0
 40
3.0
  0
CIRCLE
  5
377
  8
DETAIL
  6
CONTINUOUS
 62
     5
 10
221.0
 20
72.0
 30
0.0
 40
3.0
  0
CIRCLE
  5
378
  8
DETAIL
  6
CONTINUOUS
 62
     5
 10
201.0
 20
72.0
 30
0.0
 40
3.0
  0
LINE
  5
379
  8
NOTE
  6
CONTINUOUS
 62
     4
 10
121.0
 20
52.0
 30
0.0
 11
121.0
 21
92.0
 31
0.0
  0
LINE
  5
37A
  8
NOTE
  6
CONTINUOUS
 62
     4
 10
141.0
 20
72.0
 30
0.0
 11
101.0
 21
72.0
 31
0.0
  0
LINE
  5
37B
  8
NOTE
  6
CONTINUOUS
 62
     4
 10
201.0
 20
52.0
 30
0.0
 11
201.0
 21
92.0
 31
0.0
  0
LINE
  5
37C
  8
NOTE
  6
CONTINUOUS
 62
     4
 10
221.0
 20
72.0
 30
0.0
 11
181.0
 21
72.0
 31
0.0
  0
LINE
  5
37D
  8
NOTE
  6
CONTINUOUS
 62
     4
 10
221.0
 20
52.0
 30
0.0
 11
221.0
 21
92.0
 31
0.0
  0
LINE
  5
37E
  8
NOTE
  6
CONTINUOUS
 62
     4
 10
241.0
 20
72.0
 30
0.0
 11
201.0
 21
72.0
 31
0.0
  0
LINE
  5
37F
  8
NOTE
  6
CONTINUOUS
 62
     4
 10
181.0
 20
52.0
 30
0.0
 11
181.0
 21
92.0
 31
0.0
  0
LINE
  5
380
  8
NOTE
  6
CONTINUOUS
 62
     4
 10
201.0
 20
72.0
 30
0.0
 11
161.0
 21
72.0
 31
0.0
  0
LINE
  5
381
  8
NOTE
  6
CONTINUOUS
 62
     4
 10
141.0
 20
52.0
 30
0.0
 11
141.0
 21
92.0
 31
0.0
  0
LINE
  5
382
  8
NOTE
  6
CONTINUOUS
 62
     4
 10
161.0
 20
72.0
 30
0.0
 11
121.0
 21
72.0
 31
0.0
  0
LINE
  5
383
  8
NOTE
  6
CONTINUOUS
 62
     4
 10
161.0
 20
52.0
 30
0.0
 11
161.0
 21
92.0
 31
0.0
  0
LINE
  5
384
  8
NOTE
  6
CONTINUOUS
 62
     4
 10
181.0
 20
72.0
 30
0.0
 11
141.0
 21
72.0
 31
0.0
  0
LINE
  5
385
  8
NOTE
  6
CONTINUOUS
 62
     4
 10
-141.0
 20
52.0
 30
0.0
 11
-141.0
 21
92.0
 31
0.0
  0
LINE
  5
386
  8
NOTE
  6
CONTINUOUS
 62
     4
 10
-161.0
 20
72.0
 30
0.0
 11
-121.0
 21
72.0
 31
0.0
  0
LINE
  5
387
  8
NOTE
  6
CONTINUOUS
 62
     4
 10
-121.0
 20
52.0
 30
0.0
 11
-121.0
 21
92.0
 31
0.0
  0
LINE
  5
388
  8
NOTE
  6
CONTINUOUS
 62
     4
 10
-141.0
 20
72.0
 30
0.0
 11
-101.0
 21
72.0
 31
0.0
  0
LINE
  5
389
  8
NOTE
  6
CONTINUOUS
 62
     4
 10
-161.0
 20
52.0
 30
0.0
 11
-161.0
 21
92.0
 31
0.0
  0
LINE
  5
38A
  8
NOTE
  6
CONTINUOUS
 62
     4
 10
-181.0
 20
72.0
 30
0.0
 11
-141.0
 21
72.0
 31
0.0
  0
LINE
  5
38B
  8
NOTE
  6
CONTINUOUS
 62
     4
 10
-181.0
 20
52.0
 30
0.0
 11
-181.0
 21
92.0
 31
0.0
  0
LINE
  5
38C
  8
NOTE
  6
CONTINUOUS
 62
     4
 10
-201.0
 20
72.0
 30
0.0
 11
-161.0
 21
72.0
 31
0.0
  0
LINE
  5
38D
  8
NOTE
  6
CONTINUOUS
 62
     4
 10
-221.0
 20
52.0
 30
0.0
 11
-221.0
 21
92.0
 31
0.0
  0
LINE
  5
38E
  8
NOTE
  6
CONTINUOUS
 62
     4
 10
-241.0
 20
72.0
 30
0.0
 11
-201.0
 21
72.0
 31
0.0
  0
LINE
  5
38F
  8
NOTE
  6
CONTINUOUS
 62
     4
 10
-201.0
 20
52.0
 30
0.0
 11
-201.0
 21
92.0
 31
0.0
  0
LINE
  5
390
  8
NOTE
  6
CONTINUOUS
 62
     4
 10
-221.0
 20
72.0
 30
0.0
 11
-181.0
 21
72.0
 31
0.0
  0
LINE
  5
391
  8
NOTE
  6
CONTINUOUS
 62
     4
 10
0.0
 20
52.0
 30
0.0
 11
0.0
 21
92.0
 31
0.0
  0
LINE
  5
392
  8
NOTE
  6
CONTINUOUS
 62
     4
 10
-20.0
 20
72.0
 30
0.0
 11
20.0
 21
72.0
 31
0.0
  0
CIRCLE
  5
393
  8
FIX
  6
CONTINUOUS
 62
    11
 39
50.0
 10
121.0
 20
-103.0
 30
0.0
 40
3.0
  0
CIRCLE
  5
394
  8
FIX
  6
CONTINUOUS
 62
    11
 39
50.0
 10
141.0
 20
-103.0
 30
0.0
 40
3.0
  0
CIRCLE
  5
395
  8
FIX
  6
CONTINUOUS
 62
    11
 39
50.0
 10
181.0
 20
-103.0
 30
0.0
 40
3.0
  0
CIRCLE
  5
396
  8
FIX
  6
CONTINUOUS
 62
    11
 39
50.0
 10
161.0
 20
-103.0
 30
0.0
 40
3.0
  0
CIRCLE
  5
397
  8
FIX
  6
CONTINUOUS
 62
    11
 39
50.0
 10
201.0
 20
-103.0
 30
0.0
 40
3.0
  0
CIRCLE
  5
398
  8
FIX
  6
CONTINUOUS
 62
    11
 39
50.0
 10
221.0
 20
-103.0
 30
0.0
 40
3.0
  0
LINE
  5
399
  8
NOTE
  6
CONTINUOUS
 62
     4
 10
0.0
 20
-123.0
 30
0.0
 11
0.0
 21
-83.0
 31
0.0
  0
LINE
  5
39A
  8
NOTE
  6
CONTINUOUS
 62
     4
 10
-20.0
 20
-103.0
 30
0.0
 11
20.0
 21
-103.0
 31
0.0
  0
LINE
  5
39B
  8
NOTE
  6
CONTINUOUS
 62
     4
 10
121.0
 20
-143.0
 30
0.0
 11
121.0
 21
-103.0
 31
0.0
  0
LINE
  5
39C
  8
NOTE
  6
CONTINUOUS
 62
     4
 10
141.0
 20
-123.0
 30
0.0
 11
101.0
 21
-123.0
 31
0.0
  0
CIRCLE
  5
39D
  8
DETAIL
  6
CONTINUOUS
 62
     5
 10
121.0
 20
-103.0
 30
0.0
 40
3.0
  0
LINE
  5
39E
  8
NOTE
  6
CONTINUOUS
 62
     4
 10
121.0
 20
-123.0
 30
0.0
 11
121.0
 21
-83.0
 31
0.0
  0
LINE
  5
39F
  8
NOTE
  6
CONTINUOUS
 62
     4
 10
141.0
 20
-103.0
 30
0.0
 11
101.0
 21
-103.0
 31
0.0
  0
LINE
  5
3A0
  8
NOTE
  6
CONTINUOUS
 62
     4
 10
161.0
 20
-143.0
 30
0.0
 11
161.0
 21
-103.0
 31
0.0
  0
LINE
  5
3A1
  8
NOTE
  6
CONTINUOUS
 62
     4
 10
181.0
 20
-123.0
 30
0.0
 11
141.0
 21
-123.0
 31
0.0
  0
LINE
  5
3A2
  8
NOTE
  6
CONTINUOUS
 62
     4
 10
141.0
 20
-143.0
 30
0.0
 11
141.0
 21
-103.0
 31
0.0
  0
LINE
  5
3A3
  8
NOTE
  6
CONTINUOUS
 62
     4
 10
161.0
 20
-123.0
 30
0.0
 11
121.0
 21
-123.0
 31
0.0
  0
LINE
  5
3A4
  8
NOTE
  6
CONTINUOUS
 62
     4
 10
181.0
 20
-143.0
 30
0.0
 11
181.0
 21
-103.0
 31
0.0
  0
LINE
  5
3A5
  8
NOTE
  6
CONTINUOUS
 62
     4
 10
201.0
 20
-123.0
 30
0.0
 11
161.0
 21
-123.0
 31
0.0
  0
LINE
  5
3A6
  8
NOTE
  6
CONTINUOUS
 62
     4
 10
221.0
 20
-143.0
 30
0.0
 11
221.0
 21
-103.0
 31
0.0
  0
LINE
  5
3A7
  8
NOTE
  6
CONTINUOUS
 62
     4
 10
241.0
 20
-123.0
 30
0.0
 11
201.0
 21
-123.0
 31
0.0
  0
LINE
  5
3A8
  8
NOTE
  6
CONTINUOUS
 62
     4
 10
201.0
 20
-143.0
 30
0.0
 11
201.0
 21
-103.0
 31
0.0
  0
LINE
  5
3A9
  8
NOTE
  6
CONTINUOUS
 62
     4
 10
221.0
 20
-123.0
 30
0.0
 11
181.0
 21
-123.0
 31
0.0
  0
LINE
  5
3AA
  8
NOTE
  6
CONTINUOUS
 62
     4
 10
201.0
 20
-123.0
 30
0.0
 11
201.0
 21
-83.0
 31
0.0
  0
LINE
  5
3AB
  8
NOTE
  6
CONTINUOUS
 62
     4
 10
221.0
 20
-103.0
 30
0.0
 11
181.0
 21
-103.0
 31
0.0
  0
LINE
  5
3AC
  8
NOTE
  6
CONTINUOUS
 62
     4
 10
221.0
 20
-123.0
 30
0.0
 11
221.0
 21
-83.0
 31
0.0
  0
LINE
  5
3AD
  8
NOTE
  6
CONTINUOUS
 62
     4
 10
241.0
 20
-103.0
 30
0.0
 11
201.0
 21
-103.0
 31
0.0
  0
LINE
  5
3AE
  8
NOTE
  6
CONTINUOUS
 62
     4
 10
181.0
 20
-123.0
 30
0.0
 11
181.0
 21
-83.0
 31
0.0
  0
LINE
  5
3AF
  8
NOTE
  6
CONTINUOUS
 62
     4
 10
201.0
 20
-103.0
 30
0.0
 11
161.0
 21
-103.0
 31
0.0
  0
LINE
  5
3B0
  8
NOTE
  6
CONTINUOUS
 62
     4
 10
141.0
 20
-123.0
 30
0.0
 11
141.0
 21
-83.0
 31
0.0
  0
LINE
  5
3B1
  8
NOTE
  6
CONTINUOUS
 62
     4
 10
161.0
 20
-103.0
 30
0.0
 11
121.0
 21
-103.0
 31
0.0
  0
LINE
  5
3B2
  8
NOTE
  6
CONTINUOUS
 62
     4
 10
161.0
 20
-123.0
 30
0.0
 11
161.0
 21
-83.0
 31
0.0
  0
LINE
  5
3B3
  8
NOTE
  6
CONTINUOUS
 62
     4
 10
181.0
 20
-103.0
 30
0.0
 11
141.0
 21
-103.0
 31
0.0
  0
CIRCLE
  5
3B4
  8
DETAIL
  6
CONTINUOUS
 62
     5
 10
181.0
 20
-103.0
 30
0.0
 40
3.0
  0
CIRCLE
  5
3B5
  8
DETAIL
  6
CONTINUOUS
 62
     5
 10
161.0
 20
-103.0
 30
0.0
 40
3.0
  0
CIRCLE
  5
3B6
  8
DETAIL
  6
CONTINUOUS
 62
     5
 10
141.0
 20
-103.0
 30
0.0
 40
3.0
  0
CIRCLE
  5
3B7
  8
DETAIL
  6
CONTINUOUS
 62
     5
 10
221.0
 20
-103.0
 30
0.0
 40
3.0
  0
CIRCLE
  5
3B8
  8
DETAIL
  6
CONTINUOUS
 62
     5
 10
201.0
 20
-103.0
 30
0.0
 40
3.0
  0
CIRCLE
  5
3B9
  8
FIX
  6
CONTINUOUS
 62
    11
 39
50.0
 10
-221.0
 20
-103.0
 30
0.0
 40
3.0
  0
CIRCLE
  5
3BA
  8
FIX
  6
CONTINUOUS
 62
    11
 39
50.0
 10
-201.0
 20
-103.0
 30
0.0
 40
3.0
  0
CIRCLE
  5
3BB
  8
FIX
  6
CONTINUOUS
 62
    11
 39
50.0
 10
-161.0
 20
-103.0
 30
0.0
 40
3.0
  0
CIRCLE
  5
3BC
  8
FIX
  6
CONTINUOUS
 62
    11
 39
50.0
 10
-181.0
 20
-103.0
 30
0.0
 40
3.0
  0
CIRCLE
  5
3BD
  8
FIX
  6
CONTINUOUS
 62
    11
 39
50.0
 10
-141.0
 20
-103.0
 30
0.0
 40
3.0
  0
CIRCLE
  5
3BE
  8
FIX
  6
CONTINUOUS
 62
    11
 39
50.0
 10
-121.0
 20
-103.0
 30
0.0
 40
3.0
  0
LINE
  5
3BF
  8
NOTE
  6
CONTINUOUS
 62
     4
 10
-121.0
 20
-143.0
 30
0.0
 11
-121.0
 21
-103.0
 31
0.0
  0
LINE
  5
3C0
  8
NOTE
  6
CONTINUOUS
 62
     4
 10
-141.0
 20
-123.0
 30
0.0
 11
-101.0
 21
-123.0
 31
0.0
  0
LINE
  5
3C1
  8
NOTE
  6
CONTINUOUS
 62
     4
 10
-141.0
 20
-143.0
 30
0.0
 11
-141.0
 21
-103.0
 31
0.0
  0
LINE
  5
3C2
  8
NOTE
  6
CONTINUOUS
 62
     4
 10
-161.0
 20
-123.0
 30
0.0
 11
-121.0
 21
-123.0
 31
0.0
  0
LINE
  5
3C3
  8
NOTE
  6
CONTINUOUS
 62
     4
 10
-141.0
 20
-123.0
 30
0.0
 11
-141.0
 21
-83.0
 31
0.0
  0
LINE
  5
3C4
  8
NOTE
  6
CONTINUOUS
 62
     4
 10
-161.0
 20
-103.0
 30
0.0
 11
-121.0
 21
-103.0
 31
0.0
  0
LINE
  5
3C5
  8
NOTE
  6
CONTINUOUS
 62
     4
 10
-121.0
 20
-123.0
 30
0.0
 11
-121.0
 21
-83.0
 31
0.0
  0
LINE
  5
3C6
  8
NOTE
  6
CONTINUOUS
 62
     4
 10
-141.0
 20
-103.0
 30
0.0
 11
-101.0
 21
-103.0
 31
0.0
  0
LINE
  5
3C7
  8
NOTE
  6
CONTINUOUS
 62
     4
 10
-201.0
 20
-143.0
 30
0.0
 11
-201.0
 21
-103.0
 31
0.0
  0
LINE
  5
3C8
  8
NOTE
  6
CONTINUOUS
 62
     4
 10
-221.0
 20
-123.0
 30
0.0
 11
-181.0
 21
-123.0
 31
0.0
  0
LINE
  5
3C9
  8
NOTE
  6
CONTINUOUS
 62
     4
 10
-221.0
 20
-143.0
 30
0.0
 11
-221.0
 21
-103.0
 31
0.0
  0
LINE
  5
3CA
  8
NOTE
  6
CONTINUOUS
 62
     4
 10
-241.0
 20
-123.0
 30
0.0
 11
-201.0
 21
-123.0
 31
0.0
  0
LINE
  5
3CB
  8
NOTE
  6
CONTINUOUS
 62
     4
 10
-181.0
 20
-143.0
 30
0.0
 11
-181.0
 21
-103.0
 31
0.0
  0
LINE
  5
3CC
  8
NOTE
  6
CONTINUOUS
 62
     4
 10
-201.0
 20
-123.0
 30
0.0
 11
-161.0
 21
-123.0
 31
0.0
  0
LINE
  5
3CD
  8
NOTE
  6
CONTINUOUS
 62
     4
 10
-161.0
 20
-143.0
 30
0.0
 11
-161.0
 21
-103.0
 31
0.0
  0
LINE
  5
3CE
  8
NOTE
  6
CONTINUOUS
 62
     4
 10
-181.0
 20
-123.0
 30
0.0
 11
-141.0
 21
-123.0
 31
0.0
  0
LINE
  5
3CF
  8
NOTE
  6
CONTINUOUS
 62
     4
 10
-161.0
 20
-123.0
 30
0.0
 11
-161.0
 21
-83.0
 31
0.0
  0
LINE
  5
3D0
  8
NOTE
  6
CONTINUOUS
 62
     4
 10
-181.0
 20
-103.0
 30
0.0
 11
-141.0
 21
-103.0
 31
0.0
  0
LINE
  5
3D1
  8
NOTE
  6
CONTINUOUS
 62
     4
 10
-181.0
 20
-123.0
 30
0.0
 11
-181.0
 21
-83.0
 31
0.0
  0
LINE
  5
3D2
  8
NOTE
  6
CONTINUOUS
 62
     4
 10
-201.0
 20
-103.0
 30
0.0
 11
-161.0
 21
-103.0
 31
0.0
  0
LINE
  5
3D3
  8
NOTE
  6
CONTINUOUS
 62
     4
 10
-221.0
 20
-123.0
 30
0.0
 11
-221.0
 21
-83.0
 31
0.0
  0
LINE
  5
3D4
  8
NOTE
  6
CONTINUOUS
 62
     4
 10
-241.0
 20
-103.0
 30
0.0
 11
-201.0
 21
-103.0
 31
0.0
  0
LINE
  5
3D5
  8
NOTE
  6
CONTINUOUS
 62
     4
 10
-201.0
 20
-123.0
 30
0.0
 11
-201.0
 21
-83.0
 31
0.0
  0
LINE
  5
3D6
  8
NOTE
  6
CONTINUOUS
 62
     4
 10
-221.0
 20
-103.0
 30
0.0
 11
-181.0
 21
-103.0
 31
0.0
  0
CIRCLE
  5
3D7
  8
DETAIL
  6
CONTINUOUS
 62
     5
 10
-201.0
 20
-103.0
 30
0.0
 40
3.0
  0
CIRCLE
  5
3D8
  8
DETAIL
  6
CONTINUOUS
 62
     5
 10
-221.0
 20
-103.0
 30
0.0
 40
3.0
  0
CIRCLE
  5
3D9
  8
DETAIL
  6
CONTINUOUS
 62
     5
 10
-141.0
 20
-103.0
 30
0.0
 40
3.0
  0
CIRCLE
  5
3DA
  8
DETAIL
  6
CONTINUOUS
 62
     5
 10
-161.0
 20
-103.0
 30
0.0
 40
3.0
  0
CIRCLE
  5
3DB
  8
DETAIL
  6
CONTINUOUS
 62
     5
 10
-181.0
 20
-103.0
 30
0.0
 40
3.0
  0
CIRCLE
  5
3DC
  8
DETAIL
  6
CONTINUOUS
 62
     5
 10
-121.0
 20
-103.0
 30
0.0
 40
3.0
  0
CIRCLE
  5
3DD
  8
FIX
  6
CONTINUOUS
 62
    11
 39
50.0
 10
0.0
 20
-123.0
 30
0.0
 40
3.0
  0
CIRCLE
  5
3DE
  8
FIX
  6
CONTINUOUS
 62
    11
 39
50.0
 10
0.0
 20
-103.0
 30
0.0
 40
3.0
  0
LINE
  5
3DF
  8
NOTE
  6
CONTINUOUS
 62
     4
 10
0.0
 20
-143.0
 30
0.0
 11
0.0
 21
-103.0
 31
0.0
  0
LINE
  5
3E0
  8
NOTE
  6
CONTINUOUS
 62
     4
 10
-20.0
 20
-123.0
 30
0.0
 11
20.0
 21
-123.0
 31
0.0
  0
CIRCLE
  5
3E1
  8
DETAIL
  6
CONTINUOUS
 62
     5
 10
0.0
 20
-123.0
 30
0.0
 40
3.0
  0
CIRCLE
  5
3E2
  8
DETAIL
  6
CONTINUOUS
 62
     5
 10
0.0
 20
-103.0
 30
0.0
 40
3.0
  0
CIRCLE
  5
3E3
  8
FIX
  6
CONTINUOUS
 62
    11
 39
50.0
 10
221.0
 20
-123.0
 30
0.0
 40
3.0
  0
CIRCLE
  5
3E4
  8
FIX
  6
CONTINUOUS
 62
    11
 39
50.0
 10
201.0
 20
-123.0
 30
0.0
 40
3.0
  0
CIRCLE
  5
3E5
  8
FIX
  6
CONTINUOUS
 62
    11
 39
50.0
 10
161.0
 20
-123.0
 30
0.0
 40
3.0
  0
CIRCLE
  5
3E6
  8
FIX
  6
CONTINUOUS
 62
    11
 39
50.0
 10
181.0
 20
-123.0
 30
0.0
 40
3.0
  0
CIRCLE
  5
3E7
  8
FIX
  6
CONTINUOUS
 62
    11
 39
50.0
 10
141.0
 20
-123.0
 30
0.0
 40
3.0
  0
CIRCLE
  5
3E8
  8
FIX
  6
CONTINUOUS
 62
    11
 39
50.0
 10
121.0
 20
-123.0
 30
0.0
 40
3.0
  0
CIRCLE
  5
3E9
  8
DETAIL
  6
CONTINUOUS
 62
     5
 10
121.0
 20
-123.0
 30
0.0
 40
3.0
  0
CIRCLE
  5
3EA
  8
DETAIL
  6
CONTINUOUS
 62
     5
 10
181.0
 20
-123.0
 30
0.0
 40
3.0
  0
CIRCLE
  5
3EB
  8
DETAIL
  6
CONTINUOUS
 62
     5
 10
141.0
 20
-123.0
 30
0.0
 40
3.0
  0
CIRCLE
  5
3EC
  8
DETAIL
  6
CONTINUOUS
 62
     5
 10
161.0
 20
-123.0
 30
0.0
 40
3.0
  0
CIRCLE
  5
3ED
  8
DETAIL
  6
CONTINUOUS
 62
     5
 10
201.0
 20
-123.0
 30
0.0
 40
3.0
  0
CIRCLE
  5
3EE
  8
DETAIL
  6
CONTINUOUS
 62
     5
 10
221.0
 20
-123.0
 30
0.0
 40
3.0
  0
CIRCLE
  5
3EF
  8
FIX
  6
CONTINUOUS
 62
    11
 39
50.0
 10
-121.0
 20
-123.0
 30
0.0
 40
3.0
  0
CIRCLE
  5
3F0
  8
FIX
  6
CONTINUOUS
 62
    11
 39
50.0
 10
-141.0
 20
-123.0
 30
0.0
 40
3.0
  0
CIRCLE
  5
3F1
  8
FIX
  6
CONTINUOUS
 62
    11
 39
50.0
 10
-181.0
 20
-123.0
 30
0.0
 40
3.0
  0
CIRCLE
  5
3F2
  8
FIX
  6
CONTINUOUS
 62
    11
 39
50.0
 10
-161.0
 20
-123.0
 30
0.0
 40
3.0
  0
CIRCLE
  5
3F3
  8
FIX
  6
CONTINUOUS
 62
    11
 39
50.0
 10
-201.0
 20
-123.0
 30
0.0
 40
3.0
  0
CIRCLE
  5
3F4
  8
FIX
  6
CONTINUOUS
 62
    11
 39
50.0
 10
-221.0
 20
-123.0
 30
0.0
 40
3.0
  0
CIRCLE
  5
3F5
  8
DETAIL
  6
CONTINUOUS
 62
     5
 10
-221.0
 20
-123.0
 30
0.0
 40
3.0
  0
CIRCLE
  5
3F6
  8
DETAIL
  6
CONTINUOUS
 62
     5
 10
-201.0
 20
-123.0
 30
0.0
 40
3.0
  0
CIRCLE
  5
3F7
  8
DETAIL
  6
CONTINUOUS
 62
     5
 10
-181.0
 20
-123.0
 30
0.0
 40
3.0
  0
CIRCLE
  5
3F8
  8
DETAIL
  6
CONTINUOUS
 62
     5
 10
-161.0
 20
-123.0
 30
0.0
 40
3.0
  0
CIRCLE
  5
3F9
  8
DETAIL
  6
CONTINUOUS
 62
     5
 10
-141.0
 20
-123.0
 30
0.0
 40
3.0
  0
CIRCLE
  5
3FA
  8
DETAIL
  6
CONTINUOUS
 62
     5
 10
-121.0
 20
-123.0
 30
0.0
 40
3.0
  0
LINE
  5
3FB
  8
OUTLINE
  6
CONTINUOUS
 62
     3
 10
296.01918699999999
 20
-142.5
 30
0.0
 11
-296.01918699999999
 21
-142.5
 31
0.0
  0
LINE
  5
3FC
  8
OUTLINE
  6
CONTINUOUS
 62
     3
 10
-296.01918699999999
 20
142.5
 30
0.0
 11
296.01918699999999
 21
142.5
 31
0.0
  0
LINE
  5
3FD
  8
OUTLINE
  6
CONTINUOUS
 62
     3
 10
-310.0
 20
-128.51918699999999
 30
0.0
 11
-310.0
 21
128.51918699999999
 31
0.0
  0
LINE
  5
3FE
  8
OUTLINE
  6
CONTINUOUS
 62
     3
 10
-309.94030099999992
 20
-129.8114139999999
 30
0.0
 11
-310.0
 21
-128.51918699999999
 31
0.0
  0
LINE
  5
3FF
  8
OUTLINE
  6
CONTINUOUS
 62
     3
 10
-309.76172800000001
 20
-131.09223499999999
 30
0.0
 11
-309.94030099999992
 21
-129.8114139999999
 31
0.0
  0
LINE
  5
400
  8
OUTLINE
  6
CONTINUOUS
 62
     3
 10
-309.46608700000002
 20
-132.3498129999999
 30
0.0
 11
-309.76172800000001
 21
-131.09223499999999
 31
0.0
  0
LINE
  5
401
  8
OUTLINE
  6
CONTINUOUS
 62
     3
 10
-309.0555819999999
 20
-133.5750469999999
 30
0.0
 11
-309.46608700000002
 21
-132.3498129999999
 31
0.0
  0
LINE
  5
402
  8
OUTLINE
  6
CONTINUOUS
 62
     3
 10
-308.53445599999992
 20
-134.75563999999989
 30
0.0
 11
-309.0555819999999
 21
-133.5750469999999
 31
0.0
  0
LINE
  5
403
  8
OUTLINE
  6
CONTINUOUS
 62
     3
 10
-307.906161
 20
-135.88388999999989
 30
0.0
 11
-308.53445599999992
 21
-134.75563999999989
 31
0.0
  0
LINE
  5
404
  8
OUTLINE
  6
CONTINUOUS
 62
     3
 10
-307.17744299999998
 20
-136.947847
 30
0.0
 11
-307.906161
 21
-135.88388999999989
 31
0.0
  0
LINE
  5
405
  8
OUTLINE
  6
CONTINUOUS
 62
     3
 10
-306.35273199999989
 20
-137.94108
 30
0.0
 11
-307.17744299999998
 21
-136.947847
 31
0.0
  0
LINE
  5
406
  8
OUTLINE
  6
CONTINUOUS
 62
     3
 10
-305.44107999999989
 20
-138.852732
 30
0.0
 11
-306.35273199999989
 21
-137.94108
 31
0.0
  0
LINE
  5
407
  8
OUTLINE
  6
CONTINUOUS
 62
     3
 10
-304.44784700000002
 20
-139.6774429999999
 30
0.0
 11
-305.44107999999989
 21
-138.852732
 31
0.0
  0
LINE
  5
408
  8
OUTLINE
  6
CONTINUOUS
 62
     3
 10
-303.38389000000001
 20
-140.406161
 30
0.0
 11
-304.44784700000002
 21
-139.6774429999999
 31
0.0
  0
LINE
  5
409
  8
OUTLINE
  6
CONTINUOUS
 62
     3
 10
-302.25563999999991
 20
-141.03445600000001
 30
0.0
 11
-303.38389000000001
 21
-140.406161
 31
0.0
  0
LINE
  5
40A
  8
OUTLINE
  6
CONTINUOUS
 62
     3
 10
-301.07504699999998
 20
-141.55558199999999
 30
0.0
 11
-302.25563999999991
 21
-141.03445600000001
 31
0.0
  0
LINE
  5
40B
  8
OUTLINE
  6
CONTINUOUS
 62
     3
 10
-299.84981299999993
 20
-141.96608699999999
 30
0.0
 11
-301.07504699999998
 21
-141.55558199999999
 31
0.0
  0
LINE
  5
40C
  8
OUTLINE
  6
CONTINUOUS
 62
     3
 10
-298.59223500000002
 20
-142.26172800000001
 30
0.0
 11
-299.84981299999993
 21
-141.96608699999999
 31
0.0
  0
LINE
  5
40D
  8
OUTLINE
  6
CONTINUOUS
 62
     3
 10
-297.31141400000001
 20
-142.44030099999989
 30
0.0
 11
-298.59223500000002
 21
-142.26172800000001
 31
0.0
  0
LINE
  5
40E
  8
OUTLINE
  6
CONTINUOUS
 62
     3
 10
-296.01918699999999
 20
-142.5
 30
0.0
 11
-297.31141400000001
 21
-142.44030099999989
 31
0.0
  0
LINE
  5
40F
  8
OUTLINE
  6
CONTINUOUS
 62
     3
 10
-297.31141400000001
 20
142.44030099999989
 30
0.0
 11
-296.01918699999999
 21
142.5
 31
0.0
  0
LINE
  5
410
  8
OUTLINE
  6
CONTINUOUS
 62
     3
 10
-298.59223500000002
 20
142.26172800000001
 30
0.0
 11
-297.31141400000001
 21
142.44030099999989
 31
0.0
  0
LINE
  5
411
  8
OUTLINE
  6
CONTINUOUS
 62
     3
 10
-299.84981299999993
 20
141.96608699999999
 30
0.0
 11
-298.59223500000002
 21
142.26172800000001
 31
0.0
  0
LINE
  5
412
  8
OUTLINE
  6
CONTINUOUS
 62
     3
 10
-301.07504699999998
 20
141.55558199999999
 30
0.0
 11
-299.84981299999993
 21
141.96608699999999
 31
0.0
  0
LINE
  5
413
  8
OUTLINE
  6
CONTINUOUS
 62
     3
 10
-302.25563999999991
 20
141.03445600000001
 30
0.0
 11
-301.07504699999998
 21
141.55558199999999
 31
0.0
  0
LINE
  5
414
  8
OUTLINE
  6
CONTINUOUS
 62
     3
 10
-303.38389000000001
 20
140.406161
 30
0.0
 11
-302.25563999999991
 21
141.03445600000001
 31
0.0
  0
LINE
  5
415
  8
OUTLINE
  6
CONTINUOUS
 62
     3
 10
-304.44784700000002
 20
139.6774429999999
 30
0.0
 11
-303.38389000000001
 21
140.406161
 31
0.0
  0
LINE
  5
416
  8
OUTLINE
  6
CONTINUOUS
 62
     3
 10
-305.44107999999989
 20
138.852732
 30
0.0
 11
-304.44784700000002
 21
139.6774429999999
 31
0.0
  0
LINE
  5
417
  8
OUTLINE
  6
CONTINUOUS
 62
     3
 10
-306.35273199999989
 20
137.94108
 30
0.0
 11
-305.44107999999989
 21
138.852732
 31
0.0
  0
LINE
  5
418
  8
OUTLINE
  6
CONTINUOUS
 62
     3
 10
-307.17744299999998
 20
136.947847
 30
0.0
 11
-306.35273199999989
 21
137.94108
 31
0.0
  0
LINE
  5
419
  8
OUTLINE
  6
CONTINUOUS
 62
     3
 10
-307.906161
 20
135.88388999999989
 30
0.0
 11
-307.17744299999998
 21
136.947847
 31
0.0
  0
LINE
  5
41A
  8
OUTLINE
  6
CONTINUOUS
 62
     3
 10
-308.53445599999992
 20
134.75563999999989
 30
0.0
 11
-307.906161
 21
135.88388999999989
 31
0.0
  0
LINE
  5
41B
  8
OUTLINE
  6
CONTINUOUS
 62
     3
 10
-309.0555819999999
 20
133.5750469999999
 30
0.0
 11
-308.53445599999992
 21
134.75563999999989
 31
0.0
  0
LINE
  5
41C
  8
OUTLINE
  6
CONTINUOUS
 62
     3
 10
-309.46608700000002
 20
132.3498129999999
 30
0.0
 11
-309.0555819999999
 21
133.5750469999999
 31
0.0
  0
LINE
  5
41D
  8
OUTLINE
  6
CONTINUOUS
 62
     3
 10
-309.76172800000001
 20
131.09223499999999
 30
0.0
 11
-309.46608700000002
 21
132.3498129999999
 31
0.0
  0
LINE
  5
41E
  8
OUTLINE
  6
CONTINUOUS
 62
     3
 10
-309.94030099999992
 20
129.8114139999999
 30
0.0
 11
-309.76172800000001
 21
131.09223499999999
 31
0.0
  0
LINE
  5
41F
  8
OUTLINE
  6
CONTINUOUS
 62
     3
 10
-310.0
 20
128.51918699999999
 30
0.0
 11
-309.94030099999992
 21
129.8114139999999
 31
0.0
  0
LINE
  5
420
  8
OUTLINE
  6
CONTINUOUS
 62
     3
 10
310.0
 20
128.51918699999999
 30
0.0
 11
310.0
 21
-128.51918699999999
 31
0.0
  0
LINE
  5
421
  8
OUTLINE
  6
CONTINUOUS
 62
     3
 10
309.0555819999999
 20
-133.5750469999999
 30
0.0
 11
308.53445599999992
 21
-134.75563999999989
 31
0.0
  0
LINE
  5
422
  8
OUTLINE
  6
CONTINUOUS
 62
     3
 10
297.31141400000001
 20
-142.44030099999989
 30
0.0
 11
296.01918699999999
 21
-142.5
 31
0.0
  0
LINE
  5
423
  8
OUTLINE
  6
CONTINUOUS
 62
     3
 10
298.59223500000002
 20
-142.26172800000001
 30
0.0
 11
297.31141400000001
 21
-142.44030099999989
 31
0.0
  0
LINE
  5
424
  8
OUTLINE
  6
CONTINUOUS
 62
     3
 10
299.84981299999993
 20
-141.96608699999999
 30
0.0
 11
298.59223500000002
 21
-142.26172800000001
 31
0.0
  0
LINE
  5
425
  8
OUTLINE
  6
CONTINUOUS
 62
     3
 10
301.07504699999998
 20
-141.55558199999999
 30
0.0
 11
299.84981299999993
 21
-141.96608699999999
 31
0.0
  0
LINE
  5
426
  8
OUTLINE
  6
CONTINUOUS
 62
     3
 10
302.25563999999991
 20
-141.03445600000001
 30
0.0
 11
301.07504699999998
 21
-141.55558199999999
 31
0.0
  0
LINE
  5
427
  8
OUTLINE
  6
CONTINUOUS
 62
     3
 10
303.38389000000001
 20
-140.406161
 30
0.0
 11
302.25563999999991
 21
-141.03445600000001
 31
0.0
  0
LINE
  5
428
  8
OUTLINE
  6
CONTINUOUS
 62
     3
 10
304.44784700000002
 20
-139.6774429999999
 30
0.0
 11
303.38389000000001
 21
-140.406161
 31
0.0
  0
LINE
  5
429
  8
OUTLINE
  6
CONTINUOUS
 62
     3
 10
305.44107999999989
 20
-138.852732
 30
0.0
 11
304.44784700000002
 21
-139.6774429999999
 31
0.0
  0
LINE
  5
42A
  8
OUTLINE
  6
CONTINUOUS
 62
     3
 10
306.35273199999989
 20
-137.94108
 30
0.0
 11
305.44107999999989
 21
-138.852732
 31
0.0
  0
LINE
  5
42B
  8
OUTLINE
  6
CONTINUOUS
 62
     3
 10
307.17744299999998
 20
-136.947847
 30
0.0
 11
306.35273199999989
 21
-137.94108
 31
0.0
  0
LINE
  5
42C
  8
OUTLINE
  6
CONTINUOUS
 62
     3
 10
307.906161
 20
-135.88388999999989
 30
0.0
 11
307.17744299999998
 21
-136.947847
 31
0.0
  0
LINE
  5
42D
  8
OUTLINE
  6
CONTINUOUS
 62
     3
 10
308.53445599999992
 20
-134.75563999999989
 30
0.0
 11
307.906161
 21
-135.88388999999989
 31
0.0
  0
LINE
  5
42E
  8
OUTLINE
  6
CONTINUOUS
 62
     3
 10
309.46608700000002
 20
-132.3498129999999
 30
0.0
 11
309.0555819999999
 21
-133.5750469999999
 31
0.0
  0
LINE
  5
42F
  8
OUTLINE
  6
CONTINUOUS
 62
     3
 10
309.76172800000001
 20
-131.09223499999999
 30
0.0
 11
309.46608700000002
 21
-132.3498129999999
 31
0.0
  0
LINE
  5
430
  8
OUTLINE
  6
CONTINUOUS
 62
     3
 10
309.94030099999992
 20
-129.8114139999999
 30
0.0
 11
309.76172800000001
 21
-131.09223499999999
 31
0.0
  0
LINE
  5
431
  8
OUTLINE
  6
CONTINUOUS
 62
     3
 10
310.0
 20
-128.51918699999999
 30
0.0
 11
309.94030099999992
 21
-129.8114139999999
 31
0.0
  0
LINE
  5
432
  8
OUTLINE
  6
CONTINUOUS
 62
     3
 10
308.53445599999992
 20
134.75563999999989
 30
0.0
 11
309.0555819999999
 21
133.5750469999999
 31
0.0
  0
LINE
  5
433
  8
OUTLINE
  6
CONTINUOUS
 62
     3
 10
307.906161
 20
135.88388999999989
 30
0.0
 11
308.53445599999992
 21
134.75563999999989
 31
0.0
  0
LINE
  5
434
  8
OUTLINE
  6
CONTINUOUS
 62
     3
 10
307.17744299999998
 20
136.947847
 30
0.0
 11
307.906161
 21
135.88388999999989
 31
0.0
  0
LINE
  5
435
  8
OUTLINE
  6
CONTINUOUS
 62
     3
 10
306.35273199999989
 20
137.94108
 30
0.0
 11
307.17744299999998
 21
136.947847
 31
0.0
  0
LINE
  5
436
  8
OUTLINE
  6
CONTINUOUS
 62
     3
 10
305.44107999999989
 20
138.852732
 30
0.0
 11
306.35273199999989
 21
137.94108
 31
0.0
  0
LINE
  5
437
  8
OUTLINE
  6
CONTINUOUS
 62
     3
 10
304.44784700000002
 20
139.6774429999999
 30
0.0
 11
305.44107999999989
 21
138.852732
 31
0.0
  0
LINE
  5
438
  8
OUTLINE
  6
CONTINUOUS
 62
     3
 10
303.38389000000001
 20
140.406161
 30
0.0
 11
304.44784700000002
 21
139.6774429999999
 31
0.0
  0
LINE
  5
439
  8
OUTLINE
  6
CONTINUOUS
 62
     3
 10
302.25563999999991
 20
141.03445600000001
 30
0.0
 11
303.38389000000001
 21
140.406161
 31
0.0
  0
LINE
  5
43A
  8
OUTLINE
  6
CONTINUOUS
 62
     3
 10
301.07504699999998
 20
141.55558199999999
 30
0.0
 11
302.25563999999991
 21
141.03445600000001
 31
0.0
  0
LINE
  5
43B
  8
OUTLINE
  6
CONTINUOUS
 62
     3
 10
299.84981299999993
 20
141.96608699999999
 30
0.0
 11
301.07504699999998
 21
141.55558199999999
 31
0.0
  0
LINE
  5
43C
  8
OUTLINE
  6
CONTINUOUS
 62
     3
 10
298.59223500000002
 20
142.26172800000001
 30
0.0
 11
299.84981299999993
 21
141.96608699999999
 31
0.0
  0
LINE
  5
43D
  8
OUTLINE
  6
CONTINUOUS
 62
     3
 10
297.31141400000001
 20
142.44030099999989
 30
0.0
 11
298.59223500000002
 21
142.26172800000001
 31
0.0
  0
LINE
  5
43E
  8
OUTLINE
  6
CONTINUOUS
 62
     3
 10
296.01918699999999
 20
142.5
 30
0.0
 11
297.31141400000001
 21
142.44030099999989
 31
0.0
  0
LINE
  5
43F
  8
OUTLINE
  6
CONTINUOUS
 62
     3
 10
309.94030099999992
 20
129.8114139999999
 30
0.0
 11
310.0
 21
128.51918699999999
 31
0.0
  0
LINE
  5
440
  8
OUTLINE
  6
CONTINUOUS
 62
     3
 10
309.76172800000001
 20
131.09223499999999
 30
0.0
 11
309.94030099999992
 21
129.8114139999999
 31
0.0
  0
LINE
  5
441
  8
OUTLINE
  6
CONTINUOUS
 62
     3
 10
309.46608700000002
 20
132.3498129999999
 30
0.0
 11
309.76172800000001
 21
131.09223499999999
 31
0.0
  0
LINE
  5
442
  8
OUTLINE
  6
CONTINUOUS
 62
     3
 10
309.0555819999999
 20
133.5750469999999
 30
0.0
 11
309.46608700000002
 21
132.3498129999999
 31
0.0
  0
LINE
  5
443
  8
SIZE
  6
CONTINUOUS
 62
    30
 10
-244.0
 20
-141.5
 30
0.0
 11
-244.0
 21
-952.09419399999979
 31
0.0
  0
LINE
  5
444
  8
SIZE
  6
CONTINUOUS
 62
    30
 10
244.0
 20
-141.5
 30
0.0
 11
244.0
 21
-952.09419399999979
 31
0.0
  0
LINE
  5
445
  8
SIZE
  6
CONTINUOUS
 62
    30
 10
-232.0
 20
-932.0941939999999
 30
0.0
 11
232.0
 21
-932.0941939999999
 31
0.0
  0
CIRCLE
  5
446
  8
SIZE
  6
CONTINUOUS
 62
    30
 10
-244.0
 20
-932.0941939999999
 30
0.0
 40
6.0
  0
LINE
  5
447
  8
SIZE
  6
CONTINUOUS
 62
    30
 10
-244.0
 20
-932.0941939999999
 30
0.0
 11
-232.0
 21
-932.0941939999999
 31
0.0
  0
CIRCLE
  5
448
  8
SIZE
  6
CONTINUOUS
 62
    30
 10
244.0
 20
-932.0941939999999
 30
0.0
 40
6.0
  0
LINE
  5
449
  8
SIZE
  6
CONTINUOUS
 62
    30
 10
244.0
 20
-932.0941939999999
 30
0.0
 11
232.0
 21
-932.0941939999999
 31
0.0
  0
TEXT
  5
44A
  8
SIZE
  6
CONTINUOUS
 62
    30
 10
-74.057142857142836
 20
-907.0941939999999
 30
0.0
 40
64.0
  1
488
 41
0.9
 72
     1
 11
0.0
 21
-907.0941939999999
 31
0.0
  0
LINE
  5
44E
  8
SIZE
  6
CONTINUOUS
 62
    30
 10
244.0
 20
-141.5
 30
0.0
 11
244.0
 21
-287.62830799999989
 31
0.0
  0
LINE
  5
44F
  8
SIZE
  6
CONTINUOUS
 62
    30
 10
310.0
 20
-148.51918699999999
 30
0.0
 11
310.0
 21
-287.62830799999989
 31
0.0
  0
LINE
  5
450
  8
SIZE
  6
CONTINUOUS
 62
    30
 10
232.0
 20
-267.628308
 30
0.0
 11
220.0
 21
-267.628308
 31
0.0
  0
LINE
  5
451
  8
SIZE
  6
CONTINUOUS
 62
    30
 10
322.0
 20
-267.628308
 30
0.0
 11
334.0
 21
-267.628308
 31
0.0
  0
LINE
  5
452
  8
SIZE
  6
CONTINUOUS
 62
    30
 10
526.57677799999999
 20
-267.628308
 30
0.0
 11
310.0
 21
-267.628308
 31
0.0
  0
TEXT
  5
453
  8
SIZE
  6
CONTINUOUS
 62
    30
 10
411.06249314285719
 20
-242.628308
 30
0.0
 40
64.0
  1
66
 41
0.9
 72
     1
 11
456.319636
 21
-242.628308
 31
0.0
  0
LINE
  5
454
  8
SIZE
  6
CONTINUOUS
 62
    30
 10
244.0
 20
-267.628308
 30
0.0
 11
310.0
 21
-267.628308
 31
0.0
  0
LINE
  5
455
  8
SIZE
  6
CONTINUOUS
 62
    30
 10
244.0
 20
-267.628308
 30
0.0
 11
310.0
 21
-267.628308
 31
0.0
  0
CIRCLE
  5
456
  8
SIZE
  6
CONTINUOUS
 62
    30
 10
244.0
 20
-267.628308
 30
0.0
 40
6.0
  0
LINE
  5
457
  8
SIZE
  6
CONTINUOUS
 62
    30
 10
244.0
 20
-267.628308
 30
0.0
 11
232.0
 21
-267.628308
 31
0.0
  0
CIRCLE
  5
458
  8
SIZE
  6
CONTINUOUS
 62
    30
 10
310.0
 20
-267.628308
 30
0.0
 40
6.0
  0
LINE
  5
459
  8
SIZE
  6
CONTINUOUS
 62
    30
 10
310.0
 20
-267.628308
 30
0.0
 11
322.0
 21
-267.628308
 31
0.0
  0
CIRCLE
  5
45D
  8
DETAIL
  6
DASHED
 62
     5
 10
125.0
 20
15.0
 30
0.0
 40
50.0
  0
CIRCLE
  5
45E
  8
DETAIL
  6
DASHED
 62
     5
 10
125.0
 20
-25.0
 30
0.0
 40
50.0
  0
CIRCLE
  5
45F
  8
DETAIL
  6
DASHED
 62
     5
 10
175.0
 20
15.0
 30
0.0
 40
50.0
  0
LINE
  5
460
  8
BASIS
  6
DASHDOT
 62
     6
 10
125.0
 20
-94.308293999999975
 30
0.0
 11
125.0
 21
76.339231999999996
 31
0.0
  0
LINE
  5
461
  8
BASIS
  6
DASHDOT
 62
     6
 10
175.0
 20
75.838793999999993
 30
0.0
 11
175.0
 21
-91.589452000000009
 31
0.0
  0
LINE
  5
462
  8
SIZE
  6
CONTINUOUS
 62
    30
 10
125.0
 20
-114.3082939999999
 30
0.0
 11
125.0
 21
-513.09636799999987
 31
0.0
  0
LINE
  5
463
  8
SIZE
  6
CONTINUOUS
 62
    30
 10
-125.0
 20
-114.3082939999999
 30
0.0
 11
-125.0
 21
-513.09636799999987
 31
0.0
  0
LINE
  5
464
  8
SIZE
  6
CONTINUOUS
 62
    30
 10
113.0
 20
-493.09636799999993
 30
0.0
 11
-113.0
 21
-493.09636799999993
 31
0.0
  0
CIRCLE
  5
465
  8
SIZE
  6
CONTINUOUS
 62
    30
 10
125.0
 20
-493.09636799999993
 30
0.0
 40
6.0
  0
LINE
  5
466
  8
SIZE
  6
CONTINUOUS
 62
    30
 10
125.0
 20
-493.09636799999993
 30
0.0
 11
113.0
 21
-493.09636799999993
 31
0.0
  0
CIRCLE
  5
467
  8
SIZE
  6
CONTINUOUS
 62
    30
 10
-125.0
 20
-493.09636799999993
 30
0.0
 40
6.0
  0
LINE
  5
468
  8
SIZE
  6
CONTINUOUS
 62
    30
 10
-125.0
 20
-493.09636799999993
 30
0.0
 11
-113.0
 21
-493.09636799999993
 31
0.0
  0
TEXT
  5
469
  8
SIZE
  6
CONTINUOUS
 62
    30
 10
-74.05714285714285
 20
-468.09636799999993
 30
0.0
 40
64.0
  1
250
 41
0.9
 72
     1
 11
0.0
 21
-468.09636799999993
 31
0.0
  0
LINE
  5
46D
  8
SIZE
  6
CONTINUOUS
 62
    30
 10
125.0
 20
-114.3082939999999
 30
0.0
 11
125.0
 21
-513.09636799999987
 31
0.0
  0
LINE
  5
46E
  8
SIZE
  6
CONTINUOUS
 62
    30
 10
175.0
 20
-111.58945199999999
 30
0.0
 11
175.0
 21
-513.09636799999987
 31
0.0
  0
LINE
  5
46F
  8
SIZE
  6
CONTINUOUS
 62
    30
 10
113.0
 20
-493.09636799999993
 30
0.0
 11
101.0
 21
-493.09636799999993
 31
0.0
  0
LINE
  5
470
  8
SIZE
  6
CONTINUOUS
 62
    30
 10
187.0
 20
-493.09636799999993
 30
0.0
 11
199.0
 21
-493.09636799999993
 31
0.0
  0
LINE
  5
471
  8
SIZE
  6
CONTINUOUS
 62
    30
 10
538.62565599999994
 20
-493.09636799999993
 30
0.0
 11
175.0
 21
-493.09636799999993
 31
0.0
  0
TEXT
  5
472
  8
SIZE
  6
CONTINUOUS
 62
    30
 10
420.36851357142848
 20
-468.09636799999993
 30
0.0
 40
64.0
  1
50
 41
0.9
 72
     1
 11
466.99708499999991
 21
-468.09636799999993
 31
0.0
  0
LINE
  5
473
  8
SIZE
  6
CONTINUOUS
 62
    30
 10
125.0
 20
-493.09636799999993
 30
0.0
 11
175.0
 21
-493.09636799999993
 31
0.0
  0
LINE
  5
474
  8
SIZE
  6
CONTINUOUS
 62
    30
 10
125.0
 20
-493.09636799999993
 30
0.0
 11
175.0
 21
-493.09636799999993
 31
0.0
  0
CIRCLE
  5
475
  8
SIZE
  6
CONTINUOUS
 62
    30
 10
125.0
 20
-493.09636799999993
 30
0.0
 40
6.0
  0
LINE
  5
476
  8
SIZE
  6
CONTINUOUS
 62
    30
 10
125.0
 20
-493.09636799999993
 30
0.0
 11
113.0
 21
-493.09636799999993
 31
0.0
  0
CIRCLE
  5
477
  8
SIZE
  6
CONTINUOUS
 62
    30
 10
175.0
 20
-493.09636799999993
 30
0.0
 40
6.0
  0
LINE
  5
478
  8
SIZE
  6
CONTINUOUS
 62
    30
 10
175.0
 20
-493.09636799999993
 30
0.0
 11
187.0
 21
-493.09636799999993
 31
0.0
  0
TEXT
  5
488
  8
ETC
  6
CONTINUOUS
 62
    61
 10
1186.939382158942
 20
817.61037361374383
 30
0.0
 40
50.0
  1
VL-18EUH2
 41
0.9
  0
TEXT
  5
489
  8
ETC
  6
CONTINUOUS
 62
    61
 10
1053.488969408764
 20
995.336373975377
 30
0.0
 40
64.0
  1
VL-18EUH2_3
 41
0.9
  0
TEXT
  5
48A
  8
ETC
  6
CONTINUOUS
 62
    61
 10
1056.712863408764
 20
892.38022097537703
 30
0.0
 40
64.0
  1
換気扇
 41
0.9
  0
CIRCLE
  5
48B
  8
SIZE
  6
CONTINUOUS
 62
    30
 39
50.0
 10
0.0
 20
-381.00648499999988
 30
0.0
 40
6.0
  0
TEXT
  5
492
  8
SIZE
  6
CONTINUOUS
 62
    30
 10
60.444809886296831
 20
-363.89745555625308
 30
0.0
 40
64.0
  1
265
 41
0.9
 72
     1
 11
134.50195274343969
 21
-363.89745555625308
 31
0.0
  0
ENDSEC
  0
EOF
