  0
SECTION
  2
HEADER
  9
$ACADVER
  1
AC1009
  9
$DWGCODEPAGE
  3
dos932
  9
$INSBASE
 10
0.0
 20
0.0
 30
0.0
  9
$EXTMIN
 10
-1374.513229
 20
-631.256092
 30
-0.001526
  9
$EXTMAX
 10
1515.000928
 20
616.836556
 30
50.001526
  9
$LIMMIN
 10
-2970.0
 20
-2100.0
  9
$LIMMAX
 10
2970.0
 20
2100.0
  9
$ORTHOMODE
 70
     1
  9
$REGENMODE
 70
     1
  9
$FILLMODE
 70
     1
  9
$QTEXTMODE
 70
     0
  9
$MIRRTEXT
 70
     0
  9
$DRAGMODE
 70
     2
  9
$LTSCALE
 40
20.0
  9
$OSMODE
 70
    37
  9
$ATTMODE
 70
     1
  9
$TEXTSIZE
 40
64.0
  9
$TRACEWID
 40
0.05
  9
$TEXTSTYLE
  7
STANDARD
  9
$CLAYER
  8
SIZE
  9
$CELTYPE
  6
CONTINUOUS
  9
$CECOLOR
 62
     7
  9
$DIMSCALE
 40
1.0
  9
$DIMASZ
 40
12.0
  9
$DIMEXO
 40
20.0
  9
$DIMDLI
 40
200.0
  9
$DIMRND
 40
0.0
  9
$DIMDLE
 40
0.0
  9
$DIMEXE
 40
20.0
  9
$DIMTP
 40
0.0
  9
$DIMTM
 40
0.0
  9
$DIMTXT
 40
64.0
  9
$DIMCEN
 40
0.09
  9
$DIMTSZ
 40
0.0
  9
$DIMTOL
 70
     0
  9
$DIMLIM
 70
     0
  9
$DIMTIH
 70
     0
  9
$DIMTOH
 70
     0
  9
$DIMSE1
 70
     0
  9
$DIMSE2
 70
     0
  9
$DIMTAD
 70
     1
  9
$DIMZIN
 70
     8
  9
$DIMBLK
  1
DOT1
  9
$DIMASO
 70
     1
  9
$DIMSHO
 70
     0
  9
$DIMPOST
  1

  9
$DIMAPOST
  1

  9
$DIMALT
 70
     0
  9
$DIMALTD
 70
     2
  9
$DIMALTF
 40
25.4
  9
$DIMLFAC
 40
1.0
  9
$DIMTOFL
 70
     1
  9
$DIMTVP
 40
0.0
  9
$DIMTIX
 70
     1
  9
$DIMSOXD
 70
     0
  9
$DIMSAH
 70
     1
  9
$DIMBLK1
  1
ORIGIN
  9
$DIMBLK2
  1
ORIGIN
  9
$DIMSTYLE
  2
STANDARD
  9
$DIMCLRD
 70
     7
  9
$DIMCLRE
 70
     7
  9
$DIMCLRT
 70
     7
  9
$DIMTFAC
 40
1.0
  9
$DIMGAP
 40
25.0
  9
$LUNITS
 70
     2
  9
$LUPREC
 70
     4
  9
$SKETCHINC
 40
0.1
  9
$FILLETRAD
 40
3.0
  9
$AUNITS
 70
     1
  9
$AUPREC
 70
     3
  9
$MENU
  1
ACAD
  9
$ELEVATION
 40
0.0
  9
$PELEVATION
 40
0.0
  9
$THICKNESS
 40
50.0
  9
$LIMCHECK
 70
     0
  9
$CHAMFERA
 40
0.0
  9
$CHAMFERB
 40
0.0
  9
$SKPOLY
 70
     0
  9
$TDCREATE
 40
2453019.623010359
  9
$TDUPDATE
 40
2457485.603136215
  9
$TDINDWG
 40
1.7839111458
  9
$TDUSRTIMER
 40
1.7839111458
  9
$USRTIMER
 70
     1
  9
$ANGBASE
 50
0.0
  9
$ANGDIR
 70
     0
  9
$PDMODE
 70
     3
  9
$PDSIZE
 40
-2.0
  9
$PLINEWID
 40
0.0
  9
$COORDS
 70
     1
  9
$SPLFRAME
 70
     0
  9
$SPLINETYPE
 70
     6
  9
$SPLINESEGS
 70
     8
  9
$ATTDIA
 70
     0
  9
$ATTREQ
 70
     1
  9
$HANDLING
 70
     1
  9
$HANDSEED
  5
10E0E
  9
$SURFTAB1
 70
     6
  9
$SURFTAB2
 70
     6
  9
$SURFTYPE
 70
     6
  9
$SURFU
 70
     6
  9
$SURFV
 70
     6
  9
$UCSNAME
  2

  9
$UCSORG
 10
0.0
 20
0.0
 30
0.0
  9
$UCSXDIR
 10
1.0
 20
0.0
 30
0.0
  9
$UCSYDIR
 10
0.0
 20
1.0
 30
0.0
  9
$PUCSNAME
  2

  9
$PUCSORG
 10
0.0
 20
0.0
 30
0.0
  9
$PUCSXDIR
 10
1.0
 20
0.0
 30
0.0
  9
$PUCSYDIR
 10
0.0
 20
1.0
 30
0.0
  9
$USERI1
 70
     0
  9
$USERI2
 70
     0
  9
$USERI3
 70
     0
  9
$USERI4
 70
     0
  9
$USERI5
 70
     0
  9
$USERR1
 40
20.0
  9
$USERR2
 40
0.0
  9
$USERR3
 40
0.0
  9
$USERR4
 40
0.0
  9
$USERR5
 40
0.0
  9
$WORLDVIEW
 70
     1
  9
$SHADEDGE
 70
     3
  9
$SHADEDIF
 70
    70
  9
$TILEMODE
 70
     1
  9
$MAXACTVP
 70
    48
  9
$PLIMCHECK
 70
     0
  9
$PEXTMIN
 10
-1.000000000000000E+20
 20
-1.000000000000000E+20
 30
-1.000000000000000E+20
  9
$PEXTMAX
 10
1.000000000000000E+20
 20
1.000000000000000E+20
 30
1.000000000000000E+20
  9
$PLIMMIN
 10
0.0
 20
0.0
  9
$PLIMMAX
 10
12.0
 20
9.0
  9
$UNITMODE
 70
     0
  9
$VISRETAIN
 70
     0
  9
$PLINEGEN
 70
     0
  9
$PSLTSCALE
 70
     0
  0
ENDSEC
  0
SECTION
  2
TABLES
  0
TABLE
  2
VPORT
 70
     1
  0
VPORT
  2
*ACTIVE
 70
     0
 10
0.0
 20
0.0
 11
1.0
 21
1.0
 12
70.243849
 22
-7.209768
 13
0.0
 23
0.0
 14
1.0
 24
1.0
 15
0.0
 25
0.0
 16
0.0
 26
0.0
 36
1.0
 17
0.0
 27
0.0
 37
0.0
 40
1781.772542
 41
1.629679
 42
50.0
 43
0.0
 44
0.0
 50
0.0
 51
0.0
 71
     0
 72
  1000
 73
     1
 74
     0
 75
     0
 76
     0
 77
     0
 78
     0
  0
ENDTAB
  0
TABLE
  2
LTYPE
 70
     3
  0
LTYPE
  2
CONTINUOUS
 70
     0
  3
実線
 72
    65
 73
     0
 40
0.0
  0
LTYPE
  2
DASHDOT
 70
     0
  3
____ _ ____ _ ____ _ ____ _ ____ _ ____ _ ____
 72
    65
 73
     4
 40
5.5
 49
4.0
 49
-0.6
 49
0.3
 49
-0.6
  0
LTYPE
  2
DASHED
 70
     0
  3
-- -- -- -- -- -- -- -- -- -- -- -- -- -- --
 72
    65
 73
     2
 40
0.75
 49
0.5
 49
-0.25
  0
ENDTAB
  0
TABLE
  2
LAYER
 70
    12
  0
LAYER
  2
0
 70
     0
 62
     7
  6
CONTINUOUS
  0
LAYER
  2
BASIS
 70
     0
 62
     6
  6
DASHDOT
  0
LAYER
  2
OUTLINE
 70
     0
 62
     3
  6
CONTINUOUS
  0
LAYER
  2
DETAIL
 70
     0
 62
     5
  6
CONTINUOUS
  0
LAYER
  2
SIZE
 70
     0
 62
    30
  6
CONTINUOUS
  0
LAYER
  2
ARRANGE
 70
     0
 62
     1
  6
CONTINUOUS
  0
LAYER
  2
DEFPOINTS
 70
     0
 62
     7
  6
CONTINUOUS
  0
LAYER
  2
ETC
 70
     0
 62
    61
  6
CONTINUOUS
  0
LAYER
  2
FIX
 70
     0
 62
    11
  6
CONTINUOUS
  0
LAYER
  2
NOTE
 70
     0
 62
     4
  6
CONTINUOUS
  0
LAYER
  2
SERVICESPACE
 70
     0
 62
     2
  6
DASHDOT
  0
LAYER
  2
SYMBOLLINE
 70
     0
 62
    15
  6
CONTINUOUS
  0
ENDTAB
  0
TABLE
  2
STYLE
 70
     1
  0
STYLE
  2
STANDARD
 70
     0
 40
64.0
 41
0.9
 50
0.0
 71
     0
 42
64.0
  3
SIMPLEX.shx
  4
BIGFONT.shx
  0
ENDTAB
  0
TABLE
  2
VIEW
 70
     1
  0
VIEW
  2
ALL
 70
     0
 40
4282.619808
 10
0.0
 20
41.309904
 41
5940.0
 11
0.0
 21
0.0
 31
1.0
 12
0.0
 22
0.0
 32
0.0
 42
50.0
 43
0.0
 44
0.0
 50
0.0
 71
     0
  0
ENDTAB
  0
TABLE
  2
UCS
 70
     0
  0
ENDTAB
  0
TABLE
  2
APPID
 70
    15
  0
APPID
  2
ACAD
 70
     0
  0
APPID
  2
AUTOCAD_POSTSCRIPT_FIGURE
 70
     0
  0
APPID
  2
ACAD_EXEMPT_FROM_CAD_STAND
 70
     0
  0
APPID
  2
ACAD_PSEXT
 70
     0
  0
APPID
  2
ACAUTHENVIRON
 70
     0
  0
APPID
  2
GENIUS_GENOENT_13
 70
     0
  0
APPID
  2
GENIUS_GENCFG_13
 70
     0
  0
APPID
  2
GENIUS_GENCFG0_13
 70
     0
  0
APPID
  2
GENIUS_GENCFG1_13
 70
     0
  0
APPID
  2
GENIUS_GENCFG2_13
 70
     0
  0
APPID
  2
GENIUS_GENCFG3_13
 70
     0
  0
APPID
  2
GENIUS_GENCFG4_13
 70
     0
  0
APPID
  2
GENIUS_GEVCFG0_13
 70
     0
  0
APPID
  2
CONTENTBLOCKICON
 70
     0
  0
APPID
  2
CONTENTBLOCKDESCRIPTION
 70
     0
  0
ENDTAB
  0
TABLE
  2
DIMSTYLE
 70
     1
  0
DIMSTYLE
  2
STANDARD
 70
     0
  3

  4

  5

  6

  7

 40
1.0
 41
0.18
 42
0.0625
 43
0.38
 44
0.18
 45
0.0
 46
0.0
 47
0.0
 48
0.0
140
0.18
141
0.09
142
0.0
143
25.4
144
1.0
145
0.0
146
1.0
147
0.09
 71
     0
 72
     0
 73
     1
 74
     1
 75
     0
 76
     0
 77
     0
 78
     0
170
     0
171
     2
172
     0
173
     0
174
     0
175
     0
176
     7
177
     7
178
     7
  0
ENDTAB
  0
ENDSEC
  0
SECTION
  2
BLOCKS
  0
BLOCK
  8
0
  2
$MODEL_SPACE
 70
     0
 10
0.0
 20
0.0
 30
0.0
  3
$MODEL_SPACE
  1

  0
ENDBLK
  5
10DE6
  8
0
  0
BLOCK
 67
     1
  8
0
  2
$PAPER_SPACE
 70
     0
 10
0.0
 20
0.0
 30
0.0
  3
$PAPER_SPACE
  1

  0
ENDBLK
  5
10DE8
 67
     1
  8
0
  0
BLOCK
  8
0
  2
DOT1
 70
     0
 10
0.0
 20
0.0
 30
0.0
  3
DOT1
  1

  0
CIRCLE
  5
10B94
  8
SIZE
  6
CONTINUOUS
 62
     7
 10
0.0
 20
0.0
 30
0.0
 40
3.0
  0
ENDBLK
  5
10B95
  8
0
  0
BLOCK
  8
0
  2
_ORIGIN
 70
     0
 10
0.0
 20
0.0
 30
0.0
  3
_ORIGIN
  1

  0
CIRCLE
  5
10B98
  8
0
  6
CONTINUOUS
 62
     7
 10
0.0
 20
0.0
 30
0.0
 40
0.5
  0
LINE
  5
10B99
  8
0
  6
CONTINUOUS
 62
     7
 10
0.0
 20
0.0
 30
0.0
 11
-1.0
 21
0.0
 31
0.0
  0
ENDBLK
  5
10B9A
  8
0
  0
ENDSEC
  0
SECTION
  2
ENTITIES
  0
TEXT
  5
10B9B
  8
ETC
  6
CONTINUOUS
 62
    61
 10
784.98307
 20
552.567793
 30
0.0
 40
64.0
  1
VL-200PZMS2_5
 41
0.9
  0
TEXT
  5
10B9C
  8
ETC
  6
CONTINUOUS
 62
    61
 10
780.7970760000001
 20
434.612483
 30
0.0
 40
64.0
  1
換気扇
 41
0.9
  0
CIRCLE
  5
10B9D
  8
ARRANGE
  6
CONTINUOUS
 62
     1
 10
0.0
 20
0.0
 30
0.0
 40
40.0
  0
POINT
  5
10B9E
  8
ARRANGE
  6
CONTINUOUS
 62
     1
 39
50.0
 10
0.0
 20
0.0
 30
0.0
  0
LINE
  5
10B9F
  8
BASIS
  6
DASHDOT
 62
     6
 39
50.0
 10
-0.027197
 20
-347.326298
 30
0.0
 11
0.0
 21
52.8094
 31
0.0
  0
TEXT
  5
10BA0
  8
ETC
  6
CONTINUOUS
 62
    61
 10
831.404578
 20
326.776703
 30
0.0
 40
40.0
  1
VL-200PZMS2
 41
0.9
  0
TEXT
  5
10BA1
  8
ETC
  6
CONTINUOUS
 62
    61
 10
831.404578
 20
246.776703
 30
0.0
 40
40.0
  1
VL-200PZMS2-D
 41
0.9
  0
LINE
  5
10BA2
  8
BASIS
  6
DASHDOT
 62
     6
 10
342.731102
 20
-79.948736
 30
0.0
 11
197.038697
 21
-79.965796
 31
0.0
  0
LINE
  5
10BA3
  8
OUTLINE
  6
CONTINUOUS
 62
     3
 10
-20.030649
 20
0.0
 30
0.0
 11
468.960811
 21
0.0
 31
0.0
  0
LINE
  5
10BA4
  8
OUTLINE
  6
CONTINUOUS
 62
     3
 10
-469.039189
 20
-238.29838
 30
0.0
 11
-469.039189
 21
-5.99744
 31
0.0
  0
LINE
  5
10BA5
  8
OUTLINE
  6
CONTINUOUS
 62
     3
 10
-469.039189
 20
-182.42222
 30
0.0
 11
-469.039189
 21
-37.48402
 31
0.0
  0
LINE
  5
10BA6
  8
BASIS
  6
DASHDOT
 62
     6
 10
269.8849
 20
4.779094
 30
0.0
 11
269.8849
 21
-164.693626
 31
0.0
  0
LINE
  5
10BA7
  8
BASIS
  6
DASHDOT
 62
     6
 10
59.97442
 20
4.77046
 30
0.0
 11
59.97442
 21
-164.70226
 31
0.0
  0
LINE
  5
10BA8
  8
OUTLINE
  6
CONTINUOUS
 62
     3
 10
-469.039189
 20
0.0
 30
0.0
 11
-469.039189
 21
-239.8977
 31
0.0
  0
LINE
  5
10BA9
  8
OUTLINE
  6
CONTINUOUS
 62
     3
 10
-469.039189
 20
-239.8977
 30
0.0
 11
468.960811
 21
-239.8977
 31
0.0
  0
LINE
  5
10BAA
  8
NOTE
  6
CONTINUOUS
 62
     4
 10
409.82522
 20
-228.44672
 30
0.0
 11
409.82522
 21
-171.74652
 31
0.0
  0
LINE
  5
10BAB
  8
BASIS
  6
DASHDOT
 62
     6
 10
453.921709
 20
-109.95312
 30
0.0
 11
630.58828
 21
-109.95312
 31
0.0
  0
LINE
  5
10BAC
  8
OUTLINE
  6
CONTINUOUS
 62
     3
 10
-20.030649
 20
0.0
 30
0.0
 11
-469.039189
 21
0.0
 31
0.0
  0
LINE
  5
10BAD
  8
NOTE
  6
CONTINUOUS
 62
     4
 10
409.82522
 20
-48.52344
 30
0.0
 11
409.82522
 21
8.17676
 31
0.0
  0
LINE
  5
10BAE
  8
BASIS
  6
DASHDOT
 62
     6
 10
-14.620092
 20
-79.9659
 30
0.0
 11
134.568931
 21
-79.9659
 31
0.0
  0
LINE
  5
10BAF
  8
OUTLINE
  6
CONTINUOUS
 62
     3
 10
468.960811
 20
-239.8977
 30
0.0
 11
468.960811
 21
0.0
 31
0.0
  0
LINE
  5
10BB0
  8
NOTE
  6
CONTINUOUS
 62
     4
 10
-216.95854
 20
-277.09122
 30
0.0
 11
-195.61148
 21
-277.09122
 31
0.0
  0
LINE
  5
10BB1
  8
NOTE
  6
CONTINUOUS
 62
     4
 10
-206.615624
 20
-263.397262
 30
0.0
 11
-206.627905
 21
-290.262095
 31
0.0
  0
LINE
  5
10BB2
  8
NOTE
  6
CONTINUOUS
 62
     4
 10
-409.82524
 20
-228.44672
 30
0.0
 11
-409.82524
 21
-171.74652
 31
0.0
  0
LINE
  5
10BB3
  8
BASIS
  6
DASHDOT
 62
     6
 10
-457.643735
 20
-109.95312
 30
0.0
 11
-643.7127839999999
 21
-109.95312
 31
0.0
  0
LINE
  5
10BB4
  8
OUTLINE
  6
CONTINUOUS
 62
     3
 10
-0.030669
 20
-0.00028
 30
0.0
 11
152.800011
 21
-0.00028
 31
0.0
  0
LINE
  5
10BB5
  8
NOTE
  6
CONTINUOUS
 62
     4
 10
-409.82524
 20
-48.52344
 30
0.0
 11
-409.82524
 21
8.17676
 31
0.0
  0
LINE
  5
10BB6
  8
SIZE
  6
CONTINUOUS
 62
    30
 10
59.97442
 20
24.77046
 30
0.0
 11
59.97442
 21
142.253494
 31
0.0
  0
LINE
  5
10BB7
  8
SIZE
  6
CONTINUOUS
 62
    30
 10
0.0
 20
72.8094
 30
0.0
 11
0.0
 21
142.253494
 31
0.0
  0
LINE
  5
10BB8
  8
SIZE
  6
CONTINUOUS
 62
    30
 10
-12.0
 20
122.253494
 30
0.0
 11
-24.0
 21
122.253494
 31
0.0
  0
LINE
  5
10BB9
  8
SIZE
  6
CONTINUOUS
 62
    30
 10
71.97442000000001
 20
122.253494
 30
0.0
 11
227.231563
 21
122.253494
 31
0.0
  0
LINE
  5
10BBA
  8
SIZE
  6
CONTINUOUS
 62
    30
 10
0.0
 20
122.253494
 30
0.0
 11
59.97442
 21
122.253494
 31
0.0
  0
CIRCLE
  5
10BBB
  8
SIZE
  6
CONTINUOUS
 62
    30
 10
0.0
 20
122.253494
 30
0.0
 40
6.0
  0
LINE
  5
10BBC
  8
SIZE
  6
CONTINUOUS
 62
    30
 10
0.0
 20
122.253494
 30
0.0
 11
-12.0
 21
122.253494
 31
0.0
  0
CIRCLE
  5
10BBD
  8
SIZE
  6
CONTINUOUS
 62
    30
 10
59.97442
 20
122.253494
 30
0.0
 40
6.0
  0
LINE
  5
10BBE
  8
SIZE
  6
CONTINUOUS
 62
    30
 10
59.97442
 20
122.253494
 30
0.0
 11
71.97442000000001
 21
122.253494
 31
0.0
  0
TEXT
  5
10BBF
  8
SIZE
  6
CONTINUOUS
 62
    30
 10
99.37441957142858
 20
147.253494
 30
0.0
 40
64.0
  1
60
 41
0.9
 72
     1
 11
155.602991
 21
147.253494
 31
0.0
  0
POINT
  5
10BC0
  8
DEFPOINTS
  6
CONTINUOUS
 62
    30
 10
59.97442
 20
4.77046
 30
0.0
  0
POINT
  5
10BC1
  8
DEFPOINTS
  6
CONTINUOUS
 62
    30
 10
0.0
 20
52.8094
 30
0.0
  0
POINT
  5
10BC2
  8
DEFPOINTS
  6
CONTINUOUS
 62
    30
 10
0.0
 20
122.253494
 30
0.0
  0
LINE
  5
10BC3
  8
SIZE
  6
CONTINUOUS
 62
    30
 10
0.0
 20
72.8094
 30
0.0
 11
0.0
 21
259.552966
 31
0.0
  0
LINE
  5
10BC4
  8
SIZE
  6
CONTINUOUS
 62
    30
 10
269.8849
 20
24.779094
 30
0.0
 11
269.8849
 21
259.552966
 31
0.0
  0
LINE
  5
10BC5
  8
SIZE
  6
CONTINUOUS
 62
    30
 10
12.0
 20
239.552966
 30
0.0
 11
257.8849
 21
239.552966
 31
0.0
  0
CIRCLE
  5
10BC6
  8
SIZE
  6
CONTINUOUS
 62
    30
 10
0.0
 20
239.552966
 30
0.0
 40
6.0
  0
LINE
  5
10BC7
  8
SIZE
  6
CONTINUOUS
 62
    30
 10
0.0
 20
239.552966
 30
0.0
 11
12.0
 21
239.552966
 31
0.0
  0
CIRCLE
  5
10BC8
  8
SIZE
  6
CONTINUOUS
 62
    30
 10
269.8849
 20
239.552966
 30
0.0
 40
6.0
  0
LINE
  5
10BC9
  8
SIZE
  6
CONTINUOUS
 62
    30
 10
269.8849
 20
239.552966
 30
0.0
 11
257.8849
 21
239.552966
 31
0.0
  0
TEXT
  5
10BCA
  8
SIZE
  6
CONTINUOUS
 62
    30
 10
52.65673571428572
 20
264.552966
 30
0.0
 40
64.0
  1
270
 41
0.9
 72
     1
 11
134.94245
 21
264.552966
 31
0.0
  0
POINT
  5
10BCB
  8
DEFPOINTS
  6
CONTINUOUS
 62
    30
 10
0.0
 20
52.8094
 30
0.0
  0
POINT
  5
10BCC
  8
DEFPOINTS
  6
CONTINUOUS
 62
    30
 10
269.8849
 20
4.779094
 30
0.0
  0
POINT
  5
10BCD
  8
DEFPOINTS
  6
CONTINUOUS
 62
    30
 10
269.8849
 20
239.552966
 30
0.0
  0
LINE
  5
10BCE
  8
SIZE
  6
CONTINUOUS
 62
    30
 10
484.125338
 20
0.0
 30
0.0
 11
774.388058
 21
0.0
 31
0.0
  0
LINE
  5
10BCF
  8
SIZE
  6
CONTINUOUS
 62
    30
 10
362.731102
 20
-79.948736
 30
0.0
 11
774.388058
 21
-79.948736
 31
0.0
  0
LINE
  5
10BD0
  8
SIZE
  6
CONTINUOUS
 62
    30
 10
754.388058
 20
-67.948736
 30
0.0
 11
754.388058
 21
-12.0
 31
0.0
  0
LINE
  5
10BD1
  8
SIZE
  6
CONTINUOUS
 62
    30
 10
754.388058
 20
0.0
 30
0.0
 11
754.388058
 21
155.257143
 31
0.0
  0
CIRCLE
  5
10BD2
  8
SIZE
  6
CONTINUOUS
 62
    30
 10
754.388058
 20
-79.948736
 30
0.0
 40
6.0
  0
LINE
  5
10BD3
  8
SIZE
  6
CONTINUOUS
 62
    30
 10
754.388058
 20
-79.948736
 30
0.0
 11
754.388058
 21
-67.948736
 31
0.0
  0
CIRCLE
  5
10BD4
  8
SIZE
  6
CONTINUOUS
 62
    30
 10
754.388058
 20
0.0
 30
0.0
 40
6.0
  0
LINE
  5
10BD5
  8
SIZE
  6
CONTINUOUS
 62
    30
 10
754.388058
 20
0.0
 30
0.0
 11
754.388058
 21
-12.0
 31
0.0
  0
TEXT
  5
10BD6
  8
SIZE
  6
CONTINUOUS
 62
    30
 10
729.388058
 20
28.77142814285713
 30
0.0
 40
64.0
  1
80
 50
90.0
 41
0.9
 72
     1
 11
729.388058
 21
83.628571
 31
0.0
  0
POINT
  5
10BD7
  8
DEFPOINTS
  6
CONTINUOUS
 62
    30
 10
464.125338
 20
0.0
 30
0.0
  0
POINT
  5
10BD8
  8
DEFPOINTS
  6
CONTINUOUS
 62
    30
 10
342.731102
 20
-79.948736
 30
0.0
  0
POINT
  5
10BD9
  8
DEFPOINTS
  6
CONTINUOUS
 62
    30
 10
754.388058
 20
-79.948736
 30
0.0
  0
LINE
  5
10BDA
  8
SIZE
  6
CONTINUOUS
 62
    30
 10
484.125338
 20
0.0
 30
0.0
 11
1011.748072
 21
0.0
 31
0.0
  0
LINE
  5
10BDB
  8
SIZE
  6
CONTINUOUS
 62
    30
 10
485.80136
 20
-179.92328
 30
0.0
 11
1011.748072
 21
-179.92328
 31
0.0
  0
LINE
  5
10BDC
  8
SIZE
  6
CONTINUOUS
 62
    30
 10
991.748072
 20
-12.0
 30
0.0
 11
991.748072
 21
-167.92328
 31
0.0
  0
CIRCLE
  5
10BDD
  8
SIZE
  6
CONTINUOUS
 62
    30
 10
991.748072
 20
0.0
 30
0.0
 40
6.0
  0
LINE
  5
10BDE
  8
SIZE
  6
CONTINUOUS
 62
    30
 10
991.748072
 20
0.0
 30
0.0
 11
991.748072
 21
-12.0
 31
0.0
  0
CIRCLE
  5
10BDF
  8
SIZE
  6
CONTINUOUS
 62
    30
 10
991.748072
 20
-179.92328
 30
0.0
 40
6.0
  0
LINE
  5
10BE0
  8
SIZE
  6
CONTINUOUS
 62
    30
 10
991.748072
 20
-179.92328
 30
0.0
 11
991.748072
 21
-167.92328
 31
0.0
  0
TEXT
  5
10BE1
  8
SIZE
  6
CONTINUOUS
 62
    30
 10
966.748072
 20
-176.36164
 30
0.0
 40
64.0
  1
180
 50
90.0
 41
0.9
 72
     1
 11
966.748072
 21
-89.96164
 31
0.0
  0
POINT
  5
10BE2
  8
DEFPOINTS
  6
CONTINUOUS
 62
    30
 10
464.125338
 20
0.0
 30
0.0
  0
POINT
  5
10BE3
  8
DEFPOINTS
  6
CONTINUOUS
 62
    30
 10
465.80136
 20
-179.92328
 30
0.0
  0
POINT
  5
10BE4
  8
DEFPOINTS
  6
CONTINUOUS
 62
    30
 10
991.748072
 20
-179.92328
 30
0.0
  0
LINE
  5
10BE5
  8
SIZE
  6
CONTINUOUS
 62
    30
 10
484.125338
 20
0.0
 30
0.0
 11
1133.369112
 21
0.0
 31
0.0
  0
LINE
  5
10BE6
  8
SIZE
  6
CONTINUOUS
 62
    30
 10
487.40068
 20
-239.8977
 30
0.0
 11
1133.369112
 21
-239.8977
 31
0.0
  0
LINE
  5
10BE7
  8
SIZE
  6
CONTINUOUS
 62
    30
 10
1113.369112
 20
-12.0
 30
0.0
 11
1113.369112
 21
-227.8977
 31
0.0
  0
CIRCLE
  5
10BE8
  8
SIZE
  6
CONTINUOUS
 62
    30
 10
1113.369112
 20
0.0
 30
0.0
 40
6.0
  0
LINE
  5
10BE9
  8
SIZE
  6
CONTINUOUS
 62
    30
 10
1113.369112
 20
0.0
 30
0.0
 11
1113.369112
 21
-12.0
 31
0.0
  0
CIRCLE
  5
10BEA
  8
SIZE
  6
CONTINUOUS
 62
    30
 10
1113.369112
 20
-239.8977
 30
0.0
 40
6.0
  0
LINE
  5
10BEB
  8
SIZE
  6
CONTINUOUS
 62
    30
 10
1113.369112
 20
-239.8977
 30
0.0
 11
1113.369112
 21
-227.8977
 31
0.0
  0
TEXT
  5
10BEC
  8
SIZE
  6
CONTINUOUS
 62
    30
 10
1088.369112
 20
-202.2345642857143
 30
0.0
 40
64.0
  1
240
 50
90.0
 41
0.9
 72
     1
 11
1088.369112
 21
-119.94885
 31
0.0
  0
POINT
  5
10BED
  8
DEFPOINTS
  6
CONTINUOUS
 62
    30
 10
464.125338
 20
0.0
 30
0.0
  0
POINT
  5
10BEE
  8
DEFPOINTS
  6
CONTINUOUS
 62
    30
 10
467.40068
 20
-239.8977
 30
0.0
  0
POINT
  5
10BEF
  8
DEFPOINTS
  6
CONTINUOUS
 62
    30
 10
1113.369112
 20
-239.8977
 30
0.0
  0
LINE
  5
10BF0
  8
SIZE
  6
CONTINUOUS
 62
    30
 10
484.125338
 20
0.0
 30
0.0
 11
1264.893268
 21
0.0
 31
0.0
  0
LINE
  5
10BF1
  8
SIZE
  6
CONTINUOUS
 62
    30
 10
350.25662
 20
-290.41012
 30
0.0
 11
1264.893268
 21
-290.41012
 31
0.0
  0
LINE
  5
10BF2
  8
SIZE
  6
CONTINUOUS
 62
    30
 10
1244.893268
 20
-12.0
 30
0.0
 11
1244.893268
 21
-278.41012
 31
0.0
  0
CIRCLE
  5
10BF3
  8
SIZE
  6
CONTINUOUS
 62
    30
 10
1244.893268
 20
0.0
 30
0.0
 40
6.0
  0
LINE
  5
10BF4
  8
SIZE
  6
CONTINUOUS
 62
    30
 10
1244.893268
 20
0.0
 30
0.0
 11
1244.893268
 21
-12.0
 31
0.0
  0
CIRCLE
  5
10BF5
  8
SIZE
  6
CONTINUOUS
 62
    30
 10
1244.893268
 20
-290.41012
 30
0.0
 40
6.0
  0
LINE
  5
10BF6
  8
SIZE
  6
CONTINUOUS
 62
    30
 10
1244.893268
 20
-290.41012
 30
0.0
 11
1244.893268
 21
-278.41012
 31
0.0
  0
TEXT
  5
10BF7
  8
SIZE
  6
CONTINUOUS
 62
    30
 10
1219.893268
 20
-227.4907742857145
 30
0.0
 40
64.0
  1
290
 50
90.0
 41
0.9
 72
     1
 11
1219.893268
 21
-145.2050600000002
 31
0.0
  0
POINT
  5
10BF8
  8
DEFPOINTS
  6
CONTINUOUS
 62
    30
 10
464.125338
 20
0.0
 30
0.0
  0
POINT
  5
10BF9
  8
DEFPOINTS
  6
CONTINUOUS
 62
    30
 10
330.25662
 20
-290.41012
 30
0.0
  0
POINT
  5
10BFA
  8
DEFPOINTS
  6
CONTINUOUS
 62
    30
 10
1244.893268
 20
-290.41012
 30
0.0
  0
LINE
  5
10BFB
  8
SIZE
  6
CONTINUOUS
 62
    30
 10
-485.80138
 20
0.0
 30
0.0
 11
-1305.413865
 21
0.0
 31
0.0
  0
LINE
  5
10BFC
  8
SIZE
  6
CONTINUOUS
 62
    30
 10
-236.95854
 20
-277.09122
 30
0.0
 11
-1305.413865
 21
-277.09122
 31
0.0
  0
LINE
  5
10BFD
  8
SIZE
  6
CONTINUOUS
 62
    30
 10
-1285.413865
 20
-12.0
 30
0.0
 11
-1285.413865
 21
-265.09122
 31
0.0
  0
CIRCLE
  5
10BFE
  8
SIZE
  6
CONTINUOUS
 62
    30
 10
-1285.413865
 20
0.0
 30
0.0
 40
6.0
  0
LINE
  5
10BFF
  8
SIZE
  6
CONTINUOUS
 62
    30
 10
-1285.413865
 20
0.0
 30
0.0
 11
-1285.413865
 21
-12.0
 31
0.0
  0
CIRCLE
  5
10C00
  8
SIZE
  6
CONTINUOUS
 62
    30
 10
-1285.413865
 20
-277.09122
 30
0.0
 40
6.0
  0
LINE
  5
10C01
  8
SIZE
  6
CONTINUOUS
 62
    30
 10
-1285.413865
 20
-277.09122
 30
0.0
 11
-1285.413865
 21
-265.09122
 31
0.0
  0
TEXT
  5
10C02
  8
SIZE
  6
CONTINUOUS
 62
    30
 10
-1310.413865
 20
-220.8313242857143
 30
0.0
 40
64.0
  1
277
 50
90.0
 41
0.9
 72
     1
 11
-1310.413865
 21
-138.54561
 31
0.0
  0
POINT
  5
10C03
  8
DEFPOINTS
  6
CONTINUOUS
 62
    30
 10
-465.80138
 20
0.0
 30
0.0
  0
POINT
  5
10C04
  8
DEFPOINTS
  6
CONTINUOUS
 62
    30
 10
-216.95854
 20
-277.09122
 30
0.0
  0
POINT
  5
10C05
  8
DEFPOINTS
  6
CONTINUOUS
 62
    30
 10
-1285.413865
 20
-277.09122
 30
0.0
  0
LINE
  5
10C06
  8
SIZE
  6
CONTINUOUS
 62
    30
 10
409.82522
 20
28.17676
 30
0.0
 11
409.82522
 21
384.31229
 31
0.0
  0
LINE
  5
10C07
  8
SIZE
  6
CONTINUOUS
 62
    30
 10
-409.82524
 20
28.17676
 30
0.0
 11
-409.82524
 21
384.31229
 31
0.0
  0
LINE
  5
10C08
  8
SIZE
  6
CONTINUOUS
 62
    30
 10
397.82522
 20
364.31229
 30
0.0
 11
-397.82524
 21
364.31229
 31
0.0
  0
CIRCLE
  5
10C09
  8
SIZE
  6
CONTINUOUS
 62
    30
 10
409.82522
 20
364.31229
 30
0.0
 40
6.0
  0
LINE
  5
10C0A
  8
SIZE
  6
CONTINUOUS
 62
    30
 10
409.82522
 20
364.31229
 30
0.0
 11
397.82522
 21
364.31229
 31
0.0
  0
CIRCLE
  5
10C0B
  8
SIZE
  6
CONTINUOUS
 62
    30
 10
-409.82524
 20
364.31229
 30
0.0
 40
6.0
  0
LINE
  5
10C0C
  8
SIZE
  6
CONTINUOUS
 62
    30
 10
-409.82524
 20
364.31229
 30
0.0
 11
-397.82524
 21
364.31229
 31
0.0
  0
TEXT
  5
10C0D
  8
SIZE
  6
CONTINUOUS
 62
    30
 10
-230.40001
 20
389.31229
 30
0.0
 40
64.0
  1
820（天吊位置）
 41
0.9
 72
     1
 11
-0.0000100000000099
 21
389.31229
 31
0.0
  0
POINT
  5
10C0E
  8
DEFPOINTS
  6
CONTINUOUS
 62
    30
 10
409.82522
 20
8.17676
 30
0.0
  0
POINT
  5
10C0F
  8
DEFPOINTS
  6
CONTINUOUS
 62
    30
 10
-409.82524
 20
8.17676
 30
0.0
  0
POINT
  5
10C10
  8
DEFPOINTS
  6
CONTINUOUS
 62
    30
 10
-409.82524
 20
364.31229
 30
0.0
  0
LINE
  5
10C11
  8
SIZE
  6
CONTINUOUS
 62
    30
 10
469.0
 20
14.00256
 30
0.0
 11
469.0
 21
508.760303
 31
0.0
  0
LINE
  5
10C12
  8
SIZE
  6
CONTINUOUS
 62
    30
 10
-469.0
 20
14.00256
 30
0.0
 11
-469.0
 21
508.760303
 31
0.0
  0
LINE
  5
10C13
  8
SIZE
  6
CONTINUOUS
 62
    30
 10
457.0
 20
488.760303
 30
0.0
 11
-457.0
 21
488.760303
 31
0.0
  0
CIRCLE
  5
10C14
  8
SIZE
  6
CONTINUOUS
 62
    30
 10
469.0
 20
488.760303
 30
0.0
 40
6.0
  0
LINE
  5
10C15
  8
SIZE
  6
CONTINUOUS
 62
    30
 10
469.0
 20
488.760303
 30
0.0
 11
457.0
 21
488.760303
 31
0.0
  0
CIRCLE
  5
10C16
  8
SIZE
  6
CONTINUOUS
 62
    30
 10
-469.0
 20
488.760303
 30
0.0
 40
6.0
  0
LINE
  5
10C17
  8
SIZE
  6
CONTINUOUS
 62
    30
 10
-469.0
 20
488.760303
 30
0.0
 11
-457.0
 21
488.760303
 31
0.0
  0
TEXT
  5
10C18
  8
SIZE
  6
CONTINUOUS
 62
    30
 10
-82.28571428571429
 20
513.760303
 30
0.0
 40
64.0
  1
938
 41
0.9
 72
     1
 11
-0.0000000000000067
 21
513.760303
 31
0.0
  0
POINT
  5
10C19
  8
DEFPOINTS
  6
CONTINUOUS
 62
    30
 10
469.0
 20
-5.99744
 30
0.0
  0
POINT
  5
10C1A
  8
DEFPOINTS
  6
CONTINUOUS
 62
    30
 10
-469.0
 20
-5.99744
 30
0.0
  0
POINT
  5
10C1B
  8
DEFPOINTS
  6
CONTINUOUS
 62
    30
 10
-469.0
 20
488.760303
 30
0.0
  0
LINE
  5
10C1C
  8
SIZE
  6
CONTINUOUS
 62
    30
 10
-469.0
 20
14.00256
 30
0.0
 11
-469.0
 21
508.760303
 31
0.0
  0
LINE
  5
10C1D
  8
SIZE
  6
CONTINUOUS
 62
    30
 10
-619.4874
 20
-44.861982
 30
0.0
 11
-619.4874
 21
508.760303
 31
0.0
  0
LINE
  5
10C1E
  8
SIZE
  6
CONTINUOUS
 62
    30
 10
-457.0
 20
488.760303
 30
0.0
 11
-445.0
 21
488.760303
 31
0.0
  0
LINE
  5
10C1F
  8
SIZE
  6
CONTINUOUS
 62
    30
 10
-631.4874
 20
488.760303
 30
0.0
 11
-643.4874
 21
488.760303
 31
0.0
  0
LINE
  5
10C20
  8
SIZE
  6
CONTINUOUS
 62
    30
 10
-469.0
 20
488.760303
 30
0.0
 11
-619.4874
 21
488.760303
 31
0.0
  0
CIRCLE
  5
10C21
  8
SIZE
  6
CONTINUOUS
 62
    30
 10
-469.0
 20
488.760303
 30
0.0
 40
6.0
  0
LINE
  5
10C22
  8
SIZE
  6
CONTINUOUS
 62
    30
 10
-469.0
 20
488.760303
 30
0.0
 11
-457.0
 21
488.760303
 31
0.0
  0
CIRCLE
  5
10C23
  8
SIZE
  6
CONTINUOUS
 62
    30
 10
-619.4874
 20
488.760303
 30
0.0
 40
6.0
  0
LINE
  5
10C24
  8
SIZE
  6
CONTINUOUS
 62
    30
 10
-619.4874
 20
488.760303
 30
0.0
 11
-631.4874
 21
488.760303
 31
0.0
  0
TEXT
  5
10C25
  8
SIZE
  6
CONTINUOUS
 62
    30
 10
-622.4151285714286
 20
513.760303
 30
0.0
 40
64.0
  1
151
 41
0.9
 72
     1
 11
-544.2437
 21
513.760303
 31
0.0
  0
POINT
  5
10C26
  8
DEFPOINTS
  6
CONTINUOUS
 62
    30
 10
-469.0
 20
-5.99744
 30
0.0
  0
POINT
  5
10C27
  8
DEFPOINTS
  6
CONTINUOUS
 62
    30
 10
-619.4874
 20
-64.861982
 30
0.0
  0
POINT
  5
10C28
  8
DEFPOINTS
  6
CONTINUOUS
 62
    30
 10
-619.4874
 20
488.760303
 30
0.0
  0
LINE
  5
10C29
  8
SIZE
  6
CONTINUOUS
 62
    30
 10
469.002718
 20
13.938805
 30
0.0
 11
469.069976
 21
508.696542
 31
0.0
  0
LINE
  5
10C2A
  8
SIZE
  6
CONTINUOUS
 62
    30
 10
619.474252
 20
-43.94633
 30
0.0
 11
619.549376
 21
508.676086
 31
0.0
  0
LINE
  5
10C2B
  8
SIZE
  6
CONTINUOUS
 62
    30
 10
457.067257
 20
488.698174
 30
0.0
 11
445.067257
 21
488.699805
 31
0.0
  0
LINE
  5
10C2C
  8
SIZE
  6
CONTINUOUS
 62
    30
 10
631.546657
 20
488.674455
 30
0.0
 11
643.546657
 21
488.672824
 31
0.0
  0
LINE
  5
10C2D
  8
SIZE
  6
CONTINUOUS
 62
    30
 10
469.067257
 20
488.696543
 30
0.0
 11
619.546657
 21
488.676086
 31
0.0
  0
CIRCLE
  5
10C2E
  8
SIZE
  6
CONTINUOUS
 62
    30
 10
469.067257
 20
488.696543
 30
0.0
 40
6.0
  0
LINE
  5
10C2F
  8
SIZE
  6
CONTINUOUS
 62
    30
 10
469.067257
 20
488.696543
 30
0.0
 11
457.0672571108841
 21
488.6981743243402
 31
0.0
  0
CIRCLE
  5
10C30
  8
SIZE
  6
CONTINUOUS
 62
    30
 10
619.546657
 20
488.676086
 30
0.0
 40
6.0
  0
LINE
  5
10C31
  8
SIZE
  6
CONTINUOUS
 62
    30
 10
619.546657
 20
488.676086
 30
0.0
 11
631.5466568891159
 21
488.6744546756598
 31
0.0
  0
TEXT
  5
10C32
  8
SIZE
  6
CONTINUOUS
 62
    30
 10
466.138925151541
 20
513.696945610152
 30
0.0
 40
63.99999999999999
  1
151
 50
359.9922077740134
 41
0.9000000000000001
 72
     1
 11
544.3103530000402
 21
513.6863142959361
 31
0.0
  0
POINT
  5
10C33
  8
DEFPOINTS
  6
CONTINUOUS
 62
    30
 10
469.0
 20
-6.061195
 30
0.0
  0
POINT
  5
10C34
  8
DEFPOINTS
  6
CONTINUOUS
 62
    30
 10
619.471534
 20
-63.946329
 30
0.0
  0
POINT
  5
10C35
  8
DEFPOINTS
  6
CONTINUOUS
 62
    30
 10
619.546657
 20
488.676086
 30
0.0
  0
LINE
  5
10C36
  8
SIZE
  6
CONTINUOUS
 62
    30
 10
-0.027197
 20
-367.326298
 30
0.0
 11
-0.027197
 21
-488.676352
 31
0.0
  0
LINE
  5
10C37
  8
SIZE
  6
CONTINUOUS
 62
    30
 10
-206.627905
 20
-310.262095
 30
0.0
 11
-206.627905
 21
-488.676352
 31
0.0
  0
LINE
  5
10C38
  8
SIZE
  6
CONTINUOUS
 62
    30
 10
-12.027197
 20
-468.676352
 30
0.0
 11
-194.627905
 21
-468.676352
 31
0.0
  0
CIRCLE
  5
10C39
  8
SIZE
  6
CONTINUOUS
 62
    30
 10
-0.027197
 20
-468.676352
 30
0.0
 40
6.0
  0
LINE
  5
10C3A
  8
SIZE
  6
CONTINUOUS
 62
    30
 10
-0.027197
 20
-468.676352
 30
0.0
 11
-12.027197
 21
-468.676352
 31
0.0
  0
CIRCLE
  5
10C3B
  8
SIZE
  6
CONTINUOUS
 62
    30
 10
-206.627905
 20
-468.676352
 30
0.0
 40
6.0
  0
LINE
  5
10C3C
  8
SIZE
  6
CONTINUOUS
 62
    30
 10
-206.627905
 20
-468.676352
 30
0.0
 11
-194.627905
 21
-468.676352
 31
0.0
  0
TEXT
  5
10C3D
  8
SIZE
  6
CONTINUOUS
 62
    30
 10
-185.6132652857143
 20
-443.676352
 30
0.0
 40
64.0
  1
207
 41
0.9
 72
     1
 11
-103.327551
 21
-443.676352
 31
0.0
  0
POINT
  5
10C3E
  8
DEFPOINTS
  6
CONTINUOUS
 62
    30
 10
-0.027197
 20
-347.326298
 30
0.0
  0
POINT
  5
10C3F
  8
DEFPOINTS
  6
CONTINUOUS
 62
    30
 10
-206.627905
 20
-290.262095
 30
0.0
  0
POINT
  5
10C40
  8
DEFPOINTS
  6
CONTINUOUS
 62
    30
 10
-206.627905
 20
-468.676352
 30
0.0
  0
LINE
  5
10C41
  8
SIZE
  6
CONTINUOUS
 62
    30
 10
-638.46634
 20
-61.22702
 30
0.0
 11
-829.3323039999999
 21
-61.22702
 31
0.0
  0
LINE
  5
10C42
  8
SIZE
  6
CONTINUOUS
 62
    30
 10
-638.46634
 20
-158.6792
 30
0.0
 11
-829.3323039999999
 21
-158.6792
 31
0.0
  0
LINE
  5
10C43
  8
SIZE
  6
CONTINUOUS
 62
    30
 10
-809.3323039999999
 20
-73.22702
 30
0.0
 11
-809.3323039999999
 21
-146.6792
 31
0.0
  0
LINE
  5
10C44
  8
SIZE
  6
CONTINUOUS
 62
    30
 10
-809.3323039999999
 20
-158.6792
 30
0.0
 11
-809.3323039999999
 21
-512.578248
 31
0.0
  0
CIRCLE
  5
10C45
  8
SIZE
  6
CONTINUOUS
 62
    30
 10
-809.3323039999999
 20
-61.22702
 30
0.0
 40
6.0
  0
LINE
  5
10C46
  8
SIZE
  6
CONTINUOUS
 62
    30
 10
-809.3323039999999
 20
-61.22702
 30
0.0
 11
-809.3323039999999
 21
-73.22702000000001
 31
0.0
  0
CIRCLE
  5
10C47
  8
SIZE
  6
CONTINUOUS
 62
    30
 10
-809.3323039999999
 20
-158.6792
 30
0.0
 40
6.0
  0
LINE
  5
10C48
  8
SIZE
  6
CONTINUOUS
 62
    30
 10
-809.3323039999999
 20
-158.6792
 30
0.0
 11
-809.3323039999999
 21
-146.6792
 31
0.0
  0
TEXT
  5
10C49
  8
SIZE
  6
CONTINUOUS
 62
    30
 10
-834.3323039999999
 20
-491.6925331428571
 30
0.0
 40
64.0
  1
φ98
 50
90.0
 41
0.9
 72
     1
 11
-834.3323039999999
 21
-412.149676
 31
0.0
  0
POINT
  5
10C4A
  8
DEFPOINTS
  6
CONTINUOUS
 62
    30
 10
-618.46634
 20
-61.22702
 30
0.0
  0
POINT
  5
10C4B
  8
DEFPOINTS
  6
CONTINUOUS
 62
    30
 10
-618.46634
 20
-158.6792
 30
0.0
  0
POINT
  5
10C4C
  8
DEFPOINTS
  6
CONTINUOUS
 62
    30
 10
-809.3323039999999
 20
-158.6792
 30
0.0
  0
LINE
  5
10C4D
  8
SIZE
  6
CONTINUOUS
 62
    30
 10
-589.7786269999999
 20
-47.95312
 30
0.0
 11
-968.5051599999999
 21
-47.95312
 31
0.0
  0
LINE
  5
10C4E
  8
SIZE
  6
CONTINUOUS
 62
    30
 10
-589.7786269999999
 20
-171.95312
 30
0.0
 11
-968.5051599999999
 21
-171.95312
 31
0.0
  0
LINE
  5
10C4F
  8
SIZE
  6
CONTINUOUS
 62
    30
 10
-948.5051599999999
 20
-59.95312
 30
0.0
 11
-948.5051599999999
 21
-159.95312
 31
0.0
  0
LINE
  5
10C50
  8
SIZE
  6
CONTINUOUS
 62
    30
 10
-948.5051599999999
 20
-171.95312
 30
0.0
 11
-948.5051599999999
 21
-548.178419
 31
0.0
  0
CIRCLE
  5
10C51
  8
SIZE
  6
CONTINUOUS
 62
    30
 10
-948.5051599999999
 20
-47.95312
 30
0.0
 40
6.0
  0
LINE
  5
10C52
  8
SIZE
  6
CONTINUOUS
 62
    30
 10
-948.5051599999999
 20
-47.95312
 30
0.0
 11
-948.5051599999999
 21
-59.95312
 31
0.0
  0
CIRCLE
  5
10C53
  8
SIZE
  6
CONTINUOUS
 62
    30
 10
-948.5051599999999
 20
-171.95312
 30
0.0
 40
6.0
  0
LINE
  5
10C54
  8
SIZE
  6
CONTINUOUS
 62
    30
 10
-948.5051599999999
 20
-171.95312
 30
0.0
 11
-948.5051599999999
 21
-159.95312
 31
0.0
  0
TEXT
  5
10C55
  8
SIZE
  6
CONTINUOUS
 62
    30
 10
-973.5051599999999
 20
-532.7784191428572
 30
0.0
 40
64.0
  1
φ124
 50
90.0
 41
0.9
 72
     1
 11
-973.5051599999999
 21
-424.435562
 31
0.0
  0
POINT
  5
10C56
  8
DEFPOINTS
  6
CONTINUOUS
 62
    30
 10
-569.7786269999999
 20
-47.95312
 30
0.0
  0
POINT
  5
10C57
  8
DEFPOINTS
  6
CONTINUOUS
 62
    30
 10
-569.7786269999999
 20
-171.95312
 30
0.0
  0
POINT
  5
10C58
  8
DEFPOINTS
  6
CONTINUOUS
 62
    30
 10
-948.5051599999999
 20
-171.95312
 30
0.0
  0
LINE
  5
10C59
  8
SIZE
  6
CONTINUOUS
 62
    30
 10
-561.67302
 20
-36.95312
 30
0.0
 11
-1106.120655
 21
-36.95312
 31
0.0
  0
LINE
  5
10C5A
  8
SIZE
  6
CONTINUOUS
 62
    30
 10
-561.67302
 20
-182.95312
 30
0.0
 11
-1106.120655
 21
-182.95312
 31
0.0
  0
LINE
  5
10C5B
  8
SIZE
  6
CONTINUOUS
 62
    30
 10
-1086.120655
 20
-48.95312
 30
0.0
 11
-1086.120655
 21
-170.95312
 31
0.0
  0
LINE
  5
10C5C
  8
SIZE
  6
CONTINUOUS
 62
    30
 10
-1086.120655
 20
-182.95312
 30
0.0
 11
-1086.120655
 21
-542.364091
 31
0.0
  0
CIRCLE
  5
10C5D
  8
SIZE
  6
CONTINUOUS
 62
    30
 10
-1086.120655
 20
-36.95312
 30
0.0
 40
6.0
  0
LINE
  5
10C5E
  8
SIZE
  6
CONTINUOUS
 62
    30
 10
-1086.120655
 20
-36.95312
 30
0.0
 11
-1086.120655
 21
-48.95312
 31
0.0
  0
CIRCLE
  5
10C5F
  8
SIZE
  6
CONTINUOUS
 62
    30
 10
-1086.120655
 20
-182.95312
 30
0.0
 40
6.0
  0
LINE
  5
10C60
  8
SIZE
  6
CONTINUOUS
 62
    30
 10
-1086.120655
 20
-182.95312
 30
0.0
 11
-1086.120655
 21
-170.95312
 31
0.0
  0
TEXT
  5
10C61
  8
SIZE
  6
CONTINUOUS
 62
    30
 10
-1111.120655
 20
-528.3355195714286
 30
0.0
 40
64.0
  1
φ146
 50
90.0
 41
0.9
 72
     1
 11
-1111.120655
 21
-421.364091
 31
0.0
  0
POINT
  5
10C62
  8
DEFPOINTS
  6
CONTINUOUS
 62
    30
 10
-541.67302
 20
-36.95312
 30
0.0
  0
POINT
  5
10C63
  8
DEFPOINTS
  6
CONTINUOUS
 62
    30
 10
-541.67302
 20
-182.95312
 30
0.0
  0
POINT
  5
10C64
  8
DEFPOINTS
  6
CONTINUOUS
 62
    30
 10
-1086.120655
 20
-182.95312
 30
0.0
  0
LINE
  5
10C65
  8
SIZE
  6
CONTINUOUS
 62
    30
 10
-208.869892
 20
127.270745
 30
0.0
 11
11.662014
 21
-42.72464
 31
0.0
  0
LINE
  5
10C66
  8
SIZE
  6
CONTINUOUS
 62
    30
 10
108.286826
 20
-117.20716
 30
0.0
 11
117.790905
 21
-124.533309
 31
0.0
  0
TEXT
  5
10C67
  8
SIZE
  6
CONTINUOUS
 62
    30
 10
-179.2378300618526
 20
135.9944239138478
 30
0.0
 40
64.0
  1
φ98
 50
322.3734666718955
 41
0.9
 72
     1
 11
-116.2393300957967
 21
87.4325548757246
 31
0.0
  0
LINE
  5
10C68
  8
SIZE
  6
CONTINUOUS
 62
    30
 10
98.782746
 20
-109.88101
 30
0.0
 11
21.166094
 21
-50.05079
 31
0.0
  0
CIRCLE
  5
10C69
  8
SIZE
  6
CONTINUOUS
 62
    30
 10
98.782746
 20
-109.88101
 30
0.0
 40
6.0
  0
LINE
  5
10C6A
  8
SIZE
  6
CONTINUOUS
 62
    30
 10
98.782746
 20
-109.88101
 30
0.0
 11
108.2868258689989
 21
-117.2071594554568
 31
0.0
  0
CIRCLE
  5
10C6B
  8
SIZE
  6
CONTINUOUS
 62
    30
 10
21.166094
 20
-50.05079
 30
0.0
 40
6.0
  0
LINE
  5
10C6C
  8
SIZE
  6
CONTINUOUS
 62
    30
 10
21.166094
 20
-50.05079
 30
0.0
 11
11.66201413100113
 21
-42.72464054454317
 31
0.0
  0
POINT
  5
10C6D
  8
DEFPOINTS
  6
CONTINUOUS
 62
    30
 10
21.166094
 20
-50.05079
 30
0.0
  0
POINT
  5
10C6E
  8
DEFPOINTS
  6
CONTINUOUS
 62
    30
 10
98.782746
 20
-109.88101
 30
0.0
  0
LINE
  5
10C6F
  8
SIZE
  6
CONTINUOUS
 62
    30
 10
484.125338
 20
0.0
 30
0.0
 11
891.186415
 21
0.0
 31
0.0
  0
LINE
  5
10C70
  8
SIZE
  6
CONTINUOUS
 62
    30
 10
650.58828
 20
-109.95312
 30
0.0
 11
891.186415
 21
-109.95312
 31
0.0
  0
LINE
  5
10C71
  8
SIZE
  6
CONTINUOUS
 62
    30
 10
871.186415
 20
-97.95312
 30
0.0
 11
871.186415
 21
-12.0
 31
0.0
  0
LINE
  5
10C72
  8
SIZE
  6
CONTINUOUS
 62
    30
 10
871.186415
 20
0.0
 30
0.0
 11
871.186415
 21
188.171429
 31
0.0
  0
CIRCLE
  5
10C73
  8
SIZE
  6
CONTINUOUS
 62
    30
 10
871.186415
 20
-109.95312
 30
0.0
 40
6.0
  0
LINE
  5
10C74
  8
SIZE
  6
CONTINUOUS
 62
    30
 10
871.186415
 20
-109.95312
 30
0.0
 11
871.186415
 21
-97.95312
 31
0.0
  0
CIRCLE
  5
10C75
  8
SIZE
  6
CONTINUOUS
 62
    30
 10
871.186415
 20
0.0
 30
0.0
 40
6.0
  0
LINE
  5
10C76
  8
SIZE
  6
CONTINUOUS
 62
    30
 10
871.186415
 20
0.0
 30
0.0
 11
871.186415
 21
-12.0
 31
0.0
  0
TEXT
  5
10C77
  8
SIZE
  6
CONTINUOUS
 62
    30
 10
846.186415
 20
13.68571399999999
 30
0.0
 40
64.0
  1
110
 50
90.0
 41
0.9
 72
     1
 11
846.186415
 21
100.085714
 31
0.0
  0
POINT
  5
10C78
  8
DEFPOINTS
  6
CONTINUOUS
 62
    30
 10
464.125338
 20
0.0
 30
0.0
  0
POINT
  5
10C79
  8
DEFPOINTS
  6
CONTINUOUS
 62
    30
 10
630.58828
 20
-109.95312
 30
0.0
  0
POINT
  5
10C7A
  8
DEFPOINTS
  6
CONTINUOUS
 62
    30
 10
871.186415
 20
-109.95312
 30
0.0
  0
TEXT
  5
10C7B
  8
NOTE
  6
CONTINUOUS
 62
     4
 10
203.026183
 20
-177.547325
 30
0.0
 40
64.0
  1
RA3
 41
0.9
  0
TEXT
  5
10C7C
  8
NOTE
  6
CONTINUOUS
 62
     4
 10
-33.70045
 20
-177.547325
 30
0.0
 40
64.0
  1
RA4
 41
0.9
  0
TEXT
  5
10C7D
  8
NOTE
  6
CONTINUOUS
 62
     4
 10
-765.2156319999999
 20
-88.474654
 30
0.0
 40
64.0
  1
OA
 41
0.9
  0
TEXT
  5
10C7E
  8
NOTE
  6
CONTINUOUS
 62
     4
 10
-756.9870599999999
 20
-180.618799
 30
0.0
 40
64.0
  1
EA
 41
0.9
  0
TEXT
  5
10C7F
  8
NOTE
  6
CONTINUOUS
 62
     4
 10
653.876179
 20
-146.046935
 30
0.0
 40
64.0
  1
SA
 41
0.9
  0
LINE
  5
10C80
  8
DETAIL
  6
CONTINUOUS
 62
     5
 10
19.99146
 20
0.0
 30
0.0
 11
-466.60104
 21
0.0
 31
0.0
  0
ARC
  5
10C81
  8
DETAIL
  6
DASHED
 62
     5
 10
37.9838
 20
-109.95312
 30
0.0
 40
48.47932
 50
206.424392
 51
243.575608
  0
ARC
  5
10C82
  8
DETAIL
  6
DASHED
 62
     5
 10
37.9838
 20
-49.97868
 30
0.0
 40
48.47932
 50
116.424392
 51
153.575608
  0
ARC
  5
10C83
  8
DETAIL
  6
DASHED
 62
     5
 10
20.49126
 20
-127.44566
 30
0.0
 40
15.4934
 50
180.0
 51
270.0
  0
ARC
  5
10C84
  8
DETAIL
  6
DASHED
 62
     5
 10
20.5913
 20
-127.3456
 30
0.0
 40
14.9936
 50
180.0
 51
270.0
  0
ARC
  5
10C85
  8
DETAIL
  6
DASHED
 62
     5
 10
20.5913
 20
-32.5862
 30
0.0
 40
14.9936
 50
90.0
 51
180.0
  0
ARC
  5
10C86
  8
DETAIL
  6
DASHED
 62
     5
 10
20.49126
 20
-32.48614
 30
0.0
 40
15.4934
 50
90.0
 51
180.0
  0
LINE
  5
10C87
  8
DETAIL
  6
CONTINUOUS
 62
     5
 10
-130.678937
 20
-291.81978
 30
0.0
 11
16.223583
 21
-297.4037
 31
0.0
  0
LINE
  5
10C88
  8
DETAIL
  6
CONTINUOUS
 62
     5
 10
-129.1238
 20
-230.5632
 30
0.0
 11
17.77874
 21
-236.14712
 31
0.0
  0
LINE
  5
10C89
  8
DETAIL
  6
CONTINUOUS
 62
     5
 10
469.0
 20
-238.29838
 30
0.0
 11
469.0
 21
-5.99744
 31
0.0
  0
LINE
  5
10C8A
  8
DETAIL
  6
CONTINUOUS
 62
     5
 10
469.0
 20
-182.42222
 30
0.0
 11
469.0
 21
-37.48402
 31
0.0
  0
ARC
  5
10C8B
  8
DETAIL
  6
DASHED
 62
     5
 10
247.89428
 20
-109.95312
 30
0.0
 40
48.47932
 50
206.424392
 51
243.575608
  0
ARC
  5
10C8C
  8
DETAIL
  6
DASHED
 62
     5
 10
291.87552
 20
-109.95312
 30
0.0
 40
48.47932
 50
296.424392
 51
333.575608
  0
ARC
  5
10C8D
  8
DETAIL
  6
DASHED
 62
     5
 10
309.36806
 20
-127.44566
 30
0.0
 40
15.4934
 50
270.0
 51
0.0
  0
ARC
  5
10C8E
  8
DETAIL
  6
DASHED
 62
     5
 10
309.2681
 20
-127.3456
 30
0.0
 40
14.9936
 50
270.0
 51
0.0
  0
ARC
  5
10C8F
  8
DETAIL
  6
DASHED
 62
     5
 10
230.40174
 20
-127.44566
 30
0.0
 40
15.4934
 50
180.0
 51
270.0
  0
ARC
  5
10C90
  8
DETAIL
  6
DASHED
 62
     5
 10
230.5018
 20
-127.3456
 30
0.0
 40
14.9936
 50
180.0
 51
270.0
  0
CIRCLE
  5
10C91
  8
DETAIL
  6
DASHED
 62
     5
 10
269.8849
 20
-79.9659
 30
0.0
 40
52.47762
  0
ARC
  5
10C92
  8
DETAIL
  6
DASHED
 62
     5
 10
266.47776
 20
-129.82832
 30
0.0
 40
2.49894
 50
266.0909990000001
 51
314.1881560000002
  0
ARC
  5
10C93
  8
DETAIL
  6
DASHED
 62
     5
 10
273.29206
 20
-129.82832
 30
0.0
 40
2.49894
 50
225.8118439999998
 51
273.9090009999999
  0
ARC
  5
10C94
  8
DETAIL
  6
DASHED
 62
     5
 10
81.96504
 20
-109.95312
 30
0.0
 40
48.47932
 50
296.424392
 51
333.575608
  0
ARC
  5
10C95
  8
DETAIL
  6
DASHED
 62
     5
 10
99.45758000000001
 20
-127.44566
 30
0.0
 40
15.4934
 50
270.0
 51
0.0
  0
ARC
  5
10C96
  8
DETAIL
  6
DASHED
 62
     5
 10
99.35762000000001
 20
-127.3456
 30
0.0
 40
14.9936
 50
270.0
 51
0.0
  0
CIRCLE
  5
10C97
  8
DETAIL
  6
DASHED
 62
     5
 10
59.97442
 20
-79.9659
 30
0.0
 40
52.47762
  0
ARC
  5
10C98
  8
DETAIL
  6
DASHED
 62
     5
 10
56.56726
 20
-129.82832
 30
0.0
 40
2.49894
 50
266.090999
 51
314.188156
  0
ARC
  5
10C99
  8
DETAIL
  6
DASHED
 62
     5
 10
63.38156
 20
-129.82832
 30
0.0
 40
2.49894
 50
225.811844
 51
273.909001
  0
LINE
  5
10C9A
  8
DETAIL
  6
CONTINUOUS
 62
     5
 10
469.0
 20
-12.99446
 30
0.0
 11
469.0
 21
-206.91176
 31
0.0
  0
LINE
  5
10C9B
  8
DETAIL
  6
CONTINUOUS
 62
     5
 10
510.9661
 20
-196.44424
 30
0.0
 11
510.9661
 21
-23.462
 31
0.0
  0
LINE
  5
10C9C
  8
DETAIL
  6
CONTINUOUS
 62
     5
 10
572.3799
 20
-171.95312
 30
0.0
 11
572.3799
 21
-47.95312
 31
0.0
  0
LINE
  5
10C9D
  8
DETAIL
  6
CONTINUOUS
 62
     5
 10
541.673
 20
-182.95312
 30
0.0
 11
541.673
 21
-36.95312
 31
0.0
  0
LINE
  5
10C9E
  8
DETAIL
  6
CONTINUOUS
 62
     5
 10
619.4874
 20
-158.58416
 30
0.0
 11
619.4874
 21
-61.32206
 31
0.0
  0
LINE
  5
10C9F
  8
DETAIL
  6
CONTINUOUS
 62
     5
 10
469.0
 20
-196.44424
 30
0.0
 11
510.9661
 21
-196.44424
 31
0.0
  0
LINE
  5
10CA0
  8
DETAIL
  6
CONTINUOUS
 62
     5
 10
541.673
 20
-171.95312
 30
0.0
 11
572.3799
 21
-171.95312
 31
0.0
  0
LINE
  5
10CA1
  8
DETAIL
  6
CONTINUOUS
 62
     5
 10
618.46632
 20
-159.6792
 30
0.0
 11
572.3799
 21
-162.97526
 31
0.0
  0
LINE
  5
10CA2
  8
DETAIL
  6
CONTINUOUS
 62
     5
 10
618.46632
 20
-159.6792
 30
0.0
 11
619.4874
 21
-158.58416
 31
0.0
  0
LINE
  5
10CA3
  8
DETAIL
  6
CONTINUOUS
 62
     5
 10
510.63686
 20
-182.95312
 30
0.0
 11
541.673
 21
-182.95312
 31
0.0
  0
LINE
  5
10CA4
  8
DETAIL
  6
DASHED
 62
     5
 10
232.99258
 20
-154.93394
 30
0.0
 11
269.8849
 21
-154.93394
 31
0.0
  0
LINE
  5
10CA5
  8
DETAIL
  6
DASHED
 62
     5
 10
309.36806
 20
-142.93904
 30
0.0
 11
230.40174
 21
-142.93904
 31
0.0
  0
LINE
  5
10CA6
  8
DETAIL
  6
DASHED
 62
     5
 10
309.2681
 20
-142.3392
 30
0.0
 11
230.5018
 21
-142.3392
 31
0.0
  0
LINE
  5
10CA7
  8
DETAIL
  6
CONTINUOUS
 62
     5
 10
250.7664
 20
-290.41012
 30
0.0
 11
330.25662
 21
-290.41012
 31
0.0
  0
LINE
  5
10CA8
  8
DETAIL
  6
CONTINUOUS
 62
     5
 10
330.25662
 20
-191.44764
 30
0.0
 11
250.7664
 21
-191.44764
 31
0.0
  0
LINE
  5
10CA9
  8
DETAIL
  6
CONTINUOUS
 62
     5
 10
330.25662
 20
-207.44082
 30
0.0
 11
250.7664
 21
-207.44082
 31
0.0
  0
LINE
  5
10CAA
  8
DETAIL
  6
CONTINUOUS
 62
     5
 10
469.0
 20
-239.8977
 30
0.0
 11
330.25662
 21
-239.8977
 31
0.0
  0
LINE
  5
10CAB
  8
DETAIL
  6
CONTINUOUS
 62
     5
 10
409.82522
 20
-219.90622
 30
0.0
 11
364.8444
 21
-219.90622
 31
0.0
  0
LINE
  5
10CAC
  8
DETAIL
  6
CONTINUOUS
 62
     5
 10
409.82522
 20
-181.92242
 30
0.0
 11
353.8491
 21
-181.92242
 31
0.0
  0
LINE
  5
10CAD
  8
DETAIL
  6
CONTINUOUS
 62
     5
 10
409.82522
 20
-179.92328
 30
0.0
 11
353.8491
 21
-179.92328
 31
0.0
  0
CIRCLE
  5
10CAE
  8
DETAIL
  6
CONTINUOUS
 62
     5
 10
374.84014
 20
-199.91476
 30
0.0
 40
4.698
  0
ARC
  5
10CAF
  8
DETAIL
  6
CONTINUOUS
 62
     5
 10
467.40068
 20
-238.29838
 30
0.0
 40
1.59932
 50
270.0
 51
0.0
  0
LINE
  5
10CB0
  8
DETAIL
  6
CONTINUOUS
 62
     5
 10
409.82522
 20
-219.90622
 30
0.0
 11
454.80604
 21
-219.90622
 31
0.0
  0
LINE
  5
10CB1
  8
DETAIL
  6
CONTINUOUS
 62
     5
 10
409.82522
 20
-181.92242
 30
0.0
 11
465.80136
 21
-181.92242
 31
0.0
  0
LINE
  5
10CB2
  8
DETAIL
  6
CONTINUOUS
 62
     5
 10
409.82522
 20
-179.92328
 30
0.0
 11
465.80136
 21
-179.92328
 31
0.0
  0
ARC
  5
10CB3
  8
DETAIL
  6
CONTINUOUS
 62
     5
 10
465.80136
 20
-183.92158
 30
0.0
 40
3.9983
 50
0.0
 51
90.0
  0
LINE
  5
10CB4
  8
DETAIL
  6
CONTINUOUS
 62
     5
 10
469.79966
 20
-185.92072
 30
0.0
 11
469.79966
 21
-183.92158
 31
0.0
  0
LINE
  5
10CB5
  8
DETAIL
  6
CONTINUOUS
 62
     5
 10
467.8005
 20
-185.92072
 30
0.0
 11
467.8005
 21
-183.92158
 31
0.0
  0
LINE
  5
10CB6
  8
DETAIL
  6
CONTINUOUS
 62
     5
 10
467.8005
 20
-185.92072
 30
0.0
 11
469.79966
 21
-185.92072
 31
0.0
  0
ARC
  5
10CB7
  8
DETAIL
  6
CONTINUOUS
 62
     5
 10
454.80604
 20
-209.91048
 30
0.0
 40
9.99574
 50
270.0
 51
0.0
  0
LINE
  5
10CB8
  8
DETAIL
  6
CONTINUOUS
 62
     5
 10
464.80178
 20
-209.91048
 30
0.0
 11
464.80178
 21
-181.92242
 31
0.0
  0
ARC
  5
10CB9
  8
DETAIL
  6
CONTINUOUS
 62
     5
 10
465.80136
 20
-183.92158
 30
0.0
 40
1.99914
 50
0.0
 51
90.0
  0
CIRCLE
  5
10CBA
  8
DETAIL
  6
CONTINUOUS
 62
     5
 10
444.8103
 20
-199.91476
 30
0.0
 40
4.698
  0
LINE
  5
10CBB
  8
DETAIL
  6
CONTINUOUS
 62
     5
 10
446.2946
 20
-198.43046
 30
0.0
 11
443.32602
 21
-201.39904
 31
0.0
  0
LINE
  5
10CBC
  8
DETAIL
  6
CONTINUOUS
 62
     5
 10
443.32602
 20
-198.43046
 30
0.0
 11
446.2946
 21
-201.39904
 31
0.0
  0
LINE
  5
10CBD
  8
DETAIL
  6
CONTINUOUS
 62
     5
 10
330.25662
 20
-290.41012
 30
0.0
 11
330.25662
 21
-191.44764
 31
0.0
  0
ARC
  5
10CBE
  8
DETAIL
  6
CONTINUOUS
 62
     5
 10
353.8491
 20
-183.92158
 30
0.0
 40
3.9983
 50
90.0
 51
180.0
  0
LINE
  5
10CBF
  8
DETAIL
  6
CONTINUOUS
 62
     5
 10
349.8508
 20
-185.92072
 30
0.0
 11
349.8508
 21
-183.92158
 31
0.0
  0
LINE
  5
10CC0
  8
DETAIL
  6
CONTINUOUS
 62
     5
 10
351.84994
 20
-185.92072
 30
0.0
 11
351.84994
 21
-183.92158
 31
0.0
  0
LINE
  5
10CC1
  8
DETAIL
  6
CONTINUOUS
 62
     5
 10
351.84994
 20
-185.92072
 30
0.0
 11
349.8508
 21
-185.92072
 31
0.0
  0
ARC
  5
10CC2
  8
DETAIL
  6
CONTINUOUS
 62
     5
 10
364.8444
 20
-209.91048
 30
0.0
 40
9.99574
 50
180.0
 51
270.0
  0
LINE
  5
10CC3
  8
DETAIL
  6
CONTINUOUS
 62
     5
 10
354.84868
 20
-209.91048
 30
0.0
 11
354.84868
 21
-181.92242
 31
0.0
  0
ARC
  5
10CC4
  8
DETAIL
  6
CONTINUOUS
 62
     5
 10
353.8491
 20
-183.92158
 30
0.0
 40
1.99914
 50
90.0
 51
180.0
  0
LINE
  5
10CC5
  8
DETAIL
  6
CONTINUOUS
 62
     5
 10
376.32444
 20
-198.43046
 30
0.0
 11
373.35586
 21
-201.39904
 31
0.0
  0
LINE
  5
10CC6
  8
DETAIL
  6
CONTINUOUS
 62
     5
 10
373.35586
 20
-198.43046
 30
0.0
 11
376.32444
 21
-201.39904
 31
0.0
  0
LINE
  5
10CC7
  8
DETAIL
  6
DASHED
 62
     5
 10
306.77722
 20
-154.93394
 30
0.0
 11
269.8849
 21
-154.93394
 31
0.0
  0
ARC
  5
10CC8
  8
DETAIL
  6
DASHED
 62
     5
 10
306.77722
 20
-139.94032
 30
0.0
 40
14.9936
 50
270.0
 51
296.4243919999999
  0
LINE
  5
10CC9
  8
DETAIL
  6
CONTINUOUS
 62
     5
 10
16.266703
 20
-286.18734
 30
0.0
 11
200.886683
 21
-286.18734
 31
0.0
  0
LINE
  5
10CCA
  8
DETAIL
  6
CONTINUOUS
 62
     5
 10
16.2939
 20
-239.49788
 30
0.0
 11
200.91388
 21
-239.49788
 31
0.0
  0
LINE
  5
10CCB
  8
DETAIL
  6
CONTINUOUS
 62
     5
 10
250.7664
 20
-290.41012
 30
0.0
 11
250.7664
 21
-191.44764
 31
0.0
  0
LINE
  5
10CCC
  8
DETAIL
  6
CONTINUOUS
 62
     5
 10
250.7664
 20
-239.8977
 30
0.0
 11
200.91388
 21
-239.8977
 31
0.0
  0
LINE
  5
10CCD
  8
DETAIL
  6
CONTINUOUS
 62
     5
 10
208.93346
 20
-240.69736
 30
0.0
 11
208.93346
 21
-239.8977
 31
0.0
  0
LINE
  5
10CCE
  8
DETAIL
  6
CONTINUOUS
 62
     5
 10
200.886683
 20
-286.18734
 30
0.0
 11
200.91388
 21
-239.49788
 31
0.0
  0
ARC
  5
10CCF
  8
DETAIL
  6
DASHED
 62
     5
 10
232.99258
 20
-139.94032
 30
0.0
 40
14.9936
 50
243.5756079999999
 51
270.0
  0
LINE
  5
10CD0
  8
DETAIL
  6
CONTINUOUS
 62
     5
 10
16.223583
 20
-297.4037
 30
0.0
 11
17.77874
 21
-236.14712
 31
0.0
  0
LINE
  5
10CD1
  8
DETAIL
  6
DASHED
 62
     5
 10
96.86674000000001
 20
-154.93394
 30
0.0
 11
59.97442
 21
-154.93394
 31
0.0
  0
LINE
  5
10CD2
  8
DETAIL
  6
DASHED
 62
     5
 10
99.45758000000001
 20
-142.93904
 30
0.0
 11
20.49126
 21
-142.93904
 31
0.0
  0
LINE
  5
10CD3
  8
DETAIL
  6
DASHED
 62
     5
 10
99.35762000000001
 20
-142.3392
 30
0.0
 11
20.5913
 21
-142.3392
 31
0.0
  0
ARC
  5
10CD4
  8
DETAIL
  6
DASHED
 62
     5
 10
96.86674000000001
 20
-139.94032
 30
0.0
 40
14.9936
 50
270.0
 51
296.424392
  0
LINE
  5
10CD5
  8
DETAIL
  6
DASHED
 62
     5
 10
23.0821
 20
-154.93394
 30
0.0
 11
59.97442
 21
-154.93394
 31
0.0
  0
ARC
  5
10CD6
  8
DETAIL
  6
DASHED
 62
     5
 10
23.0821
 20
-139.94032
 30
0.0
 40
14.9936
 50
243.5756079999999
 51
270.0
  0
LINE
  5
10CD7
  8
DETAIL
  6
CONTINUOUS
 62
     5
 10
469.0
 20
-23.462
 30
0.0
 11
510.9661
 21
-23.462
 31
0.0
  0
LINE
  5
10CD8
  8
DETAIL
  6
CONTINUOUS
 62
     5
 10
540.86442
 20
-47.95312
 30
0.0
 11
572.3799
 21
-47.95312
 31
0.0
  0
LINE
  5
10CD9
  8
DETAIL
  6
CONTINUOUS
 62
     5
 10
618.46632
 20
-60.22702
 30
0.0
 11
572.3799
 21
-56.93098
 31
0.0
  0
LINE
  5
10CDA
  8
DETAIL
  6
CONTINUOUS
 62
     5
 10
618.46632
 20
-60.22702
 30
0.0
 11
619.4874
 21
-61.32206
 31
0.0
  0
LINE
  5
10CDB
  8
DETAIL
  6
CONTINUOUS
 62
     5
 10
510.9661
 20
-36.95312
 30
0.0
 11
541.673
 21
-36.95312
 31
0.0
  0
LINE
  5
10CDC
  8
DETAIL
  6
CONTINUOUS
 62
     5
 10
19.99146
 20
0.0
 30
0.0
 11
465.80136
 21
0.0
 31
0.0
  0
LINE
  5
10CDD
  8
DETAIL
  6
DASHED
 62
     5
 10
232.99258
 20
-4.99788
 30
0.0
 11
269.8849
 21
-4.99788
 31
0.0
  0
CIRCLE
  5
10CDE
  8
DETAIL
  6
DASHED
 62
     5
 10
269.8849
 20
-79.9659
 30
0.0
 40
51.97784
  0
LINE
  5
10CDF
  8
DETAIL
  6
DASHED
 62
     5
 10
230.5018
 20
-17.5926
 30
0.0
 11
309.2681
 21
-17.5926
 31
0.0
  0
LINE
  5
10CE0
  8
DETAIL
  6
DASHED
 62
     5
 10
230.40174
 20
-16.99276
 30
0.0
 11
309.36806
 21
-16.99276
 31
0.0
  0
CIRCLE
  5
10CE1
  8
DETAIL
  6
DASHED
 62
     5
 10
374.84014
 20
-19.99148
 30
0.0
 40
2.39898
  0
CIRCLE
  5
10CE2
  8
DETAIL
  6
DASHED
 62
     5
 10
374.84014
 20
-19.99148
 30
0.0
 40
2.99872
  0
LINE
  5
10CE3
  8
DETAIL
  6
DASHED
 62
     5
 10
409.82522
 20
-1.99916
 30
0.0
 11
353.8491
 21
-1.99916
 31
0.0
  0
LINE
  5
10CE4
  8
DETAIL
  6
DASHED
 62
     5
 10
409.82522
 20
-39.98296
 30
0.0
 11
364.8444
 21
-39.98296
 31
0.0
  0
LINE
  5
10CE5
  8
DETAIL
  6
CONTINUOUS
 62
     5
 10
409.82522
 20
0.0
 30
0.0
 11
353.8491
 21
0.0
 31
0.0
  0
ARC
  5
10CE6
  8
DETAIL
  6
DASHED
 62
     5
 10
454.80604
 20
-29.98722
 30
0.0
 40
9.99574
 50
270.0
 51
0.0
  0
LINE
  5
10CE7
  8
DETAIL
  6
DASHED
 62
     5
 10
409.82522
 20
-39.98296
 30
0.0
 11
454.80604
 21
-39.98296
 31
0.0
  0
LINE
  5
10CE8
  8
DETAIL
  6
DASHED
 62
     5
 10
409.82522
 20
-1.99916
 30
0.0
 11
465.80136
 21
-1.99916
 31
0.0
  0
LINE
  5
10CE9
  8
DETAIL
  6
DASHED
 62
     5
 10
409.82522
 20
0.0
 30
0.0
 11
465.80136
 21
0.0
 31
0.0
  0
ARC
  5
10CEA
  8
DETAIL
  6
DASHED
 62
     5
 10
465.80136
 20
-3.9983
 30
0.0
 40
3.9983
 50
0.0
 51
90.0
  0
CIRCLE
  5
10CEB
  8
DETAIL
  6
DASHED
 62
     5
 10
444.8103
 20
-19.99148
 30
0.0
 40
1.59932
  0
CIRCLE
  5
10CEC
  8
DETAIL
  6
DASHED
 62
     5
 10
444.8103
 20
-19.99148
 30
0.0
 40
2.39898
  0
CIRCLE
  5
10CED
  8
DETAIL
  6
DASHED
 62
     5
 10
444.8103
 20
-19.99148
 30
0.0
 40
2.99872
  0
LINE
  5
10CEE
  8
DETAIL
  6
DASHED
 62
     5
 10
469.79966
 20
-5.99744
 30
0.0
 11
469.79966
 21
-3.9983
 31
0.0
  0
LINE
  5
10CEF
  8
DETAIL
  6
DASHED
 62
     5
 10
467.8005
 20
-5.99744
 30
0.0
 11
467.8005
 21
-3.9983
 31
0.0
  0
LINE
  5
10CF0
  8
DETAIL
  6
DASHED
 62
     5
 10
467.8005
 20
-5.99744
 30
0.0
 11
469.79966
 21
-5.99744
 31
0.0
  0
LINE
  5
10CF1
  8
DETAIL
  6
DASHED
 62
     5
 10
464.80178
 20
-29.98722
 30
0.0
 11
464.80178
 21
-1.99916
 31
0.0
  0
ARC
  5
10CF2
  8
DETAIL
  6
DASHED
 62
     5
 10
465.80136
 20
-3.9983
 30
0.0
 40
1.99914
 50
0.0
 51
90.0
  0
ARC
  5
10CF3
  8
DETAIL
  6
DASHED
 62
     5
 10
321.86274
 20
-35.077
 30
0.0
 40
14.9936
 50
0.0
 51
26.42439200000003
  0
LINE
  5
10CF4
  8
DETAIL
  6
DASHED
 62
     5
 10
324.86146
 20
-127.44566
 30
0.0
 11
324.86146
 21
-32.48614
 31
0.0
  0
LINE
  5
10CF5
  8
DETAIL
  6
DASHED
 62
     5
 10
324.2617
 20
-127.3456
 30
0.0
 11
324.2617
 21
-32.5862
 31
0.0
  0
ARC
  5
10CF6
  8
DETAIL
  6
DASHED
 62
     5
 10
364.8444
 20
-29.98722
 30
0.0
 40
9.99574
 50
180.0
 51
270.0
  0
LINE
  5
10CF7
  8
DETAIL
  6
DASHED
 62
     5
 10
336.85634
 20
-124.85482
 30
0.0
 11
336.85634
 21
-35.077
 31
0.0
  0
ARC
  5
10CF8
  8
DETAIL
  6
DASHED
 62
     5
 10
321.86274
 20
-124.85482
 30
0.0
 40
14.9936
 50
333.575608
 51
0.0
  0
ARC
  5
10CF9
  8
DETAIL
  6
DASHED
 62
     5
 10
269.8849
 20
-133.33342
 30
0.0
 40
2.38926
 50
45.81184400000008
 51
134.1881559999999
  0
ARC
  5
10CFA
  8
DETAIL
  6
DASHED
 62
     5
 10
269.8849
 20
-133.33342
 30
0.0
 40
2.88904
 50
45.81184399999982
 51
134.1881559999998
  0
ARC
  5
10CFB
  8
DETAIL
  6
DASHED
 62
     5
 10
266.47776
 20
-129.82832
 30
0.0
 40
1.99914
 50
266.0909989999995
 51
314.1881559999995
  0
ARC
  5
10CFC
  8
DETAIL
  6
DASHED
 62
     5
 10
273.29206
 20
-129.82832
 30
0.0
 40
1.99914
 50
225.8118440000005
 51
273.9090010000005
  0
ARC
  5
10CFD
  8
DETAIL
  6
DASHED
 62
     5
 10
291.87552
 20
-49.97868
 30
0.0
 40
48.47932
 50
26.424392
 51
63.57560800000003
  0
ARC
  5
10CFE
  8
DETAIL
  6
DASHED
 62
     5
 10
309.2681
 20
-32.5862
 30
0.0
 40
14.9936
 50
0.0
 51
90.0
  0
ARC
  5
10CFF
  8
DETAIL
  6
DASHED
 62
     5
 10
309.36806
 20
-32.48614
 30
0.0
 40
15.4934
 50
0.0
 51
90.0
  0
CIRCLE
  5
10D00
  8
DETAIL
  6
DASHED
 62
     5
 10
374.84014
 20
-19.99148
 30
0.0
 40
1.59932
  0
LINE
  5
10D01
  8
DETAIL
  6
DASHED
 62
     5
 10
349.8508
 20
-5.99744
 30
0.0
 11
349.8508
 21
-3.9983
 31
0.0
  0
LINE
  5
10D02
  8
DETAIL
  6
DASHED
 62
     5
 10
351.84994
 20
-5.99744
 30
0.0
 11
351.84994
 21
-3.9983
 31
0.0
  0
LINE
  5
10D03
  8
DETAIL
  6
DASHED
 62
     5
 10
351.84994
 20
-5.99744
 30
0.0
 11
349.8508
 21
-5.99744
 31
0.0
  0
LINE
  5
10D04
  8
DETAIL
  6
DASHED
 62
     5
 10
354.84868
 20
-29.98722
 30
0.0
 11
354.84868
 21
-1.99916
 31
0.0
  0
ARC
  5
10D05
  8
DETAIL
  6
DASHED
 62
     5
 10
353.8491
 20
-3.9983
 30
0.0
 40
3.9983
 50
90.0
 51
180.0
  0
ARC
  5
10D06
  8
DETAIL
  6
DASHED
 62
     5
 10
353.8491
 20
-3.9983
 30
0.0
 40
1.99914
 50
90.0
 51
180.0
  0
LINE
  5
10D07
  8
DETAIL
  6
DASHED
 62
     5
 10
306.77722
 20
-4.99788
 30
0.0
 11
269.8849
 21
-4.99788
 31
0.0
  0
ARC
  5
10D08
  8
DETAIL
  6
DASHED
 62
     5
 10
306.77722
 20
-19.99148
 30
0.0
 40
14.9936
 50
63.57560800000008
 51
90.0
  0
ARC
  5
10D09
  8
DETAIL
  6
DASHED
 62
     5
 10
269.8849
 20
-26.59838
 30
0.0
 40
2.38926
 50
225.811844
 51
314.188156
  0
ARC
  5
10D0A
  8
DETAIL
  6
DASHED
 62
     5
 10
269.8849
 20
-26.59838
 30
0.0
 40
2.88904
 50
225.811844
 51
314.188156
  0
ARC
  5
10D0B
  8
DETAIL
  6
DASHED
 62
     5
 10
273.29206
 20
-30.10348
 30
0.0
 40
2.49894
 50
86.09099900000014
 51
134.1881560000002
  0
ARC
  5
10D0C
  8
DETAIL
  6
DASHED
 62
     5
 10
273.29206
 20
-30.10348
 30
0.0
 40
1.99914
 50
86.09099899999954
 51
134.1881559999995
  0
ARC
  5
10D0D
  8
DETAIL
  6
DASHED
 62
     5
 10
266.47776
 20
-30.10348
 30
0.0
 40
2.49894
 50
45.81184399999981
 51
93.90900099999988
  0
ARC
  5
10D0E
  8
DETAIL
  6
DASHED
 62
     5
 10
266.47776
 20
-30.10348
 30
0.0
 40
1.99914
 50
45.81184400000055
 51
93.90900100000047
  0
ARC
  5
10D0F
  8
DETAIL
  6
DASHED
 62
     5
 10
217.90706
 20
-35.077
 30
0.0
 40
14.9936
 50
153.575608
 51
180.0
  0
LINE
  5
10D10
  8
DETAIL
  6
DASHED
 62
     5
 10
214.90834
 20
-127.44566
 30
0.0
 11
214.90834
 21
-32.48614
 31
0.0
  0
LINE
  5
10D11
  8
DETAIL
  6
DASHED
 62
     5
 10
215.50818
 20
-127.3456
 30
0.0
 11
215.50818
 21
-32.5862
 31
0.0
  0
LINE
  5
10D12
  8
DETAIL
  6
DASHED
 62
     5
 10
202.91346
 20
-124.85482
 30
0.0
 11
202.91346
 21
-35.077
 31
0.0
  0
ARC
  5
10D13
  8
DETAIL
  6
DASHED
 62
     5
 10
217.90706
 20
-124.85482
 30
0.0
 40
14.9936
 50
180.0
 51
206.424392
  0
ARC
  5
10D14
  8
DETAIL
  6
DASHED
 62
     5
 10
247.89428
 20
-49.97868
 30
0.0
 40
48.47932
 50
116.424392
 51
153.575608
  0
ARC
  5
10D15
  8
DETAIL
  6
DASHED
 62
     5
 10
230.5018
 20
-32.5862
 30
0.0
 40
14.9936
 50
90.0
 51
180.0
  0
ARC
  5
10D16
  8
DETAIL
  6
DASHED
 62
     5
 10
230.40174
 20
-32.48614
 30
0.0
 40
15.4934
 50
90.0
 51
180.0
  0
ARC
  5
10D17
  8
DETAIL
  6
DASHED
 62
     5
 10
232.99258
 20
-19.99148
 30
0.0
 40
14.9936
 50
90.0
 51
116.424392
  0
ARC
  5
10D18
  8
DETAIL
  6
DASHED
 62
     5
 10
111.95226
 20
-35.077
 30
0.0
 40
14.9936
 50
0.0
 51
26.424392
  0
CIRCLE
  5
10D19
  8
DETAIL
  6
DASHED
 62
     5
 10
59.97442
 20
-79.9659
 30
0.0
 40
51.97784
  0
LINE
  5
10D1A
  8
DETAIL
  6
DASHED
 62
     5
 10
114.95098
 20
-127.44566
 30
0.0
 11
114.95098
 21
-32.48614
 31
0.0
  0
LINE
  5
10D1B
  8
DETAIL
  6
DASHED
 62
     5
 10
114.35122
 20
-127.3456
 30
0.0
 11
114.35122
 21
-32.5862
 31
0.0
  0
LINE
  5
10D1C
  8
DETAIL
  6
DASHED
 62
     5
 10
5.5977
 20
-127.3456
 30
0.0
 11
5.5977
 21
-32.5862
 31
0.0
  0
LINE
  5
10D1D
  8
DETAIL
  6
DASHED
 62
     5
 10
126.94586
 20
-124.85482
 30
0.0
 11
126.94586
 21
-35.077
 31
0.0
  0
ARC
  5
10D1E
  8
DETAIL
  6
DASHED
 62
     5
 10
111.95226
 20
-124.85482
 30
0.0
 40
14.9936
 50
333.575608
 51
0.0
  0
ARC
  5
10D1F
  8
DETAIL
  6
DASHED
 62
     5
 10
59.97442
 20
-133.33342
 30
0.0
 40
2.38926
 50
45.81184400000008
 51
134.1881559999999
  0
ARC
  5
10D20
  8
DETAIL
  6
DASHED
 62
     5
 10
59.97442
 20
-133.33342
 30
0.0
 40
2.88904
 50
45.81184399999982
 51
134.1881559999998
  0
ARC
  5
10D21
  8
DETAIL
  6
DASHED
 62
     5
 10
56.56726
 20
-129.82832
 30
0.0
 40
1.99914
 50
266.0909989999999
 51
314.188156
  0
ARC
  5
10D22
  8
DETAIL
  6
DASHED
 62
     5
 10
63.38156
 20
-129.82832
 30
0.0
 40
1.99914
 50
225.8118439999999
 51
273.9090010000001
  0
LINE
  5
10D23
  8
DETAIL
  6
DASHED
 62
     5
 10
96.86674000000001
 20
-4.99788
 30
0.0
 11
59.97442
 21
-4.99788
 31
0.0
  0
LINE
  5
10D24
  8
DETAIL
  6
DASHED
 62
     5
 10
20.5913
 20
-17.5926
 30
0.0
 11
99.35762000000001
 21
-17.5926
 31
0.0
  0
LINE
  5
10D25
  8
DETAIL
  6
DASHED
 62
     5
 10
20.49126
 20
-16.99276
 30
0.0
 11
99.45758000000001
 21
-16.99276
 31
0.0
  0
ARC
  5
10D26
  8
DETAIL
  6
DASHED
 62
     5
 10
96.86674000000001
 20
-19.99148
 30
0.0
 40
14.9936
 50
63.57560800000003
 51
90.0
  0
ARC
  5
10D27
  8
DETAIL
  6
DASHED
 62
     5
 10
81.96504
 20
-49.97868
 30
0.0
 40
48.47932
 50
26.42439199999999
 51
63.57560800000001
  0
ARC
  5
10D28
  8
DETAIL
  6
DASHED
 62
     5
 10
99.35762000000001
 20
-32.5862
 30
0.0
 40
14.9936
 50
0.0
 51
90.0
  0
ARC
  5
10D29
  8
DETAIL
  6
DASHED
 62
     5
 10
99.45758000000001
 20
-32.48614
 30
0.0
 40
15.4934
 50
0.0
 51
90.0
  0
LINE
  5
10D2A
  8
DETAIL
  6
DASHED
 62
     5
 10
23.0821
 20
-4.99788
 30
0.0
 11
59.97442
 21
-4.99788
 31
0.0
  0
ARC
  5
10D2B
  8
DETAIL
  6
DASHED
 62
     5
 10
59.97442
 20
-26.59838
 30
0.0
 40
2.38926
 50
225.811844
 51
314.188156
  0
ARC
  5
10D2C
  8
DETAIL
  6
DASHED
 62
     5
 10
59.97442
 20
-26.59838
 30
0.0
 40
2.88904
 50
225.811844
 51
314.188156
  0
ARC
  5
10D2D
  8
DETAIL
  6
DASHED
 62
     5
 10
63.38156
 20
-30.10348
 30
0.0
 40
2.49894
 50
86.09099899999997
 51
134.188156
  0
ARC
  5
10D2E
  8
DETAIL
  6
DASHED
 62
     5
 10
63.38156
 20
-30.10348
 30
0.0
 40
1.99914
 50
86.09099899999995
 51
134.188156
  0
ARC
  5
10D2F
  8
DETAIL
  6
DASHED
 62
     5
 10
56.56726
 20
-30.10348
 30
0.0
 40
2.49894
 50
45.81184400000004
 51
93.90900100000005
  0
ARC
  5
10D30
  8
DETAIL
  6
DASHED
 62
     5
 10
56.56726
 20
-30.10348
 30
0.0
 40
1.99914
 50
45.81184399999997
 51
93.90900100000005
  0
ARC
  5
10D31
  8
DETAIL
  6
DASHED
 62
     5
 10
23.0821
 20
-19.99148
 30
0.0
 40
14.9936
 50
90.0
 51
116.424392
  0
LINE
  5
10D32
  8
DETAIL
  6
CONTINUOUS
 62
     5
 10
-469.0
 20
-181.5226
 30
0.0
 11
-469.0
 21
-5.99744
 31
0.0
  0
LINE
  5
10D33
  8
DETAIL
  6
CONTINUOUS
 62
     5
 10
-469.0
 20
-196.44424
 30
0.0
 11
-469.0
 21
-23.462
 31
0.0
  0
LINE
  5
10D34
  8
DETAIL
  6
CONTINUOUS
 62
     5
 10
-541.67302
 20
-182.95312
 30
0.0
 11
-541.67302
 21
-36.95312
 31
0.0
  0
LINE
  5
10D35
  8
DETAIL
  6
CONTINUOUS
 62
     5
 10
-572.37992
 20
-171.95312
 30
0.0
 11
-572.37992
 21
-47.95312
 31
0.0
  0
LINE
  5
10D36
  8
DETAIL
  6
CONTINUOUS
 62
     5
 10
-619.4874
 20
-157.58416
 30
0.0
 11
-619.4874
 21
-62.32206
 31
0.0
  0
LINE
  5
10D37
  8
DETAIL
  6
CONTINUOUS
 62
     5
 10
-510.96612
 20
-196.44424
 30
0.0
 11
-510.96612
 21
-23.462
 31
0.0
  0
LINE
  5
10D38
  8
DETAIL
  6
CONTINUOUS
 62
     5
 10
-469.0
 20
-196.44424
 30
0.0
 11
-510.96612
 21
-196.44424
 31
0.0
  0
LINE
  5
10D39
  8
DETAIL
  6
CONTINUOUS
 62
     5
 10
-172.62128
 20
-231.10146
 30
0.0
 11
-237.76642
 21
-231.10146
 31
0.0
  0
LINE
  5
10D3A
  8
DETAIL
  6
CONTINUOUS
 62
     5
 10
-172.62128
 20
-241.09718
 30
0.0
 11
-237.76642
 21
-241.09718
 31
0.0
  0
LINE
  5
10D3B
  8
DETAIL
  6
CONTINUOUS
 62
     5
 10
-237.793617
 20
-284.19662
 30
0.0
 11
-207.774857
 21
-286.05216
 31
0.0
  0
LINE
  5
10D3C
  8
DETAIL
  6
CONTINUOUS
 62
     5
 10
-444.28818
 20
-276.7326
 30
0.0
 11
-217.357957
 21
-285.4598
 31
0.0
  0
LINE
  5
10D3D
  8
DETAIL
  6
CONTINUOUS
 62
     5
 10
-167.950497
 20
-286.18734
 30
0.0
 11
-130.482257
 21
-286.18734
 31
0.0
  0
LINE
  5
10D3E
  8
DETAIL
  6
CONTINUOUS
 62
     5
 10
-167.9233
 20
-239.49788
 30
0.0
 11
-129.4358
 21
-239.49788
 31
0.0
  0
LINE
  5
10D3F
  8
DETAIL
  6
CONTINUOUS
 62
     5
 10
-130.678937
 20
-291.81978
 30
0.0
 11
-129.1238
 21
-230.5632
 31
0.0
  0
LINE
  5
10D40
  8
DETAIL
  6
CONTINUOUS
 62
     5
 10
-170.663537
 20
-286.08738
 30
0.0
 11
-206.633997
 21
-286.08738
 31
0.0
  0
ARC
  5
10D41
  8
DETAIL
  6
CONTINUOUS
 62
     5
 10
-203.479666
 20
-271.27719
 30
0.0
 40
15.386647
 50
253.7904450000001
 51
356.9593720000001
  0
CIRCLE
  5
10D42
  8
DETAIL
  6
CONTINUOUS
 62
     5
 10
-206.6068
 20
-277.09122
 30
0.0
 40
8.99616
  0
ARC
  5
10D43
  8
DETAIL
  6
CONTINUOUS
 62
     5
 10
-176.54804
 20
-285.08782
 30
0.0
 40
1.99914
 50
45.00000000000057
 51
90.0
  0
ARC
  5
10D44
  8
DETAIL
  6
CONTINUOUS
 62
     5
 10
-170.663537
 20
-285.08782
 30
0.0
 40
0.99958
 50
270.0
 51
45.0
  0
LINE
  5
10D45
  8
DETAIL
  6
CONTINUOUS
 62
     5
 10
-175.13442
 20
-283.6742
 30
0.0
 11
-169.956737
 21
-284.381
 31
0.0
  0
ARC
  5
10D46
  8
DETAIL
  6
CONTINUOUS
 62
     5
 10
-186.11554
 20
-281.08952
 30
0.0
 40
1.99914
 50
180.0
 51
270.0
  0
ARC
  5
10D47
  8
DETAIL
  6
CONTINUOUS
 62
     5
 10
-186.11554
 20
-243.09634
 30
0.0
 40
1.99914
 50
90.0
 51
180.0
  0
LINE
  5
10D48
  8
DETAIL
  6
CONTINUOUS
 62
     5
 10
-188.11468
 20
-243.09634
 30
0.0
 11
-188.11468
 21
-281.48934
 31
0.0
  0
LINE
  5
10D49
  8
DETAIL
  6
CONTINUOUS
 62
     5
 10
-186.11554
 20
-283.08866
 30
0.0
 11
-176.54804
 21
-283.08866
 31
0.0
  0
LINE
  5
10D4A
  8
DETAIL
  6
CONTINUOUS
 62
     5
 10
-182.61702
 20
-234.10018
 30
0.0
 11
-182.61702
 21
-241.09718
 31
0.0
  0
LINE
  5
10D4B
  8
DETAIL
  6
CONTINUOUS
 62
     5
 10
-172.62128
 20
-234.10018
 30
0.0
 11
-182.61702
 21
-234.10018
 31
0.0
  0
LINE
  5
10D4C
  8
DETAIL
  6
CONTINUOUS
 62
     5
 10
-172.62128
 20
-236.09932
 30
0.0
 11
-182.61702
 21
-236.09932
 31
0.0
  0
LINE
  5
10D4D
  8
DETAIL
  6
CONTINUOUS
 62
     5
 10
-172.62128
 20
-231.10146
 30
0.0
 11
-172.62128
 21
-241.09718
 31
0.0
  0
LINE
  5
10D4E
  8
DETAIL
  6
CONTINUOUS
 62
     5
 10
-167.950497
 20
-286.18734
 30
0.0
 11
-167.9233
 21
-239.49788
 31
0.0
  0
CIRCLE
  5
10D4F
  8
DETAIL
  6
CONTINUOUS
 62
     5
 10
-206.6068
 20
-277.09122
 30
0.0
 40
6.49722
  0
LINE
  5
10D50
  8
DETAIL
  6
CONTINUOUS
 62
     5
 10
-409.82524
 20
-219.90622
 30
0.0
 11
-364.84442
 21
-219.90622
 31
0.0
  0
LINE
  5
10D51
  8
DETAIL
  6
CONTINUOUS
 62
     5
 10
-409.82524
 20
-179.92328
 30
0.0
 11
-353.84912
 21
-179.92328
 31
0.0
  0
LINE
  5
10D52
  8
DETAIL
  6
CONTINUOUS
 62
     5
 10
-409.82524
 20
-181.92242
 30
0.0
 11
-353.84912
 21
-181.92242
 31
0.0
  0
LINE
  5
10D53
  8
DETAIL
  6
CONTINUOUS
 62
     5
 10
-237.76642
 20
-241.09718
 30
0.0
 11
-471.99872
 21
-241.09718
 31
0.0
  0
LINE
  5
10D54
  8
DETAIL
  6
CONTINUOUS
 62
     5
 10
-237.76642
 20
-231.10146
 30
0.0
 11
-473.99788
 21
-231.10146
 31
0.0
  0
ARC
  5
10D55
  8
DETAIL
  6
CONTINUOUS
 62
     5
 10
-353.84912
 20
-183.92158
 30
0.0
 40
3.9983
 50
0.0
 51
90.0
  0
ARC
  5
10D56
  8
DETAIL
  6
CONTINUOUS
 62
     5
 10
-353.84912
 20
-183.92158
 30
0.0
 40
1.99914
 50
0.0
 51
90.0
  0
LINE
  5
10D57
  8
DETAIL
  6
CONTINUOUS
 62
     5
 10
-354.84868
 20
-209.91048
 30
0.0
 11
-354.84868
 21
-181.92242
 31
0.0
  0
ARC
  5
10D58
  8
DETAIL
  6
CONTINUOUS
 62
     5
 10
-364.84442
 20
-209.91048
 30
0.0
 40
9.99574
 50
270.0
 51
0.0
  0
LINE
  5
10D59
  8
DETAIL
  6
CONTINUOUS
 62
     5
 10
-351.84996
 20
-185.92072
 30
0.0
 11
-349.85082
 21
-185.92072
 31
0.0
  0
LINE
  5
10D5A
  8
DETAIL
  6
CONTINUOUS
 62
     5
 10
-351.84996
 20
-185.92072
 30
0.0
 11
-351.84996
 21
-183.92158
 31
0.0
  0
LINE
  5
10D5B
  8
DETAIL
  6
CONTINUOUS
 62
     5
 10
-349.85082
 20
-185.92072
 30
0.0
 11
-349.85082
 21
-183.92158
 31
0.0
  0
LINE
  5
10D5C
  8
DETAIL
  6
CONTINUOUS
 62
     5
 10
-469.0
 20
-231.10146
 30
0.0
 11
-469.0
 21
-185.92072
 31
0.0
  0
LINE
  5
10D5D
  8
DETAIL
  6
CONTINUOUS
 62
     5
 10
-472.49852
 20
-231.10146
 30
0.0
 11
-449.50832
 21
-231.10146
 31
0.0
  0
LINE
  5
10D5E
  8
DETAIL
  6
CONTINUOUS
 62
     5
 10
-457.00512
 20
-231.10146
 30
0.0
 11
-467.4007
 21
-231.10146
 31
0.0
  0
ARC
  5
10D5F
  8
DETAIL
  6
CONTINUOUS
 62
     5
 10
-451.00768
 20
-243.59612
 30
0.0
 40
2.49894
 50
0.0
 51
90.0
  0
ARC
  5
10D60
  8
DETAIL
  6
CONTINUOUS
 62
     5
 10
-444.01066
 20
-272.2431
 30
0.0
 40
4.49808
 50
180.0
 51
266.4628950000001
  0
LINE
  5
10D61
  8
DETAIL
  6
CONTINUOUS
 62
     5
 10
-448.50874
 20
-243.59612
 30
0.0
 11
-448.50874
 21
-272.2431
 31
0.0
  0
ARC
  5
10D62
  8
DETAIL
  6
CONTINUOUS
 62
     5
 10
-471.99872
 20
-239.09804
 30
0.0
 40
1.99914
 50
180.0
 51
270.0
  0
LINE
  5
10D63
  8
DETAIL
  6
CONTINUOUS
 62
     5
 10
-473.99788
 20
-231.10146
 30
0.0
 11
-473.99788
 21
-239.09804
 31
0.0
  0
LINE
  5
10D64
  8
DETAIL
  6
CONTINUOUS
 62
     5
 10
-409.82524
 20
-219.90622
 30
0.0
 11
-454.80606
 21
-219.90622
 31
0.0
  0
LINE
  5
10D65
  8
DETAIL
  6
CONTINUOUS
 62
     5
 10
-409.82524
 20
-179.92328
 30
0.0
 11
-465.80138
 21
-179.92328
 31
0.0
  0
LINE
  5
10D66
  8
DETAIL
  6
CONTINUOUS
 62
     5
 10
-409.82524
 20
-181.92242
 30
0.0
 11
-465.80138
 21
-181.92242
 31
0.0
  0
CIRCLE
  5
10D67
  8
DETAIL
  6
CONTINUOUS
 62
     5
 10
-374.84016
 20
-199.91476
 30
0.0
 40
1.59932
  0
CIRCLE
  5
10D68
  8
DETAIL
  6
CONTINUOUS
 62
     5
 10
-374.84016
 20
-199.91476
 30
0.0
 40
1.59932
  0
CIRCLE
  5
10D69
  8
DETAIL
  6
CONTINUOUS
 62
     5
 10
-374.84016
 20
-199.91476
 30
0.0
 40
2.39898
  0
CIRCLE
  5
10D6A
  8
DETAIL
  6
CONTINUOUS
 62
     5
 10
-374.84016
 20
-199.91476
 30
0.0
 40
2.99872
  0
CIRCLE
  5
10D6B
  8
DETAIL
  6
CONTINUOUS
 62
     5
 10
-374.84016
 20
-199.91476
 30
0.0
 40
4.698
  0
LINE
  5
10D6C
  8
DETAIL
  6
CONTINUOUS
 62
     5
 10
-376.32446
 20
-198.43046
 30
0.0
 11
-373.35588
 21
-201.39904
 31
0.0
  0
LINE
  5
10D6D
  8
DETAIL
  6
CONTINUOUS
 62
     5
 10
-373.35586
 20
-198.43046
 30
0.0
 11
-376.32446
 21
-201.39904
 31
0.0
  0
ARC
  5
10D6E
  8
DETAIL
  6
CONTINUOUS
 62
     5
 10
-465.80138
 20
-183.92158
 30
0.0
 40
3.9983
 50
90.0
 51
180.0
  0
ARC
  5
10D6F
  8
DETAIL
  6
CONTINUOUS
 62
     5
 10
-454.80606
 20
-209.91048
 30
0.0
 40
9.99574
 50
180.0
 51
270.0
  0
CIRCLE
  5
10D70
  8
DETAIL
  6
CONTINUOUS
 62
     5
 10
-444.81032
 20
-199.91476
 30
0.0
 40
1.59932
  0
CIRCLE
  5
10D71
  8
DETAIL
  6
CONTINUOUS
 62
     5
 10
-444.81032
 20
-199.91476
 30
0.0
 40
1.59932
  0
CIRCLE
  5
10D72
  8
DETAIL
  6
CONTINUOUS
 62
     5
 10
-444.81032
 20
-199.91476
 30
0.0
 40
2.39898
  0
CIRCLE
  5
10D73
  8
DETAIL
  6
CONTINUOUS
 62
     5
 10
-444.81032
 20
-199.91476
 30
0.0
 40
2.99872
  0
CIRCLE
  5
10D74
  8
DETAIL
  6
CONTINUOUS
 62
     5
 10
-444.81032
 20
-199.91476
 30
0.0
 40
4.698
  0
LINE
  5
10D75
  8
DETAIL
  6
CONTINUOUS
 62
     5
 10
-446.29462
 20
-198.43046
 30
0.0
 11
-443.32604
 21
-201.39904
 31
0.0
  0
LINE
  5
10D76
  8
DETAIL
  6
CONTINUOUS
 62
     5
 10
-443.32604
 20
-198.43046
 30
0.0
 11
-446.29462
 21
-201.39904
 31
0.0
  0
ARC
  5
10D77
  8
DETAIL
  6
CONTINUOUS
 62
     5
 10
-465.80138
 20
-183.92158
 30
0.0
 40
1.99914
 50
90.0
 51
180.0
  0
LINE
  5
10D78
  8
DETAIL
  6
CONTINUOUS
 62
     5
 10
-464.8018
 20
-209.91048
 30
0.0
 11
-464.8018
 21
-181.92242
 31
0.0
  0
LINE
  5
10D79
  8
DETAIL
  6
CONTINUOUS
 62
     5
 10
-467.80052
 20
-185.92072
 30
0.0
 11
-469.79966
 21
-185.92072
 31
0.0
  0
LINE
  5
10D7A
  8
DETAIL
  6
CONTINUOUS
 62
     5
 10
-467.80052
 20
-185.92072
 30
0.0
 11
-467.80052
 21
-183.92158
 31
0.0
  0
LINE
  5
10D7B
  8
DETAIL
  6
CONTINUOUS
 62
     5
 10
-469.79966
 20
-185.92072
 30
0.0
 11
-469.79966
 21
-183.92158
 31
0.0
  0
LINE
  5
10D7C
  8
DETAIL
  6
CONTINUOUS
 62
     5
 10
-618.46634
 20
-158.6792
 30
0.0
 11
-572.37992
 21
-162.97526
 31
0.0
  0
LINE
  5
10D7D
  8
DETAIL
  6
CONTINUOUS
 62
     5
 10
-541.67302
 20
-171.95312
 30
0.0
 11
-572.37992
 21
-171.95312
 31
0.0
  0
LINE
  5
10D7E
  8
DETAIL
  6
CONTINUOUS
 62
     5
 10
-510.63688
 20
-182.95312
 30
0.0
 11
-541.67302
 21
-182.95312
 31
0.0
  0
LINE
  5
10D7F
  8
DETAIL
  6
CONTINUOUS
 62
     5
 10
-618.46634
 20
-158.6792
 30
0.0
 11
-619.4874
 21
-157.58416
 31
0.0
  0
LINE
  5
10D80
  8
DETAIL
  6
CONTINUOUS
 62
     5
 10
-469.0
 20
-23.462
 30
0.0
 11
-510.96612
 21
-23.462
 31
0.0
  0
LINE
  5
10D81
  8
DETAIL
  6
CONTINUOUS
 62
     5
 10
-0.00852
 20
-0.00028
 30
0.0
 11
-152.8392
 21
-0.00028
 31
0.0
  0
ARC
  5
10D82
  8
DETAIL
  6
DASHED
 62
     5
 10
7.99658
 20
-35.077
 30
0.0
 40
14.9936
 50
153.575608
 51
180.0
  0
LINE
  5
10D83
  8
DETAIL
  6
DASHED
 62
     5
 10
4.997859999999999
 20
-127.44566
 30
0.0
 11
4.997859999999999
 21
-32.48614
 31
0.0
  0
LINE
  5
10D84
  8
DETAIL
  6
DASHED
 62
     5
 10
-6.99702
 20
-124.85482
 30
0.0
 11
-6.99702
 21
-35.077
 31
0.0
  0
ARC
  5
10D85
  8
DETAIL
  6
DASHED
 62
     5
 10
7.99658
 20
-124.85482
 30
0.0
 40
14.9936
 50
180.0
 51
206.424392
  0
LINE
  5
10D86
  8
DETAIL
  6
DASHED
 62
     5
 10
-409.82524
 20
0.0
 30
0.0
 11
-353.84912
 21
0.0
 31
0.0
  0
LINE
  5
10D87
  8
DETAIL
  6
DASHED
 62
     5
 10
-409.82524
 20
-39.98296
 30
0.0
 11
-364.84442
 21
-39.98296
 31
0.0
  0
LINE
  5
10D88
  8
DETAIL
  6
DASHED
 62
     5
 10
-409.82524
 20
-1.99916
 30
0.0
 11
-353.84912
 21
-1.99916
 31
0.0
  0
ARC
  5
10D89
  8
DETAIL
  6
DASHED
 62
     5
 10
-364.84442
 20
-29.98722
 30
0.0
 40
9.99574
 50
270.0
 51
0.0
  0
ARC
  5
10D8A
  8
DETAIL
  6
DASHED
 62
     5
 10
-353.84912
 20
-3.9983
 30
0.0
 40
1.99914
 50
0.0
 51
90.0
  0
ARC
  5
10D8B
  8
DETAIL
  6
DASHED
 62
     5
 10
-353.84912
 20
-3.9983
 30
0.0
 40
3.9983
 50
0.0
 51
90.0
  0
LINE
  5
10D8C
  8
DETAIL
  6
DASHED
 62
     5
 10
-354.84868
 20
-29.98722
 30
0.0
 11
-354.84868
 21
-1.99916
 31
0.0
  0
LINE
  5
10D8D
  8
DETAIL
  6
DASHED
 62
     5
 10
-351.84996
 20
-5.99744
 30
0.0
 11
-349.85082
 21
-5.99744
 31
0.0
  0
LINE
  5
10D8E
  8
DETAIL
  6
DASHED
 62
     5
 10
-351.84996
 20
-5.99744
 30
0.0
 11
-351.84996
 21
-3.9983
 31
0.0
  0
LINE
  5
10D8F
  8
DETAIL
  6
DASHED
 62
     5
 10
-349.85082
 20
-5.99744
 30
0.0
 11
-349.85082
 21
-3.9983
 31
0.0
  0
ARC
  5
10D90
  8
DETAIL
  6
DASHED
 62
     5
 10
-454.80606
 20
-29.98722
 30
0.0
 40
9.99574
 50
180.0
 51
270.0
  0
LINE
  5
10D91
  8
DETAIL
  6
DASHED
 62
     5
 10
-409.82524
 20
-39.98296
 30
0.0
 11
-454.80606
 21
-39.98296
 31
0.0
  0
LINE
  5
10D92
  8
DETAIL
  6
CONTINUOUS
 62
     5
 10
-467.4007
 20
-41.9821
 30
0.0
 11
-467.4149
 21
-41.985
 31
0.0
  0
LINE
  5
10D93
  8
DETAIL
  6
DASHED
 62
     5
 10
-409.82524
 20
0.0
 30
0.0
 11
-465.80138
 21
0.0
 31
0.0
  0
LINE
  5
10D94
  8
DETAIL
  6
DASHED
 62
     5
 10
-409.82524
 20
-1.99916
 30
0.0
 11
-465.80138
 21
-1.99916
 31
0.0
  0
CIRCLE
  5
10D95
  8
DETAIL
  6
DASHED
 62
     5
 10
-374.84016
 20
-19.99148
 30
0.0
 40
2.99872
  0
CIRCLE
  5
10D96
  8
DETAIL
  6
DASHED
 62
     5
 10
-444.81032
 20
-19.99148
 30
0.0
 40
2.99872
  0
ARC
  5
10D97
  8
DETAIL
  6
DASHED
 62
     5
 10
-465.80138
 20
-3.9983
 30
0.0
 40
1.99914
 50
90.0
 51
180.0
  0
ARC
  5
10D98
  8
DETAIL
  6
DASHED
 62
     5
 10
-465.80138
 20
-3.9983
 30
0.0
 40
3.9983
 50
90.0
 51
180.0
  0
LINE
  5
10D99
  8
DETAIL
  6
DASHED
 62
     5
 10
-464.8018
 20
-29.98722
 30
0.0
 11
-464.8018
 21
-1.99916
 31
0.0
  0
LINE
  5
10D9A
  8
DETAIL
  6
DASHED
 62
     5
 10
-467.80052
 20
-5.99744
 30
0.0
 11
-469.79966
 21
-5.99744
 31
0.0
  0
LINE
  5
10D9B
  8
DETAIL
  6
DASHED
 62
     5
 10
-467.80052
 20
-5.99744
 30
0.0
 11
-467.80052
 21
-3.9983
 31
0.0
  0
LINE
  5
10D9C
  8
DETAIL
  6
DASHED
 62
     5
 10
-469.79966
 20
-5.99744
 30
0.0
 11
-469.79966
 21
-3.9983
 31
0.0
  0
LINE
  5
10D9D
  8
DETAIL
  6
CONTINUOUS
 62
     5
 10
-618.46634
 20
-61.22702
 30
0.0
 11
-572.37992
 21
-56.93098
 31
0.0
  0
LINE
  5
10D9E
  8
DETAIL
  6
CONTINUOUS
 62
     5
 10
-540.86444
 20
-47.95312
 30
0.0
 11
-572.37992
 21
-47.95312
 31
0.0
  0
LINE
  5
10D9F
  8
DETAIL
  6
CONTINUOUS
 62
     5
 10
-510.96612
 20
-36.95312
 30
0.0
 11
-541.67302
 21
-36.95312
 31
0.0
  0
LINE
  5
10DA0
  8
DETAIL
  6
CONTINUOUS
 62
     5
 10
-618.46634
 20
-61.22702
 30
0.0
 11
-619.4874
 21
-62.32206
 31
0.0
  0
CIRCLE
  5
10DA1
  8
DETAIL
  6
DASHED
 62
     5
 39
50.0
 10
59.97442
 20
-79.9659
 30
0.0
 40
49.0
  0
CIRCLE
  5
10DA2
  8
DETAIL
  6
DASHED
 62
     5
 39
50.0
 10
269.8849
 20
-79.9659
 30
0.0
 40
49.0
  0
TEXT
  5
10DA3
  8
NOTE
  6
CONTINUOUS
 62
     4
 10
-420.538065
 20
-527.046681
 30
0.0
 40
64.0
  1
D
 41
0.9
  0
TEXT
  5
10DA4
  8
NOTE
  6
CONTINUOUS
 62
     4
 10
-449.309492
 20
-631.235522
 30
0.0
 40
64.0
  1
外径φ18（呼び径13）
 41
0.9
  0
LINE
  5
10DA5
  8
NOTE
  6
CONTINUOUS
 62
     4
 39
50.0
 10
-441.666957
 20
-544.846235
 30
0.0
 11
-358.272864
 21
-544.846235
 31
0.0
  0
LINE
  5
10DA6
  8
NOTE
  6
CONTINUOUS
 62
     4
 39
50.0
 10
-358.272864
 20
-544.846235
 30
0.0
 11
-212.805226
 21
-283.611221
 31
0.0
  0
LINE
  5
10DA7
  8
NOTE
  6
CONTINUOUS
 62
     4
 39
50.0
 10
-212.805226
 20
-283.611221
 30
0.0
 11
-214.460847
 21
-298.654898
 31
0.0
  0
LINE
  5
10DA8
  8
NOTE
  6
CONTINUOUS
 62
     4
 39
50.0
 10
-212.805226
 20
-283.611221
 30
0.0
 11
-224.721903
 21
-292.941071
 31
0.0
  0
TEXT
  5
10DA9
  8
NOTE
  6
CONTINUOUS
 62
     4
 10
614.918718
 20
-375.972863
 30
0.0
 40
64.0
  1
AH-8
 41
0.9
  0
LINE
  5
10DAA
  8
NOTE
  6
CONTINUOUS
 62
     4
 39
50.0
 10
866.577855
 20
-388.562976
 30
0.0
 11
592.9409880000001
 21
-388.562976
 31
0.0
  0
LINE
  5
10DAB
  8
NOTE
  6
CONTINUOUS
 62
     4
 39
50.0
 10
592.9409880000001
 20
-388.562976
 30
0.0
 11
459.610649
 21
-181.92242
 31
0.0
  0
LINE
  5
10DAC
  8
NOTE
  6
CONTINUOUS
 62
     4
 39
50.0
 10
459.610649
 20
-181.92242
 30
0.0
 11
467.265315
 21
-207.15755
 31
0.0
  0
LINE
  5
10DAD
  8
NOTE
  6
CONTINUOUS
 62
     4
 39
50.0
 10
459.610649
 20
-181.92242
 30
0.0
 11
479.448659
 21
-199.296511
 31
0.0
  0
LINE
  5
10DAE
  8
NOTE
  6
CONTINUOUS
 62
     4
 10
374.82522
 20
-201.071617
 30
0.0
 11
374.82522
 21
-158.774943
 31
0.0
  0
LINE
  5
10DAF
  8
NOTE
  6
CONTINUOUS
 62
     4
 10
444.82522
 20
-200.230038
 30
0.0
 11
444.82522
 21
-159.616522
 31
0.0
  0
CIRCLE
  5
10DB0
  8
FIX
  6
CONTINUOUS
 62
    11
 39
50.0
 10
374.82522
 20
-179.92328
 30
0.0
 40
6.0
  0
CIRCLE
  5
10DB1
  8
FIX
  6
CONTINUOUS
 62
    11
 39
50.0
 10
444.82522
 20
-179.92328
 30
0.0
 40
6.0
  0
LINE
  5
10DB2
  8
NOTE
  6
CONTINUOUS
 62
     4
 10
-374.859729
 20
-201.020661
 30
0.0
 11
-374.85398
 21
-158.723988
 31
0.0
  0
LINE
  5
10DB3
  8
NOTE
  6
CONTINUOUS
 62
     4
 10
-444.859614
 20
-200.169566
 30
0.0
 11
-444.854093
 21
-159.556051
 31
0.0
  0
CIRCLE
  5
10DB4
  8
FIX
  6
CONTINUOUS
 62
    11
 39
50.0
 10
-374.856854
 20
-179.872324
 30
0.0
 40
6.0
  0
CIRCLE
  5
10DB5
  8
FIX
  6
CONTINUOUS
 62
    11
 39
50.0
 10
-444.856854
 20
-179.862808
 30
0.0
 40
6.0
  0
LINE
  5
10DB6
  8
SIZE
  6
CONTINUOUS
 62
    30
 10
444.82522
 20
-220.230038
 30
0.0
 11
444.82522
 21
-488.676352
 31
0.0
  0
LINE
  5
10DB7
  8
SIZE
  6
CONTINUOUS
 62
    30
 10
374.82522
 20
-221.071617
 30
0.0
 11
374.82522
 21
-488.676352
 31
0.0
  0
LINE
  5
10DB8
  8
SIZE
  6
CONTINUOUS
 62
    30
 10
456.82522
 20
-468.676352
 30
0.0
 11
468.82522
 21
-468.676352
 31
0.0
  0
LINE
  5
10DB9
  8
SIZE
  6
CONTINUOUS
 62
    30
 10
362.82522
 20
-468.676352
 30
0.0
 11
207.568077
 21
-468.676352
 31
0.0
  0
LINE
  5
10DBA
  8
SIZE
  6
CONTINUOUS
 62
    30
 10
444.82522
 20
-468.676352
 30
0.0
 11
374.82522
 21
-468.676352
 31
0.0
  0
CIRCLE
  5
10DBB
  8
SIZE
  6
CONTINUOUS
 62
    30
 10
444.82522
 20
-468.676352
 30
0.0
 40
6.0
  0
LINE
  5
10DBC
  8
SIZE
  6
CONTINUOUS
 62
    30
 10
444.82522
 20
-468.676352
 30
0.0
 11
456.82522
 21
-468.676352
 31
0.0
  0
CIRCLE
  5
10DBD
  8
SIZE
  6
CONTINUOUS
 62
    30
 10
374.82522
 20
-468.676352
 30
0.0
 40
6.0
  0
LINE
  5
10DBE
  8
SIZE
  6
CONTINUOUS
 62
    30
 10
374.82522
 20
-468.676352
 30
0.0
 11
362.82522
 21
-468.676352
 31
0.0
  0
TEXT
  5
10DBF
  8
SIZE
  6
CONTINUOUS
 62
    30
 10
224.3395051428571
 20
-443.676352
 30
0.0
 40
64.0
  1
70
 41
0.9
 72
     1
 11
279.196648
 21
-443.676352
 31
0.0
  0
POINT
  5
10DC0
  8
DEFPOINTS
  6
CONTINUOUS
 62
    30
 10
444.82522
 20
-200.230038
 30
0.0
  0
POINT
  5
10DC1
  8
DEFPOINTS
  6
CONTINUOUS
 62
    30
 10
374.82522
 20
-201.071617
 30
0.0
  0
POINT
  5
10DC2
  8
DEFPOINTS
  6
CONTINUOUS
 62
    30
 10
374.82522
 20
-468.676352
 30
0.0
  0
ENDSEC
  0
EOF
