  0
SECTION
  2
HEADER
  9
$ACADVER
  1
AC1009
  9
$DWGCODEPAGE
  3
dos932
  9
$INSBASE
 10
0.0
 20
0.0
 30
0.0
  9
$EXTMIN
 10
-1091.7251426746679
 20
-872.22288918241793
 30
-0.0015258207003583
  9
$EXTMAX
 10
1262.1231197520649
 20
1573.974618541512
 30
0.0000000349246037
  9
$LIMMIN
 10
-2970.0
 20
-2100.0
  9
$LIMMAX
 10
2970.0
 20
2100.0
  9
$ORTHOMODE
 70
     1
  9
$REGENMODE
 70
     1
  9
$FILLMODE
 70
     1
  9
$QTEXTMODE
 70
     0
  9
$MIRRTEXT
 70
     0
  9
$LTSCALE
 40
20.0
  9
$ATTMODE
 70
     1
  9
$TEXTSIZE
 40
64.0
  9
$TRACEWID
 40
0.05
  9
$TEXTSTYLE
  7
STANDARD
  9
$CLAYER
  8
SIZE
  9
$CELTYPE
  6
CONTINUOUS
  9
$CECOLOR
 62
     7
  9
$DIMSCALE
 40
1.0
  9
$DIMASZ
 40
12.0
  9
$DIMEXO
 40
20.0
  9
$DIMDLI
 40
200.0
  9
$DIMRND
 40
0.0
  9
$DIMDLE
 40
0.0
  9
$DIMEXE
 40
20.0
  9
$DIMTP
 40
0.0
  9
$DIMTM
 40
0.0
  9
$DIMTXT
 40
64.0
  9
$DIMCEN
 40
0.09
  9
$DIMTSZ
 40
0.0
  9
$DIMTOL
 70
     0
  9
$DIMLIM
 70
     0
  9
$DIMTIH
 70
     0
  9
$DIMTOH
 70
     0
  9
$DIMSE1
 70
     0
  9
$DIMSE2
 70
     0
  9
$DIMTAD
 70
     1
  9
$DIMZIN
 70
     8
  9
$DIMBLK
  1

  9
$DIMASO
 70
     1
  9
$DIMSHO
 70
     0
  9
$DIMPOST
  1

  9
$DIMAPOST
  1

  9
$DIMALT
 70
     0
  9
$DIMALTD
 70
     2
  9
$DIMALTF
 40
25.399999999999999
  9
$DIMLFAC
 40
1.0
  9
$DIMTOFL
 70
     1
  9
$DIMTVP
 40
0.0
  9
$DIMTIX
 70
     1
  9
$DIMSOXD
 70
     0
  9
$DIMSAH
 70
     0
  9
$DIMBLK1
  1

  9
$DIMBLK2
  1

  9
$DIMSTYLE
  2
STANDARD
  9
$DIMCLRD
 70
     7
  9
$DIMCLRE
 70
     7
  9
$DIMCLRT
 70
     7
  9
$DIMTFAC
 40
1.0
  9
$DIMGAP
 40
25.0
  9
$LUNITS
 70
     2
  9
$LUPREC
 70
     4
  9
$SKETCHINC
 40
0.1
  9
$FILLETRAD
 40
3.0
  9
$AUNITS
 70
     1
  9
$AUPREC
 70
     3
  9
$MENU
  1
ACAD
  9
$ELEVATION
 40
0.0
  9
$PELEVATION
 40
0.0
  9
$THICKNESS
 40
0.0
  9
$LIMCHECK
 70
     0
  9
$CHAMFERA
 40
0.0
  9
$CHAMFERB
 40
0.0
  9
$SKPOLY
 70
     0
  9
$TDCREATE
 40
2453019.62301037
  9
$TDUPDATE
 40
2459019.509994387
  9
$TDINDWG
 40
1.7130599653
  9
$TDUSRTIMER
 40
1.7130599653
  9
$USRTIMER
 70
     1
  9
$ANGBASE
 50
0.0
  9
$ANGDIR
 70
     0
  9
$PDMODE
 70
     3
  9
$PDSIZE
 40
-2.0
  9
$PLINEWID
 40
0.0
  9
$SPLFRAME
 70
     0
  9
$SPLINETYPE
 70
     6
  9
$SPLINESEGS
 70
     8
  9
$SURFTAB1
 70
     6
  9
$SURFTAB2
 70
     6
  9
$SURFTYPE
 70
     6
  9
$SURFU
 70
     6
  9
$SURFV
 70
     6
  9
$UCSNAME
  2

  9
$UCSORG
 10
0.0
 20
0.0
 30
0.0
  9
$UCSXDIR
 10
1.0
 20
0.0
 30
0.0
  9
$UCSYDIR
 10
0.0
 20
1.0
 30
0.0
  9
$PUCSNAME
  2

  9
$PUCSORG
 10
0.0
 20
0.0
 30
0.0
  9
$PUCSXDIR
 10
1.0
 20
0.0
 30
0.0
  9
$PUCSYDIR
 10
0.0
 20
1.0
 30
0.0
  9
$USERI1
 70
     0
  9
$USERI2
 70
     0
  9
$USERI3
 70
     0
  9
$USERI4
 70
     0
  9
$USERI5
 70
     0
  9
$USERR1
 40
20.0
  9
$USERR2
 40
0.0
  9
$USERR3
 40
0.0
  9
$USERR4
 40
0.0
  9
$USERR5
 40
0.0
  9
$WORLDVIEW
 70
     1
  9
$SHADEDGE
 70
     3
  9
$SHADEDIF
 70
    70
  9
$TILEMODE
 70
     1
  9
$MAXACTVP
 70
    48
  9
$PINSBASE
 10
0.0
 20
0.0
 30
0.0
  9
$PLIMCHECK
 70
     0
  9
$PEXTMIN
 10
-100000000000000000000.0
 20
-100000000000000000000.0
 30
-100000000000000000000.0
  9
$PEXTMAX
 10
100000000000000000000.0
 20
100000000000000000000.0
 30
100000000000000000000.0
  9
$PLIMMIN
 10
0.0
 20
0.0
  9
$PLIMMAX
 10
12.0
 20
9.0
  9
$UNITMODE
 70
     0
  9
$VISRETAIN
 70
     0
  9
$PLINEGEN
 70
     0
  9
$PSLTSCALE
 70
     0
  9
$TREEDEPTH
 70
  3020
  9
$ATTDIA
 70
     0
  9
$ATTREQ
 70
     1
  9
$BLIPMODE
 70
     1
  9
$COORDS
 70
     1
  9
$DRAGMODE
 70
     2
  9
$OSMODE
 70
     0
  9
$HANDLING
 70
     0
  9
$HANDSEED
  5
F6AC
  0
ENDSEC
  0
SECTION
  2
TABLES
  0
TABLE
  2
LTYPE
 70
     3
  0
LTYPE
  2
CONTINUOUS
 70
     0
  3
実線
 72
    65
 73
     0
 40
0.0
  0
LTYPE
  2
DASHDOT
 70
     0
  3
____ _ ____ _ ____ _ ____ _ ____ _ ____ _ ____
 72
    65
 73
     4
 40
5.5
 49
4.0
 49
-0.6
 49
0.3
 49
-0.6
  0
LTYPE
  2
DIVIDE
 70
     0
  3
Divide ____ . . ____ . . ____ . . ____ . . ____
 72
    65
 73
     6
 40
1.25
 49
0.5
 49
-0.25
 49
0.0
 49
-0.25
 49
0.0
 49
-0.25
  0
ENDTAB
  0
TABLE
  2
LAYER
 70
    12
  0
LAYER
  2
0
 70
     0
 62
     7
  6
CONTINUOUS
  0
LAYER
  2
BASIS
 70
     0
 62
     6
  6
DASHDOT
  0
LAYER
  2
OUTLINE
 70
     0
 62
     3
  6
CONTINUOUS
  0
LAYER
  2
DETAIL
 70
     0
 62
     5
  6
CONTINUOUS
  0
LAYER
  2
SIZE
 70
     0
 62
    30
  6
CONTINUOUS
  0
LAYER
  2
ARRANGE
 70
     0
 62
     1
  6
CONTINUOUS
  0
LAYER
  2
DEFPOINTS
 70
     0
 62
     7
  6
CONTINUOUS
  0
LAYER
  2
ETC
 70
     0
 62
    61
  6
CONTINUOUS
  0
LAYER
  2
FIX
 70
     0
 62
    11
  6
CONTINUOUS
  0
LAYER
  2
NOTE
 70
     0
 62
     4
  6
CONTINUOUS
  0
LAYER
  2
SERVICESPACE
 70
    64
 62
     2
  6
DASHDOT
  0
LAYER
  2
SYMBOLLINE
 70
    64
 62
    15
  6
CONTINUOUS
  0
ENDTAB
  0
TABLE
  2
STYLE
 70
     1
  0
STYLE
  2
STANDARD
 70
     0
 40
64.0
 41
0.9
 50
0.0
 71
     0
 42
64.0
  3
SIMPLEX.shx
  4
BIGFONT.shx
  0
ENDTAB
  0
TABLE
  2
APPID
 70
    19
  0
APPID
  2
ACAD
 70
     0
  0
APPID
  2
AUTOCAD_POSTSCRIPT_FIGURE
 70
     0
  0
APPID
  2
ACAD_EXEMPT_FROM_CAD_STANDARDS
 70
     0
  0
APPID
  2
ACAD_PSEXT
 70
     0
  0
APPID
  2
ACAUTHENVIRON
 70
     0
  0
APPID
  2
GENIUS_GENOENT_13
 70
     0
  0
APPID
  2
GENIUS_GENCFG_13
 70
     0
  0
APPID
  2
GENIUS_GENCFG0_13
 70
     0
  0
APPID
  2
GENIUS_GENCFG1_13
 70
     0
  0
APPID
  2
GENIUS_GENCFG2_13
 70
     0
  0
APPID
  2
GENIUS_GENCFG3_13
 70
     0
  0
APPID
  2
GENIUS_GENCFG4_13
 70
     0
  0
APPID
  2
GENIUS_GEVCFG0_13
 70
     0
  0
APPID
  2
CONTENTBLOCKICON
 70
     0
  0
APPID
  2
CONTENTBLOCKDESCRIPTION
 70
     0
  0
APPID
  2
ACAD_NAV_VCDISPLAY
 70
     0
  0
APPID
  2
ACAD_MLEADERVER
 70
     0
  0
APPID
  2
ACDBDYNAMICBLOCKTRUENAME
 70
     0
  0
APPID
  2
ACDBDYNAMICBLOCKGUID
 70
     0
  0
ENDTAB
  0
TABLE
  2
DIMSTYLE
 70
     1
  0
DIMSTYLE
  2
STANDARD
 70
     0
  3

  4

  5
_ORIGIN
  6

  7

 40
1.0
 41
12.0
 42
20.0
 43
200.0
 44
20.0
 45
0.0
 46
0.0
 47
0.0
 48
0.0
140
64.0
141
0.09
142
0.0
143
25.399999999999999
144
1.0
145
0.0
146
1.0
147
25.0
 71
     0
 72
     0
 73
     0
 74
     0
 75
     0
 76
     0
 77
     1
 78
     8
170
     0
171
     2
172
     1
173
     0
174
     1
175
     0
176
     7
177
     7
178
     7
  0
ENDTAB
  0
TABLE
  2
VIEW
 70
     1
  0
VIEW
  2
ALL
 70
     0
 40
4282.6198079999986
 10
0.0
 20
41.309904000000003
 41
5940.0
 11
0.0
 21
0.0
 31
1.0
 12
0.0
 22
0.0
 32
0.0
 42
50.0
 43
0.0
 44
0.0
 50
0.0
 71
     0
  0
ENDTAB
  0
TABLE
  2
UCS
 70
     0
  0
ENDTAB
  0
TABLE
  2
VPORT
 70
     1
  0
VPORT
  2
*ACTIVE
 70
     0
 10
0.0
 20
0.0
 11
1.0
 21
1.0
 12
85.198988538698245
 22
350.87586467954679
 13
0.0
 23
0.0
 14
1.0
 24
1.0
 15
0.0
 25
0.0
 16
0.0
 26
0.0
 36
1.0
 17
0.0
 27
0.0
 37
0.0
 40
2462.415391753038
 41
1.747787610619469
 42
50.0
 43
0.0
 44
0.0
 50
0.0
 51
0.0
 71
     0
 72
  1000
 73
     1
 74
     3
 75
     0
 76
     0
 77
     0
 78
     0
  0
ENDTAB
  0
ENDSEC
  0
SECTION
  2
BLOCKS
  0
BLOCK
  8
0
  2
_ORIGIN
 70
     0
 10
0.0
 20
0.0
 30
0.0
  3
_ORIGIN
  1
_ORIGIN
  0
CIRCLE
  8
0
  6
CONTINUOUS
 62
     7
 10
0.0
 20
0.0
 30
0.0
 40
0.5
  0
LINE
  8
0
  6
CONTINUOUS
 62
     7
 10
0.0
 20
0.0
 30
0.0
 11
-1.0
 21
0.0
 31
0.0
  0
ENDBLK
  8
0
  0
ENDSEC
  0
SECTION
  2
ENTITIES
  0
LINE
  8
OUTLINE
  6
CONTINUOUS
 62
     3
 10
-223.17843444006849
 20
545.06274286847474
 30
0.0
 11
-223.178165792865
 21
545.10622457916907
 31
0.0
  0
LINE
  8
OUTLINE
  6
CONTINUOUS
 62
     3
 10
-223.178165792865
 20
545.10622457916907
 30
0.0
 11
-223.1780053797911
 21
545.13230250714332
 31
0.0
  0
ARC
  8
OUTLINE
  6
CONTINUOUS
 62
     3
 10
-298.29975780504083
 20
713.79759308509529
 30
0.0
 40
132.17479161167441
 50
312.95498757360502
 51
313.58087938261718
  0
ARC
  8
OUTLINE
  6
CONTINUOUS
 62
     3
 10
-219.07770979443649
 20
569.06110846847514
 30
0.0
 40
1.999863799999241
 50
90.0
 51
175.00000000002541
  0
ARC
  8
OUTLINE
  6
CONTINUOUS
 62
     3
 10
-274.98127010220469
 20
474.06757796847518
 30
0.0
 40
0.9999319000001592
 50
90.0
 51
180.0
  0
ARC
  8
OUTLINE
  6
CONTINUOUS
 62
     3
 10
-241.73329310113971
 20
517.08238668800186
 30
0.0
 40
1.9821268144702811
 50
90.010542234511661
 51
101.145186171731
  0
ARC
  8
OUTLINE
  6
CONTINUOUS
 62
     3
 10
-242.18350378220481
 20
517.06464966847489
 30
0.0
 40
1.99986379999935
 50
90.0
 51
180.0
  0
ARC
  8
OUTLINE
  6
CONTINUOUS
 62
     3
 10
-222.8101881548491
 20
545.13434450506975
 30
0.0
 40
0.3752085965543577
 50
191.0003888866909
 51
196.78588958177329
  0
ARC
  8
OUTLINE
  6
CONTINUOUS
 62
     3
 10
-222.80434118505849
 20
545.13620602729497
 30
0.0
 40
0.3813440422017489
 50
196.7999561085206
 51
209.05258475075459
  0
ARC
  8
OUTLINE
  6
CONTINUOUS
 62
     3
 10
-225.394154952729
 20
521.06437726847435
 30
0.0
 40
1.999857177450713
 50
270.0
 51
359.49999668851319
  0
ARC
  8
OUTLINE
  6
CONTINUOUS
 62
     3
 10
-221.24834629152519
 20
544.88913966765904
 30
0.0
 40
1.93794828273399
 50
174.8603245922107
 51
179.5046012419858
  0
ARC
  8
OUTLINE
  6
CONTINUOUS
 62
     3
 10
-221.20231027778851
 20
543.06287906847501
 30
0.0
 40
1.999863800000413
 50
90.0
 51
179.4999999999564
  0
ARC
  8
OUTLINE
  6
CONTINUOUS
 62
     3
 10
-221.18569571732129
 20
544.96671911564044
 30
0.0
 40
1.999863799999964
 50
175.00000000031321
 51
179.49999999998249
  0
ARC
  8
OUTLINE
  6
CONTINUOUS
 62
     3
 10
-99.300602370468368
 20
569.06110846847514
 30
0.0
 40
1.9998637999998961
 50
4.999999999974639
 51
90.0
  0
ARC
  8
OUTLINE
  6
CONTINUOUS
 62
     3
 10
-20.078554590850221
 20
713.79759330358138
 30
0.0
 40
132.17479161167449
 50
226.41912075528199
 51
227.04501256430521
  0
ARC
  8
OUTLINE
  6
CONTINUOUS
 62
     3
 10
-97.176001887116399
 20
543.06287906847501
 30
0.0
 40
1.9998638000001141
 50
0.5000000000435696
 51
90.0
  0
ARC
  8
OUTLINE
  6
CONTINUOUS
 62
     3
 10
-92.984157212179525
 20
521.06437726847435
 30
0.0
 40
1.999857177451108
 50
180.50000331148669
 51
270.00037947096331
  0
ARC
  8
OUTLINE
  6
CONTINUOUS
 62
     3
 10
-76.1948083822017
 20
517.06464966847489
 30
0.0
 40
1.9998637999999229
 50
0.0
 51
90.0
  0
ARC
  8
OUTLINE
  6
CONTINUOUS
 62
     3
 10
274.98127489779381
 20
474.06757796847518
 30
0.0
 40
0.9999318999998592
 50
0.0
 51
90.0
  0
ARC
  8
OUTLINE
  6
CONTINUOUS
 62
     3
 10
-362.87528411220319
 20
-324.37790798152128
 30
0.0
 40
0.499965949999541
 50
90.0
 51
180.0
  0
ARC
  8
OUTLINE
  6
CONTINUOUS
 62
     3
 10
-362.87528411220319
 20
-421.37130228152449
 30
0.0
 40
0.4999659499999365
 50
180.0
 51
270.0
  0
ARC
  8
OUTLINE
  6
CONTINUOUS
 62
     3
 10
-337.06694416385199
 20
-322.37804418152518
 30
0.0
 40
1.499897849999605
 50
270.0
 51
319.39870132958401
  0
ARC
  8
OUTLINE
  6
CONTINUOUS
 62
     3
 10
-337.06694416385199
 20
-423.37116608152041
 30
0.0
 40
1.4998978499996729
 50
40.601298904784827
 51
90.0
  0
ARC
  8
OUTLINE
  6
CONTINUOUS
 62
     3
 10
-332.45748586034011
 20
-322.37804418152518
 30
0.0
 40
1.999863800000317
 50
90.0
 51
139.39870638397289
  0
ARC
  8
OUTLINE
  6
CONTINUOUS
 62
     3
 10
-332.45748586034011
 20
-423.37116608152041
 30
0.0
 40
1.9998638000000459
 50
220.60129346909571
 51
270.0
  0
LINE
  8
OUTLINE
  6
CONTINUOUS
 62
     3
 10
-158.09893471433591
 20
618.06255798799975
 30
0.0
 11
-160.27937745057261
 21
618.06255798799975
 31
0.0
  0
LINE
  8
OUTLINE
  6
CONTINUOUS
 62
     3
 10
-111.19692547719301
 20
618.04991584298841
 30
0.0
 11
-207.18138668721349
 21
618.04991584298841
 31
0.0
  0
LINE
  8
OUTLINE
  6
CONTINUOUS
 62
     3
 10
-219.07770979443649
 20
571.06097226847487
 30
0.0
 11
-99.300602370468368
 21
571.06097226847487
 31
0.0
  0
LINE
  8
OUTLINE
  6
CONTINUOUS
 62
     3
 10
-221.20231027778851
 20
545.06274286847474
 30
0.0
 11
-97.176001887116399
 21
545.06274286847474
 31
0.0
  0
LINE
  8
OUTLINE
  6
CONTINUOUS
 62
     3
 10
-242.18350378220481
 20
519.06451346847825
 30
0.0
 11
-76.1948083822017
 21
519.06451346847825
 31
0.0
  0
LINE
  8
OUTLINE
  6
CONTINUOUS
 62
     3
 10
-243.72274040905091
 20
517.06464966847489
 30
0.0
 11
-244.18336758220451
 21
517.06464966847489
 31
0.0
  0
LINE
  8
OUTLINE
  6
CONTINUOUS
 62
     3
 10
-244.18336758220451
 20
475.06750986847692
 30
0.0
 11
-274.98127010220469
 21
475.06750986847692
 31
0.0
  0
LINE
  8
OUTLINE
  6
CONTINUOUS
 62
     3
 10
47.996733597797167
 20
475.06750986847692
 30
0.0
 11
-74.194944582205608
 21
475.06750986847692
 31
0.0
  0
LINE
  8
OUTLINE
  6
CONTINUOUS
 62
     3
 10
274.98127489779381
 20
475.06750986847692
 30
0.0
 11
217.98515659779599
 21
475.06750986847692
 31
0.0
  0
LINE
  8
OUTLINE
  6
CONTINUOUS
 62
     3
 10
-74.194944582205608
 20
473.06764606847719
 30
0.0
 11
47.996733597797167
 21
473.06764606847719
 31
0.0
  0
LINE
  8
OUTLINE
  6
CONTINUOUS
 62
     3
 10
-74.194944582205608
 20
470.06785036847577
 30
0.0
 11
-235.98392600220089
 21
470.06785036847577
 31
0.0
  0
LINE
  8
OUTLINE
  6
CONTINUOUS
 62
     3
 10
217.98515659779599
 20
470.06785036847577
 30
0.0
 11
56.196175177797159
 21
470.06785036847577
 31
0.0
  0
LINE
  8
OUTLINE
  6
CONTINUOUS
 62
     3
 10
-363.37525006220221
 20
-421.37130228152449
 30
0.0
 11
-363.37525006220221
 21
-324.37790798152128
 31
0.0
  0
LINE
  8
OUTLINE
  6
CONTINUOUS
 62
     3
 10
-223.17871159719559
 20
545.13230713932717
 30
0.0
 11
-221.0699635087212
 21
569.23540808336475
 31
0.0
  0
LINE
  8
OUTLINE
  6
CONTINUOUS
 62
     3
 10
-243.72257935452129
 20
517.08210155092092
 30
0.0
 11
-243.72274040905091
 21
517.06464966847489
 31
0.0
  0
LINE
  8
OUTLINE
  6
CONTINUOUS
 62
     3
 10
-275.98120200220268
 20
150.78973089847571
 30
0.0
 11
-275.98120200220268
 21
299.07963166847912
 31
0.0
  0
LINE
  8
OUTLINE
  6
CONTINUOUS
 62
     3
 10
-264.38199196220279
 20
-317.87835063152312
 30
0.0
 11
-264.38199196220279
 21
-288.88032553152522
 31
0.0
  0
LINE
  8
OUTLINE
  6
CONTINUOUS
 62
     3
 10
-248.7830543222035
 20
-427.87085963152282
 30
0.0
 11
-248.7830543222035
 21
-468.06812201152212
 31
0.0
  0
LINE
  8
OUTLINE
  6
CONTINUOUS
 62
     3
 10
-248.4830747522019
 20
-468.06812201152212
 30
0.0
 11
-248.4830747522019
 21
-469.26804029152117
 31
0.0
  0
LINE
  8
OUTLINE
  6
CONTINUOUS
 62
     3
 10
-248.4830747522019
 20
-469.26804029152117
 30
0.0
 11
-248.4830747522019
 21
-470.0679858115252
 31
0.0
  0
LINE
  8
OUTLINE
  6
CONTINUOUS
 62
     3
 10
-210.68564893220449
 20
571.06341313524172
 30
0.0
 11
-208.23273568697101
 21
617.06028053524278
 31
0.0
  0
LINE
  8
OUTLINE
  6
CONTINUOUS
 62
     3
 10
-223.18548346549781
 20
544.9841598723433
 30
0.0
 11
-223.39438054613771
 21
521.04692538602831
 31
0.0
  0
LINE
  8
OUTLINE
  6
CONTINUOUS
 62
     3
 10
286.74847181993118
 20
212.9245618823079
 30
0.0
 11
275.98120679779549
 21
213.10446244474949
 31
0.0
  0
LINE
  8
OUTLINE
  6
CONTINUOUS
 62
     3
 10
-275.98120200220268
 20
213.10446244474949
 30
0.0
 11
-286.94846702433512
 21
212.9245618823079
 31
0.0
  0
LINE
  8
OUTLINE
  6
CONTINUOUS
 62
     3
 10
-275.98120200220268
 20
195.4677126522038
 30
0.0
 11
-286.94846702433512
 21
195.64761321514379
 31
0.0
  0
LINE
  8
OUTLINE
  6
CONTINUOUS
 62
     3
 10
-264.38199196220279
 20
150.78973089847571
 30
0.0
 11
-275.98120200220268
 21
150.78973089847571
 31
0.0
  0
LINE
  8
OUTLINE
  6
CONTINUOUS
 62
     3
 10
275.98120679779549
 20
150.78973089847571
 30
0.0
 11
264.3819967577956
 21
150.78973089847571
 31
0.0
  0
LINE
  8
OUTLINE
  6
CONTINUOUS
 62
     3
 10
286.74847181993118
 20
195.64761321514379
 30
0.0
 11
275.98120679779549
 21
195.4677126522038
 31
0.0
  0
LINE
  8
OUTLINE
  6
CONTINUOUS
 62
     3
 10
-94.983931618268798
 20
521.04692538602831
 30
0.0
 11
-95.19282869890867
 21
544.9841598723433
 31
0.0
  0
LINE
  8
OUTLINE
  6
CONTINUOUS
 62
     3
 10
-107.6926632322056
 20
571.06341313524172
 30
0.0
 11
-110.1455764774355
 21
617.06028053524278
 31
0.0
  0
LINE
  8
OUTLINE
  6
CONTINUOUS
 62
     3
 10
-333.97589567808882
 20
-321.0765500993075
 30
0.0
 11
-335.92813688690791
 21
-323.35416484318188
 31
0.0
  0
LINE
  8
OUTLINE
  6
CONTINUOUS
 62
     3
 10
-95.199600567214475
 20
545.13230713932717
 30
0.0
 11
-97.30834865568886
 21
569.23540808336475
 31
0.0
  0
LINE
  8
OUTLINE
  6
CONTINUOUS
 62
     3
 10
19.69866082779572
 20
-472.06784961152522
 30
0.0
 11
19.69866082779572
 21
-471.71787344652688
 31
0.0
  0
LINE
  8
OUTLINE
  6
CONTINUOUS
 62
     3
 10
19.98118785089628
 20
-470.0679858115252
 30
0.0
 11
19.99507756894036
 21
-471.65958989240232
 31
0.0
  0
LINE
  8
OUTLINE
  6
CONTINUOUS
 62
     3
 10
275.78122041779812
 20
-39.19733010152413
 30
0.0
 11
264.3819967577956
 21
-39.19733010152413
 31
0.0
  0
LINE
  8
OUTLINE
  6
CONTINUOUS
 62
     3
 10
276.38117955779398
 20
-45.396907881524378
 30
0.0
 11
277.58109783779668
 21
-45.396907881524378
 31
0.0
  0
LINE
  8
OUTLINE
  6
CONTINUOUS
 62
     3
 10
172.99178392615161
 20
-471.65958989240232
 30
0.0
 11
173.00567364469771
 21
-470.0679858115252
 31
0.0
  0
LINE
  8
OUTLINE
  6
CONTINUOUS
 62
     3
 10
173.28820066779829
 20
-472.06784961152522
 30
0.0
 11
173.28820066779829
 21
-471.71787344652688
 31
0.0
  0
LINE
  8
OUTLINE
  6
CONTINUOUS
 62
     3
 10
276.38117955779398
 20
-148.08991401152531
 30
0.0
 11
277.58109783779668
 21
-148.08991401152531
 31
0.0
  0
LINE
  8
OUTLINE
  6
CONTINUOUS
 62
     3
 10
275.78122041779812
 20
-154.2894917915219
 30
0.0
 11
264.3819967577956
 21
-154.2894917915219
 31
0.0
  0
LINE
  8
OUTLINE
  6
CONTINUOUS
 62
     3
 10
248.4830795477983
 20
-468.06812201152212
 30
0.0
 11
248.4830795477983
 21
-469.26804029152117
 31
0.0
  0
LINE
  8
OUTLINE
  6
CONTINUOUS
 62
     3
 10
248.4830795477983
 20
-469.26804029152117
 30
0.0
 11
248.4830795477983
 21
-470.0679858115252
 31
0.0
  0
LINE
  8
OUTLINE
  6
CONTINUOUS
 62
     3
 10
250.48294334779439
 20
-427.87086265375137
 30
0.0
 11
250.48294334779439
 21
-468.06812201152212
 31
0.0
  0
LINE
  8
OUTLINE
  6
CONTINUOUS
 62
     3
 10
264.3819967577956
 20
-288.88032553152522
 30
0.0
 11
264.3819967577956
 21
-317.87835063152312
 31
0.0
  0
LINE
  8
OUTLINE
  6
CONTINUOUS
 62
     3
 10
264.3819967577956
 20
150.78973089847571
 30
0.0
 11
264.3819967577956
 21
-39.19733010152413
 31
0.0
  0
LINE
  8
OUTLINE
  6
CONTINUOUS
 62
     3
 10
275.78122041779812
 20
-153.68953265152231
 30
0.0
 11
275.78122041779812
 21
-39.797289241523693
 31
0.0
  0
LINE
  8
OUTLINE
  6
CONTINUOUS
 62
     3
 10
275.78122041779812
 20
-154.2894917915219
 30
0.0
 11
275.78122041779812
 21
-153.68953265152231
 31
0.0
  0
LINE
  8
OUTLINE
  6
CONTINUOUS
 62
     3
 10
275.78122041779812
 20
-39.19733010152413
 30
0.0
 11
275.78122041779812
 21
-39.797289241523693
 31
0.0
  0
LINE
  8
OUTLINE
  6
CONTINUOUS
 62
     3
 10
275.98120679779549
 20
299.07963166847912
 30
0.0
 11
275.98120679779549
 21
150.78973089847571
 31
0.0
  0
LINE
  8
OUTLINE
  6
CONTINUOUS
 62
     3
 10
275.98120679779549
 20
474.06757796847518
 30
0.0
 11
275.98120679779549
 21
425.07104802398271
 31
0.0
  0
LINE
  8
OUTLINE
  6
CONTINUOUS
 62
     3
 10
277.58109783779668
 20
-148.08991401152531
 30
0.0
 11
277.58109783779668
 21
-45.396907881524378
 31
0.0
  0
LINE
  8
OUTLINE
  6
CONTINUOUS
 62
     3
 10
-312.10531918578181
 20
-320.37818038152182
 30
0.0
 11
-332.45748586234089
 21
-320.37818038152182
 31
0.0
  0
LINE
  8
OUTLINE
  6
CONTINUOUS
 62
     3
 10
-337.06694416385199
 20
-323.87794203152231
 30
0.0
 11
-362.87528411220319
 21
-323.87794203152231
 31
0.0
  0
LINE
  8
OUTLINE
  6
CONTINUOUS
 62
     3
 10
-337.06694416385199
 20
-421.87126823152357
 30
0.0
 11
-362.87528411220319
 21
-421.87126823152357
 31
0.0
  0
LINE
  8
OUTLINE
  6
CONTINUOUS
 62
     3
 10
-312.10533864145958
 20
-425.37102988152401
 30
0.0
 11
-332.45748586283929
 21
-425.37102988152401
 31
0.0
  0
LINE
  8
OUTLINE
  6
CONTINUOUS
 62
     3
 10
-304.95653409170251
 20
-427.87085963152282
 30
0.0
 11
-289.98024860220448
 21
-427.87085963152282
 31
0.0
  0
LINE
  8
OUTLINE
  6
CONTINUOUS
 62
     3
 10
-248.4830747522019
 20
-470.0679858115252
 30
0.0
 11
248.4830795477983
 21
-470.0679858115252
 31
0.0
  0
LINE
  8
OUTLINE
  6
CONTINUOUS
 62
     3
 10
11.49921924779574
 20
-472.06784961152522
 30
0.0
 11
173.28820066779829
 21
-472.06784961152522
 31
0.0
  0
LINE
  8
OUTLINE
  6
CONTINUOUS
 62
     3
 10
-333.97589568109021
 20
-424.67266015924179
 30
0.0
 11
-335.92813689090599
 21
-422.39504541486872
 31
0.0
  0
LINE
  8
OUTLINE
  6
CONTINUOUS
 62
     3
 10
47.996733597797167
 20
470.06785036847577
 30
0.0
 11
56.196175177797159
 21
470.06785036847577
 31
0.0
  0
LINE
  8
OUTLINE
  6
CONTINUOUS
 62
     3
 10
-244.18336758220451
 20
470.06785036847577
 30
0.0
 11
-235.98392600220089
 21
470.06785036847577
 31
0.0
  0
LINE
  8
OUTLINE
  6
CONTINUOUS
 62
     3
 10
-244.18336758220451
 20
470.06785036847577
 30
0.0
 11
-244.18336758220451
 21
517.06464966847489
 31
0.0
  0
LINE
  8
OUTLINE
  6
CONTINUOUS
 62
     3
 10
-74.194944582205608
 20
470.06785036847577
 30
0.0
 11
-74.194944582205608
 21
517.06464966847489
 31
0.0
  0
LINE
  8
OUTLINE
  6
CONTINUOUS
 62
     3
 10
181.48764224779461
 20
-472.06784961152522
 30
0.0
 11
173.28820066779829
 21
-472.06784961152522
 31
0.0
  0
LINE
  8
OUTLINE
  6
CONTINUOUS
 62
     3
 10
-304.95653409170251
 20
-427.87085963152282
 30
0.0
 11
-312.10533864145958
 21
-425.37102988152401
 31
0.0
  0
LINE
  8
OUTLINE
  6
CONTINUOUS
 62
     3
 10
-312.10531918578181
 20
-320.37818038152182
 30
0.0
 11
-304.95653409170251
 21
-317.87835063152312
 31
0.0
  0
LINE
  8
OUTLINE
  6
CONTINUOUS
 62
     3
 10
-286.94846702433512
 20
212.9245618823079
 30
0.0
 11
-286.94846702433512
 21
195.64761321514379
 31
0.0
  0
LINE
  8
OUTLINE
  6
CONTINUOUS
 62
     3
 10
69.001666739933171
 20
545.06274286847474
 30
0.0
 11
69.001935387136655
 21
545.10622457916907
 31
0.0
  0
LINE
  8
OUTLINE
  6
CONTINUOUS
 62
     3
 10
69.001935387136655
 20
545.10622457916907
 30
0.0
 11
69.002095800210554
 21
545.13230250714332
 31
0.0
  0
ARC
  8
OUTLINE
  6
CONTINUOUS
 62
     3
 10
-6.1196566250391697
 20
714.79759308509529
 30
0.0
 40
132.17479161167441
 50
312.95498757360502
 51
313.58087938261718
  0
ARC
  8
OUTLINE
  6
CONTINUOUS
 62
     3
 10
73.10239138556517
 20
569.06110846847514
 30
0.0
 40
1.999863799999241
 50
90.0
 51
175.00000000002541
  0
ARC
  8
OUTLINE
  6
CONTINUOUS
 62
     3
 10
50.446808078861977
 20
517.08238668800186
 30
0.0
 40
1.9821268144702811
 50
90.010542234511661
 51
101.145186171731
  0
ARC
  8
OUTLINE
  6
CONTINUOUS
 62
     3
 10
49.996597397796897
 20
517.06464966847489
 30
0.0
 40
1.99986379999935
 50
90.0
 51
180.0
  0
ARC
  8
OUTLINE
  6
CONTINUOUS
 62
     3
 10
69.369913025152528
 20
545.13434450506975
 30
0.0
 40
0.3752085965543577
 50
191.0003888866909
 51
196.78588958177329
  0
ARC
  8
OUTLINE
  6
CONTINUOUS
 62
     3
 10
69.37575999494311
 20
545.13620602729497
 30
0.0
 40
0.3813440422017489
 50
196.7999561085206
 51
209.05258475075459
  0
ARC
  8
OUTLINE
  6
CONTINUOUS
 62
     3
 10
66.785946227272689
 20
521.06437726847435
 30
0.0
 40
1.999857177450713
 50
270.0
 51
359.49999668851319
  0
ARC
  8
OUTLINE
  6
CONTINUOUS
 62
     3
 10
70.931754888476462
 20
544.88913966765904
 30
0.0
 40
1.93794828273399
 50
174.8603245922107
 51
179.5046012419858
  0
ARC
  8
OUTLINE
  6
CONTINUOUS
 62
     3
 10
70.977790902213201
 20
543.06287906847501
 30
0.0
 40
1.999863800000413
 50
90.0
 51
179.4999999999564
  0
ARC
  8
OUTLINE
  6
CONTINUOUS
 62
     3
 10
70.994405462680334
 20
544.96671911564044
 30
0.0
 40
1.999863799999964
 50
175.00000000031321
 51
179.49999999998249
  0
ARC
  8
OUTLINE
  6
CONTINUOUS
 62
     3
 10
192.87949880953329
 20
569.06110846847514
 30
0.0
 40
1.9998637999998961
 50
4.999999999974639
 51
90.0
  0
ARC
  8
OUTLINE
  6
CONTINUOUS
 62
     3
 10
272.10154658915138
 20
714.79759330358138
 30
0.0
 40
132.17479161167449
 50
226.41912075528199
 51
227.04501256430521
  0
ARC
  8
OUTLINE
  6
CONTINUOUS
 62
     3
 10
195.00409929288529
 20
543.06287906847501
 30
0.0
 40
1.9998638000001141
 50
0.5000000000435696
 51
90.0
  0
ARC
  8
OUTLINE
  6
CONTINUOUS
 62
     3
 10
199.1959439678221
 20
521.06437726847435
 30
0.0
 40
1.999857177451108
 50
180.50000331148669
 51
270.00037947096331
  0
ARC
  8
OUTLINE
  6
CONTINUOUS
 62
     3
 10
215.98529279780001
 20
517.06464966847489
 30
0.0
 40
1.9998637999999229
 50
0.0
 51
90.0
  0
LINE
  8
OUTLINE
  6
CONTINUOUS
 62
     3
 10
134.0811664656658
 20
619.06255798799975
 30
0.0
 11
131.90072372942899
 21
619.06255798799975
 31
0.0
  0
LINE
  8
OUTLINE
  6
CONTINUOUS
 62
     3
 10
180.98317570280869
 20
619.04991584298841
 30
0.0
 11
84.998714492788167
 21
619.04991584298841
 31
0.0
  0
LINE
  8
OUTLINE
  6
CONTINUOUS
 62
     3
 10
73.10239138556517
 20
571.06097226847487
 30
0.0
 11
192.87949880953329
 21
571.06097226847487
 31
0.0
  0
LINE
  8
OUTLINE
  6
CONTINUOUS
 62
     3
 10
70.977790902213201
 20
545.06274286847474
 30
0.0
 11
195.00409929288529
 21
545.06274286847474
 31
0.0
  0
LINE
  8
OUTLINE
  6
CONTINUOUS
 62
     3
 10
49.996597397796897
 20
519.06451346847825
 30
0.0
 11
215.98529279780001
 21
519.06451346847825
 31
0.0
  0
LINE
  8
OUTLINE
  6
CONTINUOUS
 62
     3
 10
48.4573607709508
 20
517.06464966847489
 30
0.0
 11
47.996733597797167
 21
517.06464966847489
 31
0.0
  0
LINE
  8
OUTLINE
  6
CONTINUOUS
 62
     3
 10
69.001389582806041
 20
545.13230713932717
 30
0.0
 11
71.110137671280427
 21
569.23540808336475
 31
0.0
  0
LINE
  8
OUTLINE
  6
CONTINUOUS
 62
     3
 10
48.457521825480399
 20
517.08210155092092
 30
0.0
 11
48.4573607709508
 21
517.06464966847489
 31
0.0
  0
LINE
  8
OUTLINE
  6
CONTINUOUS
 62
     3
 10
81.494452247797199
 20
571.06341313524172
 30
0.0
 11
83.947365493030702
 21
618.06028053524278
 31
0.0
  0
LINE
  8
OUTLINE
  6
CONTINUOUS
 62
     3
 10
68.994617714503875
 20
544.9841598723433
 30
0.0
 11
68.785720633864003
 21
521.04692538602831
 31
0.0
  0
LINE
  8
OUTLINE
  6
CONTINUOUS
 62
     3
 10
197.19616956173289
 20
521.04692538602831
 30
0.0
 11
196.98727248109299
 21
544.9841598723433
 31
0.0
  0
LINE
  8
OUTLINE
  6
CONTINUOUS
 62
     3
 10
184.487437947796
 20
571.06341313524172
 30
0.0
 11
182.03452470256619
 21
618.06028053524278
 31
0.0
  0
LINE
  8
OUTLINE
  6
CONTINUOUS
 62
     3
 10
196.98050061278721
 20
545.13230713932717
 30
0.0
 11
194.8717525243128
 21
569.23540808336475
 31
0.0
  0
LINE
  8
OUTLINE
  6
CONTINUOUS
 62
     3
 10
47.996733597797167
 20
470.06785036847577
 30
0.0
 11
47.996733597797167
 21
517.06464966847489
 31
0.0
  0
LINE
  8
OUTLINE
  6
CONTINUOUS
 62
     3
 10
217.98515659779599
 20
470.06785036847577
 30
0.0
 11
217.98515659779599
 21
517.06464966847489
 31
0.0
  0
ARC
  8
OUTLINE
  6
CONTINUOUS
 62
     3
 10
362.87528831760659
 20
410.57203480162121
 30
0.0
 40
0.499965949999541
 50
0.0
 51
89.999999413134844
  0
ARC
  8
OUTLINE
  6
CONTINUOUS
 62
     3
 10
337.06694838973908
 20
412.57189886597013
 30
0.0
 40
1.4998978499997959
 50
220.60129407560851
 51
269.99999941313479
  0
ARC
  8
OUTLINE
  6
CONTINUOUS
 62
     3
 10
332.45749008622721
 20
412.57189891318382
 30
0.0
 40
1.999863800000413
 50
40.601294056343392
 51
89.999999413134844
  0
ARC
  8
OUTLINE
  6
CONTINUOUS
 62
     3
 10
362.87528732412369
 20
313.57864050162152
 30
0.0
 40
0.4999659499999365
 50
269.99999941313479
 51
0.0
  0
ARC
  8
OUTLINE
  6
CONTINUOUS
 62
     3
 10
337.06694735528799
 20
311.57877696597097
 30
0.0
 40
1.4998978499991691
 50
89.999999413134844
 51
139.39870477276199
  0
ARC
  8
OUTLINE
  6
CONTINUOUS
 62
     3
 10
332.45748905177612
 20
311.57877701318472
 30
0.0
 40
1.999863800000087
 50
269.99999941313479
 51
319.39870476812069
  0
ARC
  8
OUTLINE
  6
CONTINUOUS
 62
     3
 10
362.87528078966938
 20
-324.37791169837601
 30
0.0
 40
0.499965949999541
 50
0.0
 51
89.999999413134844
  0
ARC
  8
OUTLINE
  6
CONTINUOUS
 62
     3
 10
362.87527979618648
 20
-421.37130599837928
 30
0.0
 40
0.4999659499999365
 50
269.99999941313479
 51
0.0
  0
ARC
  8
OUTLINE
  6
CONTINUOUS
 62
     3
 10
337.06694086180232
 20
-322.37804763403068
 30
0.0
 40
1.499897849999605
 50
220.6012980835286
 51
269.99999941313479
  0
ARC
  8
OUTLINE
  6
CONTINUOUS
 62
     3
 10
337.06693982735118
 20
-423.37116953402619
 30
0.0
 40
1.4998978499996729
 50
89.999999413134844
 51
139.39870050832411
  0
ARC
  8
OUTLINE
  6
CONTINUOUS
 62
     3
 10
332.45748255829039
 20
-322.37804758681682
 30
0.0
 40
1.999863800000317
 50
40.601293029167842
 51
89.999999413134844
  0
ARC
  8
OUTLINE
  6
CONTINUOUS
 62
     3
 10
332.45748152383931
 20
-423.37116948681251
 30
0.0
 40
1.9998638000000459
 50
269.99999941313479
 51
319.39870594401702
  0
LINE
  8
OUTLINE
  6
CONTINUOUS
 62
     3
 10
333.97589989380958
 20
413.87339300684607
 30
0.0
 11
335.92814103430101
 21
411.5957782954747
 31
0.0
  0
LINE
  8
OUTLINE
  6
CONTINUOUS
 62
     3
 10
302.58902164148958
 20
425.07104796912148
 30
0.0
 11
289.98025295611802
 21
425.07104809827018
 31
0.0
  0
LINE
  8
OUTLINE
  6
CONTINUOUS
 62
     3
 10
313.27884245006322
 20
414.57176290962622
 30
0.0
 11
332.4574901067117
 21
414.57176271318349
 31
0.0
  0
LINE
  8
OUTLINE
  6
CONTINUOUS
 62
     3
 10
337.06694837437641
 20
411.07200101596942
 30
0.0
 11
362.87528832272761
 21
411.07200075162018
 31
0.0
  0
LINE
  8
OUTLINE
  6
CONTINUOUS
 62
     3
 10
363.37525327462299
 20
313.6274734437502
 30
0.0
 11
363.37525426760573
 21
410.57203479649979
 31
0.0
  0
LINE
  8
OUTLINE
  6
CONTINUOUS
 62
     3
 10
363.37524574618561
 20
-421.37130600350059
 30
0.0
 11
363.37524673966851
 21
-324.37791170349738
 31
0.0
  0
LINE
  8
OUTLINE
  6
CONTINUOUS
 62
     3
 10
362.87528731900238
 20
313.0786745516225
 30
0.0
 11
362.87528832272761
 21
411.07200075162018
 31
0.0
  0
LINE
  8
OUTLINE
  6
CONTINUOUS
 62
     3
 10
337.06694737065118
 20
313.07867481597168
 30
0.0
 11
362.87528731900238
 21
313.0786745516225
 31
0.0
  0
LINE
  8
OUTLINE
  6
CONTINUOUS
 62
     3
 10
313.27883737791632
 20
309.57891340962402
 30
0.0
 11
332.45748903129203
 21
309.57891321318129
 31
0.0
  0
LINE
  8
OUTLINE
  6
CONTINUOUS
 62
     3
 10
333.97589238937007
 20
-321.07655352015217
 30
0.0
 11
335.92813357486011
 21
-323.35416828402282
 31
0.0
  0
LINE
  8
OUTLINE
  6
CONTINUOUS
 62
     3
 10
333.9758988326962
 20
310.27728288891512
 30
0.0
 11
335.92814001934772
 21
312.55489755979488
 31
0.0
  0
LINE
  8
OUTLINE
  6
CONTINUOUS
 62
     3
 10
304.95653083574229
 20
-317.8783537551285
 30
0.0
 11
264.3819967577956
 21
-317.87835063152312
 31
0.0
  0
LINE
  8
OUTLINE
  6
CONTINUOUS
 62
     3
 10
312.10531590421618
 20
-320.37818357835067
 30
0.0
 11
332.45748258077538
 21
-320.37818378681368
 31
0.0
  0
LINE
  8
OUTLINE
  6
CONTINUOUS
 62
     3
 10
337.06694084643908
 20
-323.8779454840278
 30
0.0
 11
362.87528079479029
 21
-323.87794574837699
 31
0.0
  0
LINE
  8
OUTLINE
  6
CONTINUOUS
 62
     3
 10
337.06693984271442
 20
-421.87127168402913
 30
0.0
 11
362.87527979106562
 21
-421.87127194837831
 31
0.0
  0
LINE
  8
OUTLINE
  6
CONTINUOUS
 62
     3
 10
312.10533428447479
 20
-425.37103307835332
 30
0.0
 11
332.4574815058545
 21
-425.37103328681587
 31
0.0
  0
LINE
  8
OUTLINE
  6
CONTINUOUS
 62
     3
 10
304.95652970911209
 20
-427.8708627551282
 30
0.0
 11
289.98024421961418
 21
-427.87086260172919
 31
0.0
  0
LINE
  8
OUTLINE
  6
CONTINUOUS
 62
     3
 10
333.97589133125848
 20
-424.67266358008652
 30
0.0
 11
335.92813256440331
 21
-422.39504885570977
 31
0.0
  0
LINE
  8
OUTLINE
  6
CONTINUOUS
 62
     3
 10
304.95652970911209
 20
-427.8708627551282
 30
0.0
 11
312.10533428447479
 21
-425.37103307835332
 31
0.0
  0
LINE
  8
OUTLINE
  6
CONTINUOUS
 62
     3
 10
312.10531590421618
 20
-320.37818357835067
 30
0.0
 11
304.95653083574229
 21
-317.8783537551285
 31
0.0
  0
LINE
  8
OUTLINE
  6
CONTINUOUS
 62
     3
 10
302.58902164148958
 20
425.07104796912148
 30
0.0
 11
313.27884245006322
 21
414.57176290962622
 31
0.0
  0
LINE
  8
OUTLINE
  6
CONTINUOUS
 62
     3
 10
313.27883737791632
 20
309.57891340962402
 30
0.0
 11
302.58902035098617
 21
299.079628569124
 31
0.0
  0
LINE
  8
OUTLINE
  6
CONTINUOUS
 62
     3
 10
32.504152377753599
 20
-547.0627462494067
 30
0.0
 11
32.504421024957082
 21
-547.10622796010091
 31
0.0
  0
LINE
  8
OUTLINE
  6
CONTINUOUS
 62
     3
 10
32.504421024957082
 20
-547.10622796010091
 30
0.0
 11
32.504581438030982
 21
-547.13230588807528
 31
0.0
  0
ARC
  8
OUTLINE
  6
CONTINUOUS
 62
     3
 10
-42.617170987218742
 20
-716.79759646602724
 30
0.0
 40
132.17479161167441
 50
46.419120617382823
 51
47.045012426395019
  0
ARC
  8
OUTLINE
  6
CONTINUOUS
 62
     3
 10
36.604877023385598
 20
-571.0611118494071
 30
0.0
 40
1.999863799999241
 50
184.99999999997459
 51
270.0
  0
ARC
  8
OUTLINE
  6
CONTINUOUS
 62
     3
 10
13.49908303561733
 20
-519.06465304940684
 30
0.0
 40
1.99986379999935
 50
180.0
 51
270.0
  0
ARC
  8
OUTLINE
  6
CONTINUOUS
 62
     3
 10
32.872398662972962
 20
-547.13434788600171
 30
0.0
 40
0.3752085965543577
 50
163.21411041822671
 51
168.99961111333309
  0
ARC
  8
OUTLINE
  6
CONTINUOUS
 62
     3
 10
32.878245632763537
 20
-547.13620940822682
 30
0.0
 40
0.3813440422017489
 50
150.94741524920991
 51
163.200043891456
  0
ARC
  8
OUTLINE
  6
CONTINUOUS
 62
     3
 10
30.28843186509312
 20
-523.0643806494063
 30
0.0
 40
1.999857177450713
 50
0.5000033114867449
 51
90.0
  0
ARC
  8
OUTLINE
  6
CONTINUOUS
 62
     3
 10
34.43424052629689
 20
-546.889143048591
 30
0.0
 40
1.93794828273399
 50
180.4953987580142
 51
185.1396754077893
  0
ARC
  8
OUTLINE
  6
CONTINUOUS
 62
     3
 10
34.480276540033628
 20
-545.06288244940697
 30
0.0
 40
1.999863800000413
 50
180.5000000000696
 51
270.0
  0
ARC
  8
OUTLINE
  6
CONTINUOUS
 62
     3
 10
34.496891100500761
 20
-546.96672249657229
 30
0.0
 40
1.999863799999964
 50
180.50000000001751
 51
184.9999999996609
  0
ARC
  8
OUTLINE
  6
CONTINUOUS
 62
     3
 10
156.38198444735369
 20
-571.0611118494071
 30
0.0
 40
1.9998637999998961
 50
270.0
 51
355.00000000002541
  0
ARC
  8
OUTLINE
  6
CONTINUOUS
 62
     3
 10
235.6040322269719
 20
-716.79759668451322
 30
0.0
 40
132.17479161167449
 50
132.95498743569479
 51
133.58087924471809
  0
ARC
  8
OUTLINE
  6
CONTINUOUS
 62
     3
 10
158.50658493070571
 20
-545.06288244940697
 30
0.0
 40
1.9998638000001141
 50
270.0
 51
359.49999999993042
  0
ARC
  8
OUTLINE
  6
CONTINUOUS
 62
     3
 10
162.69842960564259
 20
-523.0643806494063
 30
0.0
 40
1.999857177451108
 50
89.999620528984593
 51
179.49999668851319
  0
ARC
  8
OUTLINE
  6
CONTINUOUS
 62
     3
 10
179.48777843562041
 20
-519.06465304940684
 30
0.0
 40
1.9998637999999229
 50
270.0
 51
0.0
  0
LINE
  8
OUTLINE
  6
CONTINUOUS
 62
     3
 10
97.583652103486202
 20
-621.06256136893171
 30
0.0
 11
95.403209367249474
 21
-621.06256136893171
 31
0.0
  0
LINE
  8
OUTLINE
  6
CONTINUOUS
 62
     3
 10
144.48566134062909
 20
-621.04991922392037
 30
0.0
 11
48.501200130608588
 21
-621.04991922392037
 31
0.0
  0
LINE
  8
OUTLINE
  6
CONTINUOUS
 62
     3
 10
36.604877023385598
 20
-573.06097564940671
 30
0.0
 11
156.38198444735369
 21
-573.06097564940671
 31
0.0
  0
LINE
  8
OUTLINE
  6
CONTINUOUS
 62
     3
 10
34.480276540033628
 20
-547.0627462494067
 30
0.0
 11
158.50658493070571
 21
-547.0627462494067
 31
0.0
  0
LINE
  8
OUTLINE
  6
CONTINUOUS
 62
     3
 10
13.49908303561733
 20
-521.06451684941021
 30
0.0
 11
179.48777843562041
 21
-521.06451684941021
 31
0.0
  0
LINE
  8
OUTLINE
  6
CONTINUOUS
 62
     3
 10
32.503875220626469
 20
-547.13231052025913
 30
0.0
 11
34.612623309100847
 21
-571.2354114642967
 31
0.0
  0
LINE
  8
OUTLINE
  6
CONTINUOUS
 62
     3
 10
44.996937885617633
 20
-573.06341651617367
 30
0.0
 11
47.44985113085113
 21
-620.06028391617474
 31
0.0
  0
LINE
  8
OUTLINE
  6
CONTINUOUS
 62
     3
 10
32.497103352324302
 20
-546.98416325327526
 30
0.0
 11
32.28820627168443
 21
-523.04692876696026
 31
0.0
  0
LINE
  8
OUTLINE
  6
CONTINUOUS
 62
     3
 10
160.69865519955329
 20
-523.04692876696026
 30
0.0
 11
160.48975811891339
 21
-546.98416325327526
 31
0.0
  0
LINE
  8
OUTLINE
  6
CONTINUOUS
 62
     3
 10
147.98992358561651
 20
-573.06341651617367
 30
0.0
 11
145.53701034038659
 21
-620.06028391617474
 31
0.0
  0
LINE
  8
OUTLINE
  6
CONTINUOUS
 62
     3
 10
160.48298625060761
 20
-547.13231052025913
 30
0.0
 11
158.3742381621332
 21
-571.2354114642967
 31
0.0
  0
LINE
  8
OUTLINE
  6
CONTINUOUS
 62
     3
 10
11.4992192356176
 20
-472.06785374940767
 30
0.0
 11
11.4992192356176
 21
-519.06465304940684
 31
0.0
  0
LINE
  8
OUTLINE
  6
CONTINUOUS
 62
     3
 10
181.48764223561651
 20
-472.06785374940767
 30
0.0
 11
181.48764223561651
 21
-519.06465304940684
 31
0.0
  0
LINE
  8
OUTLINE
  6
CONTINUOUS
 62
     3
 10
-223.17843444006849
 20
545.06274286847474
 30
0.0
 11
-223.178165792865
 21
545.10622457916907
 31
0.0
  0
LINE
  8
OUTLINE
  6
CONTINUOUS
 62
     3
 10
-223.178165792865
 20
545.10622457916907
 30
0.0
 11
-223.1780053797911
 21
545.13230250714332
 31
0.0
  0
ARC
  8
OUTLINE
  6
CONTINUOUS
 62
     3
 10
-298.29975780504083
 20
713.79759308509529
 30
0.0
 40
132.17479161167441
 50
312.95498757360502
 51
313.58087938261718
  0
ARC
  8
OUTLINE
  6
CONTINUOUS
 62
     3
 10
-219.07770979443649
 20
569.06110846847514
 30
0.0
 40
1.999863799999241
 50
90.0
 51
174.99999999997351
  0
ARC
  8
OUTLINE
  6
CONTINUOUS
 62
     3
 10
-274.98127010220469
 20
474.06757796847518
 30
0.0
 40
0.9999319000001592
 50
90.0
 51
180.0
  0
ARC
  8
OUTLINE
  6
CONTINUOUS
 62
     3
 10
-241.73329310113971
 20
517.08238668800186
 30
0.0
 40
1.9821268144702811
 50
90.010542234459564
 51
101.145186171731
  0
ARC
  8
OUTLINE
  6
CONTINUOUS
 62
     3
 10
-242.18350378220481
 20
517.06464966847489
 30
0.0
 40
1.99986379999935
 50
90.0
 51
180.0
  0
ARC
  8
OUTLINE
  6
CONTINUOUS
 62
     3
 10
-222.8101881548491
 20
545.13434450506975
 30
0.0
 40
0.3752085965543577
 50
191.00038888666691
 51
196.78588958177329
  0
ARC
  8
OUTLINE
  6
CONTINUOUS
 62
     3
 10
-222.80434118505849
 20
545.13620602729497
 30
0.0
 40
0.3813440422017489
 50
196.799956108544
 51
209.05258475079009
  0
ARC
  8
OUTLINE
  6
CONTINUOUS
 62
     3
 10
-225.394154952729
 20
521.06437726847435
 30
0.0
 40
1.999857177450713
 50
270.0
 51
359.4999966884609
  0
ARC
  8
OUTLINE
  6
CONTINUOUS
 62
     3
 10
-221.24834629152519
 20
544.88913966765904
 30
0.0
 40
1.93794828273399
 50
174.8603245922107
 51
179.5046012419858
  0
ARC
  8
OUTLINE
  6
CONTINUOUS
 62
     3
 10
-221.18569571732129
 20
544.96671911564044
 30
0.0
 40
1.999863799999964
 50
175.0000000002872
 51
179.50000000003459
  0
ARC
  8
OUTLINE
  6
CONTINUOUS
 62
     3
 10
-99.300602370468368
 20
569.06110846847514
 30
0.0
 40
1.9998637999998961
 50
5.0000000000265503
 51
90.0
  0
ARC
  8
OUTLINE
  6
CONTINUOUS
 62
     3
 10
-20.078554590850221
 20
713.79759330358138
 30
0.0
 40
132.17479161167449
 50
226.41912075528199
 51
227.04501256430521
  0
ARC
  8
OUTLINE
  6
CONTINUOUS
 62
     3
 10
-92.984157212179525
 20
521.06437726847435
 30
0.0
 40
1.999857177451108
 50
180.5000033115391
 51
270.00037947096331
  0
ARC
  8
OUTLINE
  6
CONTINUOUS
 62
     3
 10
-76.1948083822017
 20
517.06464966847489
 30
0.0
 40
1.9998637999999229
 50
0.0
 51
90.0
  0
ARC
  8
OUTLINE
  6
CONTINUOUS
 62
     3
 10
274.98127489779381
 20
474.06757796847518
 30
0.0
 40
0.9999318999998592
 50
0.0
 51
90.0
  0
ARC
  8
OUTLINE
  6
CONTINUOUS
 62
     3
 10
-362.87528411220319
 20
-324.37790798152128
 30
0.0
 40
0.499965949999541
 50
90.0
 51
180.0
  0
ARC
  8
OUTLINE
  6
CONTINUOUS
 62
     3
 10
-362.87528411220319
 20
-421.37130228152449
 30
0.0
 40
0.4999659499999365
 50
180.0
 51
270.0
  0
ARC
  8
OUTLINE
  6
CONTINUOUS
 62
     3
 10
-337.06694416385199
 20
-322.37804418152518
 30
0.0
 40
1.499897849999605
 50
270.0
 51
319.39870132958401
  0
ARC
  8
OUTLINE
  6
CONTINUOUS
 62
     3
 10
-337.06694416385199
 20
-423.37116608152041
 30
0.0
 40
1.4998978499996729
 50
40.601298904784827
 51
90.0
  0
ARC
  8
OUTLINE
  6
CONTINUOUS
 62
     3
 10
-332.45748586034011
 20
-322.37804418152518
 30
0.0
 40
1.999863800000317
 50
90.0
 51
139.39870638397289
  0
ARC
  8
OUTLINE
  6
CONTINUOUS
 62
     3
 10
-332.45748586034011
 20
-423.37116608152041
 30
0.0
 40
1.9998638000000459
 50
220.60129346909571
 51
270.0
  0
ARC
  8
OUTLINE
  6
CONTINUOUS
 62
     3
 10
19.69866082779572
 20
-470.91792792652268
 30
0.0
 40
0.7999455199992274
 50
269.99999999989569
 51
291.78488836386498
  0
ARC
  8
OUTLINE
  6
CONTINUOUS
 62
     3
 10
173.28820066779829
 20
-470.91792792652268
 30
0.0
 40
0.7999455200002091
 50
248.2151116027137
 51
270.0
  0
LINE
  8
OUTLINE
  6
CONTINUOUS
 62
     3
 10
-158.09893471433591
 20
618.06255798799975
 30
0.0
 11
-160.27937745057261
 21
618.06255798799975
 31
0.0
  0
LINE
  8
OUTLINE
  6
CONTINUOUS
 62
     3
 10
-111.19692547719301
 20
618.04991584298841
 30
0.0
 11
-207.18138668721349
 21
618.04991584298841
 31
0.0
  0
LINE
  8
OUTLINE
  6
CONTINUOUS
 62
     3
 10
-219.07770979443649
 20
571.06097226847487
 30
0.0
 11
-99.300602370468368
 21
571.06097226847487
 31
0.0
  0
LINE
  8
OUTLINE
  6
CONTINUOUS
 62
     3
 10
-242.18350378220481
 20
519.06451346847825
 30
0.0
 11
-76.1948083822017
 21
519.06451346847825
 31
0.0
  0
LINE
  8
OUTLINE
  6
CONTINUOUS
 62
     3
 10
-243.72274040905091
 20
517.06464966847489
 30
0.0
 11
-244.18336758220451
 21
517.06464966847489
 31
0.0
  0
LINE
  8
OUTLINE
  6
CONTINUOUS
 62
     3
 10
-244.18336758220451
 20
475.06750986847692
 30
0.0
 11
-274.98127010220469
 21
475.06750986847692
 31
0.0
  0
LINE
  8
OUTLINE
  6
CONTINUOUS
 62
     3
 10
47.996733597797167
 20
475.06750986847692
 30
0.0
 11
-74.194944582205608
 21
475.06750986847692
 31
0.0
  0
LINE
  8
OUTLINE
  6
CONTINUOUS
 62
     3
 10
274.98127489779381
 20
475.06750986847692
 30
0.0
 11
217.98515659779599
 21
475.06750986847692
 31
0.0
  0
LINE
  8
OUTLINE
  6
CONTINUOUS
 62
     3
 10
-363.37525006220221
 20
-421.37130228152449
 30
0.0
 11
-363.37525006220221
 21
-324.37790798152128
 31
0.0
  0
LINE
  8
OUTLINE
  6
CONTINUOUS
 62
     3
 10
-223.17871159719559
 20
545.13230713932717
 30
0.0
 11
-221.0699635087212
 21
569.23540808336475
 31
0.0
  0
LINE
  8
OUTLINE
  6
CONTINUOUS
 62
     3
 10
-243.72257935452129
 20
517.08210155092092
 30
0.0
 11
-243.72274040905091
 21
517.06464966847489
 31
0.0
  0
LINE
  8
OUTLINE
  6
CONTINUOUS
 62
     3
 10
-275.98120200220268
 20
150.78973089847571
 30
0.0
 11
-275.98120200220268
 21
474.06757796847518
 31
0.0
  0
LINE
  8
OUTLINE
  6
CONTINUOUS
 62
     3
 10
-264.38199196220279
 20
-288.88032553152522
 30
0.0
 11
-264.38199196220279
 21
150.78973089847571
 31
0.0
  0
LINE
  8
OUTLINE
  6
CONTINUOUS
 62
     3
 10
-264.38199196220279
 20
-317.87835063152312
 30
0.0
 11
-264.38199196220279
 21
-288.88032553152522
 31
0.0
  0
LINE
  8
OUTLINE
  6
CONTINUOUS
 62
     3
 10
-248.4830747522019
 20
-468.06812201152212
 30
0.0
 11
-248.4830747522019
 21
-469.26804029152117
 31
0.0
  0
LINE
  8
OUTLINE
  6
CONTINUOUS
 62
     3
 10
-248.4830747522019
 20
-469.26804029152117
 30
0.0
 11
-248.4830747522019
 21
-470.0679858115252
 31
0.0
  0
LINE
  8
OUTLINE
  6
CONTINUOUS
 62
     3
 10
-210.68564893220449
 20
571.06341313524172
 30
0.0
 11
-208.23273568697101
 21
617.06028053524278
 31
0.0
  0
LINE
  8
OUTLINE
  6
CONTINUOUS
 62
     3
 10
-223.18548346549781
 20
544.9841598723433
 30
0.0
 11
-223.39438054613771
 21
521.04692538602831
 31
0.0
  0
LINE
  8
OUTLINE
  6
CONTINUOUS
 62
     3
 10
286.74847181993118
 20
212.9245618823079
 30
0.0
 11
275.98120679779549
 21
213.10446244474949
 31
0.0
  0
LINE
  8
OUTLINE
  6
CONTINUOUS
 62
     3
 10
-275.98120200220268
 20
213.10446244474949
 30
0.0
 11
-286.94846702433512
 21
212.9245618823079
 31
0.0
  0
LINE
  8
OUTLINE
  6
CONTINUOUS
 62
     3
 10
-275.98120200220268
 20
195.4677126522038
 30
0.0
 11
-286.94846702433512
 21
195.64761321514379
 31
0.0
  0
LINE
  8
OUTLINE
  6
CONTINUOUS
 62
     3
 10
-264.38199196220279
 20
150.78973089847571
 30
0.0
 11
-275.98120200220268
 21
150.78973089847571
 31
0.0
  0
LINE
  8
OUTLINE
  6
CONTINUOUS
 62
     3
 10
275.98120679779549
 20
150.78973089847571
 30
0.0
 11
264.3819967577956
 21
150.78973089847571
 31
0.0
  0
LINE
  8
OUTLINE
  6
CONTINUOUS
 62
     3
 10
286.74847181993118
 20
195.64761321514379
 30
0.0
 11
275.98120679779549
 21
195.4677126522038
 31
0.0
  0
LINE
  8
OUTLINE
  6
CONTINUOUS
 62
     3
 10
-94.983931618268798
 20
521.04692538602831
 30
0.0
 11
-95.19282869890867
 21
544.9841598723433
 31
0.0
  0
LINE
  8
OUTLINE
  6
CONTINUOUS
 62
     3
 10
-107.6926632322056
 20
571.06341313524172
 30
0.0
 11
-110.1455764774355
 21
617.06028053524278
 31
0.0
  0
LINE
  8
OUTLINE
  6
CONTINUOUS
 62
     3
 10
-333.97589567808882
 20
-321.0765500993075
 30
0.0
 11
-335.92813688690791
 21
-323.35416484318188
 31
0.0
  0
LINE
  8
OUTLINE
  6
CONTINUOUS
 62
     3
 10
-95.199600567214475
 20
545.13230713932717
 30
0.0
 11
-97.30834865568886
 21
569.23540808336475
 31
0.0
  0
LINE
  8
OUTLINE
  6
CONTINUOUS
 62
     3
 10
19.69866082779572
 20
-472.06784961152522
 30
0.0
 11
19.69866082779572
 21
-471.71787344652688
 31
0.0
  0
LINE
  8
OUTLINE
  6
CONTINUOUS
 62
     3
 10
19.98118785089628
 20
-470.0679858115252
 30
0.0
 11
19.99507756894036
 21
-471.65958989240232
 31
0.0
  0
LINE
  8
OUTLINE
  6
CONTINUOUS
 62
     3
 10
275.78122041779812
 20
-39.19733010152413
 30
0.0
 11
264.3819967577956
 21
-39.19733010152413
 31
0.0
  0
LINE
  8
OUTLINE
  6
CONTINUOUS
 62
     3
 10
276.38117955779398
 20
-45.396907881524378
 30
0.0
 11
277.58109783779668
 21
-45.396907881524378
 31
0.0
  0
LINE
  8
OUTLINE
  6
CONTINUOUS
 62
     3
 10
172.99178392615161
 20
-471.65958989240232
 30
0.0
 11
173.00567364469771
 21
-470.0679858115252
 31
0.0
  0
LINE
  8
OUTLINE
  6
CONTINUOUS
 62
     3
 10
173.28820066779829
 20
-472.06784961152522
 30
0.0
 11
173.28820066779829
 21
-471.71787344652688
 31
0.0
  0
LINE
  8
OUTLINE
  6
CONTINUOUS
 62
     3
 10
276.38117955779398
 20
-148.08991401152531
 30
0.0
 11
277.58109783779668
 21
-148.08991401152531
 31
0.0
  0
LINE
  8
OUTLINE
  6
CONTINUOUS
 62
     3
 10
275.78122041779812
 20
-154.2894917915219
 30
0.0
 11
264.3819967577956
 21
-154.2894917915219
 31
0.0
  0
LINE
  8
OUTLINE
  6
CONTINUOUS
 62
     3
 10
248.4830795477983
 20
-468.06812201152212
 30
0.0
 11
248.4830795477983
 21
-469.26804029152117
 31
0.0
  0
LINE
  8
OUTLINE
  6
CONTINUOUS
 62
     3
 10
248.4830795477983
 20
-469.26804029152117
 30
0.0
 11
248.4830795477983
 21
-470.0679858115252
 31
0.0
  0
LINE
  8
OUTLINE
  6
CONTINUOUS
 62
     3
 10
264.3819967577956
 20
-154.2894917915219
 30
0.0
 11
264.3819967577956
 21
-317.87835063152312
 31
0.0
  0
LINE
  8
OUTLINE
  6
CONTINUOUS
 62
     3
 10
275.78122041779812
 20
-153.68953265152231
 30
0.0
 11
275.78122041779812
 21
-39.797289241523693
 31
0.0
  0
LINE
  8
OUTLINE
  6
CONTINUOUS
 62
     3
 10
275.78122041779812
 20
-154.2894917915219
 30
0.0
 11
275.78122041779812
 21
-153.68953265152231
 31
0.0
  0
LINE
  8
OUTLINE
  6
CONTINUOUS
 62
     3
 10
275.78122041779812
 20
-39.19733010152413
 30
0.0
 11
275.78122041779812
 21
-39.797289241523693
 31
0.0
  0
LINE
  8
OUTLINE
  6
CONTINUOUS
 62
     3
 10
275.98120679779549
 20
299.07963166847912
 30
0.0
 11
275.98120679779549
 21
150.78973089847571
 31
0.0
  0
LINE
  8
OUTLINE
  6
CONTINUOUS
 62
     3
 10
275.98120679779549
 20
474.06757796847518
 30
0.0
 11
275.98120679779549
 21
425.07104802398271
 31
0.0
  0
LINE
  8
OUTLINE
  6
CONTINUOUS
 62
     3
 10
277.58109783779668
 20
-148.08991401152531
 30
0.0
 11
277.58109783779668
 21
-45.396907881524378
 31
0.0
  0
LINE
  8
OUTLINE
  6
CONTINUOUS
 62
     3
 10
-304.95653409170251
 20
-317.87835063152312
 30
0.0
 11
-264.38199196220279
 21
-317.87835063152312
 31
0.0
  0
LINE
  8
OUTLINE
  6
CONTINUOUS
 62
     3
 10
-312.10531918578181
 20
-320.37818038152182
 30
0.0
 11
-332.45748586234089
 21
-320.37818038152182
 31
0.0
  0
LINE
  8
OUTLINE
  6
CONTINUOUS
 62
     3
 10
-337.06694416385199
 20
-323.87794203152231
 30
0.0
 11
-362.87528411220319
 21
-323.87794203152231
 31
0.0
  0
LINE
  8
OUTLINE
  6
CONTINUOUS
 62
     3
 10
-337.06694416385199
 20
-421.87126823152357
 30
0.0
 11
-362.87528411220319
 21
-421.87126823152357
 31
0.0
  0
LINE
  8
OUTLINE
  6
CONTINUOUS
 62
     3
 10
-312.10533864145958
 20
-425.37102988152401
 30
0.0
 11
-332.45748586283929
 21
-425.37102988152401
 31
0.0
  0
LINE
  8
OUTLINE
  6
CONTINUOUS
 62
     3
 10
-304.95653409170251
 20
-427.87085963152282
 30
0.0
 11
-248.7830543222035
 21
-427.87085963152282
 31
0.0
  0
LINE
  8
OUTLINE
  6
CONTINUOUS
 62
     3
 10
250.48294334779439
 20
-468.06812201152212
 30
0.0
 11
-248.7830543222035
 21
-468.06812201152212
 31
0.0
  0
LINE
  8
OUTLINE
  6
CONTINUOUS
 62
     3
 10
-248.4830747522019
 20
-470.0679858115252
 30
0.0
 11
248.4830795477983
 21
-470.0679858115252
 31
0.0
  0
LINE
  8
OUTLINE
  6
CONTINUOUS
 62
     3
 10
11.49921924779574
 20
-472.06784961152522
 30
0.0
 11
173.28820066779829
 21
-472.06784961152522
 31
0.0
  0
LINE
  8
OUTLINE
  6
CONTINUOUS
 62
     3
 10
-333.97589568109021
 20
-424.67266015924179
 30
0.0
 11
-335.92813689090599
 21
-422.39504541486872
 31
0.0
  0
LINE
  8
OUTLINE
  6
CONTINUOUS
 62
     3
 10
-244.18336758220451
 20
470.06785036847577
 30
0.0
 11
-244.18336758220451
 21
517.06464966847489
 31
0.0
  0
LINE
  8
OUTLINE
  6
CONTINUOUS
 62
     3
 10
-74.194944582205608
 20
470.06785036847577
 30
0.0
 11
-74.194944582205608
 21
517.06464966847489
 31
0.0
  0
LINE
  8
OUTLINE
  6
CONTINUOUS
 62
     3
 10
181.48764224779461
 20
-472.06784961152522
 30
0.0
 11
173.28820066779829
 21
-472.06784961152522
 31
0.0
  0
LINE
  8
OUTLINE
  6
CONTINUOUS
 62
     3
 10
-304.95653409170251
 20
-427.87085963152282
 30
0.0
 11
-312.10533864145958
 21
-425.37102988152401
 31
0.0
  0
LINE
  8
OUTLINE
  6
CONTINUOUS
 62
     3
 10
-312.10531918578181
 20
-320.37818038152182
 30
0.0
 11
-304.95653409170251
 21
-317.87835063152312
 31
0.0
  0
LINE
  8
OUTLINE
  6
CONTINUOUS
 62
     3
 10
-286.94846702433512
 20
212.9245618823079
 30
0.0
 11
-286.94846702433512
 21
195.64761321514379
 31
0.0
  0
LINE
  8
OUTLINE
  6
CONTINUOUS
 62
     3
 10
69.001666739933171
 20
545.06274286847474
 30
0.0
 11
69.001935387136655
 21
545.10622457916907
 31
0.0
  0
LINE
  8
OUTLINE
  6
CONTINUOUS
 62
     3
 10
69.001935387136655
 20
545.10622457916907
 30
0.0
 11
69.002095800210554
 21
545.13230250714332
 31
0.0
  0
ARC
  8
OUTLINE
  6
CONTINUOUS
 62
     3
 10
-6.1196566250391697
 20
714.79759308509529
 30
0.0
 40
132.17479161167441
 50
312.95498757360502
 51
313.58087938261718
  0
ARC
  8
OUTLINE
  6
CONTINUOUS
 62
     3
 10
73.10239138556517
 20
569.06110846847514
 30
0.0
 40
1.999863799999241
 50
90.0
 51
174.99999999997351
  0
ARC
  8
OUTLINE
  6
CONTINUOUS
 62
     3
 10
50.446808078861977
 20
517.08238668800186
 30
0.0
 40
1.9821268144702811
 50
90.010542234511661
 51
101.145186171731
  0
ARC
  8
OUTLINE
  6
CONTINUOUS
 62
     3
 10
49.996597397796897
 20
517.06464966847489
 30
0.0
 40
1.99986379999935
 50
90.0
 51
180.0
  0
ARC
  8
OUTLINE
  6
CONTINUOUS
 62
     3
 10
69.369913025152528
 20
545.13434450506975
 30
0.0
 40
0.3752085965543577
 50
191.00038888666691
 51
196.78588958177329
  0
ARC
  8
OUTLINE
  6
CONTINUOUS
 62
     3
 10
69.37575999494311
 20
545.13620602729497
 30
0.0
 40
0.3813440422017489
 50
196.799956108544
 51
209.05258475079009
  0
ARC
  8
OUTLINE
  6
CONTINUOUS
 62
     3
 10
66.785946227272689
 20
521.06437726847435
 30
0.0
 40
1.999857177450713
 50
270.0
 51
359.49999668851319
  0
ARC
  8
OUTLINE
  6
CONTINUOUS
 62
     3
 10
70.931754888476462
 20
544.88913966765904
 30
0.0
 40
1.93794828273399
 50
174.8603245922107
 51
179.5046012419858
  0
ARC
  8
OUTLINE
  6
CONTINUOUS
 62
     3
 10
70.994405462680334
 20
544.96671911564044
 30
0.0
 40
1.999863799999964
 50
175.0000000002872
 51
179.49999999998249
  0
ARC
  8
OUTLINE
  6
CONTINUOUS
 62
     3
 10
192.87949880953329
 20
569.06110846847514
 30
0.0
 40
1.9998637999998961
 50
4.999999999974639
 51
90.0
  0
ARC
  8
OUTLINE
  6
CONTINUOUS
 62
     3
 10
272.10154658915138
 20
714.79759330358138
 30
0.0
 40
132.17479161167449
 50
226.41912075528199
 51
227.04501256430521
  0
ARC
  8
OUTLINE
  6
CONTINUOUS
 62
     3
 10
199.1959439678221
 20
521.06437726847435
 30
0.0
 40
1.999857177451108
 50
180.50000331148669
 51
270.00037947096331
  0
ARC
  8
OUTLINE
  6
CONTINUOUS
 62
     3
 10
215.98529279780001
 20
517.06464966847489
 30
0.0
 40
1.9998637999999229
 50
0.0
 51
90.0
  0
LINE
  8
OUTLINE
  6
CONTINUOUS
 62
     3
 10
134.0811664656658
 20
619.06255798799975
 30
0.0
 11
131.90072372942899
 21
619.06255798799975
 31
0.0
  0
LINE
  8
OUTLINE
  6
CONTINUOUS
 62
     3
 10
180.98317570280869
 20
619.04991584298841
 30
0.0
 11
84.998714492788167
 21
619.04991584298841
 31
0.0
  0
LINE
  8
OUTLINE
  6
CONTINUOUS
 62
     3
 10
73.10239138556517
 20
571.06097226847487
 30
0.0
 11
192.87949880953329
 21
571.06097226847487
 31
0.0
  0
LINE
  8
OUTLINE
  6
CONTINUOUS
 62
     3
 10
49.996597397796897
 20
519.06451346847825
 30
0.0
 11
215.98529279780001
 21
519.06451346847825
 31
0.0
  0
LINE
  8
OUTLINE
  6
CONTINUOUS
 62
     3
 10
48.4573607709508
 20
517.06464966847489
 30
0.0
 11
47.996733597797167
 21
517.06464966847489
 31
0.0
  0
LINE
  8
OUTLINE
  6
CONTINUOUS
 62
     3
 10
69.001389582806041
 20
545.13230713932717
 30
0.0
 11
71.110137671280427
 21
569.23540808336475
 31
0.0
  0
LINE
  8
OUTLINE
  6
CONTINUOUS
 62
     3
 10
48.457521825480399
 20
517.08210155092092
 30
0.0
 11
48.4573607709508
 21
517.06464966847489
 31
0.0
  0
LINE
  8
OUTLINE
  6
CONTINUOUS
 62
     3
 10
81.494452247797199
 20
571.06341313524172
 30
0.0
 11
83.947365493030702
 21
618.06028053524278
 31
0.0
  0
LINE
  8
OUTLINE
  6
CONTINUOUS
 62
     3
 10
68.994617714503875
 20
544.9841598723433
 30
0.0
 11
68.785720633864003
 21
521.04692538602831
 31
0.0
  0
LINE
  8
OUTLINE
  6
CONTINUOUS
 62
     3
 10
197.19616956173289
 20
521.04692538602831
 30
0.0
 11
196.98727248109299
 21
544.9841598723433
 31
0.0
  0
LINE
  8
OUTLINE
  6
CONTINUOUS
 62
     3
 10
184.487437947796
 20
571.06341313524172
 30
0.0
 11
182.03452470256619
 21
618.06028053524278
 31
0.0
  0
LINE
  8
OUTLINE
  6
CONTINUOUS
 62
     3
 10
196.98050061278721
 20
545.13230713932717
 30
0.0
 11
194.8717525243128
 21
569.23540808336475
 31
0.0
  0
LINE
  8
OUTLINE
  6
CONTINUOUS
 62
     3
 10
47.996733597797167
 20
470.06785036847577
 30
0.0
 11
47.996733597797167
 21
517.06464966847489
 31
0.0
  0
LINE
  8
OUTLINE
  6
CONTINUOUS
 62
     3
 10
217.98515659779599
 20
470.06785036847577
 30
0.0
 11
217.98515659779599
 21
517.06464966847489
 31
0.0
  0
ARC
  8
OUTLINE
  6
CONTINUOUS
 62
     3
 10
362.87528831760659
 20
410.57203480162121
 30
0.0
 40
0.499965949999541
 50
0.0
 51
89.999999413134844
  0
ARC
  8
OUTLINE
  6
CONTINUOUS
 62
     3
 10
337.06694838973908
 20
412.57189886597013
 30
0.0
 40
1.4998978499997959
 50
220.60129407560851
 51
269.99999941313479
  0
ARC
  8
OUTLINE
  6
CONTINUOUS
 62
     3
 10
332.45749008622721
 20
412.57189891318382
 30
0.0
 40
1.999863800000413
 50
40.601294056343392
 51
89.999999413134844
  0
ARC
  8
OUTLINE
  6
CONTINUOUS
 62
     3
 10
362.87528732412369
 20
313.57864050162152
 30
0.0
 40
0.4999659499999365
 50
269.99999941313479
 51
0.0
  0
ARC
  8
OUTLINE
  6
CONTINUOUS
 62
     3
 10
337.06694735528799
 20
311.57877696597097
 30
0.0
 40
1.4998978499991691
 50
89.999999413134844
 51
139.39870477276199
  0
ARC
  8
OUTLINE
  6
CONTINUOUS
 62
     3
 10
332.45748905177612
 20
311.57877701318472
 30
0.0
 40
1.999863800000087
 50
269.99999941313479
 51
319.39870476812069
  0
ARC
  8
OUTLINE
  6
CONTINUOUS
 62
     3
 10
362.87528078966938
 20
-324.37791169837601
 30
0.0
 40
0.499965949999541
 50
0.0
 51
89.999999413134844
  0
ARC
  8
OUTLINE
  6
CONTINUOUS
 62
     3
 10
362.87527979618648
 20
-421.37130599837928
 30
0.0
 40
0.4999659499999365
 50
269.99999941313479
 51
0.0
  0
ARC
  8
OUTLINE
  6
CONTINUOUS
 62
     3
 10
337.06694086180232
 20
-322.37804763403068
 30
0.0
 40
1.499897849999605
 50
220.6012980835286
 51
269.99999941313479
  0
ARC
  8
OUTLINE
  6
CONTINUOUS
 62
     3
 10
337.06693982735118
 20
-423.37116953402619
 30
0.0
 40
1.4998978499996729
 50
89.999999413134844
 51
139.39870050832411
  0
ARC
  8
OUTLINE
  6
CONTINUOUS
 62
     3
 10
332.45748255829039
 20
-322.37804758681682
 30
0.0
 40
1.999863800000317
 50
40.601293029178962
 51
89.999999413134844
  0
ARC
  8
OUTLINE
  6
CONTINUOUS
 62
     3
 10
332.45748152383931
 20
-423.37116948681251
 30
0.0
 40
1.9998638000000459
 50
269.99999941313479
 51
319.39870594401702
  0
LINE
  8
OUTLINE
  6
CONTINUOUS
 62
     3
 10
333.97589989380958
 20
413.87339300684607
 30
0.0
 11
335.92814103430101
 21
411.5957782954747
 31
0.0
  0
LINE
  8
OUTLINE
  6
CONTINUOUS
 62
     3
 10
302.58902164148958
 20
425.07104796912148
 30
0.0
 11
275.98120679779549
 21
425.07104808006079
 31
0.0
  0
LINE
  8
OUTLINE
  6
CONTINUOUS
 62
     3
 10
313.27884245006322
 20
414.57176290962622
 30
0.0
 11
332.4574901067117
 21
414.57176271318349
 31
0.0
  0
LINE
  8
OUTLINE
  6
CONTINUOUS
 62
     3
 10
337.06694837437641
 20
411.07200101596942
 30
0.0
 11
362.87528832272761
 21
411.07200075162018
 31
0.0
  0
LINE
  8
OUTLINE
  6
CONTINUOUS
 62
     3
 10
363.37525327462299
 20
313.6274734437502
 30
0.0
 11
363.37525426760573
 21
410.57203479649979
 31
0.0
  0
LINE
  8
OUTLINE
  6
CONTINUOUS
 62
     3
 10
363.37524574618561
 20
-421.37130600350059
 30
0.0
 11
363.37524673966851
 21
-324.37791170349738
 31
0.0
  0
LINE
  8
OUTLINE
  6
CONTINUOUS
 62
     3
 10
362.87528731900238
 20
313.0786745516225
 30
0.0
 11
362.87528832272761
 21
411.07200075162018
 31
0.0
  0
LINE
  8
OUTLINE
  6
CONTINUOUS
 62
     3
 10
337.06694737065118
 20
313.07867481597168
 30
0.0
 11
362.87528731900238
 21
313.0786745516225
 31
0.0
  0
LINE
  8
OUTLINE
  6
CONTINUOUS
 62
     3
 10
313.27883737791632
 20
309.57891340962402
 30
0.0
 11
332.45748903129203
 21
309.57891321318129
 31
0.0
  0
LINE
  8
OUTLINE
  6
CONTINUOUS
 62
     3
 10
302.58902035098617
 20
299.079628569124
 30
0.0
 11
275.98120679779549
 21
299.07962884166199
 31
0.0
  0
LINE
  8
OUTLINE
  6
CONTINUOUS
 62
     3
 10
333.97589238937007
 20
-321.07655352015217
 30
0.0
 11
335.92813357486011
 21
-323.35416828402282
 31
0.0
  0
LINE
  8
OUTLINE
  6
CONTINUOUS
 62
     3
 10
333.9758988326962
 20
310.27728288891512
 30
0.0
 11
335.92814001934772
 21
312.55489755979488
 31
0.0
  0
LINE
  8
OUTLINE
  6
CONTINUOUS
 62
     3
 10
304.95653083574229
 20
-317.8783537551285
 30
0.0
 11
264.3819967577956
 21
-317.87835063152312
 31
0.0
  0
LINE
  8
OUTLINE
  6
CONTINUOUS
 62
     3
 10
312.10531590421618
 20
-320.37818357835067
 30
0.0
 11
332.45748258077538
 21
-320.37818378681368
 31
0.0
  0
LINE
  8
OUTLINE
  6
CONTINUOUS
 62
     3
 10
337.06694084643908
 20
-323.8779454840278
 30
0.0
 11
362.87528079479029
 21
-323.87794574837699
 31
0.0
  0
LINE
  8
OUTLINE
  6
CONTINUOUS
 62
     3
 10
337.06693984271442
 20
-421.87127168402913
 30
0.0
 11
362.87527979106562
 21
-421.87127194837831
 31
0.0
  0
LINE
  8
OUTLINE
  6
CONTINUOUS
 62
     3
 10
312.10533428447479
 20
-425.37103307835332
 30
0.0
 11
332.4574815058545
 21
-425.37103328681587
 31
0.0
  0
LINE
  8
OUTLINE
  6
CONTINUOUS
 62
     3
 10
304.95652970911209
 20
-427.8708627551282
 30
0.0
 11
250.48294334779439
 21
-427.87086265375137
 31
0.0
  0
LINE
  8
OUTLINE
  6
CONTINUOUS
 62
     3
 10
333.97589133125848
 20
-424.67266358008652
 30
0.0
 11
335.92813256440331
 21
-422.39504885570977
 31
0.0
  0
LINE
  8
OUTLINE
  6
CONTINUOUS
 62
     3
 10
304.95652970911209
 20
-427.8708627551282
 30
0.0
 11
312.10533428447479
 21
-425.37103307835332
 31
0.0
  0
LINE
  8
OUTLINE
  6
CONTINUOUS
 62
     3
 10
312.10531590421618
 20
-320.37818357835067
 30
0.0
 11
304.95653083574229
 21
-317.8783537551285
 31
0.0
  0
LINE
  8
OUTLINE
  6
CONTINUOUS
 62
     3
 10
302.58902164148958
 20
425.07104796912148
 30
0.0
 11
313.27884245006322
 21
414.57176290962622
 31
0.0
  0
LINE
  8
OUTLINE
  6
CONTINUOUS
 62
     3
 10
313.27883737791632
 20
309.57891340962402
 30
0.0
 11
302.58902035098617
 21
299.079628569124
 31
0.0
  0
LINE
  8
OUTLINE
  6
CONTINUOUS
 62
     3
 10
32.504152377753599
 20
-547.0627462494067
 30
0.0
 11
32.504421024957082
 21
-547.10622796010091
 31
0.0
  0
LINE
  8
OUTLINE
  6
CONTINUOUS
 62
     3
 10
32.504421024957082
 20
-547.10622796010091
 30
0.0
 11
32.504581438030982
 21
-547.13230588807528
 31
0.0
  0
ARC
  8
OUTLINE
  6
CONTINUOUS
 62
     3
 10
-42.617170987218742
 20
-716.79759646602724
 30
0.0
 40
132.17479161167441
 50
46.419120617382823
 51
47.045012426395019
  0
ARC
  8
OUTLINE
  6
CONTINUOUS
 62
     3
 10
36.604877023385598
 20
-571.0611118494071
 30
0.0
 40
1.999863799999241
 50
184.99999999997459
 51
270.0
  0
ARC
  8
OUTLINE
  6
CONTINUOUS
 62
     3
 10
13.49908303561733
 20
-519.06465304940684
 30
0.0
 40
1.99986379999935
 50
180.0
 51
270.0
  0
ARC
  8
OUTLINE
  6
CONTINUOUS
 62
     3
 10
32.872398662972962
 20
-547.13434788600171
 30
0.0
 40
0.3752085965543577
 50
163.21411041822671
 51
168.99961111333309
  0
ARC
  8
OUTLINE
  6
CONTINUOUS
 62
     3
 10
32.878245632763537
 20
-547.13620940822682
 30
0.0
 40
0.3813440422017489
 50
150.94741524920991
 51
163.200043891456
  0
ARC
  8
OUTLINE
  6
CONTINUOUS
 62
     3
 10
30.28843186509312
 20
-523.0643806494063
 30
0.0
 40
1.999857177450713
 50
0.5000033114867449
 51
90.0
  0
ARC
  8
OUTLINE
  6
CONTINUOUS
 62
     3
 10
34.43424052629689
 20
-546.889143048591
 30
0.0
 40
1.93794828273399
 50
180.4953987580142
 51
185.1396754077893
  0
ARC
  8
OUTLINE
  6
CONTINUOUS
 62
     3
 10
34.496891100500761
 20
-546.96672249657229
 30
0.0
 40
1.999863799999964
 50
180.50000000001751
 51
184.9999999996609
  0
ARC
  8
OUTLINE
  6
CONTINUOUS
 62
     3
 10
156.38198444735369
 20
-571.0611118494071
 30
0.0
 40
1.9998637999998961
 50
270.0
 51
355.00000000002541
  0
ARC
  8
OUTLINE
  6
CONTINUOUS
 62
     3
 10
235.6040322269719
 20
-716.79759668451322
 30
0.0
 40
132.17479161167449
 50
132.95498743569479
 51
133.58087924471809
  0
ARC
  8
OUTLINE
  6
CONTINUOUS
 62
     3
 10
162.69842960564259
 20
-523.0643806494063
 30
0.0
 40
1.999857177451108
 50
89.999620528984593
 51
179.49999668851319
  0
ARC
  8
OUTLINE
  6
CONTINUOUS
 62
     3
 10
179.48777843562041
 20
-519.06465304940684
 30
0.0
 40
1.9998637999999229
 50
270.0
 51
0.0
  0
LINE
  8
OUTLINE
  6
CONTINUOUS
 62
     3
 10
97.583652103486202
 20
-621.06256136893171
 30
0.0
 11
95.403209367249474
 21
-621.06256136893171
 31
0.0
  0
LINE
  8
OUTLINE
  6
CONTINUOUS
 62
     3
 10
144.48566134062909
 20
-621.04991922392037
 30
0.0
 11
48.501200130608588
 21
-621.04991922392037
 31
0.0
  0
LINE
  8
OUTLINE
  6
CONTINUOUS
 62
     3
 10
36.604877023385598
 20
-573.06097564940671
 30
0.0
 11
156.38198444735369
 21
-573.06097564940671
 31
0.0
  0
LINE
  8
OUTLINE
  6
CONTINUOUS
 62
     3
 10
13.49908303561733
 20
-521.06451684941021
 30
0.0
 11
179.48777843562041
 21
-521.06451684941021
 31
0.0
  0
LINE
  8
OUTLINE
  6
CONTINUOUS
 62
     3
 10
32.503875220626469
 20
-547.13231052025913
 30
0.0
 11
34.612623309100847
 21
-571.2354114642967
 31
0.0
  0
LINE
  8
OUTLINE
  6
CONTINUOUS
 62
     3
 10
44.996937885617633
 20
-573.06341651617367
 30
0.0
 11
47.44985113085113
 21
-620.06028391617474
 31
0.0
  0
LINE
  8
OUTLINE
  6
CONTINUOUS
 62
     3
 10
32.497103352324302
 20
-546.98416325327526
 30
0.0
 11
32.28820627168443
 21
-523.04692876696026
 31
0.0
  0
LINE
  8
OUTLINE
  6
CONTINUOUS
 62
     3
 10
160.69865519955329
 20
-523.04692876696026
 30
0.0
 11
160.48975811891339
 21
-546.98416325327526
 31
0.0
  0
LINE
  8
OUTLINE
  6
CONTINUOUS
 62
     3
 10
147.98992358561651
 20
-573.06341651617367
 30
0.0
 11
145.53701034038659
 21
-620.06028391617474
 31
0.0
  0
LINE
  8
OUTLINE
  6
CONTINUOUS
 62
     3
 10
160.48298625060761
 20
-547.13231052025913
 30
0.0
 11
158.3742381621332
 21
-571.2354114642967
 31
0.0
  0
LINE
  8
OUTLINE
  6
CONTINUOUS
 62
     3
 10
11.4992192356176
 20
-472.06785374940767
 30
0.0
 11
11.4992192356176
 21
-519.06465304940684
 31
0.0
  0
LINE
  8
OUTLINE
  6
CONTINUOUS
 62
     3
 10
181.48764223561651
 20
-472.06785374940767
 30
0.0
 11
181.48764223561651
 21
-519.06465304940684
 31
0.0
  0
LINE
  8
OUTLINE
  6
CONTINUOUS
 62
     3
 10
286.74847181993118
 20
212.9245618823079
 30
0.0
 11
286.74847181993118
 21
195.64761321514379
 31
0.0
  0
LINE
  8
OUTLINE
  6
CONTINUOUS
 62
     3
 10
286.74847181993118
 20
212.9245618823079
 30
0.0
 11
286.74847181993118
 21
195.64761321514379
 31
0.0
  0
TEXT
  8
ETC
  6
CONTINUOUS
 62
    61
 10
554.37725285674878
 20
1462.826078366586
 30
0.0
 40
64.0
  1
VL-200ZMHS4_1
 41
0.9
  0
TEXT
  8
ETC
  6
CONTINUOUS
 62
    61
 10
550.19125885674839
 20
1344.870768351755
 30
0.0
 40
64.0
  1
換気扇
 41
0.9
  0
CIRCLE
  8
ARRANGE
  6
CONTINUOUS
 62
     1
 10
0.0
 20
0.0
 30
0.0
 40
40.0
  0
POINT
  8
ARRANGE
  6
CONTINUOUS
 62
     1
 10
0.0
 20
0.0
 30
0.0
  0
LINE
  8
BASIS
  6
DASHDOT
 62
     6
 10
0.0
 20
-109.2854010143142
 30
0.0
 11
0.0
 21
109.2854010143142
 31
0.0
  0
LINE
  8
BASIS
  6
DASHDOT
 62
     6
 10
125.4561247050906
 20
0.0
 30
0.0
 11
-125.4561247050906
 21
0.0
 31
0.0
  0
TEXT
  8
ETC
  6
CONTINUOUS
 62
    61
 10
600.89265710530435
 20
1236.72199546553
 30
0.0
 40
40.0
  1
VL-200ZMHS4
 41
0.9
  0
LINE
  8
DETAIL
  6
CONTINUOUS
 62
     5
 10
-112.3254222323294
 20
476.16830755304909
 30
0.0
 11
-112.3650212859493
 21
491.35213693284459
 31
0.0
  0
LINE
  8
DETAIL
  6
CONTINUOUS
 62
     5
 10
-112.4175337216102
 20
493.93770644257171
 30
0.0
 11
-112.5511182848813
 21
517.08210155092092
 31
0.0
  0
LINE
  8
DETAIL
  6
CONTINUOUS
 62
     5
 10
-205.82719387952511
 20
517.08210155092092
 30
0.0
 11
-205.96078206904991
 21
493.93770644257171
 31
0.0
  0
LINE
  8
DETAIL
  6
CONTINUOUS
 62
     5
 10
-223.17843444006849
 20
545.06274286847474
 30
0.0
 11
-223.178165792865
 21
545.10622457916907
 31
0.0
  0
LINE
  8
DETAIL
  6
CONTINUOUS
 62
     5
 10
-223.178165792865
 20
545.10622457916907
 30
0.0
 11
-223.1780053797911
 21
545.13230250714332
 31
0.0
  0
LINE
  8
DETAIL
  6
CONTINUOUS
 62
     5
 10
-235.6262035517602
 20
494.23787227438521
 30
0.0
 11
-235.45857413310199
 21
517.08210155092092
 31
0.0
  0
LINE
  8
DETAIL
  6
CONTINUOUS
 62
     5
 10
-82.684317398040548
 20
491.35286000760237
 30
0.0
 11
-82.498984009106607
 21
470.06785036847577
 31
0.0
  0
LINE
  8
DETAIL
  6
CONTINUOUS
 62
     5
 10
-82.919738031806446
 20
517.08210155092092
 30
0.0
 11
-82.752102308072608
 21
494.23790313828431
 31
0.0
  0
LINE
  8
DETAIL
  6
CONTINUOUS
 62
     5
 10
-206.0132910064485
 20
491.3520879276839
 30
0.0
 11
-206.05288993257909
 21
476.16830755304909
 31
0.0
  0
LINE
  8
DETAIL
  6
CONTINUOUS
 62
     5
 10
50.74087242171754
 20
-477.56311209066553
 30
0.0
 11
50.725601943170659
 21
-477.56318938050731
 31
0.0
  0
LINE
  8
DETAIL
  6
CONTINUOUS
 62
     5
 10
50.725601943170659
 20
-477.56318938050731
 30
0.0
 11
50.7103341321681
 21
-477.56333813325182
 31
0.0
  0
LINE
  8
DETAIL
  6
CONTINUOUS
 62
     5
 10
50.7103341321681
 20
-477.56333813325182
 30
0.0
 11
50.7103341321681
 21
-477.56333813325182
 31
0.0
  0
LINE
  8
DETAIL
  6
CONTINUOUS
 62
     5
 10
50.7103341321681
 20
-477.56333813325182
 30
0.0
 11
50.69506936307971
 21
-477.56361492538417
 31
0.0
  0
LINE
  8
DETAIL
  6
CONTINUOUS
 62
     5
 10
50.69506936307971
 20
-477.56361492538417
 30
0.0
 11
50.67979883760654
 21
-477.56401678778639
 31
0.0
  0
LINE
  8
DETAIL
  6
CONTINUOUS
 62
     5
 10
50.67979883760654
 20
-477.56401678778639
 30
0.0
 11
50.67979883760654
 21
-477.56401678778639
 31
0.0
  0
LINE
  8
DETAIL
  6
CONTINUOUS
 62
     5
 10
50.67979883760654
 20
-477.56401678778639
 30
0.0
 11
50.664521284464172
 21
-477.56452908828942
 31
0.0
  0
LINE
  8
DETAIL
  6
CONTINUOUS
 62
     5
 10
50.664521284464172
 20
-477.56452908828942
 30
0.0
 11
50.64927471320425
 21
-477.56515008813221
 31
0.0
  0
LINE
  8
DETAIL
  6
CONTINUOUS
 62
     5
 10
50.64927471320425
 20
-477.56515008813221
 30
0.0
 11
50.64927471320425
 21
-477.56515008813221
 31
0.0
  0
LINE
  8
DETAIL
  6
CONTINUOUS
 62
     5
 10
50.64927471320425
 20
-477.56515008813221
 30
0.0
 11
50.634069965920389
 21
-477.56588326490242
 31
0.0
  0
LINE
  8
DETAIL
  6
CONTINUOUS
 62
     5
 10
50.634069965920389
 20
-477.56588326490242
 30
0.0
 11
50.618769934128977
 21
-477.56674006814859
 31
0.0
  0
LINE
  8
DETAIL
  6
CONTINUOUS
 62
     5
 10
50.618769934128977
 20
-477.56674006814859
 30
0.0
 11
50.618769934128977
 21
-477.56674006814859
 31
0.0
  0
LINE
  8
DETAIL
  6
CONTINUOUS
 62
     5
 10
50.618769934128977
 20
-477.56674006814859
 30
0.0
 11
50.603338652083949
 21
-477.56772274509422
 31
0.0
  0
LINE
  8
DETAIL
  6
CONTINUOUS
 62
     5
 10
50.603338652083949
 20
-477.56772274509422
 30
0.0
 11
50.588292675563032
 21
-477.5687887616989
 31
0.0
  0
LINE
  8
DETAIL
  6
CONTINUOUS
 62
     5
 10
50.588292675563032
 20
-477.5687887616989
 30
0.0
 11
50.588292675563032
 21
-477.5687887616989
 31
0.0
  0
LINE
  8
DETAIL
  6
CONTINUOUS
 62
     5
 10
50.588292675563032
 20
-477.5687887616989
 30
0.0
 11
50.574069043203963
 21
-477.56990057081572
 31
0.0
  0
LINE
  8
DETAIL
  6
CONTINUOUS
 62
     5
 10
50.574069043203963
 20
-477.56990057081572
 30
0.0
 11
50.560234203539039
 21
-477.57108535410589
 31
0.0
  0
LINE
  8
DETAIL
  6
CONTINUOUS
 62
     5
 10
50.560234203539039
 20
-477.57108535410589
 30
0.0
 11
50.560234203539039
 21
-477.57108535410589
 31
0.0
  0
LINE
  8
DETAIL
  6
CONTINUOUS
 62
     5
 10
50.560234203539039
 20
-477.57108535410589
 30
0.0
 11
50.546272690037767
 21
-477.5723777359417
 31
0.0
  0
LINE
  8
DETAIL
  6
CONTINUOUS
 62
     5
 10
50.546272690037767
 20
-477.5723777359417
 30
0.0
 11
50.532211966064096
 21
-477.57377738264768
 31
0.0
  0
LINE
  8
DETAIL
  6
CONTINUOUS
 62
     5
 10
50.532211966064096
 20
-477.57377738264768
 30
0.0
 11
50.532211966064096
 21
-477.57377738264768
 31
0.0
  0
LINE
  8
DETAIL
  6
CONTINUOUS
 62
     5
 10
50.532211966064096
 20
-477.57377738264768
 30
0.0
 11
50.518188503131569
 21
-477.57527606059381
 31
0.0
  0
LINE
  8
DETAIL
  6
CONTINUOUS
 62
     5
 10
50.518188503131569
 20
-477.57527606059381
 30
0.0
 11
50.504231875435828
 21
-477.57686889430619
 31
0.0
  0
LINE
  8
DETAIL
  6
CONTINUOUS
 62
     5
 10
50.504231875435828
 20
-477.57686889430619
 30
0.0
 11
50.504231875435828
 21
-477.57686889430619
 31
0.0
  0
LINE
  8
DETAIL
  6
CONTINUOUS
 62
     5
 10
50.504231875435828
 20
-477.57686889430619
 30
0.0
 11
50.490316097694631
 21
-477.57855722921158
 31
0.0
  0
LINE
  8
DETAIL
  6
CONTINUOUS
 62
     5
 10
50.490316097694631
 20
-477.57855722921158
 30
0.0
 11
50.476299843951892
 21
-477.58036393608199
 31
0.0
  0
LINE
  8
DETAIL
  6
CONTINUOUS
 62
     5
 10
50.476299843951892
 20
-477.58036393608199
 30
0.0
 11
50.476299843951892
 21
-477.58036393608199
 31
0.0
  0
LINE
  8
DETAIL
  6
CONTINUOUS
 62
     5
 10
50.476299843951892
 20
-477.58036393608199
 30
0.0
 11
50.462155018068188
 21
-477.58229490213489
 31
0.0
  0
LINE
  8
DETAIL
  6
CONTINUOUS
 62
     5
 10
50.462155018068188
 20
-477.58229490213489
 30
0.0
 11
50.448421783898993
 21
-477.58426655496078
 31
0.0
  0
LINE
  8
DETAIL
  6
CONTINUOUS
 62
     5
 10
50.448421783898993
 20
-477.58426655496078
 30
0.0
 11
50.448421783898993
 21
-477.58426655496078
 31
0.0
  0
LINE
  8
DETAIL
  6
CONTINUOUS
 62
     5
 10
50.448421783898993
 20
-477.58426655496078
 30
0.0
 11
50.435554903376207
 21
-477.58620653755128
 31
0.0
  0
LINE
  8
DETAIL
  6
CONTINUOUS
 62
     5
 10
50.435554903376207
 20
-477.58620653755128
 30
0.0
 11
50.423099270717103
 21
-477.58817681411159
 31
0.0
  0
LINE
  8
DETAIL
  6
CONTINUOUS
 62
     5
 10
50.423099270717103
 20
-477.58817681411159
 30
0.0
 11
50.423099270717103
 21
-477.58817681411159
 31
0.0
  0
LINE
  8
DETAIL
  6
CONTINUOUS
 62
     5
 10
50.423099270717103
 20
-477.58817681411159
 30
0.0
 11
50.410514940464957
 21
-477.59025328069038
 31
0.0
  0
LINE
  8
DETAIL
  6
CONTINUOUS
 62
     5
 10
50.410514940464957
 20
-477.59025328069038
 30
0.0
 11
50.397832476072843
 21
-477.5924332394934
 31
0.0
  0
LINE
  8
DETAIL
  6
CONTINUOUS
 62
     5
 10
50.397832476072843
 20
-477.5924332394934
 30
0.0
 11
50.397832476072843
 21
-477.5924332394934
 31
0.0
  0
LINE
  8
DETAIL
  6
CONTINUOUS
 62
     5
 10
50.397832476072843
 20
-477.5924332394934
 30
0.0
 11
50.385195268111602
 21
-477.59469768559211
 31
0.0
  0
LINE
  8
DETAIL
  6
CONTINUOUS
 62
     5
 10
50.385195268111602
 20
-477.59469768559211
 30
0.0
 11
50.372627506659228
 21
-477.59704097934809
 31
0.0
  0
LINE
  8
DETAIL
  6
CONTINUOUS
 62
     5
 10
50.372627506659228
 20
-477.59704097934809
 30
0.0
 11
50.372627506659228
 21
-477.59704097934809
 31
0.0
  0
LINE
  8
DETAIL
  6
CONTINUOUS
 62
     5
 10
50.372627506659228
 20
-477.59704097934809
 30
0.0
 11
50.360100154933207
 21
-477.59946710561422
 31
0.0
  0
LINE
  8
DETAIL
  6
CONTINUOUS
 62
     5
 10
50.360100154933207
 20
-477.59946710561422
 30
0.0
 11
50.347490469172953
 21
-477.60200518192511
 31
0.0
  0
LINE
  8
DETAIL
  6
CONTINUOUS
 62
     5
 10
50.347490469172953
 20
-477.60200518192511
 30
0.0
 11
50.347490469172953
 21
-477.60200518192511
 31
0.0
  0
LINE
  8
DETAIL
  6
CONTINUOUS
 62
     5
 10
50.347490469172953
 20
-477.60200518192511
 30
0.0
 11
50.334775785971033
 21
-477.60466213498148
 31
0.0
  0
LINE
  8
DETAIL
  6
CONTINUOUS
 62
     5
 10
50.334775785971033
 20
-477.60466213498148
 30
0.0
 11
50.32242747030341
 21
-477.60733099546269
 31
0.0
  0
LINE
  8
DETAIL
  6
CONTINUOUS
 62
     5
 10
50.32242747030341
 20
-477.60733099546269
 30
0.0
 11
50.32242747030341
 21
-477.60733099546269
 31
0.0
  0
LINE
  8
DETAIL
  6
CONTINUOUS
 62
     5
 10
50.32242747030341
 20
-477.60733099546269
 30
0.0
 11
50.310841900803098
 21
-477.60992003869978
 31
0.0
  0
LINE
  8
DETAIL
  6
CONTINUOUS
 62
     5
 10
50.310841900803098
 20
-477.60992003869978
 30
0.0
 11
50.299621482358823
 21
-477.61251241466022
 31
0.0
  0
LINE
  8
DETAIL
  6
CONTINUOUS
 62
     5
 10
50.299621482358823
 20
-477.61251241466022
 30
0.0
 11
50.299621482358823
 21
-477.61251241466022
 31
0.0
  0
LINE
  8
DETAIL
  6
CONTINUOUS
 62
     5
 10
50.299621482358823
 20
-477.61251241466022
 30
0.0
 11
50.288294719875012
 21
-477.61520880151852
 31
0.0
  0
LINE
  8
DETAIL
  6
CONTINUOUS
 62
     5
 10
50.288294719875012
 20
-477.61520880151852
 30
0.0
 11
50.276888492125181
 21
-477.61800511553878
 31
0.0
  0
LINE
  8
DETAIL
  6
CONTINUOUS
 62
     5
 10
50.276888492125181
 20
-477.61800511553878
 30
0.0
 11
50.276888492125181
 21
-477.61800511553878
 31
0.0
  0
LINE
  8
DETAIL
  6
CONTINUOUS
 62
     5
 10
50.276888492125181
 20
-477.61800511553878
 30
0.0
 11
50.265528171174992
 21
-477.62087588313813
 31
0.0
  0
LINE
  8
DETAIL
  6
CONTINUOUS
 62
     5
 10
50.265528171174992
 20
-477.62087588313813
 30
0.0
 11
50.254234728386109
 21
-477.62381483325589
 31
0.0
  0
LINE
  8
DETAIL
  6
CONTINUOUS
 62
     5
 10
50.254234728386109
 20
-477.62381483325589
 30
0.0
 11
50.254234728386109
 21
-477.62381483325589
 31
0.0
  0
LINE
  8
DETAIL
  6
CONTINUOUS
 62
     5
 10
50.254234728386109
 20
-477.62381483325589
 30
0.0
 11
50.242982842189122
 21
-477.62682748341831
 31
0.0
  0
LINE
  8
DETAIL
  6
CONTINUOUS
 62
     5
 10
50.242982842189122
 20
-477.62682748341831
 30
0.0
 11
50.231666419925197
 21
-477.62994730299761
 31
0.0
  0
LINE
  8
DETAIL
  6
CONTINUOUS
 62
     5
 10
50.231666419925197
 20
-477.62994730299761
 30
0.0
 11
50.231666419925197
 21
-477.62994730299761
 31
0.0
  0
LINE
  8
DETAIL
  6
CONTINUOUS
 62
     5
 10
50.231666419925197
 20
-477.62994730299761
 30
0.0
 11
50.220266047422228
 21
-477.63318199684733
 31
0.0
  0
LINE
  8
DETAIL
  6
CONTINUOUS
 62
     5
 10
50.220266047422228
 20
-477.63318199684733
 30
0.0
 11
50.209189795522427
 21
-477.63640825992479
 31
0.0
  0
LINE
  8
DETAIL
  6
CONTINUOUS
 62
     5
 10
50.209189795522427
 20
-477.63640825992479
 30
0.0
 11
50.209189795522427
 21
-477.63640825992479
 31
0.0
  0
LINE
  8
DETAIL
  6
CONTINUOUS
 62
     5
 10
50.209189795522427
 20
-477.63640825992479
 30
0.0
 11
50.198780709045423
 21
-477.63952084755852
 31
0.0
  0
LINE
  8
DETAIL
  6
CONTINUOUS
 62
     5
 10
50.198780709045423
 20
-477.63952084755852
 30
0.0
 11
50.188694243727703
 21
-477.64261776651261
 31
0.0
  0
LINE
  8
DETAIL
  6
CONTINUOUS
 62
     5
 10
50.188694243727703
 20
-477.64261776651261
 30
0.0
 11
50.188694243727703
 21
-477.64261776651261
 31
0.0
  0
LINE
  8
DETAIL
  6
CONTINUOUS
 62
     5
 10
50.188694243727703
 20
-477.64261776651261
 30
0.0
 11
50.178521975806689
 21
-477.64581704833108
 31
0.0
  0
LINE
  8
DETAIL
  6
CONTINUOUS
 62
     5
 10
50.178521975806689
 20
-477.64581704833108
 30
0.0
 11
50.168287552592119
 21
-477.64911357230079
 31
0.0
  0
LINE
  8
DETAIL
  6
CONTINUOUS
 62
     5
 10
50.168287552592119
 20
-477.64911357230079
 30
0.0
 11
50.168287552592119
 21
-477.64911357230079
 31
0.0
  0
LINE
  8
DETAIL
  6
CONTINUOUS
 62
     5
 10
50.168287552592119
 20
-477.64911357230079
 30
0.0
 11
50.158099837107329
 21
-477.65247730759802
 31
0.0
  0
LINE
  8
DETAIL
  6
CONTINUOUS
 62
     5
 10
50.158099837107329
 20
-477.65247730759802
 30
0.0
 11
50.147976484114217
 21
-477.65590173536839
 31
0.0
  0
LINE
  8
DETAIL
  6
CONTINUOUS
 62
     5
 10
50.147976484114217
 20
-477.65590173536839
 30
0.0
 11
50.147976484114217
 21
-477.65590173536839
 31
0.0
  0
LINE
  8
DETAIL
  6
CONTINUOUS
 62
     5
 10
50.147976484114217
 20
-477.65590173536839
 30
0.0
 11
50.137895536806347
 21
-477.65939349085971
 31
0.0
  0
LINE
  8
DETAIL
  6
CONTINUOUS
 62
     5
 10
50.137895536806347
 20
-477.65939349085971
 30
0.0
 11
50.127767800303452
 21
-477.66298831379748
 31
0.0
  0
LINE
  8
DETAIL
  6
CONTINUOUS
 62
     5
 10
50.127767800303452
 20
-477.66298831379748
 30
0.0
 11
50.127767800303452
 21
-477.66298831379748
 31
0.0
  0
LINE
  8
DETAIL
  6
CONTINUOUS
 62
     5
 10
50.127767800303452
 20
-477.66298831379748
 30
0.0
 11
50.117577310343222
 21
-477.66669423756679
 31
0.0
  0
LINE
  8
DETAIL
  6
CONTINUOUS
 62
     5
 10
50.117577310343222
 20
-477.66669423756679
 30
0.0
 11
50.107668263161941
 21
-477.67037936567078
 31
0.0
  0
LINE
  8
DETAIL
  6
CONTINUOUS
 62
     5
 10
50.107668263161941
 20
-477.67037936567078
 30
0.0
 11
50.107668263161941
 21
-477.67037936567078
 31
0.0
  0
LINE
  8
DETAIL
  6
CONTINUOUS
 62
     5
 10
50.107668263161941
 20
-477.67037936567078
 30
0.0
 11
50.098329876565003
 21
-477.67393143459049
 31
0.0
  0
LINE
  8
DETAIL
  6
CONTINUOUS
 62
     5
 10
50.098329876565003
 20
-477.67393143459049
 30
0.0
 11
50.089271294030368
 21
-477.67745664262469
 31
0.0
  0
LINE
  8
DETAIL
  6
CONTINUOUS
 62
     5
 10
50.089271294030368
 20
-477.67745664262469
 30
0.0
 11
50.089271294030368
 21
-477.67745664262469
 31
0.0
  0
LINE
  8
DETAIL
  6
CONTINUOUS
 62
     5
 10
50.089271294030368
 20
-477.67745664262469
 30
0.0
 11
50.080147896857852
 21
-477.68108248815412
 31
0.0
  0
LINE
  8
DETAIL
  6
CONTINUOUS
 62
     5
 10
50.080147896857852
 20
-477.68108248815412
 30
0.0
 11
50.07098009184574
 21
-477.68480320820532
 31
0.0
  0
LINE
  8
DETAIL
  6
CONTINUOUS
 62
     5
 10
50.07098009184574
 20
-477.68480320820532
 30
0.0
 11
50.07098009184574
 21
-477.68480320820532
 31
0.0
  0
LINE
  8
DETAIL
  6
CONTINUOUS
 62
     5
 10
50.07098009184574
 20
-477.68480320820532
 30
0.0
 11
50.061860082413659
 21
-477.68858626563832
 31
0.0
  0
LINE
  8
DETAIL
  6
CONTINUOUS
 62
     5
 10
50.061860082413659
 20
-477.68858626563832
 30
0.0
 11
50.05280223293903
 21
-477.69242528807428
 31
0.0
  0
LINE
  8
DETAIL
  6
CONTINUOUS
 62
     5
 10
50.05280223293903
 20
-477.69242528807428
 30
0.0
 11
50.05280223293903
 21
-477.69242528807428
 31
0.0
  0
LINE
  8
DETAIL
  6
CONTINUOUS
 62
     5
 10
50.05280223293903
 20
-477.69242528807428
 30
0.0
 11
50.043788030700853
 21
-477.69632759490202
 31
0.0
  0
LINE
  8
DETAIL
  6
CONTINUOUS
 62
     5
 10
50.043788030700853
 20
-477.69632759490202
 30
0.0
 11
50.034745293641208
 21
-477.70032910789803
 31
0.0
  0
LINE
  8
DETAIL
  6
CONTINUOUS
 62
     5
 10
50.034745293641208
 20
-477.70032910789803
 30
0.0
 11
50.034745293641208
 21
-477.70032910789803
 31
0.0
  0
LINE
  8
DETAIL
  6
CONTINUOUS
 62
     5
 10
50.034745293641208
 20
-477.70032910789803
 30
0.0
 11
50.025661551470883
 21
-477.70443775586682
 31
0.0
  0
LINE
  8
DETAIL
  6
CONTINUOUS
 62
     5
 10
50.025661551470883
 20
-477.70443775586682
 30
0.0
 11
50.016816850286887
 21
-477.70852089333857
 31
0.0
  0
LINE
  8
DETAIL
  6
CONTINUOUS
 62
     5
 10
50.016816850286887
 20
-477.70852089333857
 30
0.0
 11
50.016816850286887
 21
-477.70852089333857
 31
0.0
  0
LINE
  8
DETAIL
  6
CONTINUOUS
 62
     5
 10
50.016816850286887
 20
-477.70852089333857
 30
0.0
 11
50.00844639710067
 21
-477.71246582019739
 31
0.0
  0
LINE
  8
DETAIL
  6
CONTINUOUS
 62
     5
 10
50.00844639710067
 20
-477.71246582019739
 30
0.0
 11
50.000313526213183
 21
-477.71638019195962
 31
0.0
  0
LINE
  8
DETAIL
  6
CONTINUOUS
 62
     5
 10
50.000313526213183
 20
-477.71638019195962
 30
0.0
 11
50.000313526213183
 21
-477.71638019195962
 31
0.0
  0
LINE
  8
DETAIL
  6
CONTINUOUS
 62
     5
 10
50.000313526213183
 20
-477.71638019195962
 30
0.0
 11
49.992137857349917
 21
-477.72039306683661
 31
0.0
  0
LINE
  8
DETAIL
  6
CONTINUOUS
 62
     5
 10
49.992137857349917
 20
-477.72039306683661
 30
0.0
 11
49.983936024663308
 21
-477.7244987580525
 31
0.0
  0
LINE
  8
DETAIL
  6
CONTINUOUS
 62
     5
 10
49.983936024663308
 20
-477.7244987580525
 30
0.0
 11
49.983936024663308
 21
-477.7244987580525
 31
0.0
  0
LINE
  8
DETAIL
  6
CONTINUOUS
 62
     5
 10
49.983936024663308
 20
-477.7244987580525
 30
0.0
 11
49.975783383452843
 21
-477.72866436580438
 31
0.0
  0
LINE
  8
DETAIL
  6
CONTINUOUS
 62
     5
 10
49.975783383452843
 20
-477.72866436580438
 30
0.0
 11
49.967693159212097
 21
-477.73288288310482
 31
0.0
  0
LINE
  8
DETAIL
  6
CONTINUOUS
 62
     5
 10
49.967693159212097
 20
-477.73288288310482
 30
0.0
 11
49.967693159212097
 21
-477.73288288310482
 31
0.0
  0
LINE
  8
DETAIL
  6
CONTINUOUS
 62
     5
 10
49.967693159212097
 20
-477.73288288310482
 30
0.0
 11
49.959650921181492
 21
-477.73716156959932
 31
0.0
  0
LINE
  8
DETAIL
  6
CONTINUOUS
 62
     5
 10
49.959650921181492
 20
-477.73716156959932
 30
0.0
 11
49.951593743419828
 21
-477.74153885862319
 31
0.0
  0
LINE
  8
DETAIL
  6
CONTINUOUS
 62
     5
 10
49.951593743419828
 20
-477.74153885862319
 30
0.0
 11
49.951593743419828
 21
-477.74153885862319
 31
0.0
  0
LINE
  8
DETAIL
  6
CONTINUOUS
 62
     5
 10
49.951593743419828
 20
-477.74153885862319
 30
0.0
 11
49.94351060381905
 21
-477.74602333003349
 31
0.0
  0
LINE
  8
DETAIL
  6
CONTINUOUS
 62
     5
 10
49.94351060381905
 20
-477.74602333003349
 30
0.0
 11
49.935646590850411
 21
-477.75047297609132
 31
0.0
  0
LINE
  8
DETAIL
  6
CONTINUOUS
 62
     5
 10
49.935646590850411
 20
-477.75047297609132
 30
0.0
 11
49.935646590850411
 21
-477.75047297609132
 31
0.0
  0
LINE
  8
DETAIL
  6
CONTINUOUS
 62
     5
 10
49.935646590850411
 20
-477.75047297609132
 30
0.0
 11
49.928207539677707
 21
-477.75476722618617
 31
0.0
  0
LINE
  8
DETAIL
  6
CONTINUOUS
 62
     5
 10
49.928207539677707
 20
-477.75476722618617
 30
0.0
 11
49.920986161688234
 21
-477.75902184578081
 31
0.0
  0
LINE
  8
DETAIL
  6
CONTINUOUS
 62
     5
 10
49.920986161688234
 20
-477.75902184578081
 30
0.0
 11
49.920986161688234
 21
-477.75902184578081
 31
0.0
  0
LINE
  8
DETAIL
  6
CONTINUOUS
 62
     5
 10
49.920986161688234
 20
-477.75902184578081
 30
0.0
 11
49.913736981140573
 21
-477.76337547379808
 31
0.0
  0
LINE
  8
DETAIL
  6
CONTINUOUS
 62
     5
 10
49.913736981140573
 20
-477.76337547379808
 30
0.0
 11
49.906474897518819
 21
-477.76782190688391
 31
0.0
  0
LINE
  8
DETAIL
  6
CONTINUOUS
 62
     5
 10
49.906474897518819
 20
-477.76782190688391
 30
0.0
 11
49.906474897518819
 21
-477.76782190688391
 31
0.0
  0
LINE
  8
DETAIL
  6
CONTINUOUS
 62
     5
 10
49.906474897518819
 20
-477.76782190688391
 30
0.0
 11
49.899266296562018
 21
-477.7723256898098
 31
0.0
  0
LINE
  8
DETAIL
  6
CONTINUOUS
 62
     5
 10
49.899266296562018
 20
-477.7723256898098
 30
0.0
 11
49.892123133781752
 21
-477.77687920211969
 31
0.0
  0
LINE
  8
DETAIL
  6
CONTINUOUS
 62
     5
 10
49.892123133781752
 20
-477.77687920211969
 30
0.0
 11
49.892123133781752
 21
-477.77687920211969
 31
0.0
  0
LINE
  8
DETAIL
  6
CONTINUOUS
 62
     5
 10
49.892123133781752
 20
-477.77687920211969
 30
0.0
 11
49.885033093539278
 21
-477.78149015785311
 31
0.0
  0
LINE
  8
DETAIL
  6
CONTINUOUS
 62
     5
 10
49.885033093539278
 20
-477.78149015785311
 30
0.0
 11
49.877941205920251
 21
-477.78619977419658
 31
0.0
  0
LINE
  8
DETAIL
  6
CONTINUOUS
 62
     5
 10
49.877941205920251
 20
-477.78619977419658
 30
0.0
 11
49.877941205920251
 21
-477.78619977419658
 31
0.0
  0
LINE
  8
DETAIL
  6
CONTINUOUS
 62
     5
 10
49.877941205920251
 20
-477.78619977419658
 30
0.0
 11
49.870838099269349
 21
-477.7910171822914
 31
0.0
  0
LINE
  8
DETAIL
  6
CONTINUOUS
 62
     5
 10
49.870838099269349
 20
-477.7910171822914
 30
0.0
 11
49.863939449384823
 21
-477.79578966583358
 31
0.0
  0
LINE
  8
DETAIL
  6
CONTINUOUS
 62
     5
 10
49.863939449384823
 20
-477.79578966583358
 30
0.0
 11
49.863939449384823
 21
-477.79578966583358
 31
0.0
  0
LINE
  8
DETAIL
  6
CONTINUOUS
 62
     5
 10
49.863939449384823
 20
-477.79578966583358
 30
0.0
 11
49.85742626217052
 21
-477.80038765030622
 31
0.0
  0
LINE
  8
DETAIL
  6
CONTINUOUS
 62
     5
 10
49.85742626217052
 20
-477.80038765030622
 30
0.0
 11
49.851115816524732
 21
-477.80493597562599
 31
0.0
  0
LINE
  8
DETAIL
  6
CONTINUOUS
 62
     5
 10
49.851115816524732
 20
-477.80493597562599
 30
0.0
 11
49.851115816524732
 21
-477.80493597562599
 31
0.0
  0
LINE
  8
DETAIL
  6
CONTINUOUS
 62
     5
 10
49.851115816524732
 20
-477.80493597562599
 30
0.0
 11
49.844791930551757
 21
-477.80958399912203
 31
0.0
  0
LINE
  8
DETAIL
  6
CONTINUOUS
 62
     5
 10
49.844791930551757
 20
-477.80958399912203
 30
0.0
 11
49.838468306196773
 21
-477.81432473324458
 31
0.0
  0
LINE
  8
DETAIL
  6
CONTINUOUS
 62
     5
 10
49.838468306196773
 20
-477.81432473324458
 30
0.0
 11
49.838468306196773
 21
-477.81432473324458
 31
0.0
  0
LINE
  8
DETAIL
  6
CONTINUOUS
 62
     5
 10
49.838468306196773
 20
-477.81432473324458
 30
0.0
 11
49.832203919367203
 21
-477.8191197516644
 31
0.0
  0
LINE
  8
DETAIL
  6
CONTINUOUS
 62
     5
 10
49.832203919367203
 20
-477.8191197516644
 30
0.0
 11
49.82600895798987
 21
-477.82396121778572
 31
0.0
  0
LINE
  8
DETAIL
  6
CONTINUOUS
 62
     5
 10
49.82600895798987
 20
-477.82396121778572
 30
0.0
 11
49.82600895798987
 21
-477.82396121778572
 31
0.0
  0
LINE
  8
DETAIL
  6
CONTINUOUS
 62
     5
 10
49.82600895798987
 20
-477.82396121778572
 30
0.0
 11
49.819872730026873
 21
-477.82885743892263
 31
0.0
  0
LINE
  8
DETAIL
  6
CONTINUOUS
 62
     5
 10
49.819872730026873
 20
-477.82885743892263
 30
0.0
 11
49.81374981152203
 21
-477.83385070834993
 31
0.0
  0
LINE
  8
DETAIL
  6
CONTINUOUS
 62
     5
 10
49.81374981152203
 20
-477.83385070834993
 30
0.0
 11
49.81374981152203
 21
-477.83385070834993
 31
0.0
  0
LINE
  8
DETAIL
  6
CONTINUOUS
 62
     5
 10
49.81374981152203
 20
-477.83385070834993
 30
0.0
 11
49.807633024455747
 21
-477.83895018243862
 31
0.0
  0
LINE
  8
DETAIL
  6
CONTINUOUS
 62
     5
 10
49.807633024455747
 20
-477.83895018243862
 30
0.0
 11
49.801702906385799
 21
-477.843998484037
 31
0.0
  0
LINE
  8
DETAIL
  6
CONTINUOUS
 62
     5
 10
49.801702906385799
 20
-477.843998484037
 30
0.0
 11
49.801702906385799
 21
-477.843998484037
 31
0.0
  0
LINE
  8
DETAIL
  6
CONTINUOUS
 62
     5
 10
49.801702906385799
 20
-477.843998484037
 30
0.0
 11
49.796110772521388
 21
-477.8488621822944
 31
0.0
  0
LINE
  8
DETAIL
  6
CONTINUOUS
 62
     5
 10
49.796110772521388
 20
-477.8488621822944
 30
0.0
 11
49.790703333191232
 21
-477.85367016509917
 31
0.0
  0
LINE
  8
DETAIL
  6
CONTINUOUS
 62
     5
 10
49.790703333191232
 20
-477.85367016509917
 30
0.0
 11
49.790703333191232
 21
-477.85367016509917
 31
0.0
  0
LINE
  8
DETAIL
  6
CONTINUOUS
 62
     5
 10
49.790703333191232
 20
-477.85367016509917
 30
0.0
 11
49.785299478317938
 21
-477.8585764801428
 31
0.0
  0
LINE
  8
DETAIL
  6
CONTINUOUS
 62
     5
 10
49.785299478317938
 20
-477.8585764801428
 30
0.0
 11
49.779911421182078
 21
-477.86357349560791
 31
0.0
  0
LINE
  8
DETAIL
  6
CONTINUOUS
 62
     5
 10
49.779911421182078
 20
-477.86357349560791
 30
0.0
 11
49.779911421182078
 21
-477.86357349560791
 31
0.0
  0
LINE
  8
DETAIL
  6
CONTINUOUS
 62
     5
 10
49.779911421182078
 20
-477.86357349560791
 30
0.0
 11
49.77458921309244
 21
-477.86862126543559
 31
0.0
  0
LINE
  8
DETAIL
  6
CONTINUOUS
 62
     5
 10
49.77458921309244
 20
-477.86862126543559
 30
0.0
 11
49.769340934181862
 21
-477.87371226611498
 31
0.0
  0
LINE
  8
DETAIL
  6
CONTINUOUS
 62
     5
 10
49.769340934181862
 20
-477.87371226611498
 30
0.0
 11
49.769340934181862
 21
-477.87371226611498
 31
0.0
  0
LINE
  8
DETAIL
  6
CONTINUOUS
 62
     5
 10
49.769340934181862
 20
-477.87371226611498
 30
0.0
 11
49.764157812130179
 21
-477.87885507710962
 31
0.0
  0
LINE
  8
DETAIL
  6
CONTINUOUS
 62
     5
 10
49.764157812130179
 20
-477.87885507710962
 30
0.0
 11
49.759005636010443
 21
-477.88409026715448
 31
0.0
  0
LINE
  8
DETAIL
  6
CONTINUOUS
 62
     5
 10
49.759005636010443
 20
-477.88409026715448
 30
0.0
 11
49.759005636010443
 21
-477.88409026715448
 31
0.0
  0
LINE
  8
DETAIL
  6
CONTINUOUS
 62
     5
 10
49.759005636010443
 20
-477.88409026715448
 30
0.0
 11
49.753879766646612
 21
-477.8894263073928
 31
0.0
  0
LINE
  8
DETAIL
  6
CONTINUOUS
 62
     5
 10
49.753879766646612
 20
-477.8894263073928
 30
0.0
 11
49.748919290491358
 21
-477.89471128928199
 31
0.0
  0
LINE
  8
DETAIL
  6
CONTINUOUS
 62
     5
 10
49.748919290491358
 20
-477.89471128928199
 30
0.0
 11
49.748919290491358
 21
-477.89471128928199
 31
0.0
  0
LINE
  8
DETAIL
  6
CONTINUOUS
 62
     5
 10
49.748919290491358
 20
-477.89471128928199
 30
0.0
 11
49.744240560558858
 21
-477.89981649711262
 31
0.0
  0
LINE
  8
DETAIL
  6
CONTINUOUS
 62
     5
 10
49.744240560558858
 20
-477.89981649711262
 30
0.0
 11
49.739725270589588
 21
-477.90486636614509
 31
0.0
  0
LINE
  8
DETAIL
  6
CONTINUOUS
 62
     5
 10
49.739725270589588
 20
-477.90486636614509
 30
0.0
 11
49.739725270589588
 21
-477.90486636614509
 31
0.0
  0
LINE
  8
DETAIL
  6
CONTINUOUS
 62
     5
 10
49.739725270589588
 20
-477.90486636614509
 30
0.0
 11
49.735233846128722
 21
-477.9100095696956
 31
0.0
  0
LINE
  8
DETAIL
  6
CONTINUOUS
 62
     5
 10
49.735233846128722
 20
-477.9100095696956
 30
0.0
 11
49.730776299297759
 21
-477.91523858226719
 31
0.0
  0
LINE
  8
DETAIL
  6
CONTINUOUS
 62
     5
 10
49.730776299297759
 20
-477.91523858226719
 30
0.0
 11
49.730776299297759
 21
-477.91523858226719
 31
0.0
  0
LINE
  8
DETAIL
  6
CONTINUOUS
 62
     5
 10
49.730776299297759
 20
-477.91523858226719
 30
0.0
 11
49.726391940116628
 21
-477.92051451744192
 31
0.0
  0
LINE
  8
DETAIL
  6
CONTINUOUS
 62
     5
 10
49.726391940116628
 20
-477.92051451744192
 30
0.0
 11
49.722087683644531
 21
-477.92582924386079
 31
0.0
  0
LINE
  8
DETAIL
  6
CONTINUOUS
 62
     5
 10
49.722087683644531
 20
-477.92582924386079
 30
0.0
 11
49.722087683644531
 21
-477.92582924386079
 31
0.0
  0
LINE
  8
DETAIL
  6
CONTINUOUS
 62
     5
 10
49.722087683644531
 20
-477.92582924386079
 30
0.0
 11
49.717857344513497
 21
-477.93119061355901
 31
0.0
  0
LINE
  8
DETAIL
  6
CONTINUOUS
 62
     5
 10
49.717857344513497
 20
-477.93119061355901
 30
0.0
 11
49.713674730633102
 21
-477.93663965713472
 31
0.0
  0
LINE
  8
DETAIL
  6
CONTINUOUS
 62
     5
 10
49.713674730633102
 20
-477.93663965713472
 30
0.0
 11
49.713674730633102
 21
-477.93663965713472
 31
0.0
  0
LINE
  8
DETAIL
  6
CONTINUOUS
 62
     5
 10
49.713674730633102
 20
-477.93663965713472
 30
0.0
 11
49.709536753697648
 21
-477.94218483249279
 31
0.0
  0
LINE
  8
DETAIL
  6
CONTINUOUS
 62
     5
 10
49.709536753697648
 20
-477.94218483249279
 30
0.0
 11
49.705552747292131
 21
-477.94767112829868
 31
0.0
  0
LINE
  8
DETAIL
  6
CONTINUOUS
 62
     5
 10
49.705552747292131
 20
-477.94767112829868
 30
0.0
 11
49.705552747292131
 21
-477.94767112829868
 31
0.0
  0
LINE
  8
DETAIL
  6
CONTINUOUS
 62
     5
 10
49.705552747292131
 20
-477.94767112829868
 30
0.0
 11
49.701813932116238
 21
-477.95296720381879
 31
0.0
  0
LINE
  8
DETAIL
  6
CONTINUOUS
 62
     5
 10
49.701813932116238
 20
-477.95296720381879
 30
0.0
 11
49.698226655434148
 21
-477.95819987008872
 31
0.0
  0
LINE
  8
DETAIL
  6
CONTINUOUS
 62
     5
 10
49.698226655434148
 20
-477.95819987008872
 30
0.0
 11
49.698226655434148
 21
-477.95819987008872
 31
0.0
  0
LINE
  8
DETAIL
  6
CONTINUOUS
 62
     5
 10
49.698226655434148
 20
-477.95819987008872
 30
0.0
 11
49.694680712739682
 21
-477.9635205847917
 31
0.0
  0
LINE
  8
DETAIL
  6
CONTINUOUS
 62
     5
 10
49.694680712739682
 20
-477.9635205847917
 30
0.0
 11
49.691184565960612
 21
-477.9689212405101
 31
0.0
  0
LINE
  8
DETAIL
  6
CONTINUOUS
 62
     5
 10
49.691184565960612
 20
-477.9689212405101
 30
0.0
 11
49.691184565960612
 21
-477.9689212405101
 31
0.0
  0
LINE
  8
DETAIL
  6
CONTINUOUS
 62
     5
 10
49.691184565960612
 20
-477.9689212405101
 30
0.0
 11
49.687769825902251
 21
-477.97436166203261
 31
0.0
  0
LINE
  8
DETAIL
  6
CONTINUOUS
 62
     5
 10
49.687769825902251
 20
-477.97436166203261
 30
0.0
 11
49.684442032500563
 21
-477.9798329680707
 31
0.0
  0
LINE
  8
DETAIL
  6
CONTINUOUS
 62
     5
 10
49.684442032500563
 20
-477.9798329680707
 30
0.0
 11
49.684442032500563
 21
-477.9798329680707
 31
0.0
  0
LINE
  8
DETAIL
  6
CONTINUOUS
 62
     5
 10
49.684442032500563
 20
-477.9798329680707
 30
0.0
 11
49.681196612248641
 21
-477.98534269817901
 31
0.0
  0
LINE
  8
DETAIL
  6
CONTINUOUS
 62
     5
 10
49.681196612248641
 20
-477.98534269817901
 30
0.0
 11
49.678014608701233
 21
-477.99093278127111
 31
0.0
  0
LINE
  8
DETAIL
  6
CONTINUOUS
 62
     5
 10
49.678014608701233
 20
-477.99093278127111
 30
0.0
 11
49.678014608701233
 21
-477.99093278127111
 31
0.0
  0
LINE
  8
DETAIL
  6
CONTINUOUS
 62
     5
 10
49.678014608701233
 20
-477.99093278127111
 30
0.0
 11
49.674894370325092
 21
-477.99661153075431
 31
0.0
  0
LINE
  8
DETAIL
  6
CONTINUOUS
 62
     5
 10
49.674894370325092
 20
-477.99661153075431
 30
0.0
 11
49.671917848180783
 21
-478.00221840861559
 31
0.0
  0
LINE
  8
DETAIL
  6
CONTINUOUS
 62
     5
 10
49.671917848180783
 20
-478.00221840861559
 30
0.0
 11
49.671917848180783
 21
-478.00221840861559
 31
0.0
  0
LINE
  8
DETAIL
  6
CONTINUOUS
 62
     5
 10
49.671917848180783
 20
-478.00221840861559
 30
0.0
 11
49.669153015985103
 21
-478.00761747112477
 31
0.0
  0
LINE
  8
DETAIL
  6
CONTINUOUS
 62
     5
 10
49.669153015985103
 20
-478.00761747112477
 30
0.0
 11
49.666528335646028
 21
-478.01294000303818
 31
0.0
  0
LINE
  8
DETAIL
  6
CONTINUOUS
 62
     5
 10
49.666528335646028
 20
-478.01294000303818
 30
0.0
 11
49.666528335646028
 21
-478.01294000303818
 31
0.0
  0
LINE
  8
DETAIL
  6
CONTINUOUS
 62
     5
 10
49.666528335646028
 20
-478.01294000303818
 30
0.0
 11
49.663960079059507
 21
-478.01834255237191
 31
0.0
  0
LINE
  8
DETAIL
  6
CONTINUOUS
 62
     5
 10
49.663960079059507
 20
-478.01834255237191
 30
0.0
 11
49.661455270027552
 21
-478.02381549161868
 31
0.0
  0
LINE
  8
DETAIL
  6
CONTINUOUS
 62
     5
 10
49.661455270027552
 20
-478.02381549161868
 30
0.0
 11
49.661455270027552
 21
-478.02381549161868
 31
0.0
  0
LINE
  8
DETAIL
  6
CONTINUOUS
 62
     5
 10
49.661455270027552
 20
-478.02381549161868
 30
0.0
 11
49.659038288596093
 21
-478.02931644064688
 31
0.0
  0
LINE
  8
DETAIL
  6
CONTINUOUS
 62
     5
 10
49.659038288596093
 20
-478.02931644064688
 30
0.0
 11
49.656712187957048
 21
-478.03483818436121
 31
0.0
  0
LINE
  8
DETAIL
  6
CONTINUOUS
 62
     5
 10
49.656712187957048
 20
-478.03483818436121
 30
0.0
 11
49.656712187957048
 21
-478.03483818436121
 31
0.0
  0
LINE
  8
DETAIL
  6
CONTINUOUS
 62
     5
 10
49.656712187957048
 20
-478.03483818436121
 30
0.0
 11
49.654473328469066
 21
-478.04038867777848
 31
0.0
  0
LINE
  8
DETAIL
  6
CONTINUOUS
 62
     5
 10
49.654473328469066
 20
-478.04038867777848
 30
0.0
 11
49.652312626080857
 21
-478.04600139127803
 31
0.0
  0
LINE
  8
DETAIL
  6
CONTINUOUS
 62
     5
 10
49.652312626080857
 20
-478.04600139127803
 30
0.0
 11
49.652312626080857
 21
-478.04600139127803
 31
0.0
  0
LINE
  8
DETAIL
  6
CONTINUOUS
 62
     5
 10
49.652312626080857
 20
-478.04600139127803
 30
0.0
 11
49.650230411764817
 21
-478.05168186745487
 31
0.0
  0
LINE
  8
DETAIL
  6
CONTINUOUS
 62
     5
 10
49.650230411764817
 20
-478.05168186745487
 30
0.0
 11
49.648270121034329
 21
-478.05729842236542
 31
0.0
  0
LINE
  8
DETAIL
  6
CONTINUOUS
 62
     5
 10
49.648270121034329
 20
-478.05729842236542
 30
0.0
 11
49.648270121034329
 21
-478.05729842236542
 31
0.0
  0
LINE
  8
DETAIL
  6
CONTINUOUS
 62
     5
 10
49.648270121034329
 20
-478.05729842236542
 30
0.0
 11
49.646467283940183
 21
-478.06273981922999
 31
0.0
  0
LINE
  8
DETAIL
  6
CONTINUOUS
 62
     5
 10
49.646467283940183
 20
-478.06273981922999
 30
0.0
 11
49.644782704152931
 21
-478.06811383650353
 31
0.0
  0
LINE
  8
DETAIL
  6
CONTINUOUS
 62
     5
 10
49.644782704152931
 20
-478.06811383650353
 30
0.0
 11
49.644782704152931
 21
-478.06811383650353
 31
0.0
  0
LINE
  8
DETAIL
  6
CONTINUOUS
 62
     5
 10
49.644782704152931
 20
-478.06811383650353
 30
0.0
 11
49.643170950353117
 21
-478.07354850748021
 31
0.0
  0
LINE
  8
DETAIL
  6
CONTINUOUS
 62
     5
 10
49.643170950353117
 20
-478.07354850748021
 30
0.0
 11
49.641636377681607
 21
-478.079033869657
 31
0.0
  0
LINE
  8
DETAIL
  6
CONTINUOUS
 62
     5
 10
49.641636377681607
 20
-478.079033869657
 30
0.0
 11
49.641636377681607
 21
-478.079033869657
 31
0.0
  0
LINE
  8
DETAIL
  6
CONTINUOUS
 62
     5
 10
49.641636377681607
 20
-478.079033869657
 30
0.0
 11
49.640192521806057
 21
-478.08453424843538
 31
0.0
  0
LINE
  8
DETAIL
  6
CONTINUOUS
 62
     5
 10
49.640192521806057
 20
-478.08453424843538
 30
0.0
 11
49.638839854066653
 21
-478.09004911669041
 31
0.0
  0
LINE
  8
DETAIL
  6
CONTINUOUS
 62
     5
 10
49.638839854066653
 20
-478.09004911669041
 30
0.0
 11
49.638839854066653
 21
-478.09004911669041
 31
0.0
  0
LINE
  8
DETAIL
  6
CONTINUOUS
 62
     5
 10
49.638839854066653
 20
-478.09004911669041
 30
0.0
 11
49.637576197431372
 21
-478.09558608564112
 31
0.0
  0
LINE
  8
DETAIL
  6
CONTINUOUS
 62
     5
 10
49.637576197431372
 20
-478.09558608564112
 30
0.0
 11
49.636401845765249
 21
-478.101150172497
 31
0.0
  0
LINE
  8
DETAIL
  6
CONTINUOUS
 62
     5
 10
49.636401845765249
 20
-478.101150172497
 30
0.0
 11
49.636401845765249
 21
-478.101150172497
 31
0.0
  0
LINE
  8
DETAIL
  6
CONTINUOUS
 62
     5
 10
49.636401845765249
 20
-478.101150172497
 30
0.0
 11
49.635318505844232
 21
-478.10673955311358
 31
0.0
  0
LINE
  8
DETAIL
  6
CONTINUOUS
 62
     5
 10
49.635318505844232
 20
-478.10673955311358
 30
0.0
 11
49.634331065230981
 21
-478.11232763195568
 31
0.0
  0
LINE
  8
DETAIL
  6
CONTINUOUS
 62
     5
 10
49.634331065230981
 20
-478.11232763195568
 30
0.0
 11
49.634331065230981
 21
-478.11232763195568
 31
0.0
  0
LINE
  8
DETAIL
  6
CONTINUOUS
 62
     5
 10
49.634331065230981
 20
-478.11232763195568
 30
0.0
 11
49.63344329759002
 21
-478.11789210683861
 31
0.0
  0
LINE
  8
DETAIL
  6
CONTINUOUS
 62
     5
 10
49.63344329759002
 20
-478.11789210683861
 30
0.0
 11
49.632651340228222
 21
-478.12345262043527
 31
0.0
  0
LINE
  8
DETAIL
  6
CONTINUOUS
 62
     5
 10
49.632651340228222
 20
-478.12345262043527
 30
0.0
 11
49.632651340228222
 21
-478.12345262043527
 31
0.0
  0
LINE
  8
DETAIL
  6
CONTINUOUS
 62
     5
 10
49.632651340228222
 20
-478.12345262043527
 30
0.0
 11
49.631950935036912
 21
-478.1290325315822
 31
0.0
  0
LINE
  8
DETAIL
  6
CONTINUOUS
 62
     5
 10
49.631950935036912
 20
-478.1290325315822
 30
0.0
 11
49.631343878544612
 21
-478.13462811891799
 31
0.0
  0
LINE
  8
DETAIL
  6
CONTINUOUS
 62
     5
 10
49.631343878544612
 20
-478.13462811891799
 30
0.0
 11
49.631343878544612
 21
-478.13462811891799
 31
0.0
  0
LINE
  8
DETAIL
  6
CONTINUOUS
 62
     5
 10
49.631343878544612
 20
-478.13462811891799
 30
0.0
 11
49.630832207215462
 21
-478.1402307264143
 31
0.0
  0
LINE
  8
DETAIL
  6
CONTINUOUS
 62
     5
 10
49.630832207215462
 20
-478.1402307264143
 30
0.0
 11
49.630412862582489
 21
-478.14583903952729
 31
0.0
  0
LINE
  8
DETAIL
  6
CONTINUOUS
 62
     5
 10
49.630412862582489
 20
-478.14583903952729
 30
0.0
 11
49.630412862582489
 21
-478.14583903952729
 31
0.0
  0
LINE
  8
DETAIL
  6
CONTINUOUS
 62
     5
 10
49.630412862582489
 20
-478.14583903952729
 30
0.0
 11
49.630085093708658
 21
-478.15145300764561
 31
0.0
  0
LINE
  8
DETAIL
  6
CONTINUOUS
 62
     5
 10
49.630085093708658
 20
-478.15145300764561
 30
0.0
 11
49.629862474740548
 21
-478.15707029437908
 31
0.0
  0
LINE
  8
DETAIL
  6
CONTINUOUS
 62
     5
 10
49.629862474740548
 20
-478.15707029437908
 30
0.0
 11
49.629862474740548
 21
-478.15707029437908
 31
0.0
  0
LINE
  8
DETAIL
  6
CONTINUOUS
 62
     5
 10
49.629862474740548
 20
-478.15707029437908
 30
0.0
 11
49.629749109751167
 21
-478.16268844229489
 31
0.0
  0
LINE
  8
DETAIL
  6
CONTINUOUS
 62
     5
 10
49.629749109751167
 20
-478.16268844229489
 30
0.0
 11
49.629696897421127
 21
-478.16830679559638
 31
0.0
  0
ARC
  8
DETAIL
  6
CONTINUOUS
 62
     5
 10
-298.29975780504083
 20
713.79759308509529
 30
0.0
 40
132.17479161167441
 50
312.95498757360502
 51
313.58087938261718
  0
ARC
  8
DETAIL
  6
CONTINUOUS
 62
     5
 10
-219.07770979443649
 20
569.06110846847514
 30
0.0
 40
1.999863799999241
 50
90.0
 51
175.00000000002541
  0
ARC
  8
DETAIL
  6
DIVIDE
 62
     5
 10
-362.87528411220319
 20
410.57203851847589
 30
0.0
 40
0.499965949999541
 50
90.0
 51
180.0
  0
ARC
  8
DETAIL
  6
DIVIDE
 62
     5
 10
-337.06694416385199
 20
412.57190231847562
 30
0.0
 40
1.4998978499997959
 50
270.0
 51
319.39870533751031
  0
ARC
  8
DETAIL
  6
DIVIDE
 62
     5
 10
-332.45748586034011
 20
412.57190231847562
 30
0.0
 40
1.999863800000413
 50
90.0
 51
139.39870535679859
  0
ARC
  8
DETAIL
  6
CONTINUOUS
 62
     5
 10
-274.98127010220469
 20
474.06757796847518
 30
0.0
 40
0.9999319000001592
 50
90.0
 51
180.0
  0
ARC
  8
DETAIL
  6
CONTINUOUS
 62
     5
 10
-241.73329310113971
 20
517.08238668800186
 30
0.0
 40
1.9821268144702811
 50
90.010542234511661
 51
101.145186171731
  0
ARC
  8
DETAIL
  6
CONTINUOUS
 62
     5
 10
-242.18350378220481
 20
517.06464966847489
 30
0.0
 40
1.99986379999935
 50
90.0
 51
180.0
  0
ARC
  8
DETAIL
  6
CONTINUOUS
 62
     5
 10
-222.8101881548491
 20
545.13434450506975
 30
0.0
 40
0.3752085965543577
 50
191.0003888866909
 51
196.78588958177329
  0
ARC
  8
DETAIL
  6
CONTINUOUS
 62
     5
 10
-222.80434118505849
 20
545.13620602729497
 30
0.0
 40
0.3813440422017489
 50
196.7999561085206
 51
209.05258475075459
  0
ARC
  8
DETAIL
  6
CONTINUOUS
 62
     5
 10
-225.394154952729
 20
521.06437726847435
 30
0.0
 40
1.999857177450713
 50
270.0
 51
359.49999668851319
  0
ARC
  8
DETAIL
  6
CONTINUOUS
 62
     5
 10
-221.24834629152519
 20
544.88913966765904
 30
0.0
 40
1.93794828273399
 50
174.8603245922107
 51
179.5046012419858
  0
ARC
  8
DETAIL
  6
CONTINUOUS
 62
     5
 10
-221.20231027778851
 20
543.06287906847501
 30
0.0
 40
1.999863800000413
 50
90.0
 51
179.4999999999564
  0
ARC
  8
DETAIL
  6
CONTINUOUS
 62
     5
 10
-221.18569571732129
 20
544.96671911564044
 30
0.0
 40
1.999863799999964
 50
175.00000000031321
 51
179.49999999998249
  0
ARC
  8
DETAIL
  6
CONTINUOUS
 62
     5
 10
-232.24316768569321
 20
480.17307343991712
 30
0.0
 40
3.9993947416692368
 50
89.998426302987312
 51
132.06496793195799
  0
ARC
  8
DETAIL
  6
CONTINUOUS
 62
     5
 10
-248.7830543222035
 20
466.26810914847738
 30
0.0
 40
0.5999591400005455
 50
90.0
 51
180.0
  0
ARC
  8
DETAIL
  6
CONTINUOUS
 62
     5
 10
-248.7830543222035
 20
466.26810914847738
 30
0.0
 40
1.1999182800000141
 50
90.0
 51
180.0
  0
ARC
  8
DETAIL
  6
CONTINUOUS
 62
     5
 10
-235.30879542972531
 20
449.21714187592812
 30
0.0
 40
67.865124956737134
 50
89.873547797291636
 51
90.126452202708364
  0
ARC
  8
DETAIL
  6
CONTINUOUS
 62
     5
 10
-99.300602370468368
 20
569.06110846847514
 30
0.0
 40
1.9998637999998961
 50
4.999999999974639
 51
90.0
  0
ARC
  8
DETAIL
  6
CONTINUOUS
 62
     5
 10
-20.078554590850221
 20
713.79759330358138
 30
0.0
 40
132.17479161167449
 50
226.41912075528199
 51
227.04501256430521
  0
ARC
  8
DETAIL
  6
CONTINUOUS
 62
     5
 10
-97.176001887116399
 20
543.06287906847501
 30
0.0
 40
1.9998638000001141
 50
0.5000000000435696
 51
90.0
  0
ARC
  8
DETAIL
  6
CONTINUOUS
 62
     5
 10
-92.984157212179525
 20
521.06437726847435
 30
0.0
 40
1.999857177451108
 50
180.50000331148669
 51
270.00037947096331
  0
ARC
  8
DETAIL
  6
CONTINUOUS
 62
     5
 10
-76.1948083822017
 20
517.06464966847489
 30
0.0
 40
1.9998637999999229
 50
0.0
 51
90.0
  0
ARC
  8
DETAIL
  6
CONTINUOUS
 62
     5
 10
-86.135168435578635
 20
480.17301142563878
 30
0.0
 40
3.9994591327841271
 50
47.93538097730984
 51
90.001230469584769
  0
ARC
  8
DETAIL
  6
DIVIDE
 62
     5
 10
-362.87528411220319
 20
313.57864421847631
 30
0.0
 40
0.4999659499999365
 50
180.0
 51
270.0
  0
ARC
  8
DETAIL
  6
DIVIDE
 62
     5
 10
-337.06694416385199
 20
311.57878041847653
 30
0.0
 40
1.4998978499991691
 50
40.601294640389852
 51
90.0
  0
ARC
  8
DETAIL
  6
CONTINUOUS
 62
     5
 10
-252.48280235220139
 20
297.07976786847581
 30
0.0
 40
1.999863799999827
 50
18.055837147692529
 51
90.0
  0
ARC
  8
DETAIL
  6
DIVIDE
 62
     5
 10
-332.45748586034011
 20
311.57878041847653
 30
0.0
 40
1.999863800000087
 50
220.60129464503109
 51
270.0
  0
ARC
  8
DETAIL
  6
CONTINUOUS
 62
     5
 10
-266.98181490220207
 20
160.88904308847489
 30
0.0
 40
4.9996595000001003
 50
180.0
 51
270.0
  0
ARC
  8
DETAIL
  6
CONTINUOUS
 62
     5
 10
209.78571501779609
 20
468.91792868347687
 30
0.0
 40
0.7999455200004954
 50
90.0
 51
180.0
  0
ARC
  8
DETAIL
  6
CONTINUOUS
 62
     5
 10
274.98127489779381
 20
474.06757796847518
 30
0.0
 40
0.9999318999998592
 50
0.0
 51
90.0
  0
ARC
  8
DETAIL
  6
CONTINUOUS
 62
     5
 10
252.48280714779781
 20
297.07976786847581
 30
0.0
 40
1.9998638000005089
 50
90.0
 51
174.37501959960261
  0
ARC
  8
DETAIL
  6
CONTINUOUS
 62
     5
 10
266.98181969779489
 20
160.88904308847489
 30
0.0
 40
4.9996595000001003
 50
270.0
 51
0.0
  0
ARC
  8
DETAIL
  6
DIVIDE
 62
     5
 10
-362.87528411220319
 20
-185.3873738815237
 30
0.0
 40
0.499965949999541
 50
90.0
 51
180.0
  0
ARC
  8
DETAIL
  6
DIVIDE
 62
     5
 10
-362.87528411220319
 20
-282.38076818152331
 30
0.0
 40
0.4999659499999365
 50
180.0
 51
270.0
  0
ARC
  8
DETAIL
  6
DIVIDE
 62
     5
 10
-337.06694416385199
 20
-183.38751008152391
 30
0.0
 40
1.4998978500005731
 50
270.0
 51
319.39870132958401
  0
ARC
  8
DETAIL
  6
DIVIDE
 62
     5
 10
-337.06694416385199
 20
-284.38063198152281
 30
0.0
 40
1.4998978500003
 50
40.601298904784827
 51
90.0
  0
ARC
  8
DETAIL
  6
DIVIDE
 62
     5
 10
-332.45748586034011
 20
-183.38751008152391
 30
0.0
 40
1.999863799999732
 50
90.0
 51
139.39870638398401
  0
ARC
  8
DETAIL
  6
DIVIDE
 62
     5
 10
-332.45748586034011
 20
-284.38063198152281
 30
0.0
 40
1.9998638000000459
 50
220.60129346909571
 51
270.0
  0
ARC
  8
DETAIL
  6
CONTINUOUS
 62
     5
 10
-256.88250271220289
 20
-290.08024381152438
 30
0.0
 40
1.599891040000746
 50
131.39020181704831
 51
48.609798182951657
  0
ARC
  8
DETAIL
  6
CONTINUOUS
 62
     5
 10
-252.48280235220139
 20
-176.88795273152209
 30
0.0
 40
1.999863800000317
 50
270.0
 51
341.94416394369222
  0
ARC
  8
DETAIL
  6
CONTINUOUS
 62
     5
 10
-252.48280235220139
 20
-290.88018933152489
 30
0.0
 40
1.9998638000000319
 50
341.80512766122382
 51
90.0
  0
ARC
  8
DETAIL
  6
CONTINUOUS
 62
     5
 10
-256.88250271220289
 20
-290.08024381152438
 30
0.0
 40
2.1998501800005141
 50
146.93348704887191
 51
33.066512951128118
  0
ARC
  8
DETAIL
  6
CONTINUOUS
 62
     5
 10
-256.88250271220289
 20
-290.08024381152438
 30
0.0
 40
2.7998093200003229
 50
154.6208519445851
 51
25.379148055414859
  0
ARC
  8
DETAIL
  6
CONTINUOUS
 62
     5
 10
-362.87528411220319
 20
-324.37790798152128
 30
0.0
 40
0.499965949999541
 50
90.0
 51
180.0
  0
ARC
  8
DETAIL
  6
CONTINUOUS
 62
     5
 10
-362.87528411220319
 20
-421.37130228152449
 30
0.0
 40
0.4999659499999365
 50
180.0
 51
270.0
  0
ARC
  8
DETAIL
  6
CONTINUOUS
 62
     5
 10
-337.06694416385199
 20
-322.37804418152518
 30
0.0
 40
1.499897849999605
 50
270.0
 51
319.39870132958401
  0
ARC
  8
DETAIL
  6
CONTINUOUS
 62
     5
 10
-337.06694416385199
 20
-423.37116608152041
 30
0.0
 40
1.4998978499996729
 50
40.601298904784827
 51
90.0
  0
ARC
  8
DETAIL
  6
CONTINUOUS
 62
     5
 10
-332.45748586034011
 20
-322.37804418152518
 30
0.0
 40
1.999863800000317
 50
90.0
 51
139.39870638397289
  0
ARC
  8
DETAIL
  6
CONTINUOUS
 62
     5
 10
-332.45748586034011
 20
-423.37116608152041
 30
0.0
 40
1.9998638000000459
 50
220.60129346909571
 51
270.0
  0
ARC
  8
DETAIL
  6
CONTINUOUS
 62
     5
 10
-252.48280235220139
 20
-315.87848683152311
 30
0.0
 40
1.999863800000317
 50
270.0
 51
354.37501959957672
  0
ARC
  8
DETAIL
  6
CONTINUOUS
 62
     5
 10
-248.7830543222035
 20
-468.06812201152212
 30
0.0
 40
0.5999591399999591
 50
180.0
 51
270.0
  0
ARC
  8
DETAIL
  6
CONTINUOUS
 62
     5
 10
-248.7830543222035
 20
-468.06812201152212
 30
0.0
 40
1.1999182800001089
 50
180.0
 51
270.0
  0
ARC
  8
DETAIL
  6
CONTINUOUS
 62
     5
 10
-259.38233246220528
 20
-463.06846251152479
 30
0.0
 40
4.9996595000001003
 50
180.0
 51
214.8898224322871
  0
ARC
  8
DETAIL
  6
CONTINUOUS
 62
     5
 10
252.48280714779781
 20
-176.88795273152209
 30
0.0
 40
1.999863800000018
 50
180.0
 51
270.0
  0
ARC
  8
DETAIL
  6
CONTINUOUS
 62
     5
 10
256.88250750779571
 20
-290.08024381152438
 30
0.0
 40
1.599891040000746
 50
131.39020181704831
 51
48.609798182951657
  0
ARC
  8
DETAIL
  6
CONTINUOUS
 62
     5
 10
252.48280714779781
 20
-315.87848683152311
 30
0.0
 40
1.999863800000018
 50
180.0
 51
270.0
  0
ARC
  8
DETAIL
  6
CONTINUOUS
 62
     5
 10
252.48280714779781
 20
-290.88018933152489
 30
0.0
 40
1.99986379999935
 50
90.0
 51
174.37501959960261
  0
ARC
  8
DETAIL
  6
CONTINUOUS
 62
     5
 10
256.88250750779571
 20
-290.08024381152438
 30
0.0
 40
2.1998501800002681
 50
146.93348704887191
 51
33.066512951128118
  0
ARC
  8
DETAIL
  6
CONTINUOUS
 62
     5
 10
256.88250750779571
 20
-290.08024381152438
 30
0.0
 40
2.799809320000147
 50
154.6208519445851
 51
25.379148055414859
  0
ARC
  8
DETAIL
  6
CONTINUOUS
 62
     5
 10
19.69866082779572
 20
-470.91792792652268
 30
0.0
 40
0.7999455199992274
 50
269.99999999989569
 51
0.0
  0
ARC
  8
DETAIL
  6
CONTINUOUS
 62
     5
 10
173.28820066779829
 20
-470.91792792652268
 30
0.0
 40
0.7999455200002091
 50
180.0
 51
270.0
  0
ARC
  8
DETAIL
  6
CONTINUOUS
 62
     5
 10
143.21953209408181
 20
-525.931756415157
 30
0.0
 40
47.763643777835341
 50
89.834900121293174
 51
90.163843338002224
  0
ARC
  8
DETAIL
  6
CONTINUOUS
 62
     5
 10
248.78305911779631
 20
-468.06812201152212
 30
0.0
 40
0.5999591400007364
 50
270.0
 51
0.0
  0
ARC
  8
DETAIL
  6
CONTINUOUS
 62
     5
 10
248.78305911779631
 20
-468.06812201152212
 30
0.0
 40
1.1999182800001089
 50
270.0
 51
0.0
  0
ARC
  8
DETAIL
  6
CONTINUOUS
 62
     5
 10
259.3823372577981
 20
-463.06846251152479
 30
0.0
 40
4.99965949999965
 50
325.11017756771292
 51
0.0
  0
LINE
  8
DETAIL
  6
CONTINUOUS
 62
     5
 10
-158.09893471433591
 20
618.06255798799975
 30
0.0
 11
-160.27937745057261
 21
618.06255798799975
 31
0.0
  0
LINE
  8
DETAIL
  6
CONTINUOUS
 62
     5
 10
-111.19692547719301
 20
618.04991584298841
 30
0.0
 11
-207.18138668721349
 21
618.04991584298841
 31
0.0
  0
LINE
  8
DETAIL
  6
CONTINUOUS
 62
     5
 10
-219.07770979443649
 20
571.06097226847487
 30
0.0
 11
-99.300602370468368
 21
571.06097226847487
 31
0.0
  0
LINE
  8
DETAIL
  6
CONTINUOUS
 62
     5
 10
-221.20231027778851
 20
545.06274286847474
 30
0.0
 11
-97.176001887116399
 21
545.06274286847474
 31
0.0
  0
LINE
  8
DETAIL
  6
DIVIDE
 62
     5
 10
-333.97589565459111
 20
413.87339642769069
 30
0.0
 11
-335.92813681841199
 21
411.59578173631598
 31
0.0
  0
LINE
  8
DETAIL
  6
CONTINUOUS
 62
     5
 10
-242.18350378220481
 20
519.06451346847825
 30
0.0
 11
-76.1948083822017
 21
519.06451346847825
 31
0.0
  0
LINE
  8
DETAIL
  6
CONTINUOUS
 62
     5
 10
-243.72257935452129
 20
517.08210155092092
 30
0.0
 11
-235.45857413310199
 21
517.08210155092092
 31
0.0
  0
LINE
  8
DETAIL
  6
CONTINUOUS
 62
     5
 10
-243.72274040905091
 20
517.06464966847489
 30
0.0
 11
-244.18336758220451
 21
517.06464966847489
 31
0.0
  0
LINE
  8
DETAIL
  6
CONTINUOUS
 62
     5
 10
-83.049146304499118
 20
493.93770644257171
 30
0.0
 11
-112.4175337216102
 21
493.93770644257171
 31
0.0
  0
LINE
  8
DETAIL
  6
CONTINUOUS
 62
     5
 10
-83.205200718969536
 20
493.06079204451089
 30
0.0
 11
-111.9440883614361
 21
493.06079204451089
 31
0.0
  0
LINE
  8
DETAIL
  6
CONTINUOUS
 62
     5
 10
-95.158606730084102
 20
485.06682886847562
 30
0.0
 11
-89.228830834824294
 21
485.06682886847562
 31
0.0
  0
LINE
  8
DETAIL
  6
CONTINUOUS
 62
     5
 10
-229.1494813300842
 20
485.06682886847562
 30
0.0
 11
-223.21970543482439
 21
485.06682886847562
 31
0.0
  0
LINE
  8
DETAIL
  6
CONTINUOUS
 62
     5
 10
-223.21970543432599
 20
485.0319263445017
 30
0.0
 11
-216.6993888511233
 21
485.03194584366793
 31
0.0
  0
LINE
  8
DETAIL
  6
CONTINUOUS
 62
     5
 10
-101.6789224553422
 20
485.03194751805859
 30
0.0
 11
-95.158606730582505
 21
485.03192632800352
 31
0.0
  0
LINE
  8
DETAIL
  6
CONTINUOUS
 62
     5
 10
-232.2430578376761
 20
484.17246258796882
 30
0.0
 11
-229.16509251138899
 21
484.17246488131423
 31
0.0
  0
LINE
  8
DETAIL
  6
CONTINUOUS
 62
     5
 10
-89.213219525026034
 20
484.1724575388107
 30
0.0
 11
-86.135254326733957
 21
484.17246258796882
 31
0.0
  0
LINE
  8
DETAIL
  6
CONTINUOUS
 62
     5
 10
-207.18562347317041
 20
492.49190959854241
 30
0.0
 11
-213.15378054999289
 21
483.41232322398719
 31
0.0
  0
LINE
  8
DETAIL
  6
CONTINUOUS
 62
     5
 10
87.238386771715341
 20
475.56311284811449
 30
0.0
 11
178.74350342387791
 21
475.56311284811449
 31
0.0
  0
LINE
  8
DETAIL
  6
CONTINUOUS
 62
     5
 10
-204.94171440828271
 20
475.56311284811449
 30
0.0
 11
-113.43659775612009
 21
475.56311284811449
 31
0.0
  0
LINE
  8
DETAIL
  6
CONTINUOUS
 62
     5
 10
-244.18336758220451
 20
475.06750986847692
 30
0.0
 11
-274.98127010220469
 21
475.06750986847692
 31
0.0
  0
LINE
  8
DETAIL
  6
CONTINUOUS
 62
     5
 10
47.996733597797167
 20
475.06750986847692
 30
0.0
 11
-74.194944582205608
 21
475.06750986847692
 31
0.0
  0
LINE
  8
DETAIL
  6
CONTINUOUS
 62
     5
 10
274.98127489779381
 20
475.06750986847692
 30
0.0
 11
217.98515659779599
 21
475.06750986847692
 31
0.0
  0
LINE
  8
DETAIL
  6
CONTINUOUS
 62
     5
 10
-74.194944582205608
 20
473.06764606847719
 30
0.0
 11
47.996733597797167
 21
473.06764606847719
 31
0.0
  0
LINE
  8
DETAIL
  6
CONTINUOUS
 62
     5
 10
-74.194944582205608
 20
470.06785036847577
 30
0.0
 11
-235.98392600220089
 21
470.06785036847577
 31
0.0
  0
LINE
  8
DETAIL
  6
CONTINUOUS
 62
     5
 10
217.98515659779599
 20
470.06785036847577
 30
0.0
 11
56.196175177797159
 21
470.06785036847577
 31
0.0
  0
LINE
  8
DETAIL
  6
CONTINUOUS
 62
     5
 10
-276.48116795220182
 20
468.06798656847599
 30
0.0
 11
-289.98024860220448
 21
468.06798656847599
 31
0.0
  0
LINE
  8
DETAIL
  6
CONTINUOUS
 62
     5
 10
289.98025339779718
 20
468.06798656847599
 30
0.0
 11
276.48117274779821
 21
468.06798656847599
 31
0.0
  0
LINE
  8
DETAIL
  6
CONTINUOUS
 62
     5
 10
254.58266413779799
 20
468.06798656847599
 30
0.0
 11
263.48205804779451
 21
468.06798656847599
 31
0.0
  0
LINE
  8
DETAIL
  6
CONTINUOUS
 62
     5
 10
-248.4830747522019
 20
468.06798656847599
 30
0.0
 11
248.4830795477983
 21
468.06798656847599
 31
0.0
  0
LINE
  8
DETAIL
  6
CONTINUOUS
 62
     5
 10
-263.48205325220169
 20
468.06798656847599
 30
0.0
 11
-254.58265934220159
 21
468.06798656847599
 31
0.0
  0
LINE
  8
DETAIL
  6
CONTINUOUS
 62
     5
 10
-276.48116795220182
 20
465.76814319847841
 30
0.0
 11
-289.98024860220448
 21
465.76814319847841
 31
0.0
  0
LINE
  8
DETAIL
  6
CONTINUOUS
 62
     5
 10
254.58266413779799
 20
465.76814319847841
 30
0.0
 11
263.48205804779451
 21
465.76814319847841
 31
0.0
  0
LINE
  8
DETAIL
  6
CONTINUOUS
 62
     5
 10
263.48205804779451
 20
463.46829982847697
 30
0.0
 11
254.58266413779799
 21
463.46829982847697
 31
0.0
  0
LINE
  8
DETAIL
  6
CONTINUOUS
 62
     5
 10
289.98025339779718
 20
463.46829982847697
 30
0.0
 11
276.48117274779821
 21
463.46829982847697
 31
0.0
  0
LINE
  8
DETAIL
  6
CONTINUOUS
 62
     5
 10
-263.48205325220169
 20
463.46829982847697
 30
0.0
 11
-254.58265934220159
 21
463.46829982847697
 31
0.0
  0
LINE
  8
DETAIL
  6
CONTINUOUS
 62
     5
 10
-289.98024860220448
 20
463.46829982847697
 30
0.0
 11
-276.48116795220182
 21
463.46829982847697
 31
0.0
  0
LINE
  8
DETAIL
  6
CONTINUOUS
 62
     5
 10
-249.98297260220619
 20
463.0683270684749
 30
0.0
 11
-254.58265934220159
 21
463.0683270684749
 31
0.0
  0
LINE
  8
DETAIL
  6
CONTINUOUS
 62
     5
 10
249.98297739779539
 20
463.0683270684749
 30
0.0
 11
254.58266413779799
 21
463.0683270684749
 31
0.0
  0
LINE
  8
DETAIL
  6
DIVIDE
 62
     5
 10
-302.5890172875761
 20
425.07105106847672
 30
0.0
 11
-289.98024860220448
 21
425.07105106847672
 31
0.0
  0
LINE
  8
DETAIL
  6
DIVIDE
 62
     5
 10
-313.27883820369152
 20
414.57176611847541
 30
0.0
 11
-332.45748586034011
 21
414.57176611847541
 31
0.0
  0
LINE
  8
DETAIL
  6
DIVIDE
 62
     5
 10
-337.06694416385199
 20
411.07200446847492
 30
0.0
 11
-362.87528411220319
 21
411.07200446847492
 31
0.0
  0
LINE
  8
DETAIL
  6
DIVIDE
 62
     5
 10
-302.00467545696569
 20
410.07207256847693
 30
0.0
 11
-289.98024860220448
 21
410.07207256847693
 31
0.0
  0
LINE
  8
DETAIL
  6
CONTINUOUS
 62
     5
 10
-249.98297260220619
 20
405.07241306847573
 30
0.0
 11
-289.98024860220448
 21
405.07241306847573
 31
0.0
  0
LINE
  8
DETAIL
  6
CONTINUOUS
 62
     5
 10
289.98025339779718
 20
405.07241306847573
 30
0.0
 11
249.98297739779539
 21
405.07241306847573
 31
0.0
  0
LINE
  8
DETAIL
  6
DIVIDE
 62
     5
 10
-363.37525006220221
 20
313.6274771657263
 30
0.0
 11
-363.37525006220221
 21
410.57203851847589
 31
0.0
  0
LINE
  8
DETAIL
  6
DIVIDE
 62
     5
 10
-363.37525006220221
 20
-282.38076818152331
 30
0.0
 11
-363.37525006220221
 21
-185.3873738815237
 31
0.0
  0
LINE
  8
DETAIL
  6
CONTINUOUS
 62
     5
 10
-363.37525006220221
 20
-421.37130228152449
 30
0.0
 11
-363.37525006220221
 21
-324.37790798152128
 31
0.0
  0
LINE
  8
DETAIL
  6
DIVIDE
 62
     5
 10
-362.87528411220319
 20
313.07867826847718
 30
0.0
 11
-362.87528411220319
 21
411.07200446847492
 31
0.0
  0
LINE
  8
DETAIL
  6
CONTINUOUS
 62
     5
 10
-337.06694416385199
 20
-323.87794203152231
 30
0.0
 11
-337.06694416385199
 21
-421.87126823052682
 31
0.0
  0
LINE
  8
DETAIL
  6
DIVIDE
 62
     5
 10
-337.06694416385199
 20
-184.88740793152439
 30
0.0
 11
-337.06694416385199
 21
-282.88073413052552
 31
0.0
  0
LINE
  8
DETAIL
  6
DIVIDE
 62
     5
 10
-337.06694416385199
 20
411.07200446847492
 30
0.0
 11
-337.06694416385199
 21
313.07867826847718
 31
0.0
  0
LINE
  8
DETAIL
  6
DIVIDE
 62
     5
 10
-332.45748586034011
 20
309.57891661847322
 30
0.0
 11
-332.45748586034011
 21
414.57176611847541
 31
0.0
  0
LINE
  8
DETAIL
  6
DIVIDE
 62
     5
 10
-332.45748586283929
 20
-286.38049578152282
 30
0.0
 11
-332.45748586234089
 21
-181.38764628152421
 31
0.0
  0
LINE
  8
DETAIL
  6
CONTINUOUS
 62
     5
 10
-332.45748586283929
 20
-425.37102988152401
 30
0.0
 11
-332.45748586234089
 21
-320.37818038152182
 31
0.0
  0
LINE
  8
DETAIL
  6
CONTINUOUS
 62
     5
 10
250.48294334779439
 20
317.17034809128381
 30
0.0
 11
249.98297739779539
 21
317.17034809128381
 31
0.0
  0
LINE
  8
DETAIL
  6
CONTINUOUS
 62
     5
 10
-250.4829385522016
 20
317.17034809128381
 30
0.0
 11
-249.98297260220619
 21
317.17034809128381
 31
0.0
  0
LINE
  8
DETAIL
  6
DIVIDE
 62
     5
 10
-250.58293174220219
 20
314.07861016847528
 30
0.0
 11
-302.00467545696569
 21
314.07861016847528
 31
0.0
  0
LINE
  8
DETAIL
  6
DIVIDE
 62
     5
 10
-337.06694416385199
 20
313.07867826847718
 30
0.0
 11
-362.87528411220319
 21
313.07867826847718
 31
0.0
  0
LINE
  8
DETAIL
  6
CONTINUOUS
 62
     5
 10
250.48294334779439
 20
310.49555572809908
 30
0.0
 11
249.98297739779539
 21
310.49555572809908
 31
0.0
  0
LINE
  8
DETAIL
  6
CONTINUOUS
 62
     5
 10
-250.4829385522016
 20
310.49555572809908
 30
0.0
 11
-249.98297260220619
 21
310.49555572809908
 31
0.0
  0
LINE
  8
DETAIL
  6
CONTINUOUS
 62
     5
 10
-250.4829385522016
 20
310.07888256847582
 30
0.0
 11
-250.58293174220219
 21
310.07888256847582
 31
0.0
  0
LINE
  8
DETAIL
  6
DIVIDE
 62
     5
 10
-313.27883420696429
 20
309.57891661847322
 30
0.0
 11
-332.45748586034011
 21
309.57891661847322
 31
0.0
  0
LINE
  8
DETAIL
  6
DIVIDE
 62
     5
 10
-302.5890172875761
 20
299.07963166847912
 30
0.0
 11
-252.48280235220139
 21
299.07963166847912
 31
0.0
  0
LINE
  8
DETAIL
  6
CONTINUOUS
 62
     5
 10
-250.4829385522016
 20
295.07990406847603
 30
0.0
 11
-250.58293174220219
 21
295.07990406847603
 31
0.0
  0
LINE
  8
DETAIL
  6
CONTINUOUS
 62
     5
 10
-223.17871159719559
 20
545.13230713932717
 30
0.0
 11
-221.0699635087212
 21
569.23540808336475
 31
0.0
  0
LINE
  8
DETAIL
  6
CONTINUOUS
 62
     5
 10
-243.72257935452129
 20
517.08210155092092
 30
0.0
 11
-243.72274040905091
 21
517.06464966847489
 31
0.0
  0
LINE
  8
DETAIL
  6
CONTINUOUS
 62
     5
 10
-289.98024860220448
 20
-469.86799943152442
 30
0.0
 11
-289.98024860220448
 21
-404.87242593152399
 31
0.0
  0
LINE
  8
DETAIL
  6
CONTINUOUS
 62
     5
 10
-289.98024860220448
 20
465.76814319847841
 30
0.0
 11
-289.98024860220448
 21
405.07241306847573
 31
0.0
  0
LINE
  8
DETAIL
  6
CONTINUOUS
 62
     5
 10
-289.98024860220448
 20
468.06798656847599
 30
0.0
 11
-289.98024860220448
 21
465.76814319847841
 31
0.0
  0
LINE
  8
DETAIL
  6
CONTINUOUS
 62
     5
 10
-276.48116795220182
 20
-469.86799943152442
 30
0.0
 11
-276.48116795220182
 21
-439.87004243152109
 31
0.0
  0
LINE
  8
DETAIL
  6
CONTINUOUS
 62
     5
 10
-276.48116795220182
 20
465.76814319847841
 30
0.0
 11
-276.48116795220182
 21
440.07002956847651
 31
0.0
  0
LINE
  8
DETAIL
  6
CONTINUOUS
 62
     5
 10
-276.48116795220182
 20
468.06798656847599
 30
0.0
 11
-276.48116795220182
 21
465.76814319847841
 31
0.0
  0
LINE
  8
DETAIL
  6
CONTINUOUS
 62
     5
 10
-275.98120200220268
 20
437.57173714427699
 30
0.0
 11
-275.98120200220268
 21
474.06757796847518
 31
0.0
  0
LINE
  8
DETAIL
  6
CONTINUOUS
 62
     5
 10
-275.98120200220268
 20
150.78973089847571
 30
0.0
 11
-275.98120200220268
 21
299.07963166847912
 31
0.0
  0
LINE
  8
DETAIL
  6
CONTINUOUS
 62
     5
 10
-271.98147440220328
 20
160.88904308847489
 30
0.0
 11
-271.98147440220328
 21
299.07963166847912
 31
0.0
  0
LINE
  8
DETAIL
  6
CONTINUOUS
 62
     5
 10
-264.38199196220279
 20
-178.88781653152549
 30
0.0
 11
-264.38199196220279
 21
155.88938358847739
 31
0.0
  0
LINE
  8
DETAIL
  6
CONTINUOUS
 62
     5
 10
-264.38199196220279
 20
-317.87835063152312
 30
0.0
 11
-264.38199196220279
 21
-288.88032553152522
 31
0.0
  0
LINE
  8
DETAIL
  6
CONTINUOUS
 62
     5
 10
-264.38199196220279
 20
-463.06846251152479
 30
0.0
 11
-264.38199196220279
 21
-436.5854056080243
 31
0.0
  0
LINE
  8
DETAIL
  6
CONTINUOUS
 62
     5
 10
-263.48205325220169
 20
-469.86799943152442
 30
0.0
 11
-263.48205325220169
 21
-439.87004243152109
 31
0.0
  0
LINE
  8
DETAIL
  6
CONTINUOUS
 62
     5
 10
-263.48205325220169
 20
468.06798656847599
 30
0.0
 11
-263.48205325220169
 21
440.07002956847651
 31
0.0
  0
LINE
  8
DETAIL
  6
CONTINUOUS
 62
     5
 10
-256.88250271220289
 20
-291.68013485152551
 30
0.0
 11
-256.88250271220289
 21
-292.28009399152512
 31
0.0
  0
LINE
  8
DETAIL
  6
CONTINUOUS
 62
     5
 10
-254.58265934220159
 20
405.07241306847573
 30
0.0
 11
-254.58265934220159
 21
468.06798656847599
 31
0.0
  0
LINE
  8
DETAIL
  6
CONTINUOUS
 62
     5
 10
-254.58265934220159
 20
-469.86799943152442
 30
0.0
 11
-254.58265934220159
 21
-404.87242593152399
 31
0.0
  0
LINE
  8
DETAIL
  6
CONTINUOUS
 62
     5
 10
-252.48280235220139
 20
299.07963166847912
 30
0.0
 11
-252.48280235220139
 21
405.07241306847573
 31
0.0
  0
LINE
  8
DETAIL
  6
CONTINUOUS
 62
     5
 10
-250.58293174220219
 20
-316.49780778239437
 30
0.0
 11
-250.58293174220219
 21
-300.87950833152348
 31
0.0
  0
LINE
  8
DETAIL
  6
CONTINUOUS
 62
     5
 10
-250.58293174220219
 20
-468.06812201152212
 30
0.0
 11
-250.58293174220219
 21
-464.86833993152322
 31
0.0
  0
LINE
  8
DETAIL
  6
CONTINUOUS
 62
     5
 10
-250.4829385522016
 20
287.08044886847711
 30
0.0
 11
-250.4829385522016
 21
297.07976786847581
 31
0.0
  0
LINE
  8
DETAIL
  6
CONTINUOUS
 62
     5
 10
-250.4829385522016
 20
-168.4556911866421
 30
0.0
 11
-250.4829385522016
 21
-166.88863373152341
 31
0.0
  0
LINE
  8
DETAIL
  6
CONTINUOUS
 62
     5
 10
-250.4829385522016
 20
-290.88018933152489
 30
0.0
 11
-250.4829385522016
 21
-176.88795273152209
 31
0.0
  0
LINE
  8
DETAIL
  6
CONTINUOUS
 62
     5
 10
-250.4829385522016
 20
-300.87950833152348
 30
0.0
 11
-250.4829385522016
 21
-299.31245087590293
 31
0.0
  0
LINE
  8
DETAIL
  6
CONTINUOUS
 62
     5
 10
-248.7830543222035
 20
466.26810914847738
 30
0.0
 11
-248.7830543222035
 21
-468.06812201152212
 31
0.0
  0
LINE
  8
DETAIL
  6
CONTINUOUS
 62
     5
 10
-248.4830747522019
 20
466.26810914847738
 30
0.0
 11
-248.4830747522019
 21
467.46802742847649
 31
0.0
  0
LINE
  8
DETAIL
  6
CONTINUOUS
 62
     5
 10
-248.4830747522019
 20
467.46802742847649
 30
0.0
 11
-248.4830747522019
 21
468.06798656847599
 31
0.0
  0
LINE
  8
DETAIL
  6
CONTINUOUS
 62
     5
 10
-248.4830747522019
 20
-468.06812201152212
 30
0.0
 11
-248.4830747522019
 21
-469.26804029152117
 31
0.0
  0
LINE
  8
DETAIL
  6
CONTINUOUS
 62
     5
 10
-248.4830747522019
 20
-469.26804029152117
 30
0.0
 11
-248.4830747522019
 21
-470.0679858115252
 31
0.0
  0
LINE
  8
DETAIL
  6
CONTINUOUS
 62
     5
 10
-246.4832109522022
 20
467.46802742847649
 30
0.0
 11
-246.4832109522022
 21
468.06798656847599
 31
0.0
  0
LINE
  8
DETAIL
  6
CONTINUOUS
 62
     5
 10
-246.4832109522022
 20
-469.26804029152117
 30
0.0
 11
-246.4832109522022
 21
-470.0679858115252
 31
0.0
  0
LINE
  8
DETAIL
  6
CONTINUOUS
 62
     5
 10
250.48294334779439
 20
288.64750632409778
 30
0.0
 11
249.98297739779539
 21
288.64750632409778
 31
0.0
  0
LINE
  8
DETAIL
  6
CONTINUOUS
 62
     5
 10
-250.4829385522016
 20
288.64750632409778
 30
0.0
 11
-249.98297260220619
 21
288.64750632409778
 31
0.0
  0
LINE
  8
DETAIL
  6
CONTINUOUS
 62
     5
 10
250.48294334779439
 20
287.08044886847711
 30
0.0
 11
249.98297739779539
 21
287.08044886847711
 31
0.0
  0
LINE
  8
DETAIL
  6
CONTINUOUS
 62
     5
 10
-250.4829385522016
 20
287.08044886847711
 30
0.0
 11
-249.98297260220619
 21
287.08044886847711
 31
0.0
  0
LINE
  8
DETAIL
  6
CONTINUOUS
 62
     5
 10
-210.68564893220449
 20
571.06341313524172
 30
0.0
 11
-208.23273568697101
 21
617.06028053524278
 31
0.0
  0
LINE
  8
DETAIL
  6
CONTINUOUS
 62
     5
 10
-223.18548346549781
 20
544.9841598723433
 30
0.0
 11
-223.39438054613771
 21
521.04692538602831
 31
0.0
  0
LINE
  8
DETAIL
  6
CONTINUOUS
 62
     5
 10
-235.68750926105619
 20
469.65959064985509
 30
0.0
 11
-235.70139897910391
 21
468.06798656847599
 31
0.0
  0
LINE
  8
DETAIL
  6
CONTINUOUS
 62
     5
 10
-235.49285805420999
 20
491.9644096632328
 30
0.0
 11
-235.6839464322029
 21
470.06785036847577
 31
0.0
  0
LINE
  8
DETAIL
  6
CONTINUOUS
 62
     5
 10
-234.92265825495909
 20
483.14217184104558
 30
0.0
 11
-234.83948816922839
 21
492.67423871258512
 31
0.0
  0
LINE
  8
DETAIL
  6
CONTINUOUS
 62
     5
 10
-235.98392600220089
 20
470.06785036847577
 30
0.0
 11
-235.98392600220089
 21
469.71787420347391
 31
0.0
  0
LINE
  8
DETAIL
  6
CONTINUOUS
 62
     5
 10
286.74847181993118
 20
212.9245618823079
 30
0.0
 11
275.98120679779549
 21
213.10446244474949
 31
0.0
  0
LINE
  8
DETAIL
  6
CONTINUOUS
 62
     5
 10
-275.98120200220268
 20
213.10446244474949
 30
0.0
 11
-286.9484670243346
 21
212.9245618823079
 31
0.0
  0
LINE
  8
DETAIL
  6
CONTINUOUS
 62
     5
 10
-105.2245317264087
 20
483.41232306349411
 30
0.0
 11
-111.19282842972009
 21
492.49203446253892
 31
0.0
  0
LINE
  8
DETAIL
  6
CONTINUOUS
 62
     5
 10
-275.98120200220268
 20
195.4677126522038
 30
0.0
 11
-286.9484670243346
 21
195.64761321514379
 31
0.0
  0
LINE
  8
DETAIL
  6
CONTINUOUS
 62
     5
 10
-264.38199196220279
 20
155.88938358847739
 30
0.0
 11
-266.98181490220207
 21
155.88938358847739
 31
0.0
  0
LINE
  8
DETAIL
  6
CONTINUOUS
 62
     5
 10
266.98181969779489
 20
155.88938358847739
 30
0.0
 11
264.3819967577956
 21
155.88938358847739
 31
0.0
  0
LINE
  8
DETAIL
  6
CONTINUOUS
 62
     5
 10
-264.38199196220279
 20
154.28949254847609
 30
0.0
 11
-275.98120200220268
 21
154.28949254847609
 31
0.0
  0
LINE
  8
DETAIL
  6
CONTINUOUS
 62
     5
 10
-264.38199196220279
 20
150.78973089847571
 30
0.0
 11
-275.98120200220268
 21
150.78973089847571
 31
0.0
  0
LINE
  8
DETAIL
  6
CONTINUOUS
 62
     5
 10
275.98120679779549
 20
150.78973089847571
 30
0.0
 11
264.3819967577956
 21
150.78973089847571
 31
0.0
  0
LINE
  8
DETAIL
  6
CONTINUOUS
 62
     5
 10
286.74847181993118
 20
195.64761321514379
 30
0.0
 11
275.98120679779549
 21
195.4677126522038
 31
0.0
  0
LINE
  8
DETAIL
  6
DIVIDE
 62
     5
 10
-333.97589567808882
 20
-182.08601599930631
 30
0.0
 11
-335.92813688690791
 21
-184.36363074318069
 31
0.0
  0
LINE
  8
DETAIL
  6
CONTINUOUS
 62
     5
 10
-82.394386162201954
 20
470.06785036847577
 30
0.0
 11
-82.394386162201954
 21
469.71787420347391
 31
0.0
  0
LINE
  8
DETAIL
  6
CONTINUOUS
 62
     5
 10
-94.983931618268798
 20
521.04692538602831
 30
0.0
 11
-95.19282869890867
 21
544.9841598723433
 31
0.0
  0
LINE
  8
DETAIL
  6
CONTINUOUS
 62
     5
 10
-82.694365732203551
 20
470.06785036847577
 30
0.0
 11
-82.880117845124005
 21
491.35293421954702
 31
0.0
  0
LINE
  8
DETAIL
  6
CONTINUOUS
 62
     5
 10
-82.67691318530251
 20
468.06798656847599
 30
0.0
 11
-82.690802903848635
 21
469.65959064985509
 31
0.0
  0
LINE
  8
DETAIL
  6
CONTINUOUS
 62
     5
 10
-89.228830834824294
 20
485.06682886847562
 30
0.0
 11
-89.193923082201763
 21
483.06696506847578
 31
0.0
  0
LINE
  8
DETAIL
  6
CONTINUOUS
 62
     5
 10
-107.6926632322056
 20
571.06341313524172
 30
0.0
 11
-110.1455764774355
 21
617.06028053524278
 31
0.0
  0
LINE
  8
DETAIL
  6
CONTINUOUS
 62
     5
 10
-333.97589567808882
 20
-321.0765500993075
 30
0.0
 11
-335.92813688690791
 21
-323.35416484318188
 31
0.0
  0
LINE
  8
DETAIL
  6
CONTINUOUS
 62
     5
 10
-95.199600567214475
 20
545.13230713932717
 30
0.0
 11
-97.30834865568886
 21
569.23540808336475
 31
0.0
  0
LINE
  8
DETAIL
  6
CONTINUOUS
 62
     5
 10
19.69866082779572
 20
-472.06784961152522
 30
0.0
 11
19.69866082779572
 21
-471.71787344652688
 31
0.0
  0
LINE
  8
DETAIL
  6
CONTINUOUS
 62
     5
 10
20.49860634779634
 20
-470.0679858115252
 30
0.0
 11
20.49860634779634
 21
-470.91792792652268
 31
0.0
  0
LINE
  8
DETAIL
  6
CONTINUOUS
 62
     5
 10
19.98118785089628
 20
-470.0679858115252
 30
0.0
 11
19.99507756894036
 21
-471.65958989240232
 31
0.0
  0
LINE
  8
DETAIL
  6
CONTINUOUS
 62
     5
 10
275.78122041779812
 20
-39.19733010152413
 30
0.0
 11
264.3819967577956
 21
-39.19733010152413
 31
0.0
  0
LINE
  8
DETAIL
  6
DIVIDE
 62
     5
 10
-333.97589565459111
 20
310.2772863097598
 30
0.0
 11
-335.92813681791358
 21
312.55490100063622
 31
0.0
  0
LINE
  8
DETAIL
  6
CONTINUOUS
 62
     5
 10
276.38117955779398
 20
-45.396907881524378
 30
0.0
 11
277.58109783779668
 21
-45.396907881524378
 31
0.0
  0
LINE
  8
DETAIL
  6
CONTINUOUS
 62
     5
 10
172.99178392615161
 20
-471.65958989240232
 30
0.0
 11
173.00567364469771
 21
-470.0679858115252
 31
0.0
  0
LINE
  8
DETAIL
  6
CONTINUOUS
 62
     5
 10
172.48825514779401
 20
-470.0679858115252
 30
0.0
 11
172.48825514779401
 21
-470.91792792652268
 31
0.0
  0
LINE
  8
DETAIL
  6
CONTINUOUS
 62
     5
 10
173.28820066779829
 20
-472.06784961152522
 30
0.0
 11
173.28820066779829
 21
-471.71787344652688
 31
0.0
  0
LINE
  8
DETAIL
  6
CONTINUOUS
 62
     5
 10
276.38117955779398
 20
-148.08991401152531
 30
0.0
 11
277.58109783779668
 21
-148.08991401152531
 31
0.0
  0
LINE
  8
DETAIL
  6
CONTINUOUS
 62
     5
 10
275.78122041779812
 20
-154.2894917915219
 30
0.0
 11
264.3819967577956
 21
-154.2894917915219
 31
0.0
  0
LINE
  8
DETAIL
  6
CONTINUOUS
 62
     5
 10
250.48294334779439
 20
-166.88863373152341
 30
0.0
 11
249.98297739779539
 21
-166.88863373152341
 31
0.0
  0
LINE
  8
DETAIL
  6
CONTINUOUS
 62
     5
 10
250.48294334779439
 20
-168.4556911866421
 30
0.0
 11
249.98297739779539
 21
-168.4556911866421
 31
0.0
  0
LINE
  8
DETAIL
  6
CONTINUOUS
 62
     5
 10
-250.4829385522016
 20
-168.4556911866421
 30
0.0
 11
-249.98297260220619
 21
-168.4556911866421
 31
0.0
  0
LINE
  8
DETAIL
  6
CONTINUOUS
 62
     5
 10
-250.4829385522016
 20
-169.88842943152491
 30
0.0
 11
-250.58293174220219
 21
-169.88842943152491
 31
0.0
  0
LINE
  8
DETAIL
  6
DIVIDE
 62
     5
 10
-304.95653409170251
 20
-178.88781653152549
 30
0.0
 11
-252.48280235220139
 21
-178.88781653152549
 31
0.0
  0
LINE
  8
DETAIL
  6
DIVIDE
 62
     5
 10
-312.10531918578181
 20
-181.38764628152421
 30
0.0
 11
-332.45748586234089
 21
-181.38764628152421
 31
0.0
  0
LINE
  8
DETAIL
  6
DIVIDE
 62
     5
 10
-337.06694416385199
 20
-184.88740793152439
 30
0.0
 11
-362.87528411220319
 21
-184.88740793152439
 31
0.0
  0
LINE
  8
DETAIL
  6
CONTINUOUS
 62
     5
 10
-250.4829385522016
 20
-184.88740793152439
 30
0.0
 11
-250.58293174220219
 21
-184.88740793152439
 31
0.0
  0
LINE
  8
DETAIL
  6
CONTINUOUS
 62
     5
 10
208.98576949779539
 20
468.06798656847599
 30
0.0
 11
208.98576949779539
 21
468.91792868347687
 31
0.0
  0
LINE
  8
DETAIL
  6
CONTINUOUS
 62
     5
 10
209.78571501779609
 20
470.06785036847577
 30
0.0
 11
209.78571501779609
 21
469.71787420347391
 31
0.0
  0
LINE
  8
DETAIL
  6
CONTINUOUS
 62
     5
 10
209.50318799469551
 20
468.06798656847599
 30
0.0
 11
209.48929827614941
 21
469.65959064985509
 31
0.0
  0
LINE
  8
DETAIL
  6
CONTINUOUS
 62
     5
 10
250.48294334779439
 20
-190.3037405906507
 30
0.0
 11
249.98297739779539
 21
-190.3037405906507
 31
0.0
  0
LINE
  8
DETAIL
  6
CONTINUOUS
 62
     5
 10
-250.4829385522016
 20
-190.3037405906507
 30
0.0
 11
-249.98297260220619
 21
-190.3037405906507
 31
0.0
  0
LINE
  8
DETAIL
  6
DIVIDE
 62
     5
 10
-250.58293174220219
 20
-193.88679503152159
 30
0.0
 11
-301.76475704052342
 21
-193.88679503152159
 31
0.0
  0
LINE
  8
DETAIL
  6
CONTINUOUS
 62
     5
 10
250.48294334779439
 20
-196.9785329538316
 30
0.0
 11
249.98297739779539
 21
-196.9785329538316
 31
0.0
  0
LINE
  8
DETAIL
  6
CONTINUOUS
 62
     5
 10
-250.4829385522016
 20
-196.9785329538316
 30
0.0
 11
-249.98297260220619
 21
-196.9785329538316
 31
0.0
  0
LINE
  8
DETAIL
  6
CONTINUOUS
 62
     5
 10
248.4830795477983
 20
-468.06812201152212
 30
0.0
 11
248.4830795477983
 21
-469.26804029152117
 31
0.0
  0
LINE
  8
DETAIL
  6
CONTINUOUS
 62
     5
 10
248.4830795477983
 20
-469.26804029152117
 30
0.0
 11
248.4830795477983
 21
-470.0679858115252
 31
0.0
  0
LINE
  8
DETAIL
  6
CONTINUOUS
 62
     5
 10
248.78305911779631
 20
-468.06812201152212
 30
0.0
 11
248.78305911779631
 21
466.26810914847738
 31
0.0
  0
LINE
  8
DETAIL
  6
CONTINUOUS
 62
     5
 10
250.48294334779439
 20
-305.87916783152468
 30
0.0
 11
250.48294334779439
 21
-404.87242593152399
 31
0.0
  0
LINE
  8
DETAIL
  6
CONTINUOUS
 62
     5
 10
250.48294334779439
 20
-166.88863373152341
 30
0.0
 11
250.48294334779439
 21
-300.87950833152348
 31
0.0
  0
LINE
  8
DETAIL
  6
CONTINUOUS
 62
     5
 10
250.48294334779439
 20
405.07241306847573
 30
0.0
 11
250.48294334779439
 21
287.08044886847711
 31
0.0
  0
LINE
  8
DETAIL
  6
CONTINUOUS
 62
     5
 10
250.58293653779859
 20
-177.50727368239311
 30
0.0
 11
250.58293653779859
 21
297.6990888198452
 31
0.0
  0
LINE
  8
DETAIL
  6
CONTINUOUS
 62
     5
 10
250.58293653779859
 20
-316.49780778239437
 30
0.0
 11
250.58293653779859
 21
-290.26086838015539
 31
0.0
  0
LINE
  8
DETAIL
  6
CONTINUOUS
 62
     5
 10
250.58293653779859
 20
-468.06812201152212
 30
0.0
 11
250.58293653779859
 21
-464.86833993152322
 31
0.0
  0
LINE
  8
DETAIL
  6
CONTINUOUS
 62
     5
 10
251.6092122401615
 20
-404.87242593152399
 30
0.0
 11
251.6092122401615
 21
-464.86833993152322
 31
0.0
  0
LINE
  8
DETAIL
  6
CONTINUOUS
 62
     5
 10
252.48280714779781
 20
405.07241306847573
 30
0.0
 11
252.48280714779781
 21
299.07963166847912
 31
0.0
  0
LINE
  8
DETAIL
  6
CONTINUOUS
 62
     5
 10
254.58266413779799
 20
405.07241306847573
 30
0.0
 11
254.58266413779799
 21
468.06798656847599
 31
0.0
  0
LINE
  8
DETAIL
  6
CONTINUOUS
 62
     5
 10
254.58266413779799
 20
-469.86799943152442
 30
0.0
 11
254.58266413779799
 21
-404.87242593152399
 31
0.0
  0
LINE
  8
DETAIL
  6
CONTINUOUS
 62
     5
 10
256.88250750779571
 20
-291.68013485152551
 30
0.0
 11
256.88250750779571
 21
-292.28009399152512
 31
0.0
  0
LINE
  8
DETAIL
  6
CONTINUOUS
 62
     5
 10
258.98236449779603
 20
473.06764606847719
 30
0.0
 11
258.98236449779603
 21
468.06798656847599
 31
0.0
  0
LINE
  8
DETAIL
  6
CONTINUOUS
 62
     5
 10
263.48205804779451
 20
-469.86799943152442
 30
0.0
 11
263.48205804779451
 21
-439.87004243152109
 31
0.0
  0
LINE
  8
DETAIL
  6
CONTINUOUS
 62
     5
 10
263.48205804779451
 20
468.06798656847599
 30
0.0
 11
263.48205804779451
 21
440.07002956847651
 31
0.0
  0
LINE
  8
DETAIL
  6
CONTINUOUS
 62
     5
 10
264.3819967577956
 20
-436.5854056080243
 30
0.0
 11
264.3819967577956
 21
-463.06846251152479
 31
0.0
  0
LINE
  8
DETAIL
  6
CONTINUOUS
 62
     5
 10
264.3819967577956
 20
-288.88032553152522
 30
0.0
 11
264.3819967577956
 21
-317.87835063152312
 31
0.0
  0
LINE
  8
DETAIL
  6
CONTINUOUS
 62
     5
 10
264.3819967577956
 20
155.88938358847739
 30
0.0
 11
264.3819967577956
 21
-178.88781653152549
 31
0.0
  0
LINE
  8
DETAIL
  6
CONTINUOUS
 62
     5
 10
271.98147919779598
 20
299.07963166847912
 30
0.0
 11
271.98147919779598
 21
160.88904308847489
 31
0.0
  0
LINE
  8
DETAIL
  6
CONTINUOUS
 62
     5
 10
275.78122041779812
 20
-153.68953265152231
 30
0.0
 11
275.78122041779812
 21
-39.797289241523693
 31
0.0
  0
LINE
  8
DETAIL
  6
CONTINUOUS
 62
     5
 10
275.78122041779812
 20
-154.2894917915219
 30
0.0
 11
275.78122041779812
 21
-153.68953265152231
 31
0.0
  0
LINE
  8
DETAIL
  6
CONTINUOUS
 62
     5
 10
275.78122041779812
 20
-39.19733010152413
 30
0.0
 11
275.78122041779812
 21
-39.797289241523693
 31
0.0
  0
LINE
  8
DETAIL
  6
CONTINUOUS
 62
     5
 10
275.98120679779549
 20
299.07963166847912
 30
0.0
 11
275.98120679779549
 21
150.78973089847571
 31
0.0
  0
LINE
  8
DETAIL
  6
CONTINUOUS
 62
     5
 10
275.98120679779549
 20
474.06757796847518
 30
0.0
 11
275.98120679779549
 21
437.57173714427699
 31
0.0
  0
LINE
  8
DETAIL
  6
CONTINUOUS
 62
     5
 10
276.48117274779821
 20
-467.56815606152293
 30
0.0
 11
276.48117274779821
 21
-439.87004243152109
 31
0.0
  0
LINE
  8
DETAIL
  6
CONTINUOUS
 62
     5
 10
276.48117274779821
 20
-469.86799943152442
 30
0.0
 11
276.48117274779821
 21
-467.56815606152293
 31
0.0
  0
LINE
  8
DETAIL
  6
CONTINUOUS
 62
     5
 10
276.48117274779821
 20
468.06798656847599
 30
0.0
 11
276.48117274779821
 21
440.07002956847651
 31
0.0
  0
LINE
  8
DETAIL
  6
CONTINUOUS
 62
     5
 10
277.58109783779668
 20
-148.08991401152531
 30
0.0
 11
277.58109783779668
 21
-45.396907881524378
 31
0.0
  0
LINE
  8
DETAIL
  6
CONTINUOUS
 62
     5
 10
250.48294334779439
 20
-270.78960910871319
 30
0.0
 11
249.98297739779539
 21
-270.78960910871319
 31
0.0
  0
LINE
  8
DETAIL
  6
CONTINUOUS
 62
     5
 10
-250.4829385522016
 20
-270.78960910871319
 30
0.0
 11
-249.98297260220619
 21
-270.78960910871319
 31
0.0
  0
LINE
  8
DETAIL
  6
DIVIDE
 62
     5
 10
-250.58293174220219
 20
-273.88134703152542
 30
0.0
 11
-301.76475704052342
 21
-273.88134703152542
 31
0.0
  0
LINE
  8
DETAIL
  6
CONTINUOUS
 62
     5
 10
250.48294334779439
 20
-277.46440147189787
 30
0.0
 11
249.98297739779539
 21
-277.46440147189787
 31
0.0
  0
LINE
  8
DETAIL
  6
CONTINUOUS
 62
     5
 10
-250.4829385522016
 20
-277.46440147189787
 30
0.0
 11
-249.98297260220619
 21
-277.46440147189787
 31
0.0
  0
LINE
  8
DETAIL
  6
CONTINUOUS
 62
     5
 10
289.98025339779718
 20
-467.56815606152293
 30
0.0
 11
289.98025339779718
 21
-404.87242593152399
 31
0.0
  0
LINE
  8
DETAIL
  6
CONTINUOUS
 62
     5
 10
289.98025339779718
 20
-469.86799943152442
 30
0.0
 11
289.98025339779718
 21
-467.56815606152293
 31
0.0
  0
LINE
  8
DETAIL
  6
CONTINUOUS
 62
     5
 10
289.98025339779718
 20
468.06798656847599
 30
0.0
 11
289.98025339779718
 21
405.07241306847573
 31
0.0
  0
LINE
  8
DETAIL
  6
DIVIDE
 62
     5
 10
-337.06694416385199
 20
-282.88073413152227
 30
0.0
 11
-362.87528411220319
 21
-282.88073413152227
 31
0.0
  0
LINE
  8
DETAIL
  6
CONTINUOUS
 62
     5
 10
-250.4829385522016
 20
-282.88073413152227
 30
0.0
 11
-250.58293174220219
 21
-282.88073413152227
 31
0.0
  0
LINE
  8
DETAIL
  6
DIVIDE
 62
     5
 10
-312.10533864145958
 20
-286.38049578152282
 30
0.0
 11
-332.45748586283929
 21
-286.38049578152282
 31
0.0
  0
LINE
  8
DETAIL
  6
DIVIDE
 62
     5
 10
-304.95653409170251
 20
-288.88032553152522
 30
0.0
 11
-252.48280235220139
 21
-288.88032553152522
 31
0.0
  0
LINE
  8
DETAIL
  6
CONTINUOUS
 62
     5
 10
-250.4829385522016
 20
-297.87971263152582
 30
0.0
 11
-250.58293174220219
 21
-297.87971263152582
 31
0.0
  0
LINE
  8
DETAIL
  6
CONTINUOUS
 62
     5
 10
250.48294334779439
 20
-299.31245087590293
 30
0.0
 11
249.98297739779539
 21
-299.31245087590293
 31
0.0
  0
LINE
  8
DETAIL
  6
CONTINUOUS
 62
     5
 10
-250.4829385522016
 20
-299.31245087590293
 30
0.0
 11
-249.98297260220619
 21
-299.31245087590293
 31
0.0
  0
LINE
  8
DETAIL
  6
CONTINUOUS
 62
     5
 10
250.48294334779439
 20
-300.87950833152348
 30
0.0
 11
249.98297739779539
 21
-300.87950833152348
 31
0.0
  0
LINE
  8
DETAIL
  6
CONTINUOUS
 62
     5
 10
-250.4829385522016
 20
-300.87950833152348
 30
0.0
 11
-249.98297260220619
 21
-300.87950833152348
 31
0.0
  0
LINE
  8
DETAIL
  6
CONTINUOUS
 62
     5
 10
250.48294334779439
 20
-305.87916783152468
 30
0.0
 11
249.98297739779539
 21
-305.87916783152468
 31
0.0
  0
LINE
  8
DETAIL
  6
CONTINUOUS
 62
     5
 10
-250.4829385522016
 20
-305.87916783152468
 30
0.0
 11
-249.98297260220619
 21
-305.87916783152468
 31
0.0
  0
LINE
  8
DETAIL
  6
CONTINUOUS
 62
     5
 10
250.48294334779439
 20
-307.44622528664331
 30
0.0
 11
249.98297739779539
 21
-307.44622528664331
 31
0.0
  0
LINE
  8
DETAIL
  6
CONTINUOUS
 62
     5
 10
-250.4829385522016
 20
-307.44622528664331
 30
0.0
 11
-249.98297260220619
 21
-307.44622528664331
 31
0.0
  0
LINE
  8
DETAIL
  6
CONTINUOUS
 62
     5
 10
-304.95653409170251
 20
-317.87835063152312
 30
0.0
 11
-252.48280235220139
 21
-317.87835063152312
 31
0.0
  0
LINE
  8
DETAIL
  6
CONTINUOUS
 62
     5
 10
-312.10531918578181
 20
-320.37818038152182
 30
0.0
 11
-332.45748586234089
 21
-320.37818038152182
 31
0.0
  0
LINE
  8
DETAIL
  6
CONTINUOUS
 62
     5
 10
-337.06694416385199
 20
-323.87794203152231
 30
0.0
 11
-362.87528411220319
 21
-323.87794203152231
 31
0.0
  0
LINE
  8
DETAIL
  6
CONTINUOUS
 62
     5
 10
250.48294334779439
 20
-329.29427469064831
 30
0.0
 11
249.98297739779539
 21
-329.29427469064831
 31
0.0
  0
LINE
  8
DETAIL
  6
CONTINUOUS
 62
     5
 10
-250.4829385522016
 20
-329.29427469064831
 30
0.0
 11
-249.98297260220619
 21
-329.29427469064831
 31
0.0
  0
LINE
  8
DETAIL
  6
CONTINUOUS
 62
     5
 10
-250.4829385522016
 20
-332.87732913152291
 30
0.0
 11
-301.76475704052342
 21
-332.87732913152291
 31
0.0
  0
LINE
  8
DETAIL
  6
CONTINUOUS
 62
     5
 10
250.48294334779439
 20
-335.96906705383299
 30
0.0
 11
249.98297739779539
 21
-335.96906705383299
 31
0.0
  0
LINE
  8
DETAIL
  6
CONTINUOUS
 62
     5
 10
-250.4829385522016
 20
-335.96906705383299
 30
0.0
 11
-249.98297260220619
 21
-335.96906705383299
 31
0.0
  0
LINE
  8
DETAIL
  6
CONTINUOUS
 62
     5
 10
-249.98297260220619
 20
-404.87242593152399
 30
0.0
 11
-289.98024860220448
 21
-404.87242593152399
 31
0.0
  0
LINE
  8
DETAIL
  6
CONTINUOUS
 62
     5
 10
289.98025339779718
 20
-404.87242593152399
 30
0.0
 11
249.98297739779539
 21
-404.87242593152399
 31
0.0
  0
LINE
  8
DETAIL
  6
CONTINUOUS
 62
     5
 10
-301.76475704052342
 20
-412.8718811315232
 30
0.0
 11
-289.98024860220448
 21
-412.8718811315232
 31
0.0
  0
LINE
  8
DETAIL
  6
CONTINUOUS
 62
     5
 10
-337.06694416385199
 20
-421.87126823152357
 30
0.0
 11
-362.87528411220319
 21
-421.87126823152357
 31
0.0
  0
LINE
  8
DETAIL
  6
DIVIDE
 62
     5
 10
-333.97589568109021
 20
-285.68212605924049
 30
0.0
 11
-335.92813689090599
 21
-283.4045113148677
 31
0.0
  0
LINE
  8
DETAIL
  6
CONTINUOUS
 62
     5
 10
-312.10533864145958
 20
-425.37102988152401
 30
0.0
 11
-332.45748586283929
 21
-425.37102988152401
 31
0.0
  0
LINE
  8
DETAIL
  6
CONTINUOUS
 62
     5
 10
-304.95653409170251
 20
-427.87085963152282
 30
0.0
 11
-289.98024860220448
 21
-427.87085963152282
 31
0.0
  0
LINE
  8
DETAIL
  6
CONTINUOUS
 62
     5
 10
-249.98297260220619
 20
-464.86833993152322
 30
0.0
 11
-254.58265934220159
 21
-464.86833993152322
 31
0.0
  0
LINE
  8
DETAIL
  6
CONTINUOUS
 62
     5
 10
254.58266413779799
 20
-464.86833993152322
 30
0.0
 11
249.98297739779539
 21
-464.86833993152322
 31
0.0
  0
LINE
  8
DETAIL
  6
CONTINUOUS
 62
     5
 10
263.48205804779451
 20
-465.26831269152171
 30
0.0
 11
254.58266413779799
 21
-465.26831269152171
 31
0.0
  0
LINE
  8
DETAIL
  6
CONTINUOUS
 62
     5
 10
289.98025339779718
 20
-465.26831269152171
 30
0.0
 11
276.48117274779821
 21
-465.26831269152171
 31
0.0
  0
LINE
  8
DETAIL
  6
CONTINUOUS
 62
     5
 10
-263.48205325220169
 20
-465.26831269152171
 30
0.0
 11
-254.58265934220159
 21
-465.26831269152171
 31
0.0
  0
LINE
  8
DETAIL
  6
CONTINUOUS
 62
     5
 10
-289.98024860220448
 20
-465.26831269152171
 30
0.0
 11
-276.48116795220182
 21
-465.26831269152171
 31
0.0
  0
LINE
  8
DETAIL
  6
CONTINUOUS
 62
     5
 10
-254.58265934220159
 20
-467.56815606152293
 30
0.0
 11
-263.48205325220169
 21
-467.56815606152293
 31
0.0
  0
LINE
  8
DETAIL
  6
CONTINUOUS
 62
     5
 10
276.48117274779821
 20
-467.56815606152293
 30
0.0
 11
289.98025339779718
 21
-467.56815606152293
 31
0.0
  0
LINE
  8
DETAIL
  6
CONTINUOUS
 62
     5
 10
254.58266413779799
 20
-468.06812201152212
 30
0.0
 11
-254.58265934220159
 21
-468.06812201152212
 31
0.0
  0
LINE
  8
DETAIL
  6
CONTINUOUS
 62
     5
 10
-254.58265934220159
 20
-469.86799943152442
 30
0.0
 11
-263.48205325220169
 21
-469.86799943152442
 31
0.0
  0
LINE
  8
DETAIL
  6
CONTINUOUS
 62
     5
 10
263.48205804779451
 20
-469.86799943152442
 30
0.0
 11
254.58266413779799
 21
-469.86799943152442
 31
0.0
  0
LINE
  8
DETAIL
  6
CONTINUOUS
 62
     5
 10
276.48117274779821
 20
-469.86799943152442
 30
0.0
 11
289.98025339779718
 21
-469.86799943152442
 31
0.0
  0
LINE
  8
DETAIL
  6
CONTINUOUS
 62
     5
 10
-289.98024860220448
 20
-469.86799943152442
 30
0.0
 11
-276.48116795220182
 21
-469.86799943152442
 31
0.0
  0
LINE
  8
DETAIL
  6
CONTINUOUS
 62
     5
 10
-248.4830747522019
 20
-470.0679858115252
 30
0.0
 11
248.4830795477983
 21
-470.0679858115252
 31
0.0
  0
LINE
  8
DETAIL
  6
CONTINUOUS
 62
     5
 10
11.49921924779574
 20
-472.06784961152522
 30
0.0
 11
173.28820066779829
 21
-472.06784961152522
 31
0.0
  0
LINE
  8
DETAIL
  6
CONTINUOUS
 62
     5
 10
142.24598907387639
 20
-477.56311209066553
 30
0.0
 11
50.74087242171754
 21
-477.56311209066553
 31
0.0
  0
LINE
  8
DETAIL
  6
CONTINUOUS
 62
     5
 10
248.4830795477983
 20
-468.26810839152313
 30
0.0
 11
248.88305230779679
 21
-468.06812201152212
 31
0.0
  0
LINE
  8
DETAIL
  6
CONTINUOUS
 62
     5
 10
-333.97589568109021
 20
-424.67266015924179
 30
0.0
 11
-335.92813689090599
 21
-422.39504541486872
 31
0.0
  0
LINE
  8
DETAIL
  6
CONTINUOUS
 62
     5
 10
-248.883047512204
 20
-468.06812201152212
 30
0.0
 11
-248.4830747522019
 21
-468.26810839152313
 31
0.0
  0
LINE
  8
BASIS
  6
DASHDOT
 62
     6
 10
-159.1891552967563
 20
635.25193580539417
 30
0.0
 11
-159.1891552967563
 21
437.86082930438351
 31
0.0
  0
LINE
  8
BASIS
  6
DASHDOT
 62
     6
 10
96.993430747796992
 20
-423.46245682063449
 30
0.0
 11
96.993430747796992
 21
-631.10633011586469
 31
0.0
  0
ARC
  8
DETAIL
  6
CONTINUOUS
 62
     5
 10
-269.98161060220349
 20
440.07002956847651
 30
0.0
 40
6.4995573500001003
 50
180.0
 51
0.0
  0
ARC
  8
DETAIL
  6
CONTINUOUS
 62
     5
 10
269.9816153977963
 20
440.07002956847651
 30
0.0
 40
6.4995573500001003
 50
180.0
 51
0.0
  0
ARC
  8
DETAIL
  6
CONTINUOUS
 62
     5
 10
-269.98161060220349
 20
-439.87004243152109
 30
0.0
 40
6.4995573500001003
 50
0.0
 51
180.0
  0
ARC
  8
DETAIL
  6
CONTINUOUS
 62
     5
 10
269.9816153977963
 20
-439.87004243152109
 30
0.0
 40
6.4995573500002912
 50
0.0
 51
180.0
  0
LINE
  8
DETAIL
  6
CONTINUOUS
 62
     5
 10
47.996733597797167
 20
470.06785036847577
 30
0.0
 11
56.196175177797159
 21
470.06785036847577
 31
0.0
  0
LINE
  8
DETAIL
  6
CONTINUOUS
 62
     5
 10
-244.18336758220451
 20
470.06785036847577
 30
0.0
 11
-235.98392600220089
 21
470.06785036847577
 31
0.0
  0
LINE
  8
DETAIL
  6
CONTINUOUS
 62
     5
 10
-248.4830747522019
 20
467.46802742847649
 30
0.0
 11
-248.7830543222035
 21
467.46802742847649
 31
0.0
  0
LINE
  8
DETAIL
  6
CONTINUOUS
 62
     5
 10
-248.4830747522019
 20
466.86806828847688
 30
0.0
 11
-248.7830543222035
 21
466.86806828847688
 31
0.0
  0
LINE
  8
DETAIL
  6
CONTINUOUS
 62
     5
 10
-250.58293174220219
 20
396.65556199007187
 30
0.0
 11
-250.4829385522016
 21
396.65556199007187
 31
0.0
  0
LINE
  8
DETAIL
  6
CONTINUOUS
 62
     5
 10
-250.58293174220219
 20
387.49103474738149
 30
0.0
 11
-250.4829385522016
 21
387.49103474738149
 31
0.0
  0
LINE
  8
DETAIL
  6
CONTINUOUS
 62
     5
 10
-250.58293174220219
 20
336.65964799006912
 30
0.0
 11
-250.4829385522016
 21
336.65964799006912
 31
0.0
  0
LINE
  8
DETAIL
  6
CONTINUOUS
 62
     5
 10
-250.58293174220219
 20
327.49512074737868
 30
0.0
 11
-250.4829385522016
 21
327.49512074737868
 31
0.0
  0
LINE
  8
DETAIL
  6
CONTINUOUS
 62
     5
 10
-250.58293174220219
 20
-169.88842943152491
 30
0.0
 11
-250.58293174220219
 21
-166.88863373152341
 31
0.0
  0
LINE
  8
DETAIL
  6
CONTINUOUS
 62
     5
 10
-250.58293174220219
 20
-300.87950833152348
 30
0.0
 11
-250.58293174220219
 21
-290.25573206011882
 31
0.0
  0
LINE
  8
DETAIL
  6
CONTINUOUS
 62
     5
 10
-248.7830543222035
 20
-469.26804029152117
 30
0.0
 11
-248.7830543222035
 21
-468.66808115152531
 31
0.0
  0
LINE
  8
DETAIL
  6
CONTINUOUS
 62
     5
 10
-248.7830543222035
 20
467.46802742847649
 30
0.0
 11
-248.7830543222035
 21
466.86806828847688
 31
0.0
  0
LINE
  8
DETAIL
  6
CONTINUOUS
 62
     5
 10
-244.18336758220451
 20
470.06785036847577
 30
0.0
 11
-244.18336758220451
 21
517.06464966847489
 31
0.0
  0
LINE
  8
DETAIL
  6
CONTINUOUS
 62
     5
 10
-74.194944582205608
 20
470.06785036847577
 30
0.0
 11
-74.194944582205608
 21
517.06464966847489
 31
0.0
  0
LINE
  8
DETAIL
  6
CONTINUOUS
 62
     5
 10
-250.58293174220219
 20
-166.88863373152341
 30
0.0
 11
-249.98297260220619
 21
-166.88863373152341
 31
0.0
  0
LINE
  8
DETAIL
  6
CONTINUOUS
 62
     5
 10
248.78305911779631
 20
-469.26804029152117
 30
0.0
 11
248.78305911779631
 21
-468.66808115152531
 31
0.0
  0
LINE
  8
DETAIL
  6
CONTINUOUS
 62
     5
 10
-250.58293174220219
 20
-300.87950833152348
 30
0.0
 11
-250.4829385522016
 21
-300.87950833152348
 31
0.0
  0
LINE
  8
DETAIL
  6
CONTINUOUS
 62
     5
 10
-248.4830747522019
 20
-468.66808115152531
 30
0.0
 11
-248.7830543222035
 21
-468.66808115152531
 31
0.0
  0
LINE
  8
DETAIL
  6
CONTINUOUS
 62
     5
 10
248.78305911779631
 20
-468.66808115152531
 30
0.0
 11
248.4830795477983
 21
-468.66808115152531
 31
0.0
  0
LINE
  8
DETAIL
  6
CONTINUOUS
 62
     5
 10
-248.4830747522019
 20
-469.26804029152117
 30
0.0
 11
-248.7830543222035
 21
-469.26804029152117
 31
0.0
  0
LINE
  8
DETAIL
  6
CONTINUOUS
 62
     5
 10
248.78305911779631
 20
-469.26804029152117
 30
0.0
 11
248.4830795477983
 21
-469.26804029152117
 31
0.0
  0
LINE
  8
DETAIL
  6
CONTINUOUS
 62
     5
 10
181.48764224779461
 20
-472.06784961152522
 30
0.0
 11
173.28820066779829
 21
-472.06784961152522
 31
0.0
  0
LINE
  8
DETAIL
  6
CONTINUOUS
 62
     5
 10
-304.95653409170251
 20
-427.87085963152282
 30
0.0
 11
-312.10533864145958
 21
-425.37102988152401
 31
0.0
  0
LINE
  8
DETAIL
  6
CONTINUOUS
 62
     5
 10
-312.10533864145958
 20
-425.37102988152401
 30
0.0
 11
-312.10531918578181
 21
-320.37818038152182
 31
0.0
  0
LINE
  8
DETAIL
  6
CONTINUOUS
 62
     5
 10
-312.10531918578181
 20
-320.37818038152182
 30
0.0
 11
-304.95653409170251
 21
-317.87835063152312
 31
0.0
  0
LINE
  8
DETAIL
  6
CONTINUOUS
 62
     5
 10
-304.95653409170251
 20
-317.87835063152312
 30
0.0
 11
-304.95653409170251
 21
-427.87085963152282
 31
0.0
  0
LINE
  8
DETAIL
  6
DIVIDE
 62
     5
 10
-304.95653409170251
 20
-288.88032553152522
 30
0.0
 11
-312.10533864145958
 21
-286.38049578152282
 31
0.0
  0
LINE
  8
DETAIL
  6
DIVIDE
 62
     5
 10
-312.10533864145958
 20
-286.38049578152282
 30
0.0
 11
-312.10531918578181
 21
-181.38764628152421
 31
0.0
  0
LINE
  8
DETAIL
  6
DIVIDE
 62
     5
 10
-312.10531918578181
 20
-181.38764628152421
 30
0.0
 11
-304.95653409170251
 21
-178.88781653152549
 31
0.0
  0
LINE
  8
DETAIL
  6
DIVIDE
 62
     5
 10
-304.95653409170251
 20
-178.88781653152549
 30
0.0
 11
-304.95653409170251
 21
-288.88032553152522
 31
0.0
  0
LINE
  8
DETAIL
  6
CONTINUOUS
 62
     5
 10
-286.9484670243346
 20
212.9245618823079
 30
0.0
 11
-286.9484670243346
 21
195.64761321514379
 31
0.0
  0
LINE
  8
DETAIL
  6
DIVIDE
 62
     5
 10
-302.5890172875761
 20
425.07105106847672
 30
0.0
 11
-313.27883820369152
 21
414.57176611847541
 31
0.0
  0
LINE
  8
DETAIL
  6
DIVIDE
 62
     5
 10
-313.27883820369152
 20
414.57176611847541
 30
0.0
 11
-313.27883420696429
 21
309.57891661847322
 31
0.0
  0
LINE
  8
DETAIL
  6
DIVIDE
 62
     5
 10
-313.27883420696429
 20
309.57891661847322
 30
0.0
 11
-302.5890172875761
 21
299.07963166847912
 31
0.0
  0
LINE
  8
DETAIL
  6
DIVIDE
 62
     5
 10
-302.5890172875761
 20
299.07963166847912
 30
0.0
 11
-302.5890172875761
 21
425.07105106847672
 31
0.0
  0
LINE
  8
DETAIL
  6
CONTINUOUS
 62
     5
 10
179.85467894767231
 20
476.16830755304909
 30
0.0
 11
179.81507989405239
 21
491.35213693284459
 31
0.0
  0
LINE
  8
DETAIL
  6
CONTINUOUS
 62
     5
 10
179.76256745839149
 20
493.93770644257171
 30
0.0
 11
179.62898289512029
 21
517.08210155092092
 31
0.0
  0
LINE
  8
DETAIL
  6
CONTINUOUS
 62
     5
 10
86.352907300476545
 20
517.08210155092092
 30
0.0
 11
86.219319110951801
 21
493.93770644257171
 31
0.0
  0
LINE
  8
DETAIL
  6
CONTINUOUS
 62
     5
 10
69.001666739933171
 20
545.06274286847474
 30
0.0
 11
69.001935387136655
 21
545.10622457916907
 31
0.0
  0
LINE
  8
DETAIL
  6
CONTINUOUS
 62
     5
 10
69.001935387136655
 20
545.10622457916907
 30
0.0
 11
69.002095800210554
 21
545.13230250714332
 31
0.0
  0
LINE
  8
DETAIL
  6
CONTINUOUS
 62
     5
 10
56.55389762824143
 20
494.23787227438521
 30
0.0
 11
56.72152704689961
 21
517.08210155092092
 31
0.0
  0
LINE
  8
DETAIL
  6
CONTINUOUS
 62
     5
 10
209.49578378196111
 20
491.35286000760237
 30
0.0
 11
209.68111717089499
 21
470.06785036847577
 31
0.0
  0
LINE
  8
DETAIL
  6
CONTINUOUS
 62
     5
 10
209.26036314819521
 20
517.08210155092092
 30
0.0
 11
209.42799887192899
 21
494.23790313828431
 31
0.0
  0
LINE
  8
DETAIL
  6
CONTINUOUS
 62
     5
 10
86.166810173553131
 20
491.3520879276839
 30
0.0
 11
86.127211247422565
 21
476.16830755304909
 31
0.0
  0
ARC
  8
DETAIL
  6
CONTINUOUS
 62
     5
 10
-6.1196566250391697
 20
714.79759308509529
 30
0.0
 40
132.17479161167441
 50
312.95498757360502
 51
313.58087938261718
  0
ARC
  8
DETAIL
  6
CONTINUOUS
 62
     5
 10
73.10239138556517
 20
569.06110846847514
 30
0.0
 40
1.999863799999241
 50
90.0
 51
175.00000000002541
  0
ARC
  8
DETAIL
  6
CONTINUOUS
 62
     5
 10
50.446808078861977
 20
517.08238668800186
 30
0.0
 40
1.9821268144702811
 50
90.010542234511661
 51
101.145186171731
  0
ARC
  8
DETAIL
  6
CONTINUOUS
 62
     5
 10
49.996597397796897
 20
517.06464966847489
 30
0.0
 40
1.99986379999935
 50
90.0
 51
180.0
  0
ARC
  8
DETAIL
  6
CONTINUOUS
 62
     5
 10
69.369913025152528
 20
545.13434450506975
 30
0.0
 40
0.3752085965543577
 50
191.0003888866909
 51
196.78588958177329
  0
ARC
  8
DETAIL
  6
CONTINUOUS
 62
     5
 10
69.37575999494311
 20
545.13620602729497
 30
0.0
 40
0.3813440422017489
 50
196.7999561085206
 51
209.05258475075459
  0
ARC
  8
DETAIL
  6
CONTINUOUS
 62
     5
 10
66.785946227272689
 20
521.06437726847435
 30
0.0
 40
1.999857177450713
 50
270.0
 51
359.49999668851319
  0
ARC
  8
DETAIL
  6
CONTINUOUS
 62
     5
 10
70.931754888476462
 20
544.88913966765904
 30
0.0
 40
1.93794828273399
 50
174.8603245922107
 51
179.5046012419858
  0
ARC
  8
DETAIL
  6
CONTINUOUS
 62
     5
 10
70.977790902213201
 20
543.06287906847501
 30
0.0
 40
1.999863800000413
 50
90.0
 51
179.4999999999564
  0
ARC
  8
DETAIL
  6
CONTINUOUS
 62
     5
 10
70.994405462680334
 20
544.96671911564044
 30
0.0
 40
1.999863799999964
 50
175.00000000031321
 51
179.49999999998249
  0
ARC
  8
DETAIL
  6
CONTINUOUS
 62
     5
 10
59.936933494308512
 20
480.17307343991712
 30
0.0
 40
3.9993947416692368
 50
89.998426302987312
 51
132.06496793195799
  0
ARC
  8
DETAIL
  6
CONTINUOUS
 62
     5
 10
56.871305750276413
 20
449.21714187592812
 30
0.0
 40
67.865124956737134
 50
89.873547797291636
 51
90.126452202708364
  0
ARC
  8
DETAIL
  6
CONTINUOUS
 62
     5
 10
192.87949880953329
 20
569.06110846847514
 30
0.0
 40
1.9998637999998961
 50
4.999999999974639
 51
90.0
  0
ARC
  8
DETAIL
  6
CONTINUOUS
 62
     5
 10
272.10154658915138
 20
714.79759330358138
 30
0.0
 40
132.17479161167449
 50
226.41912075528199
 51
227.04501256430521
  0
ARC
  8
DETAIL
  6
CONTINUOUS
 62
     5
 10
195.00409929288529
 20
543.06287906847501
 30
0.0
 40
1.9998638000001141
 50
0.5000000000435696
 51
90.0
  0
ARC
  8
DETAIL
  6
CONTINUOUS
 62
     5
 10
199.1959439678221
 20
521.06437726847435
 30
0.0
 40
1.999857177451108
 50
180.50000331148669
 51
270.00037947096331
  0
ARC
  8
DETAIL
  6
CONTINUOUS
 62
     5
 10
215.98529279780001
 20
517.06464966847489
 30
0.0
 40
1.9998637999999229
 50
0.0
 51
90.0
  0
ARC
  8
DETAIL
  6
CONTINUOUS
 62
     5
 10
206.04493274442299
 20
480.17301142563878
 30
0.0
 40
3.9994591327841271
 50
47.93538097730984
 51
90.001230469584769
  0
LINE
  8
DETAIL
  6
CONTINUOUS
 62
     5
 10
134.0811664656658
 20
619.06255798799975
 30
0.0
 11
131.90072372942899
 21
619.06255798799975
 31
0.0
  0
LINE
  8
DETAIL
  6
CONTINUOUS
 62
     5
 10
180.98317570280869
 20
619.04991584298841
 30
0.0
 11
84.998714492788167
 21
619.04991584298841
 31
0.0
  0
LINE
  8
DETAIL
  6
CONTINUOUS
 62
     5
 10
73.10239138556517
 20
571.06097226847487
 30
0.0
 11
192.87949880953329
 21
571.06097226847487
 31
0.0
  0
LINE
  8
DETAIL
  6
CONTINUOUS
 62
     5
 10
70.977790902213201
 20
545.06274286847474
 30
0.0
 11
195.00409929288529
 21
545.06274286847474
 31
0.0
  0
LINE
  8
DETAIL
  6
CONTINUOUS
 62
     5
 10
49.996597397796897
 20
519.06451346847825
 30
0.0
 11
215.98529279780001
 21
519.06451346847825
 31
0.0
  0
LINE
  8
DETAIL
  6
CONTINUOUS
 62
     5
 10
48.457521825480399
 20
517.08210155092092
 30
0.0
 11
56.72152704689961
 21
517.08210155092092
 31
0.0
  0
LINE
  8
DETAIL
  6
CONTINUOUS
 62
     5
 10
48.4573607709508
 20
517.06464966847489
 30
0.0
 11
47.996733597797167
 21
517.06464966847489
 31
0.0
  0
LINE
  8
DETAIL
  6
CONTINUOUS
 62
     5
 10
209.13095487550251
 20
493.93770644257171
 30
0.0
 11
179.76256745839149
 21
493.93770644257171
 31
0.0
  0
LINE
  8
DETAIL
  6
CONTINUOUS
 62
     5
 10
208.97490046103209
 20
493.06079204451089
 30
0.0
 11
180.23601281856551
 21
493.06079204451089
 31
0.0
  0
LINE
  8
DETAIL
  6
CONTINUOUS
 62
     5
 10
197.02149444991761
 20
485.06682886847562
 30
0.0
 11
202.95127034517739
 21
485.06682886847562
 31
0.0
  0
LINE
  8
DETAIL
  6
CONTINUOUS
 62
     5
 10
63.030619849917457
 20
485.06682886847562
 30
0.0
 11
68.960395745177266
 21
485.06682886847562
 31
0.0
  0
LINE
  8
DETAIL
  6
CONTINUOUS
 62
     5
 10
68.960395745675669
 20
485.0319263445017
 30
0.0
 11
75.480712328878326
 21
485.03194584366793
 31
0.0
  0
LINE
  8
DETAIL
  6
CONTINUOUS
 62
     5
 10
190.50117872465941
 20
485.03194751805859
 30
0.0
 11
197.02149444941921
 21
485.03192632800352
 31
0.0
  0
LINE
  8
DETAIL
  6
CONTINUOUS
 62
     5
 10
59.937043342325516
 20
484.17246258796882
 30
0.0
 11
63.015008668612609
 21
484.17246488131423
 31
0.0
  0
LINE
  8
DETAIL
  6
CONTINUOUS
 62
     5
 10
202.96688165497559
 20
484.1724575388107
 30
0.0
 11
206.0448468532677
 21
484.17246258796882
 31
0.0
  0
LINE
  8
DETAIL
  6
CONTINUOUS
 62
     5
 10
84.994477706831276
 20
492.49190959854241
 30
0.0
 11
79.02632063000874
 21
483.41232322398719
 31
0.0
  0
LINE
  8
DETAIL
  6
CONTINUOUS
 62
     5
 10
69.001389582806041
 20
545.13230713932717
 30
0.0
 11
71.110137671280427
 21
569.23540808336475
 31
0.0
  0
LINE
  8
DETAIL
  6
CONTINUOUS
 62
     5
 10
48.457521825480399
 20
517.08210155092092
 30
0.0
 11
48.4573607709508
 21
517.06464966847489
 31
0.0
  0
LINE
  8
DETAIL
  6
CONTINUOUS
 62
     5
 10
81.494452247797199
 20
571.06341313524172
 30
0.0
 11
83.947365493030702
 21
618.06028053524278
 31
0.0
  0
LINE
  8
DETAIL
  6
CONTINUOUS
 62
     5
 10
68.994617714503875
 20
544.9841598723433
 30
0.0
 11
68.785720633864003
 21
521.04692538602831
 31
0.0
  0
LINE
  8
DETAIL
  6
CONTINUOUS
 62
     5
 10
56.687243125791611
 20
491.9644096632328
 30
0.0
 11
56.496154747798762
 21
470.06785036847577
 31
0.0
  0
LINE
  8
DETAIL
  6
CONTINUOUS
 62
     5
 10
57.257442925042596
 20
483.14217184104558
 30
0.0
 11
57.340613010773268
 21
492.67423871258512
 31
0.0
  0
LINE
  8
DETAIL
  6
CONTINUOUS
 62
     5
 10
186.95556945359289
 20
483.41232306349411
 30
0.0
 11
180.98727275028159
 21
492.49203446253892
 31
0.0
  0
LINE
  8
DETAIL
  6
CONTINUOUS
 62
     5
 10
197.19616956173289
 20
521.04692538602831
 30
0.0
 11
196.98727248109299
 21
544.9841598723433
 31
0.0
  0
LINE
  8
DETAIL
  6
CONTINUOUS
 62
     5
 10
209.48573544779811
 20
470.06785036847577
 30
0.0
 11
209.29998333487771
 21
491.35293421954702
 31
0.0
  0
LINE
  8
DETAIL
  6
CONTINUOUS
 62
     5
 10
202.95127034517739
 20
485.06682886847562
 30
0.0
 11
202.98617809779989
 21
483.06696506847578
 31
0.0
  0
LINE
  8
DETAIL
  6
CONTINUOUS
 62
     5
 10
184.487437947796
 20
571.06341313524172
 30
0.0
 11
182.03452470256619
 21
618.06028053524278
 31
0.0
  0
LINE
  8
DETAIL
  6
CONTINUOUS
 62
     5
 10
196.98050061278721
 20
545.13230713932717
 30
0.0
 11
194.8717525243128
 21
569.23540808336475
 31
0.0
  0
LINE
  8
DETAIL
  6
CONTINUOUS
 62
     5
 10
47.996733597797167
 20
470.06785036847577
 30
0.0
 11
47.996733597797167
 21
517.06464966847489
 31
0.0
  0
LINE
  8
DETAIL
  6
CONTINUOUS
 62
     5
 10
217.98515659779599
 20
470.06785036847577
 30
0.0
 11
217.98515659779599
 21
517.06464966847489
 31
0.0
  0
ARC
  8
DETAIL
  6
CONTINUOUS
 62
     5
 10
362.87528831760659
 20
410.57203480162121
 30
0.0
 40
0.499965949999541
 50
0.0
 51
89.999999413134844
  0
ARC
  8
DETAIL
  6
CONTINUOUS
 62
     5
 10
337.06694838973908
 20
412.57189886597013
 30
0.0
 40
1.4998978499997959
 50
220.60129407560851
 51
269.99999941313479
  0
ARC
  8
DETAIL
  6
CONTINUOUS
 62
     5
 10
332.45749008622721
 20
412.57189891318382
 30
0.0
 40
1.999863800000413
 50
40.601294056343392
 51
89.999999413134844
  0
ARC
  8
DETAIL
  6
CONTINUOUS
 62
     5
 10
362.87528732412369
 20
313.57864050162152
 30
0.0
 40
0.4999659499999365
 50
269.99999941313479
 51
0.0
  0
ARC
  8
DETAIL
  6
CONTINUOUS
 62
     5
 10
337.06694735528799
 20
311.57877696597097
 30
0.0
 40
1.4998978499991691
 50
89.999999413134844
 51
139.39870477276199
  0
ARC
  8
DETAIL
  6
CONTINUOUS
 62
     5
 10
332.45748905177612
 20
311.57877701318472
 30
0.0
 40
1.999863800000087
 50
269.99999941313479
 51
319.39870476812069
  0
ARC
  8
DETAIL
  6
DIVIDE
 62
     5
 10
362.87528221332008
 20
-185.38737759837841
 30
0.0
 40
0.499965949999541
 50
0.0
 51
89.999999413134844
  0
ARC
  8
DETAIL
  6
DIVIDE
 62
     5
 10
362.87528121983718
 20
-282.38077189837799
 30
0.0
 40
0.4999659499999365
 50
269.99999941313479
 51
0.0
  0
ARC
  8
DETAIL
  6
DIVIDE
 62
     5
 10
337.06694228545302
 20
-183.38751353402949
 30
0.0
 40
1.4998978500005731
 50
220.6012980835678
 51
269.99999941313479
  0
ARC
  8
DETAIL
  6
DIVIDE
 62
     5
 10
337.06694125100188
 20
-284.38063543402859
 30
0.0
 40
1.4998978500003
 50
89.999999413134844
 51
139.39870050832911
  0
ARC
  8
DETAIL
  6
DIVIDE
 62
     5
 10
332.4574839819411
 20
-183.38751348681581
 30
0.0
 40
1.999863799999732
 50
40.601293029134808
 51
89.999999413134844
  0
ARC
  8
DETAIL
  6
DIVIDE
 62
     5
 10
332.45748294749001
 20
-284.3806353868149
 30
0.0
 40
1.9998638000000459
 50
269.99999941313479
 51
319.39870594401702
  0
ARC
  8
DETAIL
  6
CONTINUOUS
 62
     5
 10
362.87528078966938
 20
-324.37791169837601
 30
0.0
 40
0.499965949999541
 50
0.0
 51
89.999999413134844
  0
ARC
  8
DETAIL
  6
CONTINUOUS
 62
     5
 10
362.87527979618648
 20
-421.37130599837928
 30
0.0
 40
0.4999659499999365
 50
269.99999941313479
 51
0.0
  0
ARC
  8
DETAIL
  6
CONTINUOUS
 62
     5
 10
337.06694086180232
 20
-322.37804763403068
 30
0.0
 40
1.499897849999605
 50
220.6012980835236
 51
269.99999941313479
  0
ARC
  8
DETAIL
  6
CONTINUOUS
 62
     5
 10
337.06693982735118
 20
-423.37116953402619
 30
0.0
 40
1.4998978499996729
 50
89.999999413134844
 51
139.39870050832911
  0
ARC
  8
DETAIL
  6
CONTINUOUS
 62
     5
 10
332.45748255829039
 20
-322.37804758681682
 30
0.0
 40
1.999863800000317
 50
40.601293029167842
 51
89.999999413134844
  0
ARC
  8
DETAIL
  6
CONTINUOUS
 62
     5
 10
332.45748152383931
 20
-423.37116948681251
 30
0.0
 40
1.9998638000000459
 50
269.99999941313479
 51
319.39870594401702
  0
LINE
  8
DETAIL
  6
CONTINUOUS
 62
     5
 10
333.97589989380958
 20
413.87339300684607
 30
0.0
 11
335.92814103430101
 21
411.5957782954747
 31
0.0
  0
LINE
  8
DETAIL
  6
CONTINUOUS
 62
     5
 10
302.58902164148958
 20
425.07104796912148
 30
0.0
 11
289.98025295611802
 21
425.07104809827018
 31
0.0
  0
LINE
  8
DETAIL
  6
CONTINUOUS
 62
     5
 10
313.27884245006322
 20
414.57176290962622
 30
0.0
 11
332.4574901067117
 21
414.57176271318349
 31
0.0
  0
LINE
  8
DETAIL
  6
CONTINUOUS
 62
     5
 10
337.06694837437641
 20
411.07200101596942
 30
0.0
 11
362.87528832272761
 21
411.07200075162018
 31
0.0
  0
LINE
  8
DETAIL
  6
CONTINUOUS
 62
     5
 10
363.37525327462299
 20
313.6274734437502
 30
0.0
 11
363.37525426760573
 21
410.57203479649979
 31
0.0
  0
LINE
  8
DETAIL
  6
DIVIDE
 62
     5
 10
363.37524716983631
 20
-282.38077190349941
 30
0.0
 11
363.37524816331921
 21
-185.3873776034998
 31
0.0
  0
LINE
  8
DETAIL
  6
CONTINUOUS
 62
     5
 10
363.37524574618561
 20
-421.37130600350059
 30
0.0
 11
363.37524673966851
 21
-324.37791170349738
 31
0.0
  0
LINE
  8
DETAIL
  6
CONTINUOUS
 62
     5
 10
362.87528731900238
 20
313.0786745516225
 30
0.0
 11
362.87528832272761
 21
411.07200075162018
 31
0.0
  0
LINE
  8
DETAIL
  6
CONTINUOUS
 62
     5
 10
337.06694084643908
 20
-323.8779454840278
 30
0.0
 11
337.06693984271442
 21
-421.87127168303232
 31
0.0
  0
LINE
  8
DETAIL
  6
DIVIDE
 62
     5
 10
337.06694227008978
 20
-184.8874113840302
 30
0.0
 11
337.06694126636512
 21
-282.88073758303108
 31
0.0
  0
LINE
  8
DETAIL
  6
CONTINUOUS
 62
     5
 10
337.06694837437641
 20
411.07200101596942
 30
0.0
 11
337.06694737065118
 21
313.07867481597168
 31
0.0
  0
LINE
  8
DETAIL
  6
CONTINUOUS
 62
     5
 10
332.45748903129203
 20
309.57891321318129
 30
0.0
 11
332.4574901067117
 21
414.57176271318349
 31
0.0
  0
LINE
  8
DETAIL
  6
DIVIDE
 62
     5
 10
332.4574829295052
 20
-286.38049918681457
 30
0.0
 11
332.45748400442608
 21
-181.3876496868161
 31
0.0
  0
LINE
  8
DETAIL
  6
CONTINUOUS
 62
     5
 10
332.4574815058545
 20
-425.37103328681587
 30
0.0
 11
332.45748258077538
 21
-320.37818378681368
 31
0.0
  0
LINE
  8
DETAIL
  6
CONTINUOUS
 62
     5
 10
337.06694737065118
 20
313.07867481597168
 30
0.0
 11
362.87528731900238
 21
313.0786745516225
 31
0.0
  0
LINE
  8
DETAIL
  6
CONTINUOUS
 62
     5
 10
313.27883737791632
 20
309.57891340962402
 30
0.0
 11
332.45748903129203
 21
309.57891321318129
 31
0.0
  0
LINE
  8
DETAIL
  6
CONTINUOUS
 62
     5
 10
302.58902035098617
 20
299.079628569124
 30
0.0
 11
252.48280541561141
 21
299.07962908235089
 31
0.0
  0
LINE
  8
DETAIL
  6
DIVIDE
 62
     5
 10
333.97589381302078
 20
-182.0860194201509
 30
0.0
 11
335.92813499851081
 21
-184.363634184022
 31
0.0
  0
LINE
  8
DETAIL
  6
CONTINUOUS
 62
     5
 10
333.97589238937007
 20
-321.07655352015217
 30
0.0
 11
335.92813357486011
 21
-323.35416828402282
 31
0.0
  0
LINE
  8
DETAIL
  6
CONTINUOUS
 62
     5
 10
333.9758988326962
 20
310.27728288891512
 30
0.0
 11
335.92814001934772
 21
312.55489755979488
 31
0.0
  0
LINE
  8
DETAIL
  6
DIVIDE
 62
     5
 10
304.95653225939299
 20
-178.8878196551309
 30
0.0
 11
252.4828005198915
 21
-178.88781911765361
 31
0.0
  0
LINE
  8
DETAIL
  6
DIVIDE
 62
     5
 10
312.10531732786689
 20
-181.3876494783531
 30
0.0
 11
332.45748400442608
 21
-181.3876496868161
 31
0.0
  0
LINE
  8
DETAIL
  6
DIVIDE
 62
     5
 10
337.06694227008978
 20
-184.8874113840302
 30
0.0
 11
362.87528221844099
 21
-184.88741164837941
 31
0.0
  0
LINE
  8
DETAIL
  6
DIVIDE
 62
     5
 10
337.06694126636512
 20
-282.88073758402788
 30
0.0
 11
362.87528121471632
 21
-282.88073784837712
 31
0.0
  0
LINE
  8
DETAIL
  6
DIVIDE
 62
     5
 10
312.10533570812549
 20
-286.38049897835208
 30
0.0
 11
332.4574829295052
 21
-286.38049918681457
 31
0.0
  0
LINE
  8
DETAIL
  6
DIVIDE
 62
     5
 10
304.95653113276279
 20
-288.8803286551306
 30
0.0
 11
252.48279939326181
 21
-288.88032811765322
 31
0.0
  0
LINE
  8
DETAIL
  6
CONTINUOUS
 62
     5
 10
304.95653083574229
 20
-317.8783537551285
 30
0.0
 11
252.48279909624131
 21
-317.87835321765118
 31
0.0
  0
LINE
  8
DETAIL
  6
CONTINUOUS
 62
     5
 10
312.10531590421618
 20
-320.37818357835067
 30
0.0
 11
332.45748258077538
 21
-320.37818378681368
 31
0.0
  0
LINE
  8
DETAIL
  6
CONTINUOUS
 62
     5
 10
337.06694084643908
 20
-323.8779454840278
 30
0.0
 11
362.87528079479029
 21
-323.87794574837699
 31
0.0
  0
LINE
  8
DETAIL
  6
CONTINUOUS
 62
     5
 10
337.06693984271442
 20
-421.87127168402913
 30
0.0
 11
362.87527979106562
 21
-421.87127194837831
 31
0.0
  0
LINE
  8
DETAIL
  6
DIVIDE
 62
     5
 10
333.97589275490918
 20
-285.68212948008522
 30
0.0
 11
335.92813398805401
 21
-283.40451475570848
 31
0.0
  0
LINE
  8
DETAIL
  6
CONTINUOUS
 62
     5
 10
312.10533428447479
 20
-425.37103307835332
 30
0.0
 11
332.4574815058545
 21
-425.37103328681587
 31
0.0
  0
LINE
  8
DETAIL
  6
CONTINUOUS
 62
     5
 10
304.95652970911209
 20
-427.8708627551282
 30
0.0
 11
289.98024421961418
 21
-427.87086260172919
 31
0.0
  0
LINE
  8
DETAIL
  6
CONTINUOUS
 62
     5
 10
333.97589133125848
 20
-424.67266358008652
 30
0.0
 11
335.92813256440331
 21
-422.39504885570977
 31
0.0
  0
LINE
  8
DETAIL
  6
CONTINUOUS
 62
     5
 10
304.95652970911209
 20
-427.8708627551282
 30
0.0
 11
312.10533428447479
 21
-425.37103307835332
 31
0.0
  0
LINE
  8
DETAIL
  6
CONTINUOUS
 62
     5
 10
312.10533428447479
 20
-425.37103307835332
 30
0.0
 11
312.10531590421618
 21
-320.37818357835067
 31
0.0
  0
LINE
  8
DETAIL
  6
CONTINUOUS
 62
     5
 10
312.10531590421618
 20
-320.37818357835067
 30
0.0
 11
304.95653083574229
 21
-317.8783537551285
 31
0.0
  0
LINE
  8
DETAIL
  6
CONTINUOUS
 62
     5
 10
304.95653083574229
 20
-317.8783537551285
 30
0.0
 11
304.95652970911209
 21
-427.8708627551282
 31
0.0
  0
LINE
  8
DETAIL
  6
DIVIDE
 62
     5
 10
304.95653113276279
 20
-288.8803286551306
 30
0.0
 11
312.10533570812549
 21
-286.38049897835208
 31
0.0
  0
LINE
  8
DETAIL
  6
DIVIDE
 62
     5
 10
312.10533570812549
 20
-286.38049897835208
 30
0.0
 11
312.10531732786689
 21
-181.3876494783531
 31
0.0
  0
LINE
  8
DETAIL
  6
DIVIDE
 62
     5
 10
312.10531732786689
 20
-181.3876494783531
 30
0.0
 11
304.95653225939299
 21
-178.8878196551309
 31
0.0
  0
LINE
  8
DETAIL
  6
DIVIDE
 62
     5
 10
304.95653225939299
 20
-178.8878196551309
 30
0.0
 11
304.95653113276279
 21
-288.8803286551306
 31
0.0
  0
LINE
  8
DETAIL
  6
CONTINUOUS
 62
     5
 10
302.58902164148958
 20
425.07104796912148
 30
0.0
 11
313.27884245006322
 21
414.57176290962622
 31
0.0
  0
LINE
  8
DETAIL
  6
CONTINUOUS
 62
     5
 10
313.27884245006322
 20
414.57176290962622
 30
0.0
 11
313.27883737791632
 21
309.57891340962402
 31
0.0
  0
LINE
  8
DETAIL
  6
CONTINUOUS
 62
     5
 10
313.27883737791632
 20
309.57891340962402
 30
0.0
 11
302.58902035098617
 21
299.079628569124
 31
0.0
  0
LINE
  8
DETAIL
  6
CONTINUOUS
 62
     5
 10
302.58902035098617
 20
299.079628569124
 30
0.0
 11
302.58902164148958
 21
425.07104796912148
 31
0.0
  0
LINE
  8
DETAIL
  6
CONTINUOUS
 62
     5
 10
143.35716458549271
 20
-478.16831093398082
 30
0.0
 11
143.31756553187279
 21
-493.35214031377649
 31
0.0
  0
LINE
  8
DETAIL
  6
CONTINUOUS
 62
     5
 10
143.26505309621189
 20
-495.93770982350361
 30
0.0
 11
143.13146853294069
 21
-519.08210493185288
 31
0.0
  0
LINE
  8
DETAIL
  6
CONTINUOUS
 62
     5
 10
49.855392938296973
 20
-519.08210493185288
 30
0.0
 11
49.721804748772229
 21
-495.93770982350361
 31
0.0
  0
LINE
  8
DETAIL
  6
CONTINUOUS
 62
     5
 10
32.504152377753599
 20
-547.0627462494067
 30
0.0
 11
32.504421024957082
 21
-547.10622796010091
 31
0.0
  0
LINE
  8
DETAIL
  6
CONTINUOUS
 62
     5
 10
32.504421024957082
 20
-547.10622796010091
 30
0.0
 11
32.504581438030982
 21
-547.13230588807528
 31
0.0
  0
LINE
  8
DETAIL
  6
CONTINUOUS
 62
     5
 10
20.056383266061861
 20
-496.23787565531711
 30
0.0
 11
20.224012684720041
 21
-519.08210493185288
 31
0.0
  0
LINE
  8
DETAIL
  6
CONTINUOUS
 62
     5
 10
172.99826941978151
 20
-493.35286338853439
 30
0.0
 11
173.18360280871551
 21
-472.06785374940767
 31
0.0
  0
LINE
  8
DETAIL
  6
CONTINUOUS
 62
     5
 10
172.76284878601561
 20
-519.08210493185288
 30
0.0
 11
172.9304845097495
 21
-496.23790651921632
 31
0.0
  0
LINE
  8
DETAIL
  6
CONTINUOUS
 62
     5
 10
49.669295811373559
 20
-493.35209130861608
 30
0.0
 11
49.629696885242993
 21
-478.16831093398082
 31
0.0
  0
ARC
  8
DETAIL
  6
CONTINUOUS
 62
     5
 10
-42.617170987218742
 20
-716.79759646602724
 30
0.0
 40
132.17479161167441
 50
46.419120617382823
 51
47.045012426395019
  0
ARC
  8
DETAIL
  6
CONTINUOUS
 62
     5
 10
36.604877023385598
 20
-571.0611118494071
 30
0.0
 40
1.999863799999241
 50
184.99999999997459
 51
270.0
  0
ARC
  8
DETAIL
  6
CONTINUOUS
 62
     5
 10
13.9492937166824
 20
-519.08239006893371
 30
0.0
 40
1.9821268144702811
 50
258.85481382826868
 51
269.98945776548828
  0
ARC
  8
DETAIL
  6
CONTINUOUS
 62
     5
 10
13.49908303561733
 20
-519.06465304940684
 30
0.0
 40
1.99986379999935
 50
180.0
 51
270.0
  0
ARC
  8
DETAIL
  6
CONTINUOUS
 62
     5
 10
32.872398662972962
 20
-547.13434788600171
 30
0.0
 40
0.3752085965543577
 50
163.21411041822671
 51
168.99961111333309
  0
ARC
  8
DETAIL
  6
CONTINUOUS
 62
     5
 10
32.878245632763537
 20
-547.13620940822682
 30
0.0
 40
0.3813440422017489
 50
150.94741524920991
 51
163.200043891456
  0
ARC
  8
DETAIL
  6
CONTINUOUS
 62
     5
 10
30.28843186509312
 20
-523.0643806494063
 30
0.0
 40
1.999857177450713
 50
0.5000033114867449
 51
90.0
  0
ARC
  8
DETAIL
  6
CONTINUOUS
 62
     5
 10
34.43424052629689
 20
-546.889143048591
 30
0.0
 40
1.93794828273399
 50
180.4953987580142
 51
185.1396754077893
  0
ARC
  8
DETAIL
  6
CONTINUOUS
 62
     5
 10
34.480276540033628
 20
-545.06288244940697
 30
0.0
 40
1.999863800000413
 50
180.5000000000696
 51
270.0
  0
ARC
  8
DETAIL
  6
CONTINUOUS
 62
     5
 10
34.496891100500761
 20
-546.96672249657229
 30
0.0
 40
1.999863799999964
 50
180.50000000001751
 51
184.9999999996609
  0
ARC
  8
DETAIL
  6
CONTINUOUS
 62
     5
 10
23.439419132128929
 20
-482.17307682084879
 30
0.0
 40
3.9993947416692368
 50
227.9350320679782
 51
270.0015736970127
  0
ARC
  8
DETAIL
  6
CONTINUOUS
 62
     5
 10
20.37379138809683
 20
-451.21714525686002
 30
0.0
 40
67.865124956737134
 50
269.87354779729168
 51
270.12645220270832
  0
ARC
  8
DETAIL
  6
CONTINUOUS
 62
     5
 10
156.38198444735369
 20
-571.0611118494071
 30
0.0
 40
1.9998637999998961
 50
270.0
 51
355.00000000002541
  0
ARC
  8
DETAIL
  6
CONTINUOUS
 62
     5
 10
235.6040322269719
 20
-716.79759668451322
 30
0.0
 40
132.17479161167449
 50
132.95498743569479
 51
133.58087924471809
  0
ARC
  8
DETAIL
  6
CONTINUOUS
 62
     5
 10
158.50658493070571
 20
-545.06288244940697
 30
0.0
 40
1.9998638000001141
 50
270.0
 51
359.49999999993042
  0
ARC
  8
DETAIL
  6
CONTINUOUS
 62
     5
 10
162.69842960564259
 20
-523.0643806494063
 30
0.0
 40
1.999857177451108
 50
89.999620528984593
 51
179.49999668851319
  0
ARC
  8
DETAIL
  6
CONTINUOUS
 62
     5
 10
179.48777843562041
 20
-519.06465304940684
 30
0.0
 40
1.9998637999999229
 50
270.0
 51
0.0
  0
ARC
  8
DETAIL
  6
CONTINUOUS
 62
     5
 10
169.54741838224339
 20
-482.17301480657079
 30
0.0
 40
3.9994591327841271
 50
269.99876953041519
 51
312.06461902269018
  0
LINE
  8
DETAIL
  6
CONTINUOUS
 62
     5
 10
97.583652103486202
 20
-621.06256136893171
 30
0.0
 11
95.403209367249474
 21
-621.06256136893171
 31
0.0
  0
LINE
  8
DETAIL
  6
CONTINUOUS
 62
     5
 10
144.48566134062909
 20
-621.04991922392037
 30
0.0
 11
48.501200130608588
 21
-621.04991922392037
 31
0.0
  0
LINE
  8
DETAIL
  6
CONTINUOUS
 62
     5
 10
36.604877023385598
 20
-573.06097564940671
 30
0.0
 11
156.38198444735369
 21
-573.06097564940671
 31
0.0
  0
LINE
  8
DETAIL
  6
CONTINUOUS
 62
     5
 10
34.480276540033628
 20
-547.0627462494067
 30
0.0
 11
158.50658493070571
 21
-547.0627462494067
 31
0.0
  0
LINE
  8
DETAIL
  6
CONTINUOUS
 62
     5
 10
13.49908303561733
 20
-521.06451684941021
 30
0.0
 11
179.48777843562041
 21
-521.06451684941021
 31
0.0
  0
LINE
  8
DETAIL
  6
CONTINUOUS
 62
     5
 10
11.96000746330083
 20
-519.08210493185288
 30
0.0
 11
20.224012684720041
 21
-519.08210493185288
 31
0.0
  0
LINE
  8
DETAIL
  6
CONTINUOUS
 62
     5
 10
11.959846408771231
 20
-519.06465304940684
 30
0.0
 11
11.4992192356176
 21
-519.06465304940684
 31
0.0
  0
LINE
  8
DETAIL
  6
CONTINUOUS
 62
     5
 10
172.633440513323
 20
-495.93770982350361
 30
0.0
 11
143.26505309621189
 21
-495.93770982350361
 31
0.0
  0
LINE
  8
DETAIL
  6
CONTINUOUS
 62
     5
 10
172.47738609885249
 20
-495.06079542544279
 30
0.0
 11
143.738498456386
 21
-495.06079542544279
 31
0.0
  0
LINE
  8
DETAIL
  6
CONTINUOUS
 62
     5
 10
160.52398008773801
 20
-487.06683224940753
 30
0.0
 11
166.45375598299779
 21
-487.06683224940753
 31
0.0
  0
LINE
  8
DETAIL
  6
CONTINUOUS
 62
     5
 10
26.533105487737881
 20
-487.06683224940753
 30
0.0
 11
32.462881382997693
 21
-487.06683224940753
 31
0.0
  0
LINE
  8
DETAIL
  6
CONTINUOUS
 62
     5
 10
32.462881383496097
 20
-487.03192972543371
 30
0.0
 11
38.983197966698746
 21
-487.03194922459988
 31
0.0
  0
LINE
  8
DETAIL
  6
CONTINUOUS
 62
     5
 10
154.0036643624799
 20
-487.03195089899049
 30
0.0
 11
160.52398008723961
 21
-487.03192970893542
 31
0.0
  0
LINE
  8
DETAIL
  6
CONTINUOUS
 62
     5
 10
23.439528980145951
 20
-486.17246596890072
 30
0.0
 11
26.51749430643304
 21
-486.17246826224618
 31
0.0
  0
LINE
  8
DETAIL
  6
CONTINUOUS
 62
     5
 10
166.46936729279611
 20
-486.17246091974272
 30
0.0
 11
169.5473324910881
 21
-486.17246596890072
 31
0.0
  0
LINE
  8
DETAIL
  6
CONTINUOUS
 62
     5
 10
48.496963344651697
 20
-494.49191297947442
 30
0.0
 11
42.528806267829168
 21
-485.41232660491909
 31
0.0
  0
LINE
  8
DETAIL
  6
CONTINUOUS
 62
     5
 10
32.503875220626469
 20
-547.13231052025913
 30
0.0
 11
34.612623309100847
 21
-571.2354114642967
 31
0.0
  0
LINE
  8
DETAIL
  6
CONTINUOUS
 62
     5
 10
11.96000746330083
 20
-519.08210493185288
 30
0.0
 11
11.959846408771231
 21
-519.06465304940684
 31
0.0
  0
LINE
  8
DETAIL
  6
CONTINUOUS
 62
     5
 10
44.996937885617633
 20
-573.06341651617367
 30
0.0
 11
47.44985113085113
 21
-620.06028391617474
 31
0.0
  0
LINE
  8
DETAIL
  6
CONTINUOUS
 62
     5
 10
32.497103352324302
 20
-546.98416325327526
 30
0.0
 11
32.28820627168443
 21
-523.04692876696026
 31
0.0
  0
LINE
  8
DETAIL
  6
CONTINUOUS
 62
     5
 10
20.189728763612042
 20
-493.96441304416481
 30
0.0
 11
19.998640385619179
 21
-472.06785374940767
 31
0.0
  0
LINE
  8
DETAIL
  6
CONTINUOUS
 62
     5
 10
20.759928562863021
 20
-485.1421752219776
 30
0.0
 11
20.843098648593699
 21
-494.6742420935168
 31
0.0
  0
LINE
  8
DETAIL
  6
CONTINUOUS
 62
     5
 10
150.4580550914134
 20
-485.41232644442613
 30
0.0
 11
144.48975838810199
 21
-494.49203784347083
 31
0.0
  0
LINE
  8
DETAIL
  6
CONTINUOUS
 62
     5
 10
160.69865519955329
 20
-523.04692876696026
 30
0.0
 11
160.48975811891339
 21
-546.98416325327526
 31
0.0
  0
LINE
  8
DETAIL
  6
CONTINUOUS
 62
     5
 10
172.98822108561851
 20
-472.06785374940767
 30
0.0
 11
172.80246897269811
 21
-493.35293760047898
 31
0.0
  0
LINE
  8
DETAIL
  6
CONTINUOUS
 62
     5
 10
166.45375598299779
 20
-487.06683224940753
 30
0.0
 11
166.48866373562029
 21
-485.0669684494078
 31
0.0
  0
LINE
  8
DETAIL
  6
CONTINUOUS
 62
     5
 10
147.98992358561651
 20
-573.06341651617367
 30
0.0
 11
145.53701034038659
 21
-620.06028391617474
 31
0.0
  0
LINE
  8
DETAIL
  6
CONTINUOUS
 62
     5
 10
160.48298625060761
 20
-547.13231052025913
 30
0.0
 11
158.3742381621332
 21
-571.2354114642967
 31
0.0
  0
LINE
  8
DETAIL
  6
CONTINUOUS
 62
     5
 10
11.4992192356176
 20
-472.06785374940767
 30
0.0
 11
11.4992192356176
 21
-519.06465304940684
 31
0.0
  0
LINE
  8
DETAIL
  6
CONTINUOUS
 62
     5
 10
181.48764223561651
 20
-472.06785374940767
 30
0.0
 11
181.48764223561651
 21
-519.06465304940684
 31
0.0
  0
LINE
  8
BASIS
  6
DASHDOT
 62
     6
 10
133.01189925322339
 20
437.00370143646069
 30
0.0
 11
133.01189925322339
 21
637.72010137011966
 31
0.0
  0
LINE
  8
BASIS
  6
DASHDOT
 62
     6
 10
0.0
 20
-629.55668299999979
 30
0.0
 11
0.0
 21
536.56536499999993
 31
0.0
  0
LINE
  8
BASIS
  6
DASHDOT
 62
     6
 10
-407.29472900000019
 20
0.0
 30
0.0
 11
407.29472900000019
 21
0.0
 31
0.0
  0
LINE
  8
NOTE
  6
CONTINUOUS
 62
     4
 10
269.9816153977963
 20
-468.67458243152117
 30
0.0
 11
269.9816153977963
 21
-428.37494243152082
 31
0.0
  0
LINE
  8
NOTE
  6
CONTINUOUS
 62
     4
 10
257.98651539779621
 20
-439.87004243152109
 30
0.0
 11
281.47671539779589
 21
-439.87004243152109
 31
0.0
  0
LINE
  8
NOTE
  6
CONTINUOUS
 62
     4
 10
-258.48651060220351
 20
-439.87004243152109
 30
0.0
 11
-281.47671060220358
 21
-439.87004243152109
 31
0.0
  0
LINE
  8
NOTE
  6
CONTINUOUS
 62
     4
 10
-269.98161060220349
 20
-468.67458243152117
 30
0.0
 11
-269.98161060220349
 21
-428.37494243152082
 31
0.0
  0
LINE
  8
BASIS
  6
DASHDOT
 62
     6
 10
-378.05285687941392
 20
-372.87460665079038
 30
0.0
 11
-246.01389687941401
 21
-372.87460665079038
 31
0.0
  0
LINE
  8
BASIS
  6
DASHDOT
 62
     6
 10
-377.55289092941479
 20
-234.38403850078791
 30
0.0
 11
-245.51393092941501
 21
-234.38403850078791
 31
0.0
  0
LINE
  8
NOTE
  6
CONTINUOUS
 62
     4
 10
313.98713481993133
 20
204.28608774968049
 30
0.0
 11
258.5098088199311
 21
204.28608774968049
 31
0.0
  0
LINE
  8
NOTE
  6
CONTINUOUS
 62
     4
 10
269.9816153977963
 20
466.87456956847649
 30
0.0
 11
269.9816153977963
 21
428.57492956847642
 31
0.0
  0
LINE
  8
NOTE
  6
CONTINUOUS
 62
     4
 10
257.98651539779621
 20
440.07002956847651
 30
0.0
 11
281.47671539779589
 21
440.07002956847651
 31
0.0
  0
LINE
  8
NOTE
  6
CONTINUOUS
 62
     4
 10
-269.98161060220349
 20
466.87456956847649
 30
0.0
 11
-269.98161060220349
 21
428.57492956847642
 31
0.0
  0
LINE
  8
NOTE
  6
CONTINUOUS
 62
     4
 10
-307.84796000000011
 20
409.82524000000012
 30
0.0
 11
-240.1386600000001
 21
409.82524000000012
 31
0.0
  0
LINE
  8
NOTE
  6
CONTINUOUS
 62
     4
 10
-257.98651060220351
 20
440.07002956847651
 30
0.0
 11
-281.47671060220358
 21
440.07002956847651
 31
0.0
  0
LINE
  8
NOTE
  6
CONTINUOUS
 62
     4
 10
-255.52229972514311
 20
204.28608774968049
 30
0.0
 11
-316.97463272514233
 21
204.28608774968049
 31
0.0
  0
TEXT
  8
NOTE
  6
CONTINUOUS
 62
     4
 10
45.718873314446682
 20
-713.35462567484751
 30
0.0
 40
64.0
  1
SA
 41
0.9
  0
TEXT
  8
NOTE
  6
CONTINUOUS
 62
     4
 10
-206.1406596071715
 20
704.01779982276366
 30
0.0
 40
64.0
  1
OA
 41
0.9
  0
TEXT
  8
NOTE
  6
CONTINUOUS
 62
     4
 10
86.539311392828495
 20
704.01779982276366
 30
0.0
 40
64.0
  1
EA
 41
0.9
  0
TEXT
  8
NOTE
  6
CONTINUOUS
 62
     4
 10
409.34184633731053
 20
-408.17993167639452
 30
0.0
 40
64.0
  1
RAt1
 41
0.9
  0
TEXT
  8
NOTE
  6
CONTINUOUS
 62
     4
 10
-431.42850365076168
 20
145.0606864820993
 30
0.0
 40
64.0
  1
D
 41
0.9
  0
LINE
  8
NOTE
  6
CONTINUOUS
 62
     4
 10
-1091.3795476448611
 20
127.2159524820993
 30
0.0
 11
-350.05312761195552
 21
127.2159524820993
 31
0.0
  0
LINE
  8
NOTE
  6
CONTINUOUS
 62
     4
 10
-350.05312761195552
 20
127.2159524820993
 30
0.0
 11
-286.9484670243346
 21
204.28608774968049
 31
0.0
  0
LINE
  8
NOTE
  6
CONTINUOUS
 62
     4
 10
-286.9484670243346
 20
204.28608774968049
 30
0.0
 11
-293.33961535790968
 21
187.23314254961289
 31
0.0
  0
LINE
  8
NOTE
  6
CONTINUOUS
 62
     4
 10
-286.9484670243346
 20
204.28608774968049
 30
0.0
 11
-302.40523514340202
 21
194.65602838896169
 31
0.0
  0
TEXT
  8
NOTE
  6
CONTINUOUS
 62
     4
 10
-1069.6519696507621
 20
45.25410648209936
 30
0.0
 40
64.0
  1
外径φ18（呼び径13）
 41
0.9
  0
TEXT
  8
NOTE
  6
CONTINUOUS
 62
     4
 10
404.56027901192778
 20
-271.400868356096
 30
0.0
 40
64.0
  1
RAt2
 41
0.9
  0
TEXT
  8
NOTE
  6
CONTINUOUS
 62
     4
 10
-607.86534172711072
 20
-265.10720298528668
 30
0.0
 40
64.0
  1
RAt4
 41
0.9
  0
TEXT
  8
NOTE
  6
CONTINUOUS
 62
     4
 10
-610.25614452173431
 20
-405.10746316459921
 30
0.0
 40
64.0
  1
RAt3
 41
0.9
  0
CIRCLE
  8
FIX
  6
CONTINUOUS
 62
    11
 10
269.9816153977963
 20
440.07002956847651
 30
0.0
 40
6.4972200000000004
  0
CIRCLE
  8
FIX
  6
CONTINUOUS
 62
    11
 10
-269.98161060220349
 20
440.07002956847651
 30
0.0
 40
6.4972200000000004
  0
CIRCLE
  8
FIX
  6
CONTINUOUS
 62
    11
 10
269.9816153977963
 20
-439.87004243152109
 30
0.0
 40
6.4972200000000004
  0
CIRCLE
  8
FIX
  6
CONTINUOUS
 62
    11
 10
-269.98161060220349
 20
-439.87004243152109
 30
0.0
 40
6.4972200000000004
  0
TEXT
  8
NOTE
  6
CONTINUOUS
 62
     4
 10
-604.85501500000009
 20
-573.52395200000001
 30
0.0
 40
64.0
  1
AH 4
 41
0.9
  0
LINE
  8
NOTE
  6
CONTINUOUS
 62
     4
 10
-623.64818199999991
 20
-589.12932099999989
 30
0.0
 11
-361.11578500000002
 21
-589.12932099999989
 31
0.0
  0
LINE
  8
NOTE
  6
CONTINUOUS
 62
     4
 10
-361.11578500000002
 20
-589.12932099999989
 30
0.0
 11
-269.98161060220349
 21
-439.87004243152109
 31
0.0
  0
LINE
  8
NOTE
  6
CONTINUOUS
 62
     4
 10
-269.98161060220349
 20
-439.87004243152109
 30
0.0
 11
-295.65878360220358
 21
-461.3207064315211
 31
0.0
  0
LINE
  8
NOTE
  6
CONTINUOUS
 62
     4
 10
-269.98161060220349
 20
-439.87004243152109
 30
0.0
 11
-276.80553360220352
 21
-472.62492443152121
 31
0.0
  0
LINE
  8
DETAIL
  6
CONTINUOUS
 62
     5
 10
286.74847181993118
 20
212.9245618823079
 30
0.0
 11
286.74847181993118
 21
195.64761321514379
 31
0.0
  0
LINE
  8
BASIS
  6
DASHDOT
 62
     6
 10
-378.05285999999978
 20
362.12417431572788
 30
0.0
 11
-246.01389999999989
 21
362.12417431572788
 31
0.0
  0
LINE
  8
BASIS
  6
DASHDOT
 62
     6
 10
378.05285687941392
 20
-372.87460665079038
 30
0.0
 11
246.01389687941401
 21
-372.87460665079038
 31
0.0
  0
LINE
  8
BASIS
  6
DASHDOT
 62
     6
 10
377.55289092941479
 20
-234.38403850078791
 30
0.0
 11
245.51393092941501
 21
-234.38403850078791
 31
0.0
  0
LINE
  8
BASIS
  6
DASHDOT
 62
     6
 10
378.05285999999978
 20
362.12417431572788
 30
0.0
 11
246.01389999999989
 21
362.12417431572788
 31
0.0
  0
LINE
  8
SIZE
  6
CONTINUOUS
 62
    30
 10
-159.1891552967563
 20
655.25193580539417
 30
0.0
 11
-159.1891552967563
 21
1001.778397283496
 31
0.0
  0
LINE
  8
SIZE
  6
CONTINUOUS
 62
    30
 10
0.0
 20
556.56536499999993
 30
0.0
 11
0.0
 21
1001.778397283496
 31
0.0
  0
LINE
  8
SIZE
  6
CONTINUOUS
 62
    30
 10
-147.1891552967563
 20
981.77839728349591
 30
0.0
 11
-12.0
 21
981.77839728349591
 31
0.0
  0
CIRCLE
  8
SIZE
  6
CONTINUOUS
 62
    30
 10
-159.1891552967563
 20
981.77839728349591
 30
0.0
 40
6.0
  0
LINE
  8
SIZE
  6
CONTINUOUS
 62
    30
 10
-159.1891552967563
 20
981.77839728349591
 30
0.0
 11
-147.1891552967563
 21
981.77839728349591
 31
0.0
  0
CIRCLE
  8
SIZE
  6
CONTINUOUS
 62
    30
 10
0.0
 20
981.77839728349591
 30
0.0
 40
6.0
  0
LINE
  8
SIZE
  6
CONTINUOUS
 62
    30
 10
0.0
 20
981.77839728349591
 30
0.0
 11
-12.0
 21
981.77839728349591
 31
0.0
  0
TEXT
  8
SIZE
  6
CONTINUOUS
 62
    30
 10
-146.79457764837821
 20
1006.778397283496
 30
0.0
 40
64.0
  1
159
 41
0.9
 72
     1
 11
-79.594577648378163
 21
1006.778397283496
 31
0.0
  0
POINT
  8
DEFPOINTS
  6
CONTINUOUS
 62
    30
 10
-159.1891552967563
 20
635.25193580539417
 30
0.0
  0
POINT
  8
DEFPOINTS
  6
CONTINUOUS
 62
    30
 10
0.0
 20
536.56536499999993
 30
0.0
  0
POINT
  8
DEFPOINTS
  6
CONTINUOUS
 62
    30
 10
0.0
 20
981.77839728349591
 30
0.0
  0
LINE
  8
SIZE
  6
CONTINUOUS
 62
    30
 10
0.0
 20
556.56536499999993
 30
0.0
 11
0.0
 21
1001.778397283496
 31
0.0
  0
LINE
  8
SIZE
  6
CONTINUOUS
 62
    30
 10
133.01189925322339
 20
657.72010137011966
 30
0.0
 11
133.01189925322339
 21
1001.778397283496
 31
0.0
  0
LINE
  8
SIZE
  6
CONTINUOUS
 62
    30
 10
12.0
 20
981.77839728349591
 30
0.0
 11
121.0118992532234
 21
981.77839728349591
 31
0.0
  0
LINE
  8
SIZE
  6
CONTINUOUS
 62
    30
 10
133.01189925322339
 20
981.77839728349591
 30
0.0
 11
543.03955103643057
 21
981.77839728349591
 31
0.0
  0
CIRCLE
  8
SIZE
  6
CONTINUOUS
 62
    30
 10
0.0
 20
981.77839728349591
 30
0.0
 40
6.0
  0
LINE
  8
SIZE
  6
CONTINUOUS
 62
    30
 10
0.0
 20
981.77839728349591
 30
0.0
 11
12.0
 21
981.77839728349591
 31
0.0
  0
CIRCLE
  8
SIZE
  6
CONTINUOUS
 62
    30
 10
133.01189925322339
 20
981.77839728349591
 30
0.0
 40
6.0
  0
LINE
  8
SIZE
  6
CONTINUOUS
 62
    30
 10
133.01189925322339
 20
981.77839728349591
 30
0.0
 11
121.0118992532234
 21
981.77839728349591
 31
0.0
  0
TEXT
  8
SIZE
  6
CONTINUOUS
 62
    30
 10
380.89669389357363
 20
1006.778397283496
 30
0.0
 40
64.0
  1
133
 41
0.9
 72
     1
 11
449.46812246500212
 21
1006.778397283496
 31
0.0
  0
POINT
  8
DEFPOINTS
  6
CONTINUOUS
 62
    30
 10
0.0
 20
536.56536499999993
 30
0.0
  0
POINT
  8
DEFPOINTS
  6
CONTINUOUS
 62
    30
 10
133.01189925322339
 20
637.72010137011966
 30
0.0
  0
POINT
  8
DEFPOINTS
  6
CONTINUOUS
 62
    30
 10
133.01189925322339
 20
981.77839728349591
 30
0.0
  0
LINE
  8
SIZE
  6
CONTINUOUS
 62
    30
 10
-249.98297260220349
 20
486.26810914847738
 30
0.0
 11
-249.98297260220349
 21
1140.4551233657021
 31
0.0
  0
LINE
  8
SIZE
  6
CONTINUOUS
 62
    30
 10
249.98297739779539
 20
483.0683270684749
 30
0.0
 11
249.98297739779539
 21
1140.4551233657021
 31
0.0
  0
LINE
  8
SIZE
  6
CONTINUOUS
 62
    30
 10
-237.98297260220349
 20
1120.4551233657021
 30
0.0
 11
237.98297739779539
 21
1120.4551233657021
 31
0.0
  0
CIRCLE
  8
SIZE
  6
CONTINUOUS
 62
    30
 10
-249.98297260220349
 20
1120.4551233657021
 30
0.0
 40
6.0
  0
LINE
  8
SIZE
  6
CONTINUOUS
 62
    30
 10
-249.98297260220349
 20
1120.4551233657021
 30
0.0
 11
-237.98297260220349
 21
1120.4551233657021
 31
0.0
  0
CIRCLE
  8
SIZE
  6
CONTINUOUS
 62
    30
 10
249.98297739779539
 20
1120.4551233657021
 30
0.0
 40
6.0
  0
LINE
  8
SIZE
  6
CONTINUOUS
 62
    30
 10
249.98297739779539
 20
1120.4551233657021
 30
0.0
 11
237.98297739779539
 21
1120.4551233657021
 31
0.0
  0
TEXT
  8
SIZE
  6
CONTINUOUS
 62
    30
 10
-71.707190422735863
 20
1145.4551233657021
 30
0.0
 40
64.0
  1
500
 41
0.9
 72
     1
 11
2.3499524344069869
 21
1145.4551233657021
 31
0.0
  0
POINT
  8
DEFPOINTS
  6
CONTINUOUS
 62
    30
 10
-249.98297260220349
 20
466.26810914847738
 30
0.0
  0
POINT
  8
DEFPOINTS
  6
CONTINUOUS
 62
    30
 10
249.98297739779539
 20
463.0683270684749
 30
0.0
  0
POINT
  8
DEFPOINTS
  6
CONTINUOUS
 62
    30
 10
249.98297739779539
 20
1120.4551233657021
 30
0.0
  0
LINE
  8
SIZE
  6
CONTINUOUS
 62
    30
 10
-269.98161060220349
 20
486.87456956847649
 30
0.0
 11
-269.98161060220349
 21
1250.073054317691
 31
0.0
  0
LINE
  8
SIZE
  6
CONTINUOUS
 62
    30
 10
269.9816153977963
 20
486.87456956847649
 30
0.0
 11
269.9816153977963
 21
1250.073054317691
 31
0.0
  0
LINE
  8
SIZE
  6
CONTINUOUS
 62
    30
 10
-257.98161060220349
 20
1230.073054317691
 30
0.0
 11
257.9816153977963
 21
1230.073054317691
 31
0.0
  0
CIRCLE
  8
SIZE
  6
CONTINUOUS
 62
    30
 10
-269.98161060220349
 20
1230.073054317691
 30
0.0
 40
6.0
  0
LINE
  8
SIZE
  6
CONTINUOUS
 62
    30
 10
-269.98161060220349
 20
1230.073054317691
 30
0.0
 11
-257.98161060220349
 21
1230.073054317691
 31
0.0
  0
CIRCLE
  8
SIZE
  6
CONTINUOUS
 62
    30
 10
269.9816153977963
 20
1230.073054317691
 30
0.0
 40
6.0
  0
LINE
  8
SIZE
  6
CONTINUOUS
 62
    30
 10
269.9816153977963
 20
1230.073054317691
 30
0.0
 11
257.9816153977963
 21
1230.073054317691
 31
0.0
  0
TEXT
  8
SIZE
  6
CONTINUOUS
 62
    30
 10
-72.108744746480539
 20
1255.073054317691
 30
0.0
 40
64.0
  1
540
 41
0.9
 72
     1
 11
1.9483981106623109
 21
1255.073054317691
 31
0.0
  0
POINT
  8
DEFPOINTS
  6
CONTINUOUS
 62
    30
 10
-269.98161060220349
 20
466.87456956847649
 30
0.0
  0
POINT
  8
DEFPOINTS
  6
CONTINUOUS
 62
    30
 10
269.9816153977963
 20
466.87456956847649
 30
0.0
  0
POINT
  8
DEFPOINTS
  6
CONTINUOUS
 62
    30
 10
269.9816153977963
 20
1230.073054317691
 30
0.0
  0
LINE
  8
SIZE
  6
CONTINUOUS
 62
    30
 10
-289.98024860220448
 20
485.76814319847841
 30
0.0
 11
-289.98024860220448
 21
1504.9017837752269
 31
0.0
  0
LINE
  8
SIZE
  6
CONTINUOUS
 62
    30
 10
289.98025339779718
 20
488.06798656847599
 30
0.0
 11
289.98025339779718
 21
1504.9017837752269
 31
0.0
  0
LINE
  8
SIZE
  6
CONTINUOUS
 62
    30
 10
-277.98024860220448
 20
1484.9017837752269
 30
0.0
 11
277.98025339779718
 21
1484.9017837752269
 31
0.0
  0
CIRCLE
  8
SIZE
  6
CONTINUOUS
 62
    30
 10
-289.98024860220448
 20
1484.9017837752269
 30
0.0
 40
6.0
  0
LINE
  8
SIZE
  6
CONTINUOUS
 62
    30
 10
-289.98024860220448
 20
1484.9017837752269
 30
0.0
 11
-277.98024860220448
 21
1484.9017837752269
 31
0.0
  0
CIRCLE
  8
SIZE
  6
CONTINUOUS
 62
    30
 10
289.98025339779718
 20
1484.9017837752269
 30
0.0
 40
6.0
  0
LINE
  8
SIZE
  6
CONTINUOUS
 62
    30
 10
289.98025339779718
 20
1484.9017837752269
 30
0.0
 11
277.98025339779718
 21
1484.9017837752269
 31
0.0
  0
TEXT
  8
SIZE
  6
CONTINUOUS
 62
    30
 10
-74.057140459346456
 20
1509.9017837752269
 30
0.0
 40
64.0
  1
580
 41
0.9
 72
     1
 11
0.0000023977963792
 21
1509.9017837752269
 31
0.0
  0
POINT
  8
DEFPOINTS
  6
CONTINUOUS
 62
    30
 10
-289.98024860220448
 20
465.76814319847841
 30
0.0
  0
POINT
  8
DEFPOINTS
  6
CONTINUOUS
 62
    30
 10
289.98025339779718
 20
468.06798656847599
 30
0.0
  0
POINT
  8
DEFPOINTS
  6
CONTINUOUS
 62
    30
 10
289.98025339779718
 20
1484.9017837752269
 30
0.0
  0
LINE
  8
SIZE
  6
CONTINUOUS
 62
    30
 10
-286.9484670243346
 20
224.28608774968049
 30
0.0
 11
-286.9484670243346
 21
1374.22038877559
 31
0.0
  0
LINE
  8
SIZE
  6
CONTINUOUS
 62
    30
 10
286.74847181993118
 20
224.28608774968049
 30
0.0
 11
286.74847181993118
 21
1374.22038877559
 31
0.0
  0
LINE
  8
SIZE
  6
CONTINUOUS
 62
    30
 10
-274.9484670243346
 20
1354.22038877559
 30
0.0
 11
274.74847181993118
 21
1354.22038877559
 31
0.0
  0
CIRCLE
  8
SIZE
  6
CONTINUOUS
 62
    30
 10
-286.9484670243346
 20
1354.22038877559
 30
0.0
 40
6.0
  0
LINE
  8
SIZE
  6
CONTINUOUS
 62
    30
 10
-286.9484670243346
 20
1354.22038877559
 30
0.0
 11
-274.9484670243346
 21
1354.22038877559
 31
0.0
  0
CIRCLE
  8
SIZE
  6
CONTINUOUS
 62
    30
 10
286.74847181993118
 20
1354.22038877559
 30
0.0
 40
6.0
  0
LINE
  8
SIZE
  6
CONTINUOUS
 62
    30
 10
286.74847181993118
 20
1354.22038877559
 30
0.0
 11
274.74847181993118
 21
1354.22038877559
 31
0.0
  0
TEXT
  8
SIZE
  6
CONTINUOUS
 62
    30
 10
-75.528569030773127
 20
1379.22038877559
 30
0.0
 40
64.0
  1
574
 41
0.9
 72
     1
 11
-0.0999976022017108
 21
1379.22038877559
 31
0.0
  0
POINT
  8
DEFPOINTS
  6
CONTINUOUS
 62
    30
 10
-286.9484670243346
 20
204.28608774968049
 30
0.0
  0
POINT
  8
DEFPOINTS
  6
CONTINUOUS
 62
    30
 10
286.74847181993118
 20
204.28608774968049
 30
0.0
  0
POINT
  8
DEFPOINTS
  6
CONTINUOUS
 62
    30
 10
286.74847181993118
 20
1354.22038877559
 30
0.0
  0
LINE
  8
SIZE
  6
CONTINUOUS
 62
    30
 10
0.0
 20
-649.55668299999979
 30
0.0
 11
0.0
 21
-872.06744739354326
 31
0.0
  0
LINE
  8
SIZE
  6
CONTINUOUS
 62
    30
 10
96.993430747796992
 20
-651.10633011586469
 30
0.0
 11
96.993430747796992
 21
-872.06744739354326
 31
0.0
  0
LINE
  8
SIZE
  6
CONTINUOUS
 62
    30
 10
84.993430747796992
 20
-852.06744739354326
 30
0.0
 11
12.0
 21
-852.06744739354326
 31
0.0
  0
LINE
  8
SIZE
  6
CONTINUOUS
 62
    30
 10
0.0
 20
-852.06744739354326
 30
0.0
 11
-155.25714285714281
 21
-852.06744739354326
 31
0.0
  0
CIRCLE
  8
SIZE
  6
CONTINUOUS
 62
    30
 10
96.993430747796992
 20
-852.06744739354326
 30
0.0
 40
6.0
  0
LINE
  8
SIZE
  6
CONTINUOUS
 62
    30
 10
96.993430747796992
 20
-852.06744739354326
 30
0.0
 11
84.993430747796992
 21
-852.06744739354326
 31
0.0
  0
CIRCLE
  8
SIZE
  6
CONTINUOUS
 62
    30
 10
0.0
 20
-852.06744739354326
 30
0.0
 40
6.0
  0
LINE
  8
SIZE
  6
CONTINUOUS
 62
    30
 10
0.0
 20
-852.06744739354326
 30
0.0
 11
12.0
 21
-852.06744739354326
 31
0.0
  0
TEXT
  8
SIZE
  6
CONTINUOUS
 62
    30
 10
-130.25714285714281
 20
-827.06744739354326
 30
0.0
 40
64.0
  1
97
 41
0.9
 72
     1
 11
-83.628571428571377
 21
-827.06744739354326
 31
0.0
  0
POINT
  8
DEFPOINTS
  6
CONTINUOUS
 62
    30
 10
0.0
 20
-629.55668299999979
 30
0.0
  0
POINT
  8
DEFPOINTS
  6
CONTINUOUS
 62
    30
 10
96.993430747796992
 20
-631.10633011586469
 30
0.0
  0
POINT
  8
DEFPOINTS
  6
CONTINUOUS
 62
    30
 10
96.993430747796992
 20
-852.06744739354326
 30
0.0
  0
LINE
  8
SIZE
  6
CONTINUOUS
 62
    30
 10
363.37524574618561
 20
-441.37130600350059
 30
0.0
 11
363.37524574618561
 21
-775.28305007938252
 31
0.0
  0
LINE
  8
SIZE
  6
CONTINUOUS
 62
    30
 10
248.4830795477983
 20
-488.66808115152531
 30
0.0
 11
248.4830795477983
 21
-775.28305007938252
 31
0.0
  0
LINE
  8
SIZE
  6
CONTINUOUS
 62
    30
 10
260.4830795477983
 20
-755.28305007938252
 30
0.0
 11
351.37524574618561
 21
-755.28305007938252
 31
0.0
  0
LINE
  8
SIZE
  6
CONTINUOUS
 62
    30
 10
363.37524574618561
 20
-755.28305007938252
 30
0.0
 11
551.54667431761391
 21
-755.28305007938252
 31
0.0
  0
CIRCLE
  8
SIZE
  6
CONTINUOUS
 62
    30
 10
248.4830795477983
 20
-755.28305007938252
 30
0.0
 40
6.0
  0
LINE
  8
SIZE
  6
CONTINUOUS
 62
    30
 10
248.4830795477983
 20
-755.28305007938252
 30
0.0
 11
260.4830795477983
 21
-755.28305007938252
 31
0.0
  0
CIRCLE
  8
SIZE
  6
CONTINUOUS
 62
    30
 10
363.37524574618561
 20
-755.28305007938252
 30
0.0
 40
6.0
  0
LINE
  8
SIZE
  6
CONTINUOUS
 62
    30
 10
363.37524574618561
 20
-755.28305007938252
 30
0.0
 11
351.37524574618561
 21
-755.28305007938252
 31
0.0
  0
TEXT
  8
SIZE
  6
CONTINUOUS
 62
    30
 10
400.37524574618573
 20
-730.28305007938252
 30
0.0
 40
64.0
  1
115
 41
0.9
 72
     1
 11
463.46096003190002
 21
-730.28305007938252
 31
0.0
  0
POINT
  8
DEFPOINTS
  6
CONTINUOUS
 62
    30
 10
363.37524574618561
 20
-421.37130600350059
 30
0.0
  0
POINT
  8
DEFPOINTS
  6
CONTINUOUS
 62
    30
 10
248.4830795477983
 20
-468.66808115152531
 30
0.0
  0
POINT
  8
DEFPOINTS
  6
CONTINUOUS
 62
    30
 10
248.4830795477983
 20
-755.28305007938252
 30
0.0
  0
LINE
  8
SIZE
  6
CONTINUOUS
 62
    30
 10
-363.37525006220221
 20
-441.37130228152449
 30
0.0
 11
-363.37525006220221
 21
-669.90921969186832
 31
0.0
  0
LINE
  8
SIZE
  6
CONTINUOUS
 62
    30
 10
-248.4830747522019
 20
-488.06812201152212
 30
0.0
 11
-248.4830747522019
 21
-669.90921969186832
 31
0.0
  0
LINE
  8
SIZE
  6
CONTINUOUS
 62
    30
 10
-351.37525006220221
 20
-649.90921969186832
 30
0.0
 11
-260.4830747522019
 21
-649.90921969186832
 31
0.0
  0
LINE
  8
SIZE
  6
CONTINUOUS
 62
    30
 10
-248.4830747522019
 20
-649.90921969186832
 30
0.0
 11
-60.311646180773103
 21
-649.90921969186832
 31
0.0
  0
CIRCLE
  8
SIZE
  6
CONTINUOUS
 62
    30
 10
-363.37525006220221
 20
-649.90921969186832
 30
0.0
 40
6.0
  0
LINE
  8
SIZE
  6
CONTINUOUS
 62
    30
 10
-363.37525006220221
 20
-649.90921969186832
 30
0.0
 11
-351.37525006220221
 21
-649.90921969186832
 31
0.0
  0
CIRCLE
  8
SIZE
  6
CONTINUOUS
 62
    30
 10
-248.4830747522019
 20
-649.90921969186832
 30
0.0
 40
6.0
  0
LINE
  8
SIZE
  6
CONTINUOUS
 62
    30
 10
-248.4830747522019
 20
-649.90921969186832
 30
0.0
 11
-260.4830747522019
 21
-649.90921969186832
 31
0.0
  0
TEXT
  8
SIZE
  6
CONTINUOUS
 62
    30
 10
-211.48307475220179
 20
-624.90921969186832
 30
0.0
 40
64.0
  1
115
 41
0.9
 72
     1
 11
-148.3973604664875
 21
-624.90921969186832
 31
0.0
  0
POINT
  8
DEFPOINTS
  6
CONTINUOUS
 62
    30
 10
-363.37525006220221
 20
-421.37130228152449
 30
0.0
  0
POINT
  8
DEFPOINTS
  6
CONTINUOUS
 62
    30
 10
-248.4830747522019
 20
-468.06812201152212
 30
0.0
  0
POINT
  8
DEFPOINTS
  6
CONTINUOUS
 62
    30
 10
-248.4830747522019
 20
-649.90921969186832
 30
0.0
  0
LINE
  8
SIZE
  6
CONTINUOUS
 62
    30
 10
83.947365493030702
 20
638.06028053524278
 30
0.0
 11
83.947365493030702
 21
702.31792229292478
 31
0.0
  0
LINE
  8
SIZE
  6
CONTINUOUS
 62
    30
 10
182.03452470256619
 20
638.06028053524278
 30
0.0
 11
182.03452470256619
 21
702.31792229292478
 31
0.0
  0
LINE
  8
SIZE
  6
CONTINUOUS
 62
    30
 10
95.947365493030702
 20
682.31792229292478
 30
0.0
 11
170.03452470256619
 21
682.31792229292478
 31
0.0
  0
LINE
  8
SIZE
  6
CONTINUOUS
 62
    30
 10
182.03452470256619
 20
682.31792229292478
 30
0.0
 11
495.04038070639308
 21
682.31792229292478
 31
0.0
  0
CIRCLE
  8
SIZE
  6
CONTINUOUS
 62
    30
 10
83.947365493030702
 20
682.31792229292478
 30
0.0
 40
6.0
  0
LINE
  8
SIZE
  6
CONTINUOUS
 62
    30
 10
83.947365493030702
 20
682.31792229292478
 30
0.0
 11
95.947365493030702
 21
682.31792229292478
 31
0.0
  0
CIRCLE
  8
SIZE
  6
CONTINUOUS
 62
    30
 10
182.03452470256619
 20
682.31792229292478
 30
0.0
 40
6.0
  0
LINE
  8
SIZE
  6
CONTINUOUS
 62
    30
 10
182.03452470256619
 20
682.31792229292478
 30
0.0
 11
170.03452470256619
 21
682.31792229292478
 31
0.0
  0
TEXT
  8
SIZE
  6
CONTINUOUS
 62
    30
 10
306.29180927782153
 20
717.98458895959129
 30
0.0
 40
64.0
  1
φ98
 41
0.9
 72
     1
 11
393.2403807063929
 21
717.98458895959129
 31
0.0
  0
POINT
  8
DEFPOINTS
  6
CONTINUOUS
 62
    30
 10
83.947365493030702
 20
618.06028053524278
 30
0.0
  0
POINT
  8
DEFPOINTS
  6
CONTINUOUS
 62
    30
 10
182.03452470256619
 20
618.06028053524278
 30
0.0
  0
POINT
  8
DEFPOINTS
  6
CONTINUOUS
 62
    30
 10
182.03452470256619
 20
682.31792229292478
 30
0.0
  0
LINE
  8
SIZE
  6
CONTINUOUS
 62
    30
 10
71.110137671100347
 20
589.23540808335929
 30
0.0
 11
71.110137671100347
 21
856.86418738413704
 31
0.0
  0
LINE
  8
SIZE
  6
CONTINUOUS
 62
    30
 10
194.8717525243128
 20
589.23540808336475
 30
0.0
 11
194.8717525243128
 21
856.86418738413704
 31
0.0
  0
LINE
  8
SIZE
  6
CONTINUOUS
 62
    30
 10
83.110137671100347
 20
836.86418738413704
 30
0.0
 11
182.8717525243128
 21
836.86418738413704
 31
0.0
  0
LINE
  8
SIZE
  6
CONTINUOUS
 62
    30
 10
194.8717525243128
 20
836.86418738413704
 30
0.0
 11
554.72967371028244
 21
836.86418738413704
 31
0.0
  0
CIRCLE
  8
SIZE
  6
CONTINUOUS
 62
    30
 10
71.110137671100347
 20
836.86418738413704
 30
0.0
 40
6.0
  0
LINE
  8
SIZE
  6
CONTINUOUS
 62
    30
 10
71.110137671100347
 20
836.86418738413704
 30
0.0
 11
83.110137671100347
 21
836.86418738413704
 31
0.0
  0
CIRCLE
  8
SIZE
  6
CONTINUOUS
 62
    30
 10
194.8717525243128
 20
836.86418738413704
 30
0.0
 40
6.0
  0
LINE
  8
SIZE
  6
CONTINUOUS
 62
    30
 10
194.8717525243128
 20
836.86418738413704
 30
0.0
 11
182.8717525243128
 21
836.86418738413704
 31
0.0
  0
TEXT
  8
SIZE
  6
CONTINUOUS
 62
    30
 10
319.35253085313951
 20
872.53085405080355
 30
0.0
 40
64.0
  1
φ124
 41
0.9
 72
     1
 11
429.61538799599663
 21
872.53085405080355
 31
0.0
  0
POINT
  8
DEFPOINTS
  6
CONTINUOUS
 62
    30
 10
71.110137671100347
 20
569.23540808335929
 30
0.0
  0
POINT
  8
DEFPOINTS
  6
CONTINUOUS
 62
    30
 10
194.8717525243128
 20
569.23540808336475
 30
0.0
  0
POINT
  8
DEFPOINTS
  6
CONTINUOUS
 62
    30
 10
194.8717525243128
 20
836.86418738413704
 30
0.0
  0
LINE
  8
SIZE
  6
CONTINUOUS
 62
    30
 10
200.98317570280869
 20
619.04991584298841
 30
0.0
 11
1217.7720570870949
 21
619.04991584298818
 31
0.0
  0
LINE
  8
SIZE
  6
CONTINUOUS
 62
    30
 10
268.4830795477983
 20
468.06798656847599
 30
0.0
 11
1217.7720570870949
 21
468.06798656847582
 31
0.0
  0
LINE
  8
SIZE
  6
CONTINUOUS
 62
    30
 10
1197.7720570870949
 20
631.04991584298818
 30
0.0
 11
1197.7720570870949
 21
643.04991584298818
 31
0.0
  0
LINE
  8
SIZE
  6
CONTINUOUS
 62
    30
 10
1197.7720570870949
 20
456.06798656847582
 30
0.0
 11
1197.7720570870949
 21
444.06798656847582
 31
0.0
  0
LINE
  8
SIZE
  6
CONTINUOUS
 62
    30
 10
1197.7720570870949
 20
619.04991584298818
 30
0.0
 11
1197.7720570870949
 21
468.06798656847582
 31
0.0
  0
CIRCLE
  8
SIZE
  6
CONTINUOUS
 62
    30
 10
1197.7720570870949
 20
619.04991584298818
 30
0.0
 40
6.0
  0
LINE
  8
SIZE
  6
CONTINUOUS
 62
    30
 10
1197.7720570870949
 20
619.04991584298818
 30
0.0
 11
1197.7720570870949
 21
631.04991584298818
 31
0.0
  0
CIRCLE
  8
SIZE
  6
CONTINUOUS
 62
    30
 10
1197.7720570870949
 20
468.06798656847582
 30
0.0
 40
6.0
  0
LINE
  8
SIZE
  6
CONTINUOUS
 62
    30
 10
1197.7720570870949
 20
468.06798656847582
 30
0.0
 11
1197.7720570870949
 21
456.06798656847582
 31
0.0
  0
TEXT
  8
SIZE
  6
CONTINUOUS
 62
    30
 10
1172.7720570870949
 20
487.3303797771606
 30
0.0
 40
64.0
  1
151
 50
90.0
 41
0.9
 72
     1
 11
1172.7720570870949
 21
543.558951205732
 31
0.0
  0
POINT
  8
DEFPOINTS
  6
CONTINUOUS
 62
    30
 10
180.98317570280869
 20
619.04991584298841
 30
0.0
  0
POINT
  8
DEFPOINTS
  6
CONTINUOUS
 62
    30
 10
248.4830795477983
 20
468.06798656847599
 30
0.0
  0
POINT
  8
DEFPOINTS
  6
CONTINUOUS
 62
    30
 10
1197.7720570870949
 20
468.06798656847582
 30
0.0
  0
LINE
  8
SIZE
  6
CONTINUOUS
 62
    30
 10
301.47671539779589
 20
440.07002956847651
 30
0.0
 11
1059.9804118772629
 21
440.07002956847617
 31
0.0
  0
LINE
  8
SIZE
  6
CONTINUOUS
 62
    30
 10
301.47671539779589
 20
-439.87004243152109
 30
0.0
 11
1059.9804118772629
 21
-439.87004243152143
 31
0.0
  0
LINE
  8
SIZE
  6
CONTINUOUS
 62
    30
 10
1039.9804118772629
 20
428.07002956847617
 30
0.0
 11
1039.9804118772629
 21
-427.87004243152143
 31
0.0
  0
CIRCLE
  8
SIZE
  6
CONTINUOUS
 62
    30
 10
1039.9804118772629
 20
440.07002956847617
 30
0.0
 40
6.0
  0
LINE
  8
SIZE
  6
CONTINUOUS
 62
    30
 10
1039.9804118772629
 20
440.07002956847617
 30
0.0
 11
1039.9804118772629
 21
428.07002956847617
 31
0.0
  0
CIRCLE
  8
SIZE
  6
CONTINUOUS
 62
    30
 10
1039.9804118772629
 20
-439.87004243152143
 30
0.0
 40
6.0
  0
LINE
  8
SIZE
  6
CONTINUOUS
 62
    30
 10
1039.9804118772629
 20
-439.87004243152143
 30
0.0
 11
1039.9804118772629
 21
-427.87004243152143
 31
0.0
  0
TEXT
  8
SIZE
  6
CONTINUOUS
 62
    30
 10
1014.980411877263
 20
-266.50572071723661
 30
0.0
 40
64.0
  1
880（天吊位置）
 50
90.0
 41
0.9
 72
     1
 11
1014.980411877263
 21
0.0999935684776574
 31
0.0
  0
POINT
  8
DEFPOINTS
  6
CONTINUOUS
 62
    30
 10
281.47671539779589
 20
440.07002956847651
 30
0.0
  0
POINT
  8
DEFPOINTS
  6
CONTINUOUS
 62
    30
 10
281.47671539779589
 20
-439.87004243152109
 30
0.0
  0
POINT
  8
DEFPOINTS
  6
CONTINUOUS
 62
    30
 10
1039.9804118772629
 20
-439.87004243152143
 30
0.0
  0
LINE
  8
SIZE
  6
CONTINUOUS
 62
    30
 10
268.4830795477983
 20
468.06798656847599
 30
0.0
 11
1217.7720570870949
 21
468.06798656847582
 31
0.0
  0
LINE
  8
SIZE
  6
CONTINUOUS
 62
    30
 10
268.4830795477983
 20
-470.0679858115252
 30
0.0
 11
1217.7720570870949
 21
-470.06798581152572
 31
0.0
  0
LINE
  8
SIZE
  6
CONTINUOUS
 62
    30
 10
1197.7720570870949
 20
456.06798656847582
 30
0.0
 11
1197.7720570870949
 21
-458.06798581152572
 31
0.0
  0
CIRCLE
  8
SIZE
  6
CONTINUOUS
 62
    30
 10
1197.7720570870949
 20
468.06798656847582
 30
0.0
 40
6.0
  0
LINE
  8
SIZE
  6
CONTINUOUS
 62
    30
 10
1197.7720570870949
 20
468.06798656847582
 30
0.0
 11
1197.7720570870949
 21
456.06798656847582
 31
0.0
  0
CIRCLE
  8
SIZE
  6
CONTINUOUS
 62
    30
 10
1197.7720570870949
 20
-470.06798581152572
 30
0.0
 40
6.0
  0
LINE
  8
SIZE
  6
CONTINUOUS
 62
    30
 10
1197.7720570870949
 20
-470.06798581152572
 30
0.0
 11
1197.7720570870949
 21
-458.06798581152572
 31
0.0
  0
TEXT
  8
SIZE
  6
CONTINUOUS
 62
    30
 10
1172.7720570870949
 20
-75.057142478667657
 30
0.0
 40
64.0
  1
938
 50
90.0
 41
0.9
 72
     1
 11
1172.7720570870949
 21
-0.9999996215248075
 31
0.0
  0
POINT
  8
DEFPOINTS
  6
CONTINUOUS
 62
    30
 10
248.4830795477983
 20
468.06798656847599
 30
0.0
  0
POINT
  8
DEFPOINTS
  6
CONTINUOUS
 62
    30
 10
248.4830795477983
 20
-470.0679858115252
 30
0.0
  0
POINT
  8
DEFPOINTS
  6
CONTINUOUS
 62
    30
 10
1197.7720570870949
 20
-470.06798581152572
 30
0.0
  0
LINE
  8
SIZE
  6
CONTINUOUS
 62
    30
 10
268.4830795477983
 20
-470.0679858115252
 30
0.0
 11
1217.7720570870949
 21
-470.06798581152572
 31
0.0
  0
LINE
  8
SIZE
  6
CONTINUOUS
 62
    30
 10
164.48566134062909
 20
-621.04991922392037
 30
0.0
 11
1217.7720570870949
 21
-621.04991922392071
 31
0.0
  0
LINE
  8
SIZE
  6
CONTINUOUS
 62
    30
 10
1197.7720570870949
 20
-458.06798581152572
 30
0.0
 11
1197.7720570870949
 21
-446.06798581152572
 31
0.0
  0
LINE
  8
SIZE
  6
CONTINUOUS
 62
    30
 10
1197.7720570870949
 20
-633.04991922392071
 30
0.0
 11
1197.7720570870949
 21
-645.04991922392071
 31
0.0
  0
LINE
  8
SIZE
  6
CONTINUOUS
 62
    30
 10
1197.7720570870949
 20
-470.06798581152572
 30
0.0
 11
1197.7720570870949
 21
-621.04991922392071
 31
0.0
  0
CIRCLE
  8
SIZE
  6
CONTINUOUS
 62
    30
 10
1197.7720570870949
 20
-470.06798581152572
 30
0.0
 40
6.0
  0
LINE
  8
SIZE
  6
CONTINUOUS
 62
    30
 10
1197.7720570870949
 20
-470.06798581152572
 30
0.0
 11
1197.7720570870949
 21
-458.06798581152572
 31
0.0
  0
CIRCLE
  8
SIZE
  6
CONTINUOUS
 62
    30
 10
1197.7720570870949
 20
-621.04991922392071
 30
0.0
 40
6.0
  0
LINE
  8
SIZE
  6
CONTINUOUS
 62
    30
 10
1197.7720570870949
 20
-621.04991922392071
 30
0.0
 11
1197.7720570870949
 21
-633.04991922392071
 31
0.0
  0
TEXT
  8
SIZE
  6
CONTINUOUS
 62
    30
 10
1172.7720570870949
 20
-601.78752394629453
 30
0.0
 40
64.0
  1
151
 50
90.0
 41
0.9
 72
     1
 11
1172.7720570870949
 21
-545.55895251772313
 31
0.0
  0
POINT
  8
DEFPOINTS
  6
CONTINUOUS
 62
    30
 10
248.4830795477983
 20
-470.0679858115252
 30
0.0
  0
POINT
  8
DEFPOINTS
  6
CONTINUOUS
 62
    30
 10
144.48566134062909
 20
-621.04991922392037
 30
0.0
  0
POINT
  8
DEFPOINTS
  6
CONTINUOUS
 62
    30
 10
1197.7720570870949
 20
-621.04991922392071
 30
0.0
  0
LINE
  8
SIZE
  6
CONTINUOUS
 62
    30
 10
427.29472900000019
 20
0.0
 30
0.0
 11
899.79798300474067
 21
-0.0000000000001137
 31
0.0
  0
LINE
  8
SIZE
  6
CONTINUOUS
 62
    30
 10
398.05285687941392
 20
-372.87460665079038
 30
0.0
 11
899.79798300474067
 21
-372.87460665079038
 31
0.0
  0
LINE
  8
SIZE
  6
CONTINUOUS
 62
    30
 10
879.79798300474067
 20
-12.00000000000011
 30
0.0
 11
879.79798300474067
 21
-360.87460665079038
 31
0.0
  0
CIRCLE
  8
SIZE
  6
CONTINUOUS
 62
    30
 10
879.79798300474067
 20
-0.0000000000001137
 30
0.0
 40
6.0
  0
LINE
  8
SIZE
  6
CONTINUOUS
 62
    30
 10
879.79798300474067
 20
-0.0000000000001137
 30
0.0
 11
879.79798300474067
 21
-12.00000000000011
 31
0.0
  0
CIRCLE
  8
SIZE
  6
CONTINUOUS
 62
    30
 10
879.79798300474067
 20
-372.87460665079038
 30
0.0
 40
6.0
  0
LINE
  8
SIZE
  6
CONTINUOUS
 62
    30
 10
879.79798300474067
 20
-372.87460665079038
 30
0.0
 11
879.79798300474067
 21
-360.87460665079038
 31
0.0
  0
TEXT
  8
SIZE
  6
CONTINUOUS
 62
    30
 10
854.79798300474067
 20
-260.49444618253779
 30
0.0
 40
64.0
  1
373
 50
90.0
 41
0.9
 72
     1
 11
854.79798300474067
 21
-186.43730332539499
 31
0.0
  0
POINT
  8
DEFPOINTS
  6
CONTINUOUS
 62
    30
 10
407.29472900000019
 20
0.0
 30
0.0
  0
POINT
  8
DEFPOINTS
  6
CONTINUOUS
 62
    30
 10
378.05285687941392
 20
-372.87460665079038
 30
0.0
  0
POINT
  8
DEFPOINTS
  6
CONTINUOUS
 62
    30
 10
879.79798300474067
 20
-372.87460665079038
 30
0.0
  0
LINE
  8
SIZE
  6
CONTINUOUS
 62
    30
 10
427.29472900000019
 20
0.0
 30
0.0
 11
730.05241948146067
 21
-0.0000000000001137
 31
0.0
  0
LINE
  8
SIZE
  6
CONTINUOUS
 62
    30
 10
397.55289092941479
 20
-234.38403850078791
 30
0.0
 11
730.05241948146067
 21
-234.38403850078811
 31
0.0
  0
LINE
  8
SIZE
  6
CONTINUOUS
 62
    30
 10
710.05241948146067
 20
-12.00000000000011
 30
0.0
 11
710.05241948146067
 21
-222.38403850078811
 31
0.0
  0
CIRCLE
  8
SIZE
  6
CONTINUOUS
 62
    30
 10
710.05241948146067
 20
-0.0000000000001137
 30
0.0
 40
6.0
  0
LINE
  8
SIZE
  6
CONTINUOUS
 62
    30
 10
710.05241948146067
 20
-0.0000000000001137
 30
0.0
 11
710.05241948146067
 21
-12.00000000000011
 31
0.0
  0
CIRCLE
  8
SIZE
  6
CONTINUOUS
 62
    30
 10
710.05241948146067
 20
-234.38403850078811
 30
0.0
 40
6.0
  0
LINE
  8
SIZE
  6
CONTINUOUS
 62
    30
 10
710.05241948146067
 20
-234.38403850078811
 30
0.0
 11
710.05241948146067
 21
-222.38403850078811
 31
0.0
  0
TEXT
  8
SIZE
  6
CONTINUOUS
 62
    30
 10
685.05241948146067
 20
-192.62059067896541
 30
0.0
 40
64.0
  1
234
 50
90.0
 41
0.9
 72
     1
 11
685.05241948146067
 21
-117.192019250394
 31
0.0
  0
POINT
  8
DEFPOINTS
  6
CONTINUOUS
 62
    30
 10
407.29472900000019
 20
0.0
 30
0.0
  0
POINT
  8
DEFPOINTS
  6
CONTINUOUS
 62
    30
 10
377.55289092941479
 20
-234.38403850078791
 30
0.0
  0
POINT
  8
DEFPOINTS
  6
CONTINUOUS
 62
    30
 10
710.05241948146067
 20
-234.38403850078811
 30
0.0
  0
LINE
  8
SIZE
  6
CONTINUOUS
 62
    30
 10
398.05285999999978
 20
362.12417431572788
 30
0.0
 11
899.79798300474067
 21
362.12417431572771
 31
0.0
  0
LINE
  8
SIZE
  6
CONTINUOUS
 62
    30
 10
447.29472900000019
 20
0.0
 30
0.0
 11
899.79798300474067
 21
-0.0000000000001137
 31
0.0
  0
LINE
  8
SIZE
  6
CONTINUOUS
 62
    30
 10
879.79798300474067
 20
350.12417431572788
 30
0.0
 11
879.79798300474067
 21
11.99999999999989
 31
0.0
  0
CIRCLE
  8
SIZE
  6
CONTINUOUS
 62
    30
 10
879.79798300474067
 20
362.12417431572788
 30
0.0
 40
6.0
  0
LINE
  8
SIZE
  6
CONTINUOUS
 62
    30
 10
879.79798300474067
 20
362.12417431572788
 30
0.0
 11
879.79798300474067
 21
350.12417431572788
 31
0.0
  0
CIRCLE
  8
SIZE
  6
CONTINUOUS
 62
    30
 10
879.79798300474067
 20
-0.0000000000001137
 30
0.0
 40
6.0
  0
LINE
  8
SIZE
  6
CONTINUOUS
 62
    30
 10
879.79798300474067
 20
-0.0000000000001137
 30
0.0
 11
879.79798300474067
 21
11.99999999999989
 31
0.0
  0
TEXT
  8
SIZE
  6
CONTINUOUS
 62
    30
 10
854.79798300474067
 20
107.00494430072111
 30
0.0
 40
64.0
  1
362
 50
90.0
 41
0.9
 72
     1
 11
854.79798300474067
 21
181.062087157864
 31
0.0
  0
POINT
  8
DEFPOINTS
  6
CONTINUOUS
 62
    30
 10
378.05285999999978
 20
362.12417431572788
 30
0.0
  0
POINT
  8
DEFPOINTS
  6
CONTINUOUS
 62
    30
 10
427.29472900000019
 20
0.0
 30
0.0
  0
POINT
  8
DEFPOINTS
  6
CONTINUOUS
 62
    30
 10
879.79798300474067
 20
-0.0000000000001137
 30
0.0
  0
LINE
  8
SIZE
  6
CONTINUOUS
 62
    30
 10
333.98713481993133
 20
204.28608774968049
 30
0.0
 11
730.05241948146067
 21
204.28608774968049
 31
0.0
  0
LINE
  8
SIZE
  6
CONTINUOUS
 62
    30
 10
427.29472900000019
 20
0.0
 30
0.0
 11
730.05241948146067
 21
-0.0000000000001137
 31
0.0
  0
LINE
  8
SIZE
  6
CONTINUOUS
 62
    30
 10
710.05241948146067
 20
192.28608774968049
 30
0.0
 11
710.05241948146067
 21
11.99999999999989
 31
0.0
  0
CIRCLE
  8
SIZE
  6
CONTINUOUS
 62
    30
 10
710.05241948146067
 20
204.28608774968049
 30
0.0
 40
6.0
  0
LINE
  8
SIZE
  6
CONTINUOUS
 62
    30
 10
710.05241948146067
 20
204.28608774968049
 30
0.0
 11
710.05241948146067
 21
192.28608774968049
 31
0.0
  0
CIRCLE
  8
SIZE
  6
CONTINUOUS
 62
    30
 10
710.05241948146067
 20
-0.0000000000001137
 30
0.0
 40
6.0
  0
LINE
  8
SIZE
  6
CONTINUOUS
 62
    30
 10
710.05241948146067
 20
-0.0000000000001137
 30
0.0
 11
710.05241948146067
 21
11.99999999999989
 31
0.0
  0
TEXT
  8
SIZE
  6
CONTINUOUS
 62
    30
 10
685.05241948146067
 20
26.714472446268839
 30
0.0
 40
64.0
  1
204
 50
90.0
 41
0.9
 72
     1
 11
685.05241948146067
 21
102.1430438748403
 31
0.0
  0
POINT
  8
DEFPOINTS
  6
CONTINUOUS
 62
    30
 10
313.98713481993133
 20
204.28608774968049
 30
0.0
  0
POINT
  8
DEFPOINTS
  6
CONTINUOUS
 62
    30
 10
407.29472900000019
 20
0.0
 30
0.0
  0
POINT
  8
DEFPOINTS
  6
CONTINUOUS
 62
    30
 10
710.05241948146067
 20
-0.0000000000001137
 30
0.0
  0
TEXT
  8
NOTE
  6
CONTINUOUS
 62
     4
 10
414.12339453075901
 20
328.53377562798141
 30
0.0
 40
64.0
  1
RAb1
 41
0.9
  0
TEXT
  8
NOTE
  6
CONTINUOUS
 62
     4
 10
-605.36571650126098
 20
331.36642943160132
 30
0.0
 40
64.0
  1
RAb2
 41
0.9
  0
LINE
  8
NOTE
  6
CONTINUOUS
 62
     4
 10
-350.05312761195552
 20
127.2159524820993
 30
0.0
 11
286.74847181993118
 21
204.28608774968049
 31
0.0
  0
LINE
  8
NOTE
  6
CONTINUOUS
 62
     4
 10
286.74847181993118
 20
204.28608774968049
 30
0.0
 11
270.27214003668541
 21
196.52849740301551
 31
0.0
  0
LINE
  8
NOTE
  6
CONTINUOUS
 62
     4
 10
286.74847181993118
 20
204.28608774968049
 30
0.0
 11
268.95647280551572
 21
208.17125120166381
 31
0.0
  0
LINE
  8
SIZE
  6
CONTINUOUS
 62
    30
 10
-382.87528411220319
 20
411.07200446847492
 30
0.0
 11
-669.66329838270258
 21
411.07200446847492
 31
0.0
  0
LINE
  8
SIZE
  6
CONTINUOUS
 62
    30
 10
-382.87528411220319
 20
313.07867826847718
 30
0.0
 11
-669.66329838270258
 21
313.07867826847718
 31
0.0
  0
LINE
  8
SIZE
  6
CONTINUOUS
 62
    30
 10
-649.66329838270258
 20
399.07200446847492
 30
0.0
 11
-649.66329838270258
 21
325.07867826847718
 31
0.0
  0
CIRCLE
  8
SIZE
  6
CONTINUOUS
 62
    30
 10
-649.66329838270258
 20
411.07200446847492
 30
0.0
 40
6.0
  0
LINE
  8
SIZE
  6
CONTINUOUS
 62
    30
 10
-649.66329838270258
 20
411.07200446847492
 30
0.0
 11
-649.66329838270258
 21
399.07200446847492
 31
0.0
  0
CIRCLE
  8
SIZE
  6
CONTINUOUS
 62
    30
 10
-649.66329838270258
 20
313.07867826847718
 30
0.0
 40
6.0
  0
LINE
  8
SIZE
  6
CONTINUOUS
 62
    30
 10
-649.66329838270258
 20
313.07867826847718
 30
0.0
 11
-649.66329838270258
 21
325.07867826847718
 31
0.0
  0
TEXT
  8
SIZE
  6
CONTINUOUS
 62
    30
 10
-685.32996504936955
 20
275.12676993990459
 30
0.0
 40
64.0
  1
φ98
 50
90.0
 41
0.9
 72
     1
 11
-685.32996504936955
 21
362.07534136847607
 31
0.0
  0
POINT
  8
DEFPOINTS
  6
CONTINUOUS
 62
    30
 10
-362.87528411220319
 20
411.07200446847492
 30
0.0
  0
POINT
  8
DEFPOINTS
  6
CONTINUOUS
 62
    30
 10
-362.87528411220319
 20
313.07867826847718
 30
0.0
  0
POINT
  8
DEFPOINTS
  6
CONTINUOUS
 62
    30
 10
-649.66329838270258
 20
313.07867826847718
 30
0.0
  0
LINE
  8
SIZE
  6
CONTINUOUS
 62
    30
 10
-382.87528411220319
 20
-184.88740793152439
 30
0.0
 11
-690.3756940222047
 21
-184.88740793152439
 31
0.0
  0
LINE
  8
SIZE
  6
CONTINUOUS
 62
    30
 10
-382.87528411220319
 20
-282.88073413152318
 30
0.0
 11
-690.3756940222047
 21
-282.88073413152318
 31
0.0
  0
LINE
  8
SIZE
  6
CONTINUOUS
 62
    30
 10
-670.3756940222047
 20
-172.88740793152459
 30
0.0
 11
-670.3756940222047
 21
-160.88740793152459
 31
0.0
  0
LINE
  8
SIZE
  6
CONTINUOUS
 62
    30
 10
-670.3756940222047
 20
-294.88073413152318
 30
0.0
 11
-670.3756940222047
 21
-306.88073413152318
 31
0.0
  0
LINE
  8
SIZE
  6
CONTINUOUS
 62
    30
 10
-670.3756940222047
 20
-184.88740793152439
 30
0.0
 11
-670.3756940222047
 21
-282.88073413152318
 31
0.0
  0
CIRCLE
  8
SIZE
  6
CONTINUOUS
 62
    30
 10
-670.3756940222047
 20
-184.88740793152439
 30
0.0
 40
6.0
  0
LINE
  8
SIZE
  6
CONTINUOUS
 62
    30
 10
-670.3756940222047
 20
-184.88740793152439
 30
0.0
 11
-670.3756940222047
 21
-172.88740793152459
 31
0.0
  0
CIRCLE
  8
SIZE
  6
CONTINUOUS
 62
    30
 10
-670.3756940222047
 20
-282.88073413152318
 30
0.0
 40
6.0
  0
LINE
  8
SIZE
  6
CONTINUOUS
 62
    30
 10
-670.3756940222047
 20
-282.88073413152318
 30
0.0
 11
-670.3756940222047
 21
-294.88073413152318
 31
0.0
  0
TEXT
  8
SIZE
  6
CONTINUOUS
 62
    30
 10
-706.04236068887121
 20
-320.83264246009531
 30
0.0
 40
64.0
  1
φ98
 50
90.0
 41
0.9
 72
     1
 11
-706.04236068887121
 21
-233.8840710315238
 31
0.0
  0
POINT
  8
DEFPOINTS
  6
CONTINUOUS
 62
    30
 10
-362.87528411220319
 20
-184.88740793152439
 30
0.0
  0
POINT
  8
DEFPOINTS
  6
CONTINUOUS
 62
    30
 10
-362.87528411220319
 20
-282.88073413152318
 30
0.0
  0
POINT
  8
DEFPOINTS
  6
CONTINUOUS
 62
    30
 10
-670.3756940222047
 20
-282.88073413152318
 30
0.0
  0
LINE
  8
SIZE
  6
CONTINUOUS
 62
    30
 10
-382.87528411220319
 20
-323.87794203152168
 30
0.0
 11
-818.82637819152342
 21
-323.87794203152163
 31
0.0
  0
LINE
  8
SIZE
  6
CONTINUOUS
 62
    30
 10
-382.87528411220319
 20
-421.87126823152357
 30
0.0
 11
-818.82637819152342
 21
-421.87126823152357
 31
0.0
  0
LINE
  8
SIZE
  6
CONTINUOUS
 62
    30
 10
-798.82637819152342
 20
-335.87794203152163
 30
0.0
 11
-798.82637819152342
 21
-409.87126823152357
 31
0.0
  0
CIRCLE
  8
SIZE
  6
CONTINUOUS
 62
    30
 10
-798.82637819152342
 20
-323.87794203152163
 30
0.0
 40
6.0
  0
LINE
  8
SIZE
  6
CONTINUOUS
 62
    30
 10
-798.82637819152342
 20
-323.87794203152163
 30
0.0
 11
-798.82637819152342
 21
-335.87794203152163
 31
0.0
  0
CIRCLE
  8
SIZE
  6
CONTINUOUS
 62
    30
 10
-798.82637819152342
 20
-421.87126823152357
 30
0.0
 40
6.0
  0
LINE
  8
SIZE
  6
CONTINUOUS
 62
    30
 10
-798.82637819152342
 20
-421.87126823152357
 30
0.0
 11
-798.82637819152342
 21
-409.87126823152357
 31
0.0
  0
TEXT
  8
SIZE
  6
CONTINUOUS
 62
    30
 10
-834.49304485818993
 20
-459.823176560094
 30
0.0
 40
64.0
  1
φ98
 50
90.0
 41
0.9
 72
     1
 11
-834.49304485818993
 21
-372.87460513152263
 31
0.0
  0
POINT
  8
DEFPOINTS
  6
CONTINUOUS
 62
    30
 10
-362.87528411220319
 20
-323.87794203152168
 30
0.0
  0
POINT
  8
DEFPOINTS
  6
CONTINUOUS
 62
    30
 10
-362.87528411220319
 20
-421.87126823152357
 30
0.0
  0
POINT
  8
DEFPOINTS
  6
CONTINUOUS
 62
    30
 10
-798.82637819152342
 20
-421.87126823152357
 30
0.0
  0
ENDSEC
  0
EOF
