  0
SECTION
  2
HEADER
  9
$ACADVER
  1
AC1009
  9
$DWGCODEPAGE
  3
dos932
  9
$INSBASE
 10
0.0
 20
0.0
 30
0.0
  9
$EXTMIN
 10
-960.30119232635661
 20
-589.27916326709055
 30
-0.0015258207003583
  9
$EXTMAX
 10
1190.5197261140199
 20
881.51551129007203
 30
0.0000000349246037
  9
$LIMMIN
 10
-2970.0
 20
-2100.0
  9
$LIMMAX
 10
2970.0
 20
2100.0
  9
$ORTHOMODE
 70
     1
  9
$REGENMODE
 70
     1
  9
$FILLMODE
 70
     1
  9
$QTEXTMODE
 70
     0
  9
$MIRRTEXT
 70
     0
  9
$LTSCALE
 40
20.0
  9
$ATTMODE
 70
     1
  9
$TEXTSIZE
 40
64.0
  9
$TRACEWID
 40
0.05
  9
$TEXTSTYLE
  7
STANDARD
  9
$CLAYER
  8
SIZE
  9
$CELTYPE
  6
CONTINUOUS
  9
$CECOLOR
 62
     7
  9
$DIMSCALE
 40
1.0
  9
$DIMASZ
 40
12.0
  9
$DIMEXO
 40
20.0
  9
$DIMDLI
 40
200.0
  9
$DIMRND
 40
0.0
  9
$DIMDLE
 40
0.0
  9
$DIMEXE
 40
20.0
  9
$DIMTP
 40
0.0
  9
$DIMTM
 40
0.0
  9
$DIMTXT
 40
64.0
  9
$DIMCEN
 40
0.09
  9
$DIMTSZ
 40
0.0
  9
$DIMTOL
 70
     0
  9
$DIMLIM
 70
     0
  9
$DIMTIH
 70
     0
  9
$DIMTOH
 70
     0
  9
$DIMSE1
 70
     0
  9
$DIMSE2
 70
     0
  9
$DIMTAD
 70
     1
  9
$DIMZIN
 70
     8
  9
$DIMBLK
  1

  9
$DIMASO
 70
     1
  9
$DIMSHO
 70
     0
  9
$DIMPOST
  1

  9
$DIMAPOST
  1

  9
$DIMALT
 70
     0
  9
$DIMALTD
 70
     2
  9
$DIMALTF
 40
25.399999999999999
  9
$DIMLFAC
 40
1.0
  9
$DIMTOFL
 70
     1
  9
$DIMTVP
 40
0.0
  9
$DIMTIX
 70
     1
  9
$DIMSOXD
 70
     0
  9
$DIMSAH
 70
     0
  9
$DIMBLK1
  1

  9
$DIMBLK2
  1

  9
$DIMSTYLE
  2
STANDARD
  9
$DIMCLRD
 70
     7
  9
$DIMCLRE
 70
     7
  9
$DIMCLRT
 70
     7
  9
$DIMTFAC
 40
1.0
  9
$DIMGAP
 40
25.0
  9
$LUNITS
 70
     2
  9
$LUPREC
 70
     4
  9
$SKETCHINC
 40
0.1
  9
$FILLETRAD
 40
3.0
  9
$AUNITS
 70
     1
  9
$AUPREC
 70
     3
  9
$MENU
  1
ACAD
  9
$ELEVATION
 40
0.0
  9
$PELEVATION
 40
0.0
  9
$THICKNESS
 40
0.0
  9
$LIMCHECK
 70
     0
  9
$CHAMFERA
 40
0.0
  9
$CHAMFERB
 40
0.0
  9
$SKPOLY
 70
     0
  9
$TDCREATE
 40
2453019.62301037
  9
$TDUPDATE
 40
2459019.510146597
  9
$TDINDWG
 40
1.7137081134
  9
$TDUSRTIMER
 40
1.7137081134
  9
$USRTIMER
 70
     1
  9
$ANGBASE
 50
0.0
  9
$ANGDIR
 70
     0
  9
$PDMODE
 70
     3
  9
$PDSIZE
 40
-2.0
  9
$PLINEWID
 40
0.0
  9
$SPLFRAME
 70
     0
  9
$SPLINETYPE
 70
     6
  9
$SPLINESEGS
 70
     8
  9
$SURFTAB1
 70
     6
  9
$SURFTAB2
 70
     6
  9
$SURFTYPE
 70
     6
  9
$SURFU
 70
     6
  9
$SURFV
 70
     6
  9
$UCSNAME
  2

  9
$UCSORG
 10
0.0
 20
0.0
 30
0.0
  9
$UCSXDIR
 10
1.0
 20
0.0
 30
0.0
  9
$UCSYDIR
 10
0.0
 20
1.0
 30
0.0
  9
$PUCSNAME
  2

  9
$PUCSORG
 10
0.0
 20
0.0
 30
0.0
  9
$PUCSXDIR
 10
1.0
 20
0.0
 30
0.0
  9
$PUCSYDIR
 10
0.0
 20
1.0
 30
0.0
  9
$USERI1
 70
     0
  9
$USERI2
 70
     0
  9
$USERI3
 70
     0
  9
$USERI4
 70
     0
  9
$USERI5
 70
     0
  9
$USERR1
 40
20.0
  9
$USERR2
 40
0.0
  9
$USERR3
 40
0.0
  9
$USERR4
 40
0.0
  9
$USERR5
 40
0.0
  9
$WORLDVIEW
 70
     1
  9
$SHADEDGE
 70
     3
  9
$SHADEDIF
 70
    70
  9
$TILEMODE
 70
     1
  9
$MAXACTVP
 70
    48
  9
$PINSBASE
 10
0.0
 20
0.0
 30
0.0
  9
$PLIMCHECK
 70
     0
  9
$PEXTMIN
 10
-100000000000000000000.0
 20
-100000000000000000000.0
 30
-100000000000000000000.0
  9
$PEXTMAX
 10
100000000000000000000.0
 20
100000000000000000000.0
 30
100000000000000000000.0
  9
$PLIMMIN
 10
0.0
 20
0.0
  9
$PLIMMAX
 10
12.0
 20
9.0
  9
$UNITMODE
 70
     0
  9
$VISRETAIN
 70
     0
  9
$PLINEGEN
 70
     0
  9
$PSLTSCALE
 70
     0
  9
$TREEDEPTH
 70
  3020
  9
$ATTDIA
 70
     0
  9
$ATTREQ
 70
     1
  9
$BLIPMODE
 70
     1
  9
$COORDS
 70
     1
  9
$DRAGMODE
 70
     2
  9
$OSMODE
 70
     0
  9
$HANDLING
 70
     0
  9
$HANDSEED
  5
10F8E
  0
ENDSEC
  0
SECTION
  2
TABLES
  0
TABLE
  2
LTYPE
 70
     2
  0
LTYPE
  2
CONTINUOUS
 70
     0
  3
実線
 72
    65
 73
     0
 40
0.0
  0
LTYPE
  2
DASHDOT
 70
     0
  3
____ _ ____ _ ____ _ ____ _ ____ _ ____ _ ____
 72
    65
 73
     4
 40
5.5
 49
4.0
 49
-0.6
 49
0.3
 49
-0.6
  0
ENDTAB
  0
TABLE
  2
LAYER
 70
    12
  0
LAYER
  2
0
 70
     0
 62
     7
  6
CONTINUOUS
  0
LAYER
  2
BASIS
 70
     0
 62
     6
  6
DASHDOT
  0
LAYER
  2
OUTLINE
 70
     0
 62
     3
  6
CONTINUOUS
  0
LAYER
  2
DETAIL
 70
     0
 62
     5
  6
CONTINUOUS
  0
LAYER
  2
SIZE
 70
     0
 62
    30
  6
CONTINUOUS
  0
LAYER
  2
ARRANGE
 70
     0
 62
     1
  6
CONTINUOUS
  0
LAYER
  2
DEFPOINTS
 70
     0
 62
     7
  6
CONTINUOUS
  0
LAYER
  2
ETC
 70
     0
 62
    61
  6
CONTINUOUS
  0
LAYER
  2
FIX
 70
     0
 62
    11
  6
CONTINUOUS
  0
LAYER
  2
NOTE
 70
     0
 62
     4
  6
CONTINUOUS
  0
LAYER
  2
SERVICESPACE
 70
    64
 62
     2
  6
DASHDOT
  0
LAYER
  2
SYMBOLLINE
 70
    64
 62
    15
  6
CONTINUOUS
  0
ENDTAB
  0
TABLE
  2
STYLE
 70
     1
  0
STYLE
  2
STANDARD
 70
     0
 40
64.0
 41
0.9
 50
0.0
 71
     0
 42
64.0
  3
SIMPLEX.shx
  4
BIGFONT.shx
  0
ENDTAB
  0
TABLE
  2
APPID
 70
    19
  0
APPID
  2
ACAD
 70
     0
  0
APPID
  2
AUTOCAD_POSTSCRIPT_FIGURE
 70
     0
  0
APPID
  2
ACAD_EXEMPT_FROM_CAD_STANDARDS
 70
     0
  0
APPID
  2
ACAD_PSEXT
 70
     0
  0
APPID
  2
ACAUTHENVIRON
 70
     0
  0
APPID
  2
GENIUS_GENOENT_13
 70
     0
  0
APPID
  2
GENIUS_GENCFG_13
 70
     0
  0
APPID
  2
GENIUS_GENCFG0_13
 70
     0
  0
APPID
  2
GENIUS_GENCFG1_13
 70
     0
  0
APPID
  2
GENIUS_GENCFG2_13
 70
     0
  0
APPID
  2
GENIUS_GENCFG3_13
 70
     0
  0
APPID
  2
GENIUS_GENCFG4_13
 70
     0
  0
APPID
  2
GENIUS_GEVCFG0_13
 70
     0
  0
APPID
  2
CONTENTBLOCKICON
 70
     0
  0
APPID
  2
CONTENTBLOCKDESCRIPTION
 70
     0
  0
APPID
  2
ACAD_NAV_VCDISPLAY
 70
     0
  0
APPID
  2
ACAD_MLEADERVER
 70
     0
  0
APPID
  2
ACDBDYNAMICBLOCKTRUENAME
 70
     0
  0
APPID
  2
ACDBDYNAMICBLOCKGUID
 70
     0
  0
ENDTAB
  0
TABLE
  2
DIMSTYLE
 70
     1
  0
DIMSTYLE
  2
STANDARD
 70
     0
  3

  4

  5
_ORIGIN
  6

  7

 40
1.0
 41
12.0
 42
20.0
 43
200.0
 44
20.0
 45
0.0
 46
0.0
 47
0.0
 48
0.0
140
64.0
141
0.09
142
0.0
143
25.399999999999999
144
1.0
145
0.0
146
1.0
147
25.0
 71
     0
 72
     0
 73
     0
 74
     0
 75
     0
 76
     0
 77
     1
 78
     8
170
     0
171
     2
172
     1
173
     0
174
     1
175
     0
176
     7
177
     7
178
     7
  0
ENDTAB
  0
TABLE
  2
VIEW
 70
     1
  0
VIEW
  2
ALL
 70
     0
 40
4282.6198079999986
 10
0.0
 20
41.309904000000003
 41
5940.0
 11
0.0
 21
0.0
 31
1.0
 12
0.0
 22
0.0
 32
0.0
 42
50.0
 43
0.0
 44
0.0
 50
0.0
 71
     0
  0
ENDTAB
  0
TABLE
  2
UCS
 70
     0
  0
ENDTAB
  0
TABLE
  2
VPORT
 70
     1
  0
VPORT
  2
*ACTIVE
 70
     0
 10
0.0
 20
0.0
 11
1.0
 21
1.0
 12
115.1092668938319
 22
146.11817401149071
 13
0.0
 23
0.0
 14
1.0
 24
1.0
 15
0.0
 25
0.0
 16
0.0
 26
0.0
 36
1.0
 17
0.0
 27
0.0
 37
0.0
 40
1480.545799471354
 41
1.747787610619469
 42
50.0
 43
0.0
 44
0.0
 50
0.0
 51
0.0
 71
     0
 72
  1000
 73
     1
 74
     3
 75
     0
 76
     0
 77
     0
 78
     0
  0
ENDTAB
  0
ENDSEC
  0
SECTION
  2
BLOCKS
  0
BLOCK
  8
0
  2
_ORIGIN
 70
     0
 10
0.0
 20
0.0
 30
0.0
  3
_ORIGIN
  1
_ORIGIN
  0
CIRCLE
  8
0
  6
CONTINUOUS
 62
     7
 10
0.0
 20
0.0
 30
0.0
 40
0.5
  0
LINE
  8
0
  6
CONTINUOUS
 62
     7
 10
0.0
 20
0.0
 30
0.0
 11
-1.0
 21
0.0
 31
0.0
  0
ENDBLK
  8
0
  0
ENDSEC
  0
SECTION
  2
ENTITIES
  0
TEXT
  8
ETC
  6
CONTINUOUS
 62
    61
 10
411.51873288954448
 20
817.28576484004861
 30
0.0
 40
64.0
  1
VL-200ZMHS4_3
 41
0.9
  0
TEXT
  8
ETC
  6
CONTINUOUS
 62
    61
 10
407.33273888954409
 20
699.33045482521766
 30
0.0
 40
64.0
  1
換気扇
 41
0.9
  0
CIRCLE
  8
ARRANGE
  6
CONTINUOUS
 62
     1
 10
0.0
 20
0.0
 30
0.0
 40
40.0
  0
POINT
  8
ARRANGE
  6
CONTINUOUS
 62
     1
 10
0.0
 20
0.0
 30
0.0
  0
LINE
  8
BASIS
  6
DASHDOT
 62
     6
 10
125.4561247050906
 20
0.0
 30
0.0
 11
-125.4561247050906
 21
0.0
 31
0.0
  0
TEXT
  8
ETC
  6
CONTINUOUS
 62
    61
 10
458.03413713809999
 20
591.18168193899237
 30
0.0
 40
40.0
  1
VL-200ZMHS4
 41
0.9
  0
ARC
  8
DETAIL
  6
CONTINUOUS
 62
     5
 10
266.31714558372909
 20
36.493307837261
 30
0.0
 40
131.03418368436121
 50
259.18657893659372
 51
260.07071573510308
  0
ARC
  8
DETAIL
  6
CONTINUOUS
 62
     5
 10
234.6840169299976
 20
-89.655738338120955
 30
0.0
 40
7.4994892500000292
 50
340.05431942930301
 51
19.945680570696979
  0
ARC
  8
DETAIL
  6
CONTINUOUS
 62
     5
 10
266.31714558372909
 20
-215.80478451350641
 30
0.0
 40
131.0341836843651
 50
99.929284264896879
 51
100.8134210634063
  0
ARC
  8
DETAIL
  6
CONTINUOUS
 62
     5
 10
248.78305671999991
 20
-1.1999182800027479
 30
0.0
 40
1.199918279999918
 50
0.0
 51
90.0
  0
CIRCLE
  8
DETAIL
  6
CONTINUOUS
 62
     5
 10
242.58347893999959
 20
-26.698140869999751
 30
0.0
 40
1.599891039999968
  0
ARC
  8
DETAIL
  6
CONTINUOUS
 62
     5
 10
249.98297499999899
 20
-32.950447115232237
 30
0.0
 40
2.299843370000386
 50
0.0
 51
45.000000000006906
  0
ARC
  8
DETAIL
  6
CONTINUOUS
 62
     5
 10
254.58266174000161
 20
-35.397589259999222
 30
0.0
 40
2.299843370000386
 50
180.0
 51
270.0
  0
CIRCLE
  8
DETAIL
  6
CONTINUOUS
 62
     5
 10
242.58347893999959
 20
-26.698140869999751
 30
0.0
 40
2.4998297499999542
  0
ARC
  8
DETAIL
  6
CONTINUOUS
 62
     5
 10
254.58266174000161
 20
-35.397589259999222
 30
0.0
 40
4.5996867399999957
 50
180.0
 51
270.0
  0
ARC
  8
DETAIL
  6
CONTINUOUS
 62
     5
 10
202.78618932000239
 20
0.5999591399995552
 30
0.0
 40
0.5999591399999591
 50
180.0
 51
270.0
  0
ARC
  8
DETAIL
  6
CONTINUOUS
 62
     5
 10
197.18657067999811
 20
0.5999591399995552
 30
0.0
 40
0.5999591400000001
 50
270.0
 51
0.0
  0
CIRCLE
  8
DETAIL
  6
CONTINUOUS
 62
     5
 10
226.18459577999971
 20
-6.2995301100004326
 30
0.0
 40
1.599891039999968
  0
CIRCLE
  8
DETAIL
  6
CONTINUOUS
 62
     5
 10
226.18459577999971
 20
-6.2995301100004326
 30
0.0
 40
2.4998297499999542
  0
ARC
  8
DETAIL
  6
CONTINUOUS
 62
     5
 10
249.98297499999899
 20
-44.744261514770187
 30
0.0
 40
2.2998433699998411
 50
314.99999999999312
 51
0.0
  0
ARC
  8
DETAIL
  6
CONTINUOUS
 62
     5
 10
254.58266174000161
 20
-42.297119370003202
 30
0.0
 40
2.2998433699996088
 50
90.0
 51
180.0
  0
ARC
  8
DETAIL
  6
CONTINUOUS
 62
     5
 10
254.58266174000161
 20
-42.297119370003202
 30
0.0
 40
4.5996867399999681
 50
131.34304797690339
 51
180.0
  0
ARC
  8
DETAIL
  6
CONTINUOUS
 62
     5
 10
167.78857281999811
 20
0.5999591399995552
 30
0.0
 40
0.5999591399999591
 50
180.0
 51
270.0
  0
ARC
  8
DETAIL
  6
CONTINUOUS
 62
     5
 10
162.18895417999741
 20
0.5999591399995552
 30
0.0
 40
0.5999591400000001
 50
270.0
 51
0.0
  0
CIRCLE
  8
DETAIL
  6
CONTINUOUS
 62
     5
 10
92.193721179999557
 20
-6.2995301100004326
 30
0.0
 40
1.599891039999968
  0
CIRCLE
  8
DETAIL
  6
CONTINUOUS
 62
     5
 10
92.193721179999557
 20
-6.2995301100004326
 30
0.0
 40
2.4998297499999542
  0
ARC
  8
DETAIL
  6
CONTINUOUS
 62
     5
 10
51.796472419999191
 20
0.5999591399995552
 30
0.0
 40
0.5999591399999591
 50
180.0
 51
270.0
  0
ARC
  8
DETAIL
  6
CONTINUOUS
 62
     5
 10
46.196853779998492
 20
0.5999591399995552
 30
0.0
 40
0.5999591399994273
 50
270.0
 51
0.0
  0
CIRCLE
  8
DETAIL
  6
CONTINUOUS
 62
     5
 10
11.99918279999838
 20
-6.8995301100004554
 30
0.0
 40
1.599891039999968
  0
CIRCLE
  8
DETAIL
  6
CONTINUOUS
 62
     5
 10
11.99918279999838
 20
-6.8995301100004554
 30
0.0
 40
2.4998297499999542
  0
CIRCLE
  8
DETAIL
  6
CONTINUOUS
 62
     5
 10
242.58347893999959
 20
-150.68969647000131
 30
0.0
 40
1.599891040000023
  0
CIRCLE
  8
DETAIL
  6
CONTINUOUS
 62
     5
 10
242.58347893999959
 20
-150.68969647000131
 30
0.0
 40
2.4998297500000088
  0
ARC
  8
DETAIL
  6
CONTINUOUS
 62
     5
 10
250.38294776000109
 20
-269.48151085000057
 30
0.0
 40
0.9999318999996684
 50
270.0
 51
0.0
  0
ARC
  8
DETAIL
  6
CONTINUOUS
 62
     5
 10
274.98127249999737
 20
-241.28356747000001
 30
0.0
 40
0.9999319000002546
 50
270.0
 51
0.0
  0
CIRCLE
  8
DETAIL
  6
CONTINUOUS
 62
     5
 10
242.58347893999959
 20
-215.58531764000131
 30
0.0
 40
1.599891040000023
  0
ARC
  8
DETAIL
  6
CONTINUOUS
 62
     5
 10
205.39043769210909
 20
-281.98079580000189
 30
0.0
 40
1.9998637999994591
 50
1.0000000000017619
 51
88.641627396298887
  0
ARC
  8
DETAIL
  6
CONTINUOUS
 62
     5
 10
205.43786654398349
 20
-282.01458382837882
 30
0.0
 40
2.0336518288783769
 50
76.549440670898633
 51
89.998580730689582
  0
CIRCLE
  8
DETAIL
  6
CONTINUOUS
 62
     5
 10
242.58347893999959
 20
-215.58531764000131
 30
0.0
 40
2.4998297499999542
  0
CIRCLE
  8
DETAIL
  6
CONTINUOUS
 62
     5
 10
39.997276000001882
 20
-179.2877896700011
 30
0.0
 40
1.599891040000023
  0
ARC
  8
DETAIL
  6
CONTINUOUS
 62
     5
 10
105.167601288591
 20
-280.15568378859467
 30
0.0
 40
0.9997165531663816
 50
269.99651934279848
 51
0.0
  0
ARC
  8
DETAIL
  6
CONTINUOUS
 62
     5
 10
104.9930624314984
 20
-279.98114493150212
 30
0.0
 40
0.9997165531656728
 50
269.99652476840907
 51
0.0
  0
ARC
  8
DETAIL
  6
CONTINUOUS
 62
     5
 10
191.34312950894309
 20
-277.98106820000248
 30
0.0
 40
1.999863800000345
 50
228.72418338241619
 51
270.0
  0
ARC
  8
DETAIL
  6
CONTINUOUS
 62
     5
 10
110.9930795655055
 20
-285.98116206550549
 30
0.0
 40
2.9991496589980708
 50
269.99652724129902
 51
0.0034727587140194
  0
ARC
  8
DETAIL
  6
CONTINUOUS
 62
     5
 10
110.81854080290211
 20
-285.80662330340431
 30
0.0
 40
2.9991496589980708
 50
269.99652724089509
 51
0.003472759104846
  0
ARC
  8
DETAIL
  6
CONTINUOUS
 62
     5
 10
30.997888900001271
 20
-229.09519300933241
 30
0.0
 40
60.885057990670568
 50
247.54711479270239
 51
304.12836570449173
  0
ARC
  8
DETAIL
  6
CONTINUOUS
 62
     5
 10
30.997888900001271
 20
-229.09519300933241
 30
0.0
 40
65.22013356091847
 50
230.59971885039519
 51
233.5397175467088
  0
ARC
  8
DETAIL
  6
CONTINUOUS
 62
     5
 10
30.997888900001271
 20
-229.09519300933241
 30
0.0
 40
65.220133560918299
 50
245.59297688899721
 51
309.40028114960478
  0
ARC
  8
DETAIL
  6
CONTINUOUS
 62
     5
 10
-160.18909038000129
 20
0.5999591399995552
 30
0.0
 40
0.5999591400000547
 50
180.0
 51
270.0
  0
ARC
  8
DETAIL
  6
CONTINUOUS
 62
     5
 10
-165.78870902000199
 20
0.5999591399995552
 30
0.0
 40
0.5999591399994273
 50
270.0
 51
0.0
  0
ARC
  8
DETAIL
  6
CONTINUOUS
 62
     5
 10
-167.78857281999811
 20
0.5999591399995552
 30
0.0
 40
0.5999591399994273
 50
270.0
 51
0.0
  0
CIRCLE
  8
DETAIL
  6
CONTINUOUS
 62
     5
 10
-65.995505400002003
 20
-6.8995301100004554
 30
0.0
 40
1.599891039999968
  0
CIRCLE
  8
DETAIL
  6
CONTINUOUS
 62
     5
 10
-65.995505400002003
 20
-6.8995301100004554
 30
0.0
 40
2.4998297499999542
  0
ARC
  8
DETAIL
  6
CONTINUOUS
 62
     5
 10
-214.1854129800013
 20
0.5999591399995552
 30
0.0
 40
0.5999591400000547
 50
180.0
 51
270.0
  0
ARC
  8
DETAIL
  6
CONTINUOUS
 62
     5
 10
-219.785031620002
 20
0.5999591399995552
 30
0.0
 40
0.5999591399994273
 50
270.0
 51
0.0
  0
CIRCLE
  8
DETAIL
  6
CONTINUOUS
 62
     5
 10
-199.9863800000021
 20
-6.8995301100004554
 30
0.0
 40
1.599891039999968
  0
CIRCLE
  8
DETAIL
  6
CONTINUOUS
 62
     5
 10
-199.9863800000021
 20
-6.8995301100004554
 30
0.0
 40
2.4998297499999542
  0
ARC
  8
DETAIL
  6
CONTINUOUS
 62
     5
 10
-248.78305671999991
 20
-1.1999182799991099
 30
0.0
 40
0.5999591399994273
 50
90.0
 51
180.0
  0
ARC
  8
DETAIL
  6
CONTINUOUS
 62
     5
 10
-248.78305671999991
 20
-1.1999182799991099
 30
0.0
 40
1.1999182800000681
 50
90.0
 51
180.0
  0
CIRCLE
  8
DETAIL
  6
CONTINUOUS
 62
     5
 10
-242.58347893999959
 20
-37.997412199998507
 30
0.0
 40
1.599891040000023
  0
ARC
  8
DETAIL
  6
CONTINUOUS
 62
     5
 10
-249.98297499999899
 20
-44.744261514770187
 30
0.0
 40
2.299843370000386
 50
180.0
 51
225.00000000000691
  0
ARC
  8
DETAIL
  6
CONTINUOUS
 62
     5
 10
-254.582661739998
 20
-42.297119370003202
 30
0.0
 40
2.299843370000386
 50
0.0
 51
90.0
  0
ARC
  8
DETAIL
  6
CONTINUOUS
 62
     5
 10
-249.98297499999899
 20
-32.950447115232237
 30
0.0
 40
2.2998433699997731
 50
134.99999999999309
 51
180.0
  0
ARC
  8
DETAIL
  6
CONTINUOUS
 62
     5
 10
-254.582661739998
 20
-35.397589259999222
 30
0.0
 40
2.299843370000195
 50
270.0
 51
0.0
  0
CIRCLE
  8
DETAIL
  6
CONTINUOUS
 62
     5
 10
-242.58347893999959
 20
-37.997412199998507
 30
0.0
 40
2.4998297500000088
  0
ARC
  8
DETAIL
  6
CONTINUOUS
 62
     5
 10
-254.582661739998
 20
-42.297119370003202
 30
0.0
 40
4.5996867399999957
 50
0.0
 51
90.0
  0
ARC
  8
DETAIL
  6
CONTINUOUS
 62
     5
 10
-254.582661739998
 20
-35.397589259999222
 30
0.0
 40
4.5996867400000641
 50
311.34304797690339
 51
0.0
  0
ARC
  8
DETAIL
  6
CONTINUOUS
 62
     5
 10
-43.171823488592047
 20
-280.15568378859467
 30
0.0
 40
0.9997165531664772
 50
180.0
 51
270.00348065720152
  0
ARC
  8
DETAIL
  6
CONTINUOUS
 62
     5
 10
-42.997284726992802
 20
-279.98114502699548
 30
0.0
 40
0.9997165531663274
 50
180.0
 51
270.00348069469482
  0
ARC
  8
DETAIL
  6
CONTINUOUS
 62
     5
 10
-117.8875455778943
 20
-281.28084347000208
 30
0.0
 40
1.999863799999841
 50
0.9999999999887361
 51
64.404496187393718
  0
ARC
  8
DETAIL
  6
CONTINUOUS
 62
     5
 10
-143.39465989211021
 20
-281.98079580000189
 30
0.0
 40
1.999863799999964
 50
91.358372606502897
 51
178.99999999999829
  0
ARC
  8
DETAIL
  6
CONTINUOUS
 62
     5
 10
-143.44208873848399
 20
-282.01458387437748
 30
0.0
 40
2.033651875375265
 50
90.001419423204894
 51
103.45055917520681
  0
ARC
  8
DETAIL
  6
CONTINUOUS
 62
     5
 10
-48.997301928491652
 20
-285.98116222799217
 30
0.0
 40
2.9991496589982329
 50
179.99652413461871
 51
270.00347586538129
  0
ARC
  8
DETAIL
  6
CONTINUOUS
 62
     5
 10
-48.822763165891963
 20
-285.80662346589452
 30
0.0
 40
2.9991496589982329
 50
179.99652413420179
 51
270.00347586579818
  0
CIRCLE
  8
DETAIL
  6
CONTINUOUS
 62
     5
 10
-242.58347893999959
 20
-161.9889678000001
 30
0.0
 40
1.599891040000023
  0
CIRCLE
  8
DETAIL
  6
CONTINUOUS
 62
     5
 10
-242.58347893999959
 20
-161.9889678000001
 30
0.0
 40
2.4998297500000088
  0
ARC
  8
DETAIL
  6
CONTINUOUS
 62
     5
 10
-276.9811363000008
 20
-230.28431656999959
 30
0.0
 40
0.5999591399999591
 50
0.0
 51
180.0
  0
ARC
  8
DETAIL
  6
CONTINUOUS
 62
     5
 10
-250.38294776000109
 20
-269.48151085000057
 30
0.0
 40
0.9999319000000636
 50
180.0
 51
270.00000000010431
  0
ARC
  8
DETAIL
  6
CONTINUOUS
 62
     5
 10
-274.98127250000113
 20
-241.28356747000001
 30
0.0
 40
0.9999319000003502
 50
180.0
 51
270.0
  0
ARC
  8
DETAIL
  6
CONTINUOUS
 62
     5
 10
-275.78121801999811
 20
-254.6826549300022
 30
0.0
 40
1.1999182800000141
 50
180.0
 51
270.0
  0
CIRCLE
  8
DETAIL
  6
CONTINUOUS
 62
     5
 10
-242.58347893999959
 20
-215.58531764000131
 30
0.0
 40
1.599891040000023
  0
CIRCLE
  8
DETAIL
  6
CONTINUOUS
 62
     5
 10
-242.58347893999959
 20
-215.58531764000131
 30
0.0
 40
2.4998297499999542
  0
LINE
  8
DETAIL
  6
CONTINUOUS
 62
     5
 10
251.60920984236509
 20
-31.324212272866131
 30
0.0
 11
249.98297499999899
 21
-29.697977430001739
 31
0.0
  0
LINE
  8
DETAIL
  6
CONTINUOUS
 62
     5
 10
27.998093199999861
 20
3.8997344099989282
 30
0.0
 11
31.997820799999321
 21
3.8997344099989282
 31
0.0
  0
LINE
  8
DETAIL
  6
CONTINUOUS
 62
     5
 10
-218.98508609999769
 20
3.8997344099989282
 30
0.0
 11
-214.98535849999831
 21
3.8997344099989282
 31
0.0
  0
LINE
  8
DETAIL
  6
CONTINUOUS
 62
     5
 10
197.7865298199977
 20
1.0999250899984649
 30
0.0
 11
202.18623017999931
 21
1.0999250899984649
 31
0.0
  0
LINE
  8
DETAIL
  6
CONTINUOUS
 62
     5
 10
162.7889133200006
 20
1.0999250899984649
 30
0.0
 11
167.18861368000219
 21
1.0999250899984649
 31
0.0
  0
LINE
  8
DETAIL
  6
CONTINUOUS
 62
     5
 10
46.796812920001678
 20
1.099925090002102
 30
0.0
 11
51.196513279999643
 21
1.099925090002102
 31
0.0
  0
LINE
  8
DETAIL
  6
CONTINUOUS
 62
     5
 10
-167.18861368000219
 20
1.099925090002102
 30
0.0
 11
-160.78904951999721
 21
1.099925090002102
 31
0.0
  0
LINE
  8
DETAIL
  6
CONTINUOUS
 62
     5
 10
-219.18507247999881
 20
1.099925090002102
 30
0.0
 11
-214.7853721200008
 21
1.099925090002102
 31
0.0
  0
LINE
  8
DETAIL
  6
CONTINUOUS
 62
     5
 10
-248.78305671999991
 20
0.0
 30
0.0
 11
248.78305671999991
 21
0.0
 31
0.0
  0
LINE
  8
DETAIL
  6
CONTINUOUS
 62
     5
 10
-248.78305671999991
 20
-0.5999591400031932
 30
0.0
 11
-248.48307715000189
 21
-0.5999591400031932
 31
0.0
  0
LINE
  8
DETAIL
  6
CONTINUOUS
 62
     5
 10
-248.63306693499911
 20
-1.099925090002102
 30
0.0
 11
-248.48307715000189
 21
-1.099925090002102
 31
0.0
  0
LINE
  8
DETAIL
  6
CONTINUOUS
 62
     5
 10
-248.78305671999991
 20
-1.4998978500005931
 30
0.0
 11
-249.98297499999899
 21
-1.4998978500005931
 31
0.0
  0
LINE
  8
DETAIL
  6
CONTINUOUS
 62
     5
 10
276.48117034999808
 20
-29.997956999999591
 30
0.0
 11
289.98025100000092
 21
-29.997956999999591
 31
0.0
  0
LINE
  8
DETAIL
  6
CONTINUOUS
 62
     5
 10
254.58266174000161
 20
-29.997956999999591
 30
0.0
 11
263.48205564999807
 21
-29.997956999999591
 31
0.0
  0
LINE
  8
DETAIL
  6
CONTINUOUS
 62
     5
 10
-276.48117034999808
 20
-29.997956999999591
 30
0.0
 11
-289.98025100000092
 21
-29.997956999999591
 31
0.0
  0
LINE
  8
DETAIL
  6
CONTINUOUS
 62
     5
 10
-254.582661739998
 20
-29.997956999999591
 30
0.0
 11
-263.48205564999807
 21
-29.997956999999591
 31
0.0
  0
LINE
  8
DETAIL
  6
CONTINUOUS
 62
     5
 10
-276.48117034999808
 20
-37.697432630000662
 30
0.0
 11
-289.98025100000092
 21
-37.697432630000662
 31
0.0
  0
LINE
  8
DETAIL
  6
CONTINUOUS
 62
     5
 10
263.48205564999807
 20
-37.697432630000662
 30
0.0
 11
254.58266174000161
 21
-37.697432630000662
 31
0.0
  0
LINE
  8
DETAIL
  6
CONTINUOUS
 62
     5
 10
-263.48205564999807
 20
-39.997276000001882
 30
0.0
 11
-254.582661739998
 21
-39.997276000001882
 31
0.0
  0
LINE
  8
DETAIL
  6
CONTINUOUS
 62
     5
 10
289.98025100000092
 20
-39.997276000001882
 30
0.0
 11
276.48117034999808
 21
-39.997276000001882
 31
0.0
  0
LINE
  8
DETAIL
  6
CONTINUOUS
 62
     5
 10
276.48117034999808
 20
-47.696751629999198
 30
0.0
 11
289.98025100000092
 21
-47.696751629999198
 31
0.0
  0
LINE
  8
DETAIL
  6
CONTINUOUS
 62
     5
 10
254.58266174000161
 20
-47.696751629999198
 30
0.0
 11
263.48205564999807
 21
-47.696751629999198
 31
0.0
  0
LINE
  8
DETAIL
  6
CONTINUOUS
 62
     5
 10
-276.48117034999808
 20
-47.696751629999198
 30
0.0
 11
-289.98025100000092
 21
-47.696751629999198
 31
0.0
  0
LINE
  8
DETAIL
  6
CONTINUOUS
 62
     5
 10
-254.582661739998
 20
-47.696751629999198
 30
0.0
 11
-263.48205564999807
 21
-47.696751629999198
 31
0.0
  0
LINE
  8
DETAIL
  6
CONTINUOUS
 62
     5
 10
249.98297499999899
 20
-67.995369200001733
 30
0.0
 11
252.9827707000004
 21
-67.995369200001733
 31
0.0
  0
LINE
  8
DETAIL
  6
CONTINUOUS
 62
     5
 10
-249.98297499999899
 20
-67.995369200001733
 30
0.0
 11
-252.9827707000004
 21
-67.995369200001733
 31
0.0
  0
LINE
  8
DETAIL
  6
CONTINUOUS
 62
     5
 10
-252.9827707000004
 20
-77.994688200000496
 30
0.0
 11
-250.08296818999949
 21
-77.994688200000496
 31
0.0
  0
LINE
  8
DETAIL
  6
CONTINUOUS
 62
     5
 10
252.9827707000004
 20
-77.994688200000496
 30
0.0
 11
250.08296818999949
 21
-77.994688200000496
 31
0.0
  0
LINE
  8
DETAIL
  6
CONTINUOUS
 62
     5
 10
-252.9827707000004
 20
-81.794429420002416
 30
0.0
 11
-249.98297499999899
 21
-81.794429420002416
 31
0.0
  0
LINE
  8
DETAIL
  6
CONTINUOUS
 62
     5
 10
252.9827707000004
 20
-81.794429420002416
 30
0.0
 11
249.98297499999899
 21
-81.794429420002416
 31
0.0
  0
LINE
  8
DETAIL
  6
CONTINUOUS
 62
     5
 10
243.8178233834187
 20
-91.793748420001066
 30
0.0
 11
254.63265833500191
 21
-91.793748420001066
 31
0.0
  0
LINE
  8
DETAIL
  6
CONTINUOUS
 62
     5
 10
254.63265833500191
 20
-99.793203620003624
 30
0.0
 11
249.63299883500079
 21
-99.793203620003624
 31
0.0
  0
LINE
  8
DETAIL
  6
CONTINUOUS
 62
     5
 10
257.39717185580588
 20
-278.04925177838612
 30
0.0
 11
258.77402578467081
 21
-279.69010783697388
 31
0.0
  0
LINE
  8
DETAIL
  6
CONTINUOUS
 62
     5
 10
289.28146941862718
 20
-257.84034756398609
 30
0.0
 11
287.18993105059047
 21
-281.74674050175241
 31
0.0
  0
LINE
  8
DETAIL
  6
CONTINUOUS
 62
     5
 10
289.98025100000092
 20
-47.696751629999198
 30
0.0
 11
289.98025100000092
 21
-39.997276000001882
 31
0.0
  0
LINE
  8
DETAIL
  6
CONTINUOUS
 62
     5
 10
289.98025100000092
 20
-29.997956999999591
 30
0.0
 11
289.98025100000092
 21
-39.997276000001882
 31
0.0
  0
LINE
  8
DETAIL
  6
CONTINUOUS
 62
     5
 10
276.48117034999808
 20
-39.997276000001882
 30
0.0
 11
276.48117034999808
 21
-29.997956999999591
 31
0.0
  0
LINE
  8
DETAIL
  6
CONTINUOUS
 62
     5
 10
276.48117034999808
 20
-47.696751629999198
 30
0.0
 11
276.48117034999808
 21
-39.997276000001882
 31
0.0
  0
LINE
  8
DETAIL
  6
CONTINUOUS
 62
     5
 10
275.98120439999911
 20
-251.28288647000241
 30
0.0
 11
275.98120439999911
 21
-234.78401012000191
 31
0.0
  0
LINE
  8
DETAIL
  6
CONTINUOUS
 62
     5
 10
263.48205564999807
 20
-47.696751629999198
 30
0.0
 11
263.48205564999807
 21
-37.697432630000662
 31
0.0
  0
LINE
  8
DETAIL
  6
CONTINUOUS
 62
     5
 10
263.48205564999807
 20
-29.997956999999591
 30
0.0
 11
263.48205564999807
 21
-37.697432630000662
 31
0.0
  0
LINE
  8
DETAIL
  6
CONTINUOUS
 62
     5
 10
258.77402578467081
 20
-279.69010783697388
 30
0.0
 11
260.95532733591608
 21
-254.7577170129226
 31
0.0
  0
LINE
  8
DETAIL
  6
CONTINUOUS
 62
     5
 10
257.39714695549992
 20
-278.04898480006523
 30
0.0
 11
259.31438836547022
 21
-256.13481520415007
 31
0.0
  0
LINE
  8
DETAIL
  6
CONTINUOUS
 62
     5
 10
254.63265833500191
 20
-111.7923864200021
 30
0.0
 11
254.63265833500191
 21
-91.793748420001066
 31
0.0
  0
LINE
  8
DETAIL
  6
CONTINUOUS
 62
     5
 10
254.63265833500191
 20
-234.78401012000191
 30
0.0
 11
254.63265833500191
 21
-221.78489541999809
 31
0.0
  0
LINE
  8
DETAIL
  6
CONTINUOUS
 62
     5
 10
254.58266174000161
 20
-37.697432630000662
 30
0.0
 11
254.58266174000161
 21
-29.997956999999591
 31
0.0
  0
LINE
  8
DETAIL
  6
CONTINUOUS
 62
     5
 10
254.58266174000161
 20
-47.696751629999198
 30
0.0
 11
254.58266174000161
 21
-37.697432630000662
 31
0.0
  0
LINE
  8
DETAIL
  6
CONTINUOUS
 62
     5
 10
252.9827707000004
 20
-99.793203620003624
 30
0.0
 11
252.9827707000004
 21
-234.78401012000191
 31
0.0
  0
LINE
  8
DETAIL
  6
CONTINUOUS
 62
     5
 10
252.9827707000004
 20
-67.995369200001733
 30
0.0
 11
252.9827707000004
 21
-91.793748420001066
 31
0.0
  0
LINE
  8
DETAIL
  6
CONTINUOUS
 62
     5
 10
252.28281837000031
 20
-35.397589259999222
 30
0.0
 11
252.28281837000031
 21
-32.950447115232237
 31
0.0
  0
LINE
  8
DETAIL
  6
CONTINUOUS
 62
     5
 10
252.28281837000031
 20
-42.297119370003202
 30
0.0
 11
252.28281837000031
 21
-44.744261514770187
 31
0.0
  0
LINE
  8
DETAIL
  6
CONTINUOUS
 62
     5
 10
251.38287965999919
 20
-269.48151085000057
 30
0.0
 11
251.38287965999919
 21
-242.28349937000169
 31
0.0
  0
LINE
  8
DETAIL
  6
CONTINUOUS
 62
     5
 10
250.48294094999801
 20
-77.994688200000496
 30
0.0
 11
250.48294094999801
 21
-81.794429420002416
 31
0.0
  0
LINE
  8
DETAIL
  6
CONTINUOUS
 62
     5
 10
250.08296818999949
 20
-81.794429420002416
 30
0.0
 11
250.08296818999949
 21
-77.994688200000496
 31
0.0
  0
LINE
  8
DETAIL
  6
CONTINUOUS
 62
     5
 10
249.98297499999899
 20
-99.793203620003624
 30
0.0
 11
249.98297499999899
 21
-234.78401012000191
 31
0.0
  0
LINE
  8
DETAIL
  6
CONTINUOUS
 62
     5
 10
249.98297499999899
 20
-1.1999182800027479
 30
0.0
 11
249.98297499999899
 21
-91.793748420001066
 31
0.0
  0
LINE
  8
DETAIL
  6
CONTINUOUS
 62
     5
 10
233.38410546000159
 20
-274.49380610822118
 30
0.0
 11
233.38410546000159
 21
-272.48144274999868
 31
0.0
  0
LINE
  8
DETAIL
  6
CONTINUOUS
 62
     5
 10
221.22384090291601
 20
-279.48096604999978
 30
0.0
 11
221.14529846001821
 21
-283.98065960000167
 31
0.0
  0
LINE
  8
DETAIL
  6
CONTINUOUS
 62
     5
 10
220.284997570001
 20
-285.08058469000042
 30
0.0
 11
220.284997570001
 21
-284.0806527900022
 31
0.0
  0
LINE
  8
DETAIL
  6
CONTINUOUS
 62
     5
 10
218.98508609999769
 20
-285.58055063999927
 30
0.0
 11
218.98508609999769
 21
-285.08058469000042
 31
0.0
  0
LINE
  8
DETAIL
  6
CONTINUOUS
 62
     5
 10
209.58572624000229
 20
-285.58055063999927
 30
0.0
 11
209.58572624000229
 21
-285.08058469000042
 31
0.0
  0
LINE
  8
DETAIL
  6
CONTINUOUS
 62
     5
 10
208.28581476999901
 20
-285.08058469000042
 30
0.0
 11
208.28581476999901
 21
-284.0806527900022
 31
0.0
  0
LINE
  8
DETAIL
  6
CONTINUOUS
 62
     5
 10
202.18623017999931
 20
0.5999591399995552
 30
0.0
 11
202.18623017999931
 21
1.0999250899984649
 31
0.0
  0
LINE
  8
DETAIL
  6
CONTINUOUS
 62
     5
 10
197.7865298199977
 20
0.5999591399995552
 30
0.0
 11
197.7865298199977
 21
1.0999250899984649
 31
0.0
  0
LINE
  8
DETAIL
  6
CONTINUOUS
 62
     5
 10
207.38999690284979
 20
-281.94589336401617
 30
0.0
 11
207.42551387998171
 21
-283.98065960000167
 31
0.0
  0
LINE
  8
DETAIL
  6
CONTINUOUS
 62
     5
 10
111.83528791370919
 20
-280.82377901371012
 30
0.0
 11
111.9923727999994
 21
-280.98086390000049
 31
0.0
  0
LINE
  8
DETAIL
  6
CONTINUOUS
 62
     5
 10
260.95532733591608
 20
-254.7577170129226
 30
0.0
 11
289.28149792418481
 21
-257.84002174617848
 31
0.0
  0
LINE
  8
DETAIL
  6
CONTINUOUS
 62
     5
 10
251.3828796834969
 20
-257.18294964483721
 30
0.0
 11
259.15125494061431
 21
-257.99943878563857
 31
0.0
  0
LINE
  8
DETAIL
  6
CONTINUOUS
 62
     5
 10
233.38303501340491
 20
-274.49372352884541
 30
0.0
 11
257.56028038035947
 21
-276.18436121858042
 31
0.0
  0
LINE
  8
DETAIL
  6
CONTINUOUS
 62
     5
 10
-258.88236890999912
 20
-229.3843778600021
 30
0.0
 11
-254.88264131000321
 21
-229.3843778600021
 31
0.0
  0
LINE
  8
DETAIL
  6
CONTINUOUS
 62
     5
 10
-258.88236890999912
 20
-229.58436423999959
 30
0.0
 11
-254.88264131000321
 21
-229.58436423999959
 31
0.0
  0
LINE
  8
DETAIL
  6
CONTINUOUS
 62
     5
 10
-276.9811363000008
 20
-230.28431656999959
 30
0.0
 11
-276.38117716000119
 21
-230.28431656999959
 31
0.0
  0
LINE
  8
DETAIL
  6
CONTINUOUS
 62
     5
 10
254.63265833500191
 20
-230.78428252000239
 30
0.0
 11
252.9827707000004
 21
-230.78428252000239
 31
0.0
  0
LINE
  8
DETAIL
  6
CONTINUOUS
 62
     5
 10
-258.38260069303209
 20
-231.38424166000189
 30
0.0
 11
-258.88236890999912
 21
-231.38424166000189
 31
0.0
  0
LINE
  8
DETAIL
  6
CONTINUOUS
 62
     5
 10
-254.88264131000321
 20
-231.38424166000189
 30
0.0
 11
-255.38240948946989
 21
-231.38424166000189
 31
0.0
  0
LINE
  8
DETAIL
  6
CONTINUOUS
 62
     5
 10
-275.98120439999911
 20
-234.78401012000191
 30
0.0
 11
275.98120439999911
 21
-234.78401012000191
 31
0.0
  0
LINE
  8
DETAIL
  6
CONTINUOUS
 62
     5
 10
-276.38117716000119
 20
-235.2839760700044
 30
0.0
 11
-275.98120439999911
 21
-235.2839760700044
 31
0.0
  0
LINE
  8
DETAIL
  6
CONTINUOUS
 62
     5
 10
-277.58109544000041
 20
-235.2839760700044
 30
0.0
 11
-276.9811363000008
 21
-235.2839760700044
 31
0.0
  0
LINE
  8
DETAIL
  6
CONTINUOUS
 62
     5
 10
275.98120439999911
 20
-242.28349937000169
 30
0.0
 11
-275.98120439999911
 21
-242.28349937000169
 31
0.0
  0
LINE
  8
DETAIL
  6
CONTINUOUS
 62
     5
 10
-275.78121801999811
 20
-255.2826140700017
 30
0.0
 11
-276.38117716000119
 21
-255.2826140700017
 31
0.0
  0
LINE
  8
DETAIL
  6
CONTINUOUS
 62
     5
 10
-271.65761915270917
 20
-255.88257321000131
 30
0.0
 11
-275.78121801999811
 21
-255.88257321000131
 31
0.0
  0
LINE
  8
DETAIL
  6
CONTINUOUS
 62
     5
 10
-257.56028038086151
 20
-276.18436121858042
 30
0.0
 11
-233.38303501390331
 21
-274.49372352884541
 31
0.0
  0
LINE
  8
DETAIL
  6
CONTINUOUS
 62
     5
 10
-260.95532733641812
 20
-254.7577170129226
 30
0.0
 11
-289.28149792418481
 21
-257.84002174617848
 31
0.0
  0
LINE
  8
DETAIL
  6
CONTINUOUS
 62
     5
 10
-259.15125494061431
 20
-257.99943878563857
 30
0.0
 11
-251.38287968399891
 21
-257.18294964483721
 31
0.0
  0
LINE
  8
DETAIL
  6
CONTINUOUS
 62
     5
 10
177.91457191949669
 20
-279.48096604999978
 30
0.0
 11
177.8482471900206
 21
-283.2807072700017
 31
0.0
  0
LINE
  8
DETAIL
  6
CONTINUOUS
 62
     5
 10
175.33984141208569
 20
-283.27856692876969
 30
0.0
 11
175.33805866499819
 21
-283.38070046000212
 31
0.0
  0
LINE
  8
DETAIL
  6
CONTINUOUS
 62
     5
 10
176.98794629999969
 20
-284.38063236000028
 30
0.0
 11
176.98794629999969
 21
-283.38070046000212
 31
0.0
  0
LINE
  8
DETAIL
  6
CONTINUOUS
 62
     5
 10
175.68803483000011
 20
-284.88059830999919
 30
0.0
 11
175.68803483000011
 21
-284.38063236000028
 31
0.0
  0
LINE
  8
DETAIL
  6
CONTINUOUS
 62
     5
 10
167.18861368000219
 20
0.5999591399995552
 30
0.0
 11
167.18861368000219
 21
1.0999250899984649
 31
0.0
  0
LINE
  8
DETAIL
  6
CONTINUOUS
 62
     5
 10
166.28867497000101
 20
-284.88059830999919
 30
0.0
 11
166.28867497000101
 21
-284.38063236000028
 31
0.0
  0
LINE
  8
DETAIL
  6
CONTINUOUS
 62
     5
 10
164.9887634999977
 20
-284.38063236000028
 30
0.0
 11
164.9887634999977
 21
-283.38070046000212
 31
0.0
  0
LINE
  8
DETAIL
  6
CONTINUOUS
 62
     5
 10
162.7889133200006
 20
0.5999591399995552
 30
0.0
 11
162.7889133200006
 21
1.0999250899984649
 31
0.0
  0
LINE
  8
DETAIL
  6
CONTINUOUS
 62
     5
 10
166.63686838741339
 20
-283.27856692876969
 30
0.0
 11
166.63865113499921
 21
-283.38070046000212
 31
0.0
  0
LINE
  8
DETAIL
  6
CONTINUOUS
 62
     5
 10
164.06213788000241
 20
-279.48096604999978
 30
0.0
 11
164.12846260998049
 21
-283.2807072700017
 31
0.0
  0
LINE
  8
DETAIL
  6
CONTINUOUS
 62
     5
 10
258.77402578467081
 20
-279.69010783697388
 30
0.0
 11
287.18990254553501
 21
-281.7470663195636
 31
0.0
  0
LINE
  8
DETAIL
  6
CONTINUOUS
 62
     5
 10
250.38294776000109
 20
-270.48144274999868
 30
0.0
 11
-250.3829477599993
 21
-270.48144275000072
 31
0.0
  0
LINE
  8
DETAIL
  6
CONTINUOUS
 62
     5
 10
136.30043204042519
 20
-279.48096604999978
 30
0.0
 11
258.59853343100991
 21
-279.48096604999978
 31
0.0
  0
LINE
  8
DETAIL
  6
CONTINUOUS
 62
     5
 10
-258.5985334315119
 20
-279.48096604999978
 30
0.0
 11
-136.30043204042519
 21
-279.48096604999978
 31
0.0
  0
LINE
  8
DETAIL
  6
CONTINUOUS
 62
     5
 10
-6.3092850404282217
 20
-279.48096604999978
 30
0.0
 11
-123.6818619595724
 21
-279.48096604999978
 31
0.0
  0
LINE
  8
DETAIL
  6
CONTINUOUS
 62
     5
 10
123.6818619595724
 20
-279.48096604999978
 30
0.0
 11
6.3092850404282217
 21
-279.48096604999978
 31
0.0
  0
LINE
  8
DETAIL
  6
CONTINUOUS
 62
     5
 10
191.34312950894309
 20
-279.98093199999857
 30
0.0
 11
205.43791692754891
 21
-279.98093199999857
 31
0.0
  0
LINE
  8
DETAIL
  6
CONTINUOUS
 62
     5
 10
-49.839510114208679
 20
-280.82377901371012
 30
0.0
 11
-46.153952286291307
 21
-280.82377901371012
 31
0.0
  0
LINE
  8
DETAIL
  6
CONTINUOUS
 62
     5
 10
111.83528791370919
 20
-280.82377901371012
 30
0.0
 11
108.1497300857918
 21
-280.82377901371012
 31
0.0
  0
LINE
  8
DETAIL
  6
CONTINUOUS
 62
     5
 10
107.9926452
 20
-280.98086390000049
 30
0.0
 11
111.9923727999994
 21
-280.98086390000049
 31
0.0
  0
LINE
  8
DETAIL
  6
CONTINUOUS
 62
     5
 10
-49.996595000000532
 20
-280.98086390000049
 30
0.0
 11
-45.996867400001072
 21
-280.98086390000049
 31
0.0
  0
LINE
  8
DETAIL
  6
CONTINUOUS
 62
     5
 10
-8.509985435022827
 20
-280.98086390000049
 30
0.0
 11
-42.997223994629167
 21
-280.98086390000049
 31
0.0
  0
LINE
  8
DETAIL
  6
CONTINUOUS
 62
     5
 10
20.99856989999898
 20
-280.98086390000049
 30
0.0
 11
7.7494722250012273
 21
-280.98086390000049
 31
0.0
  0
LINE
  8
DETAIL
  6
CONTINUOUS
 62
     5
 10
62.821459202765247
 20
-280.98086390000049
 30
0.0
 11
40.997207899999921
 21
-280.98086390000049
 31
0.0
  0
LINE
  8
DETAIL
  6
CONTINUOUS
 62
     5
 10
104.9930017941297
 20
-280.98086390000049
 30
0.0
 11
70.505763235021732
 21
-280.98086390000049
 31
0.0
  0
LINE
  8
DETAIL
  6
CONTINUOUS
 62
     5
 10
70.266893552157853
 20
-281.15540266260018
 30
0.0
 11
105.16754055672941
 21
-281.15540266260018
 31
0.0
  0
LINE
  8
DETAIL
  6
CONTINUOUS
 62
     5
 10
40.997207899999921
 20
-281.15540266260018
 30
0.0
 11
62.536390234283317
 21
-281.15540266260018
 31
0.0
  0
LINE
  8
DETAIL
  6
CONTINUOUS
 62
     5
 10
7.7494722250012273
 20
-281.15540266260018
 30
0.0
 11
20.99856989999898
 21
-281.15540266260018
 31
0.0
  0
LINE
  8
DETAIL
  6
CONTINUOUS
 62
     5
 10
-43.171762756726821
 20
-281.15540266260018
 30
0.0
 11
-8.2711157526573515
 21
-281.15540266260018
 31
0.0
  0
LINE
  8
DETAIL
  6
CONTINUOUS
 62
     5
 10
-102.1326848099816
 20
-283.2807072700017
 30
0.0
 11
-115.85190418751149
 21
-283.2807072700017
 31
0.0
  0
LINE
  8
DETAIL
  6
CONTINUOUS
 62
     5
 10
177.8482471900206
 20
-283.2807072700017
 30
0.0
 11
164.12846260998049
 21
-283.2807072700017
 31
0.0
  0
LINE
  8
DETAIL
  6
CONTINUOUS
 62
     5
 10
164.9887634999977
 20
-283.38070046000212
 30
0.0
 11
176.98794629999969
 21
-283.38070046000212
 31
0.0
  0
LINE
  8
DETAIL
  6
CONTINUOUS
 62
     5
 10
-114.9921685000008
 20
-283.38070046000212
 30
0.0
 11
-102.9929856999988
 21
-283.38070046000212
 31
0.0
  0
LINE
  8
DETAIL
  6
CONTINUOUS
 62
     5
 10
-145.42973607997919
 20
-283.98065960000167
 30
0.0
 11
-159.14829920570631
 21
-283.98065960000167
 31
0.0
  0
LINE
  8
DETAIL
  6
CONTINUOUS
 62
     5
 10
221.14461102633501
 20
-283.98065960000167
 30
0.0
 11
207.4262013136649
 21
-283.98065960000167
 31
0.0
  0
LINE
  8
DETAIL
  6
CONTINUOUS
 62
     5
 10
208.28581476999901
 20
-284.0806527900022
 30
0.0
 11
220.284997570001
 21
-284.0806527900022
 31
0.0
  0
LINE
  8
DETAIL
  6
CONTINUOUS
 62
     5
 10
-158.28921977000209
 20
-284.0806527900022
 30
0.0
 11
-146.2900369700001
 21
-284.0806527900022
 31
0.0
  0
LINE
  8
DETAIL
  6
CONTINUOUS
 62
     5
 10
164.9887634999977
 20
-284.38063236000028
 30
0.0
 11
176.98794629999969
 21
-284.38063236000028
 31
0.0
  0
LINE
  8
DETAIL
  6
CONTINUOUS
 62
     5
 10
-114.9921685000008
 20
-284.38063236000028
 30
0.0
 11
-102.9929856999988
 21
-284.38063236000028
 31
0.0
  0
LINE
  8
DETAIL
  6
CONTINUOUS
 62
     5
 10
166.28867497000101
 20
-284.88059830999919
 30
0.0
 11
175.68803483000011
 21
-284.88059830999919
 31
0.0
  0
LINE
  8
DETAIL
  6
CONTINUOUS
 62
     5
 10
-113.6922570300012
 20
-284.88059830999919
 30
0.0
 11
-104.29289717000211
 21
-284.88059830999919
 31
0.0
  0
LINE
  8
DETAIL
  6
CONTINUOUS
 62
     5
 10
208.28581476999901
 20
-285.08058469000042
 30
0.0
 11
220.284997570001
 21
-285.08058469000042
 31
0.0
  0
LINE
  8
DETAIL
  6
CONTINUOUS
 62
     5
 10
-158.28921977000209
 20
-285.08058469000042
 30
0.0
 11
-146.2900369700001
 21
-285.08058469000042
 31
0.0
  0
LINE
  8
DETAIL
  6
CONTINUOUS
 62
     5
 10
209.58572624000229
 20
-285.58055063999927
 30
0.0
 11
218.98508609999769
 21
-285.58055063999927
 31
0.0
  0
LINE
  8
DETAIL
  6
CONTINUOUS
 62
     5
 10
-156.98930829999881
 20
-285.58055063999927
 30
0.0
 11
-147.58994843999969
 21
-285.58055063999927
 31
0.0
  0
LINE
  8
DETAIL
  6
CONTINUOUS
 62
     5
 10
4.785119701653457
 20
-288.80578033739948
 30
0.0
 11
-48.822581221284047
 21
-288.80578033739948
 31
0.0
  0
LINE
  8
DETAIL
  6
CONTINUOUS
 62
     5
 10
42.863882188325078
 20
-288.80578033739948
 30
0.0
 11
19.131895611677461
 21
-288.80578033739948
 31
0.0
  0
LINE
  8
DETAIL
  6
CONTINUOUS
 62
     5
 10
110.8183590207846
 20
-288.80578033739948
 30
0.0
 11
57.210658098345448
 21
-288.80578033739948
 31
0.0
  0
LINE
  8
DETAIL
  6
CONTINUOUS
 62
     5
 10
5.2009833729098318
 20
-288.98031909999918
 30
0.0
 11
-48.997119983381708
 21
-288.98031909999918
 31
0.0
  0
LINE
  8
DETAIL
  6
CONTINUOUS
 62
     5
 10
41.918899664015044
 20
-288.98031909999918
 30
0.0
 11
20.076878135983861
 21
-288.98031909999918
 31
0.0
  0
LINE
  8
DETAIL
  6
CONTINUOUS
 62
     5
 10
110.99289778338429
 20
-288.98031909999918
 30
0.0
 11
56.79479442659067
 21
-288.98031909999918
 31
0.0
  0
LINE
  8
DETAIL
  6
CONTINUOUS
 62
     5
 10
-258.77402578467081
 20
-279.69010783697388
 30
0.0
 11
-287.18990254553501
 21
-281.7470663195636
 31
0.0
  0
LINE
  8
DETAIL
  6
CONTINUOUS
 62
     5
 10
136.30043204042519
 20
-274.48130655000199
 30
0.0
 11
136.30043204042519
 21
-279.48096604999978
 31
0.0
  0
LINE
  8
DETAIL
  6
CONTINUOUS
 62
     5
 10
123.6818619595724
 20
-274.48130655000199
 30
0.0
 11
123.6818619595724
 21
-279.48096604999978
 31
0.0
  0
LINE
  8
DETAIL
  6
CONTINUOUS
 62
     5
 10
-251.6092098428671
 20
-46.370496357634813
 30
0.0
 11
-249.98297499999899
 21
-47.996731200000802
 31
0.0
  0
LINE
  8
DETAIL
  6
CONTINUOUS
 62
     5
 10
113.9922365999992
 20
-279.48096604999978
 30
0.0
 11
113.9922365999992
 21
-285.98098028338438
 31
0.0
  0
LINE
  8
DETAIL
  6
CONTINUOUS
 62
     5
 10
113.81769783739951
 20
-285.80644152128662
 30
0.0
 11
113.81769783739951
 21
-279.48096604999978
 31
0.0
  0
LINE
  8
DETAIL
  6
CONTINUOUS
 62
     5
 10
111.9923727999994
 20
-279.48096604999978
 30
0.0
 11
111.9923727999994
 21
-280.98086390000049
 31
0.0
  0
LINE
  8
DETAIL
  6
CONTINUOUS
 62
     5
 10
111.83528791370919
 20
-279.48096604999978
 30
0.0
 11
111.83528791370919
 21
-280.82377901371012
 31
0.0
  0
LINE
  8
DETAIL
  6
CONTINUOUS
 62
     5
 10
108.1497300857918
 20
-279.48096604999978
 30
0.0
 11
108.1497300857918
 21
-280.82377901371012
 31
0.0
  0
LINE
  8
DETAIL
  6
CONTINUOUS
 62
     5
 10
107.9926452
 20
-279.48096604999978
 30
0.0
 11
107.9926452
 21
-280.98086390000049
 31
0.0
  0
LINE
  8
DETAIL
  6
CONTINUOUS
 62
     5
 10
106.16732016209789
 20
-279.48096604999978
 30
0.0
 11
106.16732016209789
 21
-280.15562305672938
 31
0.0
  0
LINE
  8
DETAIL
  6
CONTINUOUS
 62
     5
 10
105.9927814000002
 20
-279.48096604999978
 30
0.0
 11
105.9927814000002
 21
-279.98108429462809
 31
0.0
  0
LINE
  8
DETAIL
  6
CONTINUOUS
 62
     5
 10
-46.153952286291307
 20
-280.82377901371012
 30
0.0
 11
-45.996867400001072
 21
-280.98086390000049
 31
0.0
  0
LINE
  8
DETAIL
  6
CONTINUOUS
 62
     5
 10
259.31445924814398
 20
-256.13455660576437
 30
0.0
 11
260.95532733591608
 21
-254.7577170129226
 31
0.0
  0
LINE
  8
DETAIL
  6
CONTINUOUS
 62
     5
 10
57.329428933000599
 20
-283.97398477258679
 30
0.0
 11
57.329428933000599
 21
-282.98072769999999
 31
0.0
  0
LINE
  8
DETAIL
  6
CONTINUOUS
 62
     5
 10
57.172344047208753
 20
-284.05060455442441
 30
0.0
 11
57.172344047208753
 21
-283.13781258629018
 31
0.0
  0
LINE
  8
DETAIL
  6
CONTINUOUS
 62
     5
 10
51.196513279999643
 20
0.5999591399995552
 30
0.0
 11
51.196513279999643
 21
1.099925090002102
 31
0.0
  0
LINE
  8
DETAIL
  6
CONTINUOUS
 62
     5
 10
46.796812920001678
 20
0.5999591399995552
 30
0.0
 11
46.796812920001678
 21
1.099925090002102
 31
0.0
  0
LINE
  8
DETAIL
  6
CONTINUOUS
 62
     5
 10
40.997207899999921
 20
-279.48096604999978
 30
0.0
 11
40.997207899999921
 21
-282.28077537000001
 31
0.0
  0
LINE
  8
DETAIL
  6
CONTINUOUS
 62
     5
 10
31.997820799999321
 20
0.0
 30
0.0
 11
31.997820799999321
 21
3.8997344099989282
 31
0.0
  0
LINE
  8
DETAIL
  6
CONTINUOUS
 62
     5
 10
31.497854850000291
 20
0.0
 30
0.0
 11
31.497854850000291
 21
3.8997344099989282
 31
0.0
  0
LINE
  8
DETAIL
  6
CONTINUOUS
 62
     5
 10
28.49805914999888
 20
0.0
 30
0.0
 11
28.49805914999888
 21
3.8997344099989282
 31
0.0
  0
LINE
  8
DETAIL
  6
CONTINUOUS
 62
     5
 10
27.998093199999861
 20
0.0
 30
0.0
 11
27.998093199999861
 21
3.8997344099989282
 31
0.0
  0
LINE
  8
DETAIL
  6
CONTINUOUS
 62
     5
 10
20.99856989999898
 20
-279.48096604999978
 30
0.0
 11
20.99856989999898
 21
-282.28077537000001
 31
0.0
  0
LINE
  8
DETAIL
  6
CONTINUOUS
 62
     5
 10
6.3092850404282217
 20
-274.48130655000199
 30
0.0
 11
6.3092850404282217
 21
-279.48096604999978
 31
0.0
  0
LINE
  8
DETAIL
  6
CONTINUOUS
 62
     5
 10
108.1497300857918
 20
-280.82377901371012
 30
0.0
 11
107.9926452
 21
-280.98086390000049
 31
0.0
  0
LINE
  8
DETAIL
  6
CONTINUOUS
 62
     5
 10
-6.3092850404282217
 20
-274.48130655000199
 30
0.0
 11
-6.3092850404282217
 21
-279.48096604999978
 31
0.0
  0
LINE
  8
DETAIL
  6
CONTINUOUS
 62
     5
 10
-259.31445924814398
 20
-256.13455660576437
 30
0.0
 11
-260.95532733641812
 21
-254.7577170129226
 31
0.0
  0
LINE
  8
DETAIL
  6
CONTINUOUS
 62
     5
 10
57.172344047208753
 20
-283.13781258629018
 30
0.0
 11
57.329428933000599
 21
-282.98072769999999
 31
0.0
  0
LINE
  8
DETAIL
  6
CONTINUOUS
 62
     5
 10
-43.997003600001342
 20
-279.98108429462809
 30
0.0
 11
-43.997003600001342
 21
-279.48096604999978
 31
0.0
  0
LINE
  8
DETAIL
  6
CONTINUOUS
 62
     5
 10
-44.171542362601031
 20
-279.48096604999978
 30
0.0
 11
-44.171542362601031
 21
-280.15562305672938
 31
0.0
  0
LINE
  8
DETAIL
  6
CONTINUOUS
 62
     5
 10
-45.996867400001072
 20
-279.48096604999978
 30
0.0
 11
-45.996867400001072
 21
-280.98086390000049
 31
0.0
  0
LINE
  8
DETAIL
  6
CONTINUOUS
 62
     5
 10
-46.153952286291307
 20
-279.48096604999978
 30
0.0
 11
-46.153952286291307
 21
-280.82377901371012
 31
0.0
  0
LINE
  8
DETAIL
  6
CONTINUOUS
 62
     5
 10
-49.839510114208679
 20
-279.48096604999978
 30
0.0
 11
-49.839510114208679
 21
-280.82377901371012
 31
0.0
  0
LINE
  8
DETAIL
  6
CONTINUOUS
 62
     5
 10
-49.996595000000532
 20
-279.48096604999978
 30
0.0
 11
-49.996595000000532
 21
-280.98086390000049
 31
0.0
  0
LINE
  8
DETAIL
  6
CONTINUOUS
 62
     5
 10
-51.821920037898963
 20
-285.80644152128662
 30
0.0
 11
-51.821920037898963
 21
-279.48096604999978
 31
0.0
  0
LINE
  8
DETAIL
  6
CONTINUOUS
 62
     5
 10
-51.996458800000248
 20
-285.98098028338438
 30
0.0
 11
-51.996458800000248
 21
-279.48096604999978
 31
0.0
  0
LINE
  8
DETAIL
  6
CONTINUOUS
 62
     5
 10
249.98297499999899
 20
-47.996731200000802
 30
0.0
 11
251.60920984236509
 21
-46.370496357634813
 31
0.0
  0
LINE
  8
DETAIL
  6
CONTINUOUS
 62
     5
 10
-102.06636008050189
 20
-279.48096604999978
 30
0.0
 11
-102.1326848099816
 21
-283.2807072700017
 31
0.0
  0
LINE
  8
DETAIL
  6
CONTINUOUS
 62
     5
 10
-102.9929856999988
 20
-284.38063236000028
 30
0.0
 11
-102.9929856999988
 21
-283.38070046000212
 31
0.0
  0
LINE
  8
DETAIL
  6
CONTINUOUS
 62
     5
 10
-104.29289717000211
 20
-284.88059830999919
 30
0.0
 11
-104.29289717000211
 21
-284.38063236000028
 31
0.0
  0
LINE
  8
DETAIL
  6
CONTINUOUS
 62
     5
 10
-49.839510114208679
 20
-280.82377901371012
 30
0.0
 11
-49.996595000000532
 21
-280.98086390000049
 31
0.0
  0
LINE
  8
DETAIL
  6
CONTINUOUS
 62
     5
 10
-104.6410902714379
 20
-283.27854881600081
 30
0.0
 11
-104.6428733350003
 21
-283.38070046000212
 31
0.0
  0
LINE
  8
DETAIL
  6
CONTINUOUS
 62
     5
 10
-113.6922570300012
 20
-284.88059830999919
 30
0.0
 11
-113.6922570300012
 21
-284.38063236000028
 31
0.0
  0
LINE
  8
DETAIL
  6
CONTINUOUS
 62
     5
 10
-114.9921685000008
 20
-284.38063236000028
 30
0.0
 11
-114.9921685000008
 21
-283.38070046000212
 31
0.0
  0
LINE
  8
DETAIL
  6
CONTINUOUS
 62
     5
 10
-123.6818619595724
 20
-274.48130655000199
 30
0.0
 11
-123.6818619595724
 21
-279.48096604999978
 31
0.0
  0
LINE
  8
DETAIL
  6
CONTINUOUS
 62
     5
 10
-136.30043204042519
 20
-274.48130655000199
 30
0.0
 11
-136.30043204042519
 21
-279.48096604999978
 31
0.0
  0
LINE
  8
DETAIL
  6
CONTINUOUS
 62
     5
 10
-113.344026252631
 20
-283.2807072700017
 30
0.0
 11
-113.3422808649993
 21
-283.38070046000212
 31
0.0
  0
LINE
  8
DETAIL
  6
CONTINUOUS
 62
     5
 10
-115.88798636715001
 20
-281.24594103401608
 30
0.0
 11
-115.8524693900181
 21
-283.2807072700017
 31
0.0
  0
LINE
  8
DETAIL
  6
CONTINUOUS
 62
     5
 10
-145.95712347545489
 20
-279.98397556122302
 30
0.0
 11
-145.8993124321496
 21
-279.98093441283709
 31
0.0
  0
LINE
  8
DETAIL
  6
CONTINUOUS
 62
     5
 10
-146.00855629213771
 20
-279.99179668006758
 30
0.0
 11
-145.95712347545489
 21
-279.98397556122302
 31
0.0
  0
LINE
  8
DETAIL
  6
CONTINUOUS
 62
     5
 10
-146.0587184158685
 20
-280.00401530991797
 30
0.0
 11
-146.00855629213771
 21
-279.99179668006758
 31
0.0
  0
LINE
  8
DETAIL
  6
CONTINUOUS
 62
     5
 10
-146.10530677998389
 20
-280.01938786447857
 30
0.0
 11
-146.0587184158685
 21
-280.00401530991797
 31
0.0
  0
LINE
  8
DETAIL
  6
CONTINUOUS
 62
     5
 10
-146.13762587440209
 20
-280.03295714184787
 30
0.0
 11
-146.1020523156258
 21
-280.01821637726238
 31
0.0
  0
LINE
  8
DETAIL
  6
CONTINUOUS
 62
     5
 10
-146.30443774973901
 20
-280.2044579943431
 30
0.0
 11
-146.2579803067056
 21
-280.12855749902172
 31
0.0
  0
LINE
  8
DETAIL
  6
CONTINUOUS
 62
     5
 10
-146.34576553612709
 20
-280.31561494904258
 30
0.0
 11
-146.30443774973901
 21
-280.2044579943431
 31
0.0
  0
LINE
  8
DETAIL
  6
CONTINUOUS
 62
     5
 10
-146.37464571725289
 20
-280.46037083649207
 30
0.0
 11
-146.34576553612709
 21
-280.31561494904258
 31
0.0
  0
LINE
  8
DETAIL
  6
CONTINUOUS
 62
     5
 10
-146.3864750271205
 20
-280.62338962015559
 30
0.0
 11
-146.37464571725289
 21
-280.46037083649207
 31
0.0
  0
LINE
  8
DETAIL
  6
CONTINUOUS
 62
     5
 10
-145.39421910334929
 20
-281.94589336401617
 30
0.0
 11
-145.42973607997919
 21
-283.98065960000167
 31
0.0
  0
LINE
  8
DETAIL
  6
CONTINUOUS
 62
     5
 10
-147.9381415414318
 20
-283.97850114600078
 30
0.0
 11
-147.93992460500161
 21
-284.0806527900022
 31
0.0
  0
LINE
  8
DETAIL
  6
CONTINUOUS
 62
     5
 10
-150.87176373865441
 20
-279.48096604999978
 30
0.0
 11
-150.87313312139671
 21
-279.55941795606122
 31
0.0
  0
LINE
  8
DETAIL
  6
CONTINUOUS
 62
     5
 10
-146.2900369700001
 20
-285.08058469000042
 30
0.0
 11
-146.2900369700001
 21
-284.0806527900022
 31
0.0
  0
LINE
  8
DETAIL
  6
CONTINUOUS
 62
     5
 10
-147.58994843999969
 20
-285.58055063999927
 30
0.0
 11
-147.58994843999969
 21
-285.08058469000042
 31
0.0
  0
LINE
  8
DETAIL
  6
CONTINUOUS
 62
     5
 10
-156.98930829999881
 20
-285.58055063999927
 30
0.0
 11
-156.98930829999881
 21
-285.08058469000042
 31
0.0
  0
LINE
  8
DETAIL
  6
CONTINUOUS
 62
     5
 10
-158.28921977000209
 20
-285.08058469000042
 30
0.0
 11
-158.28921977000209
 21
-284.0806527900022
 31
0.0
  0
LINE
  8
DETAIL
  6
CONTINUOUS
 62
     5
 10
-160.78904951999721
 20
0.5999591399995552
 30
0.0
 11
-160.78904951999721
 21
1.099925090002102
 31
0.0
  0
LINE
  8
DETAIL
  6
CONTINUOUS
 62
     5
 10
-165.1887498799988
 20
0.5999591399995552
 30
0.0
 11
-165.1887498799988
 21
1.099925090002102
 31
0.0
  0
LINE
  8
DETAIL
  6
CONTINUOUS
 62
     5
 10
-167.18861368000219
 20
0.5999591399995552
 30
0.0
 11
-167.18861368000219
 21
1.099925090002102
 31
0.0
  0
LINE
  8
DETAIL
  6
CONTINUOUS
 62
     5
 10
-153.70612361860549
 20
-279.55941795606122
 30
0.0
 11
-153.70749300184249
 21
-279.48096604999978
 31
0.0
  0
LINE
  8
DETAIL
  6
CONTINUOUS
 62
     5
 10
-156.64107752263229
 20
-283.98065960000167
 30
0.0
 11
-156.63933213500059
 21
-284.0806527900022
 31
0.0
  0
LINE
  8
DETAIL
  6
CONTINUOUS
 62
     5
 10
-159.22806310341551
 20
-279.48096604999978
 30
0.0
 11
-159.14952066001931
 21
-283.98065960000167
 31
0.0
  0
LINE
  8
DETAIL
  6
CONTINUOUS
 62
     5
 10
-146.2051562037741
 20
-280.07453962538779
 30
0.0
 11
-146.13762587440209
 21
-280.03295714184787
 31
0.0
  0
LINE
  8
DETAIL
  6
CONTINUOUS
 62
     5
 10
-146.2579803067056
 20
-280.12855749902172
 30
0.0
 11
-146.2051562037741
 21
-280.07453962538779
 31
0.0
  0
LINE
  8
DETAIL
  6
CONTINUOUS
 62
     5
 10
-214.7853721200008
 20
0.5999591399995552
 30
0.0
 11
-214.7853721200008
 21
1.099925090002102
 31
0.0
  0
LINE
  8
DETAIL
  6
CONTINUOUS
 62
     5
 10
-214.98535849999831
 20
1.099925090002102
 30
0.0
 11
-214.98535849999831
 21
3.8997344099989282
 31
0.0
  0
LINE
  8
DETAIL
  6
CONTINUOUS
 62
     5
 10
-215.48532445000089
 20
1.099925090002102
 30
0.0
 11
-215.48532445000089
 21
3.8997344099989282
 31
0.0
  0
LINE
  8
DETAIL
  6
CONTINUOUS
 62
     5
 10
-218.48512014999869
 20
1.099925090002102
 30
0.0
 11
-218.48512014999869
 21
3.8997344099989282
 31
0.0
  0
LINE
  8
DETAIL
  6
CONTINUOUS
 62
     5
 10
-218.98508609999769
 20
1.099925090002102
 30
0.0
 11
-218.98508609999769
 21
3.8997344099989282
 31
0.0
  0
LINE
  8
DETAIL
  6
CONTINUOUS
 62
     5
 10
-219.18507247999881
 20
0.5999591399995552
 30
0.0
 11
-219.18507247999881
 21
1.099925090002102
 31
0.0
  0
LINE
  8
DETAIL
  6
CONTINUOUS
 62
     5
 10
-233.38410545999801
 20
-272.48144274999868
 30
0.0
 11
-233.38410545999801
 21
-274.49380610822118
 31
0.0
  0
LINE
  8
DETAIL
  6
CONTINUOUS
 62
     5
 10
-248.48307715000189
 20
0.0
 30
0.0
 11
-248.48307715000189
 21
-1.1999182799991099
 31
0.0
  0
LINE
  8
DETAIL
  6
CONTINUOUS
 62
     5
 10
-248.63306693499911
 20
-1.649887635001392
 30
0.0
 11
-248.63306693499911
 21
-1.099925090002102
 31
0.0
  0
LINE
  8
DETAIL
  6
CONTINUOUS
 62
     5
 10
-249.3830158599994
 20
-1.1999182799991099
 30
0.0
 11
-249.3830158599994
 21
-1.4998978500005931
 31
0.0
  0
LINE
  8
DETAIL
  6
CONTINUOUS
 62
     5
 10
-249.98297499999899
 20
-1.1999182799991099
 30
0.0
 11
-249.98297499999899
 21
-234.78401012000191
 31
0.0
  0
LINE
  8
DETAIL
  6
CONTINUOUS
 62
     5
 10
-250.08296818999949
 20
-81.794429420002416
 30
0.0
 11
-250.08296818999949
 21
-77.994688200000496
 31
0.0
  0
LINE
  8
DETAIL
  6
CONTINUOUS
 62
     5
 10
-250.48294095000159
 20
-81.794429420002416
 30
0.0
 11
-250.48294095000159
 21
-77.994688200000496
 31
0.0
  0
LINE
  8
DETAIL
  6
CONTINUOUS
 62
     5
 10
-251.38287965999919
 20
-269.48151085000057
 30
0.0
 11
-251.38287965999919
 21
-242.28349937000169
 31
0.0
  0
LINE
  8
DETAIL
  6
CONTINUOUS
 62
     5
 10
-252.28281837000031
 20
-35.397589259999222
 30
0.0
 11
-252.28281837000031
 21
-32.950447115232237
 31
0.0
  0
LINE
  8
DETAIL
  6
CONTINUOUS
 62
     5
 10
-252.28281837000031
 20
-42.297119370003202
 30
0.0
 11
-252.28281837000031
 21
-44.744261514770187
 31
0.0
  0
LINE
  8
DETAIL
  6
CONTINUOUS
 62
     5
 10
-252.8827775099999
 20
-242.28349937000169
 30
0.0
 11
-252.8827775099999
 21
-257.34059525893849
 31
0.0
  0
LINE
  8
DETAIL
  6
CONTINUOUS
 62
     5
 10
-252.9827707000004
 20
-234.78401012000191
 30
0.0
 11
-252.9827707000004
 21
-67.995369200001733
 31
0.0
  0
LINE
  8
DETAIL
  6
CONTINUOUS
 62
     5
 10
-259.31438836597232
 20
-256.13481520415007
 30
0.0
 11
-257.39714695550362
 21
-278.04898480006523
 31
0.0
  0
LINE
  8
DETAIL
  6
CONTINUOUS
 62
     5
 10
-260.95532733641812
 20
-254.7577170129226
 30
0.0
 11
-258.77402578467081
 21
-279.69010783697388
 31
0.0
  0
LINE
  8
DETAIL
  6
CONTINUOUS
 62
     5
 10
-257.39717185580957
 20
-278.04925177838612
 30
0.0
 11
-258.77402578467081
 21
-279.69010783697388
 31
0.0
  0
LINE
  8
DETAIL
  6
CONTINUOUS
 62
     5
 10
-254.582661739998
 20
-39.997276000001882
 30
0.0
 11
-254.582661739998
 21
-29.997956999999591
 31
0.0
  0
LINE
  8
DETAIL
  6
CONTINUOUS
 62
     5
 10
-254.582661739998
 20
-47.696751629999198
 30
0.0
 11
-254.582661739998
 21
-39.997276000001882
 31
0.0
  0
LINE
  8
DETAIL
  6
CONTINUOUS
 62
     5
 10
-254.88264131000321
 20
-234.78401012000191
 30
0.0
 11
-254.88264131000321
 21
-229.3843778600021
 31
0.0
  0
LINE
  8
DETAIL
  6
CONTINUOUS
 62
     5
 10
-255.38260726000229
 20
-234.78401012000191
 30
0.0
 11
-255.38260726000229
 21
-229.3843778600021
 31
0.0
  0
LINE
  8
DETAIL
  6
CONTINUOUS
 62
     5
 10
-258.38240295999998
 20
-234.78401012000191
 30
0.0
 11
-258.38240295999998
 21
-229.3843778600021
 31
0.0
  0
LINE
  8
DETAIL
  6
CONTINUOUS
 62
     5
 10
-258.88236890999912
 20
-234.78401012000191
 30
0.0
 11
-258.88236890999912
 21
-229.3843778600021
 31
0.0
  0
LINE
  8
DETAIL
  6
CONTINUOUS
 62
     5
 10
-263.48205564999807
 20
-47.696751629999198
 30
0.0
 11
-263.48205564999807
 21
-39.997276000001882
 31
0.0
  0
LINE
  8
DETAIL
  6
CONTINUOUS
 62
     5
 10
-263.48205564999807
 20
-29.997956999999591
 30
0.0
 11
-263.48205564999807
 21
-39.997276000001882
 31
0.0
  0
LINE
  8
DETAIL
  6
CONTINUOUS
 62
     5
 10
-275.78121801999811
 20
-255.88257321000131
 30
0.0
 11
-275.78121801999811
 21
-251.28288647000241
 31
0.0
  0
LINE
  8
DETAIL
  6
CONTINUOUS
 62
     5
 10
-275.98120439999911
 20
-251.28288647000241
 30
0.0
 11
-275.98120439999911
 21
-234.78401012000191
 31
0.0
  0
LINE
  8
DETAIL
  6
CONTINUOUS
 62
     5
 10
-276.38117716000119
 20
-255.2826140700017
 30
0.0
 11
-276.38117716000119
 21
-235.2839760700044
 31
0.0
  0
LINE
  8
DETAIL
  6
CONTINUOUS
 62
     5
 10
-276.38117716000119
 20
-230.28431656999959
 30
0.0
 11
-276.38117716000119
 21
-235.2839760700044
 31
0.0
  0
LINE
  8
DETAIL
  6
CONTINUOUS
 62
     5
 10
-276.48117034999808
 20
-37.697432630000662
 30
0.0
 11
-276.48117034999808
 21
-29.997956999999591
 31
0.0
  0
LINE
  8
DETAIL
  6
CONTINUOUS
 62
     5
 10
-276.48117034999808
 20
-47.696751629999198
 30
0.0
 11
-276.48117034999808
 21
-37.697432630000662
 31
0.0
  0
LINE
  8
DETAIL
  6
CONTINUOUS
 62
     5
 10
-277.58109544000041
 20
-230.28431656999959
 30
0.0
 11
-277.58109544000041
 21
-235.2839760700044
 31
0.0
  0
LINE
  8
DETAIL
  6
CONTINUOUS
 62
     5
 10
-289.98025100000092
 20
-47.696751629999198
 30
0.0
 11
-289.98025100000092
 21
-37.697432630000662
 31
0.0
  0
LINE
  8
DETAIL
  6
CONTINUOUS
 62
     5
 10
-289.98025100000092
 20
-29.997956999999591
 30
0.0
 11
-289.98025100000092
 21
-37.697432630000662
 31
0.0
  0
LINE
  8
DETAIL
  6
CONTINUOUS
 62
     5
 10
-287.18993105109257
 20
-281.74674050175241
 30
0.0
 11
-289.28146941912928
 21
-257.84034756398609
 31
0.0
  0
LINE
  8
DETAIL
  6
CONTINUOUS
 62
     5
 10
-249.98297499999899
 20
-29.697977430001739
 30
0.0
 11
-251.6092098428671
 21
-31.324212272866131
 31
0.0
  0
LINE
  8
BASIS
  6
DASHDOT
 62
     6
 10
-227.95239062348989
 20
-99.99319000000105
 30
0.0
 11
-47.996731200000802
 21
-99.99319000000105
 31
0.0
  0
LINE
  8
BASIS
  6
DASHDOT
 62
     6
 10
65.52190503408201
 20
-89.155772388121932
 30
0.0
 11
245.47756445757111
 21
-89.155772388121932
 31
0.0
  0
LINE
  8
BASIS
  6
DASHDOT
 62
     6
 10
159.18915847999961
 20
-176.61965993397689
 30
0.0
 11
159.18915847999961
 21
36.483570716156123
 31
0.0
  0
LINE
  8
BASIS
  6
DASHDOT
 62
     6
 10
-132.99094269999841
 20
-195.38744687892549
 30
0.0
 11
-132.99094269999841
 21
37.356634522682612
 31
0.0
  0
LINE
  8
BASIS
  6
DASHDOT
 62
     6
 10
0.0
 20
-313.48438377584529
 30
0.0
 11
0.0
 21
56.702937508718612
 31
0.0
  0
LINE
  8
DETAIL
  6
CONTINUOUS
 62
     5
 10
-276.48117034999808
 20
-37.697432630000662
 30
0.0
 11
-263.48205564999807
 21
-37.697432630000662
 31
0.0
  0
LINE
  8
DETAIL
  6
CONTINUOUS
 62
     5
 10
276.48117034999808
 20
-37.697432630000662
 30
0.0
 11
263.48205564999807
 21
-37.697432630000662
 31
0.0
  0
LINE
  8
DETAIL
  6
CONTINUOUS
 62
     5
 10
-276.48117034999808
 20
-39.997276000001882
 30
0.0
 11
-263.48205564999807
 21
-39.997276000001882
 31
0.0
  0
LINE
  8
DETAIL
  6
CONTINUOUS
 62
     5
 10
276.48117034999808
 20
-39.997276000001882
 30
0.0
 11
263.48205564999807
 21
-39.997276000001882
 31
0.0
  0
LINE
  8
DETAIL
  6
CONTINUOUS
 62
     5
 10
218.63510993499949
 20
-283.98065960000167
 30
0.0
 11
218.63510993499949
 21
-284.0806527900022
 31
0.0
  0
LINE
  8
DETAIL
  6
CONTINUOUS
 62
     5
 10
209.93570240500051
 20
-283.98065960000167
 30
0.0
 11
209.93570240500051
 21
-284.0806527900022
 31
0.0
  0
LINE
  8
DETAIL
  6
CONTINUOUS
 62
     5
 10
-122.24167477500301
 20
-288.48035315000038
 30
0.0
 11
-137.74061922500189
 21
-288.48035315000038
 31
0.0
  0
LINE
  8
DETAIL
  6
CONTINUOUS
 62
     5
 10
7.7494722250012273
 20
-288.48035315000038
 30
0.0
 11
-7.7494722250012273
 21
-288.48035315000038
 31
0.0
  0
LINE
  8
DETAIL
  6
CONTINUOUS
 62
     5
 10
137.74061922500189
 20
-288.48035315000038
 30
0.0
 11
122.2416747749994
 21
-288.48035315000038
 31
0.0
  0
LINE
  8
DETAIL
  6
CONTINUOUS
 62
     5
 10
137.74061922500189
 20
-279.48096604999978
 30
0.0
 11
137.74061922500189
 21
-288.48035315000038
 31
0.0
  0
LINE
  8
DETAIL
  6
CONTINUOUS
 62
     5
 10
122.2416747749994
 20
-279.48096604999978
 30
0.0
 11
122.2416747749994
 21
-288.48035315000038
 31
0.0
  0
LINE
  8
DETAIL
  6
CONTINUOUS
 62
     5
 10
7.7494722250012273
 20
-279.48096604999978
 30
0.0
 11
7.7494722250012273
 21
-288.48035315000038
 31
0.0
  0
LINE
  8
DETAIL
  6
CONTINUOUS
 62
     5
 10
-7.7494722250012273
 20
-279.48096604999978
 30
0.0
 11
-7.7494722250012273
 21
-288.48035315000038
 31
0.0
  0
LINE
  8
DETAIL
  6
CONTINUOUS
 62
     5
 10
-122.24167477500301
 20
-279.48096604999978
 30
0.0
 11
-122.24167477500301
 21
-288.48035315000038
 31
0.0
  0
LINE
  8
DETAIL
  6
CONTINUOUS
 62
     5
 10
-137.74061922500189
 20
-279.48096604999978
 30
0.0
 11
-137.74061922500189
 21
-288.48035315000038
 31
0.0
  0
ARC
  8
DETAIL
  6
CONTINUOUS
 62
     5
 10
-364.7254329249954
 20
-104.4928835499996
 30
0.0
 40
0.4999659500008091
 50
90.0
 51
180.0
  0
ARC
  8
DETAIL
  6
CONTINUOUS
 62
     5
 10
-338.91709297664062
 20
-102.4930197499999
 30
0.0
 40
1.499897849999605
 50
270.0
 51
319.39870535957101
  0
ARC
  8
DETAIL
  6
CONTINUOUS
 62
     5
 10
-334.30763467313233
 20
-102.4930197499999
 30
0.0
 40
1.999863800000645
 50
90.0
 51
139.39870535503019
  0
ARC
  8
DETAIL
  6
CONTINUOUS
 62
     5
 10
-364.7254329249954
 20
-201.4862778499992
 30
0.0
 40
0.4999659500010954
 50
180.0
 51
270.0
  0
ARC
  8
DETAIL
  6
CONTINUOUS
 62
     5
 10
-364.7254329249954
 20
-215.28533806999999
 30
0.0
 40
0.499965949999541
 50
180.0
 51
270.0
  0
ARC
  8
DETAIL
  6
CONTINUOUS
 62
     5
 10
-338.91709297664062
 20
-203.48614165000251
 30
0.0
 40
1.4998978499997959
 50
40.601294662427208
 51
90.0
  0
ARC
  8
DETAIL
  6
CONTINUOUS
 62
     5
 10
-338.91709297664062
 20
-217.28520186999961
 30
0.0
 40
1.4998978500005731
 50
40.601298670452692
 51
90.0
  0
ARC
  8
DETAIL
  6
CONTINUOUS
 62
     5
 10
-334.30763467313233
 20
-203.48614165000251
 30
0.0
 40
1.999863799998955
 50
220.6012946431407
 51
270.0
  0
ARC
  8
DETAIL
  6
CONTINUOUS
 62
     5
 10
-334.30763467313233
 20
-217.28520186999961
 30
0.0
 40
1.99986379999935
 50
220.60129361597629
 51
270.0
  0
ARC
  8
DETAIL
  6
CONTINUOUS
 62
     5
 10
339.21680014615049
 20
-102.4930197499999
 30
0.0
 40
1.4998978500001909
 50
220.6012946623855
 51
270.0
  0
ARC
  8
DETAIL
  6
CONTINUOUS
 62
     5
 10
334.6073418431406
 20
-102.4930197499999
 30
0.0
 40
1.9998638000001141
 50
40.601294643209911
 51
90.0
  0
ARC
  8
DETAIL
  6
CONTINUOUS
 62
     5
 10
364.02514009500368
 20
-104.4928835499996
 30
0.0
 40
0.4999659500007136
 50
0.0
 51
90.0
  0
ARC
  8
DETAIL
  6
CONTINUOUS
 62
     5
 10
364.02514009500368
 20
-201.4862778499992
 30
0.0
 40
0.499965949999541
 50
270.0
 51
0.0
  0
ARC
  8
DETAIL
  6
CONTINUOUS
 62
     5
 10
339.21680014318639
 20
-116.4924068500043
 30
0.0
 40
1.499897850000641
 50
220.60129464038991
 51
270.0
  0
ARC
  8
DETAIL
  6
CONTINUOUS
 62
     5
 10
334.60734184017662
 20
-116.4924068500043
 30
0.0
 40
1.9998637999997999
 50
40.601294644993168
 51
90.0
  0
ARC
  8
DETAIL
  6
CONTINUOUS
 62
     5
 10
364.02514009500368
 20
-215.28533806999999
 30
0.0
 40
0.499965949999541
 50
270.0
 51
0.0
  0
ARC
  8
DETAIL
  6
CONTINUOUS
 62
     5
 10
339.21680014615049
 20
-217.28520186999961
 30
0.0
 40
1.4998978500003819
 50
90.0
 51
139.39870132958399
  0
ARC
  8
DETAIL
  6
CONTINUOUS
 62
     5
 10
334.6073418431406
 20
-217.28520186999961
 30
0.0
 40
1.9998637999990769
 50
270.0
 51
319.39870638399623
  0
LINE
  8
DETAIL
  6
CONTINUOUS
 62
     5
 10
-365.22539887499443
 20
-104.54171649675121
 30
0.0
 11
-365.22539887499443
 21
-215.28533806999999
 31
0.0
  0
LINE
  8
DETAIL
  6
CONTINUOUS
 62
     5
 10
-364.7254329249954
 20
-103.9929176000006
 30
0.0
 11
-364.7254329249954
 21
-215.7853040199989
 31
0.0
  0
LINE
  8
DETAIL
  6
CONTINUOUS
 62
     5
 10
-338.91709297664062
 20
-215.7853040195005
 30
0.0
 11
-338.91709297664062
 21
-103.9929176000006
 31
0.0
  0
LINE
  8
DETAIL
  6
CONTINUOUS
 62
     5
 10
-337.7782857002021
 20
-216.30908120684401
 30
0.0
 11
-337.77828563020739
 21
-103.46914033116261
 31
0.0
  0
LINE
  8
DETAIL
  6
CONTINUOUS
 62
     5
 10
-335.82604446737969
 20
-101.1915256407847
 30
0.0
 11
-335.82604449037899
 21
-218.5866959517152
 31
0.0
  0
LINE
  8
DETAIL
  6
CONTINUOUS
 62
     5
 10
-334.30763467313233
 20
-100.4931559500001
 30
0.0
 11
-334.30763467512952
 21
-219.2850656699994
 31
0.0
  0
LINE
  8
DETAIL
  6
CONTINUOUS
 62
     5
 10
-335.82604449037899
 20
-218.5866959517152
 30
0.0
 11
-337.77828569970012
 21
-216.3090812083428
 31
0.0
  0
LINE
  8
DETAIL
  6
CONTINUOUS
 62
     5
 10
-335.82604446737969
 20
-115.2123642407857
 30
0.0
 11
-337.7782856312042
 21
-117.48997893216411
 31
0.0
  0
LINE
  8
DETAIL
  6
CONTINUOUS
 62
     5
 10
-335.82604446737969
 20
-101.1915256407847
 30
0.0
 11
-337.7782856307058
 21
-103.469140331661
 31
0.0
  0
LINE
  8
DETAIL
  6
CONTINUOUS
 62
     5
 10
304.7388732703771
 20
-89.9938710000024
 30
0.0
 11
254.63265833500191
 21
-89.9938710000024
 31
0.0
  0
LINE
  8
DETAIL
  6
CONTINUOUS
 62
     5
 10
-304.43916610037172
 20
-89.9938710000024
 30
0.0
 11
-250.33295116499721
 21
-89.9938710000024
 31
0.0
  0
LINE
  8
DETAIL
  6
CONTINUOUS
 62
     5
 10
-315.1289830197602
 20
-100.4931559500001
 30
0.0
 11
-334.30763467313233
 21
-100.4931559500001
 31
0.0
  0
LINE
  8
DETAIL
  6
CONTINUOUS
 62
     5
 10
315.42869418599372
 20
-100.4931559500001
 30
0.0
 11
334.6073418431406
 21
-100.4931559500001
 31
0.0
  0
LINE
  8
DETAIL
  6
CONTINUOUS
 62
     5
 10
-338.91709297664062
 20
-103.9929176000006
 30
0.0
 11
-364.7254329249954
 21
-103.9929176000006
 31
0.0
  0
LINE
  8
DETAIL
  6
CONTINUOUS
 62
     5
 10
339.21680014615049
 20
-103.9929176000006
 30
0.0
 11
364.02514009500368
 21
-103.9929176000006
 31
0.0
  0
LINE
  8
DETAIL
  6
CONTINUOUS
 62
     5
 10
304.15453143778592
 20
-109.9928495000061
 30
0.0
 11
254.63265833351991
 21
-109.9928495000061
 31
0.0
  0
LINE
  8
DETAIL
  6
CONTINUOUS
 62
     5
 10
-249.98297499999899
 20
-110.0143010000028
 30
0.0
 11
-303.85482426975801
 21
-110.0143010000028
 31
0.0
  0
LINE
  8
DETAIL
  6
CONTINUOUS
 62
     5
 10
-338.91709297664062
 20
-118.01375620000159
 30
0.0
 11
-364.7254329249954
 21
-118.01375620000159
 31
0.0
  0
LINE
  8
DETAIL
  6
CONTINUOUS
 62
     5
 10
339.21680014466853
 20
-117.99230470000489
 30
0.0
 11
364.02514009352171
 21
-117.99230470000489
 31
0.0
  0
LINE
  8
DETAIL
  6
CONTINUOUS
 62
     5
 10
-315.12898701648737
 20
-114.5139945500011
 30
0.0
 11
-334.30763467313233
 21
-114.5139945500011
 31
0.0
  0
LINE
  8
DETAIL
  6
CONTINUOUS
 62
     5
 10
315.42869018828293
 20
-114.4925430500045
 30
0.0
 11
334.60734184165858
 21
-114.4925430500045
 31
0.0
  0
LINE
  8
DETAIL
  6
CONTINUOUS
 62
     5
 10
-338.91709297664062
 20
-215.7853040199989
 30
0.0
 11
-364.7254329249954
 21
-215.7853040199989
 31
0.0
  0
LINE
  8
DETAIL
  6
CONTINUOUS
 62
     5
 10
339.21680014615049
 20
-215.7853040199989
 30
0.0
 11
364.02514009500368
 21
-215.7853040199989
 31
0.0
  0
LINE
  8
DETAIL
  6
CONTINUOUS
 62
     5
 10
-313.95546799857402
 20
-219.2850656699994
 30
0.0
 11
-334.30763467512952
 21
-219.2850656699994
 31
0.0
  0
LINE
  8
DETAIL
  6
CONTINUOUS
 62
     5
 10
314.25517516808031
 20
-219.2850656699994
 30
0.0
 11
334.60734184514149
 21
-219.2850656699994
 31
0.0
  0
LINE
  8
DETAIL
  6
CONTINUOUS
 62
     5
 10
307.106390074503
 20
-221.78489541999809
 30
0.0
 11
254.63265833500191
 21
-221.78489541999809
 31
0.0
  0
LINE
  8
DETAIL
  6
CONTINUOUS
 62
     5
 10
-306.80668290449472
 20
-221.78489541999809
 30
0.0
 11
-250.33295116499721
 21
-221.78489541999809
 31
0.0
  0
LINE
  8
DETAIL
  6
CONTINUOUS
 62
     5
 10
336.12575163689331
 20
-101.1915256407847
 30
0.0
 11
338.07799280121623
 21
-103.4691403321594
 31
0.0
  0
LINE
  8
DETAIL
  6
CONTINUOUS
 62
     5
 10
336.12575163392921
 20
-115.1909127407927
 30
0.0
 11
338.07799279775008
 21
-117.4685274316691
 31
0.0
  0
LINE
  8
DETAIL
  6
CONTINUOUS
 62
     5
 10
336.12575166038732
 20
-218.5866959517152
 30
0.0
 11
338.07799286920999
 21
-216.3090812083428
 31
0.0
  0
LINE
  8
DETAIL
  6
CONTINUOUS
 62
     5
 10
334.60734184514149
 20
-219.2850656699994
 30
0.0
 11
334.6073418431406
 21
-100.4931559500001
 31
0.0
  0
LINE
  8
DETAIL
  6
CONTINUOUS
 62
     5
 10
336.12575166038732
 20
-218.5866959517152
 30
0.0
 11
336.12575163689331
 21
-101.1915256407847
 31
0.0
  0
LINE
  8
DETAIL
  6
CONTINUOUS
 62
     5
 10
338.07799280121623
 20
-103.4691403321594
 30
0.0
 11
338.0779928702068
 21
-216.30908120684401
 31
0.0
  0
LINE
  8
DETAIL
  6
CONTINUOUS
 62
     5
 10
339.21680014615049
 20
-103.9929176000006
 30
0.0
 11
339.21680014615049
 21
-215.7853040195005
 31
0.0
  0
LINE
  8
DETAIL
  6
CONTINUOUS
 62
     5
 10
364.02514009500368
 20
-215.7853040199989
 30
0.0
 11
364.02514009500368
 21
-103.9929176000006
 31
0.0
  0
LINE
  8
DETAIL
  6
CONTINUOUS
 62
     5
 10
364.5251060450064
 20
-201.43744490325119
 30
0.0
 11
364.5251060450064
 21
-104.4928835499996
 31
0.0
  0
LINE
  8
DETAIL
  6
CONTINUOUS
 62
     5
 10
364.5251060450064
 20
-215.28533806999999
 30
0.0
 11
364.5251060450064
 21
-201.4862778499992
 31
0.0
  0
LINE
  8
DETAIL
  6
CONTINUOUS
 62
     5
 10
307.106390074503
 20
-221.78489541999809
 30
0.0
 11
314.25517516808031
 21
-219.2850656699994
 31
0.0
  0
LINE
  8
DETAIL
  6
CONTINUOUS
 62
     5
 10
315.42869018828293
 20
-114.4925430500045
 30
0.0
 11
304.15453143778592
 21
-109.9928495000061
 31
0.0
  0
LINE
  8
DETAIL
  6
CONTINUOUS
 62
     5
 10
315.42869418599372
 20
-100.4931559500001
 30
0.0
 11
304.7388732703771
 21
-89.9938710000024
 31
0.0
  0
LINE
  8
DETAIL
  6
CONTINUOUS
 62
     5
 10
315.42869418599372
 20
-100.4931559500001
 30
0.0
 11
315.42869418599281
 21
-219.2850656699994
 31
0.0
  0
LINE
  8
DETAIL
  6
CONTINUOUS
 62
     5
 10
304.7388732703771
 20
-89.9938710000024
 30
0.0
 11
304.7388732703771
 21
-221.78489541999809
 31
0.0
  0
LINE
  8
DETAIL
  6
CONTINUOUS
 62
     5
 10
-304.43916610037172
 20
-89.9938710000024
 30
0.0
 11
-315.1289830197602
 21
-100.4931559500001
 31
0.0
  0
LINE
  8
DETAIL
  6
CONTINUOUS
 62
     5
 10
-303.85482426975801
 20
-110.0143010000028
 30
0.0
 11
-315.12898701648737
 21
-114.5139945500011
 31
0.0
  0
LINE
  8
DETAIL
  6
CONTINUOUS
 62
     5
 10
-313.95546799857402
 20
-219.2850656699994
 30
0.0
 11
-306.80668290449472
 21
-221.78489541999809
 31
0.0
  0
LINE
  8
DETAIL
  6
CONTINUOUS
 62
     5
 10
-304.43916610037172
 20
-89.9938710000024
 30
0.0
 11
-304.43916610037172
 21
-221.78489541999809
 31
0.0
  0
LINE
  8
DETAIL
  6
CONTINUOUS
 62
     5
 10
-315.1289830197602
 20
-100.4931559500001
 30
0.0
 11
-315.1289830197602
 21
-219.2850656699994
 31
0.0
  0
LINE
  8
DETAIL
  6
CONTINUOUS
 62
     5
 10
223.20210032677281
 20
-55.594008599890337
 30
0.0
 11
223.394382943934
 21
-55.545382027585667
 31
0.0
  0
LINE
  8
DETAIL
  6
CONTINUOUS
 62
     5
 10
223.20210032677281
 20
-122.7175361763498
 30
0.0
 11
223.394382943934
 21
-122.76617198152459
 31
0.0
  0
LINE
  8
DETAIL
  6
CONTINUOUS
 62
     5
 10
95.176216633226431
 20
-122.7175361763498
 30
0.0
 11
94.983934016065177
 21
-122.76616274865459
 31
0.0
  0
LINE
  8
DETAIL
  6
CONTINUOUS
 62
     5
 10
95.176216633226431
 20
-55.594008599890337
 30
0.0
 11
94.983934016065177
 21
-55.54537279471549
 31
0.0
  0
LINE
  8
DETAIL
  6
CONTINUOUS
 62
     5
 10
222.96105059387631
 20
-123.6693720789103
 30
0.0
 11
223.15397393690361
 21
-123.716846987149
 31
0.0
  0
LINE
  8
DETAIL
  6
CONTINUOUS
 62
     5
 10
95.417266366122931
 20
-123.6693720789103
 30
0.0
 11
95.224338430409261
 21
-123.71683848722969
 31
0.0
  0
LINE
  8
DETAIL
  6
CONTINUOUS
 62
     5
 10
95.417266366122931
 20
-54.642172697329897
 30
0.0
 11
95.224343023099209
 21
-54.594697789091242
 31
0.0
  0
LINE
  8
DETAIL
  6
CONTINUOUS
 62
     5
 10
222.96105059387631
 20
-54.642172697329897
 30
0.0
 11
223.15397852958989
 21
-54.594706289014077
 31
0.0
  0
LINE
  8
DETAIL
  6
CONTINUOUS
 62
     5
 10
205.82719627732149
 20
-18.677941310290858
 30
0.0
 11
205.96078446684621
 21
-18.52393417289068
 31
0.0
  0
LINE
  8
DETAIL
  6
CONTINUOUS
 62
     5
 10
235.32917191595701
 20
-52.018995833839988
 30
0.0
 11
235.1590191236464
 21
-52.131300523868497
 31
0.0
  0
LINE
  8
DETAIL
  6
CONTINUOUS
 62
     5
 10
205.54890962793431
 20
-18.170009807780271
 30
0.0
 11
205.41647905456921
 21
-18.321634500933559
 31
0.0
  0
LINE
  8
DETAIL
  6
CONTINUOUS
 62
     5
 10
205.73888190993969
 20
-18.264312377340051
 30
0.0
 11
205.7786750238447
 21
-18.131931692574991
 31
0.0
  0
LINE
  8
DETAIL
  6
CONTINUOUS
 62
     5
 10
235.87933055309989
 20
-52.513808795780733
 30
0.0
 11
235.69399716416231
 21
-52.556803120669883
 31
0.0
  0
LINE
  8
DETAIL
  6
CONTINUOUS
 62
     5
 10
235.6262059490582
 20
-52.473585486177853
 30
0.0
 11
235.45857653039999
 21
-52.585071985928487
 31
0.0
  0
LINE
  8
DETAIL
  6
CONTINUOUS
 62
     5
 10
206.01329340424491
 20
-18.346352215545611
 30
0.0
 11
206.05082631058031
 21
-18.220761503353511
 31
0.0
  0
LINE
  8
DETAIL
  6
CONTINUOUS
 62
     5
 10
235.68394882999931
 20
-51.65167777540637
 30
0.0
 11
235.49819665858379
 21
-51.693797788835923
 31
0.0
  0
ARC
  8
DETAIL
  6
CONTINUOUS
 62
     5
 10
-464.53328782812969
 20
-89.155772388121932
 30
0.0
 40
559.72611882633976
 50
359.91049838318361
 51
0.0895016168164624
  0
ARC
  8
DETAIL
  6
CONTINUOUS
 62
     5
 10
-748.46648941673993
 20
-89.15577238761955
 30
0.0
 40
843.66685219300234
 50
359.93871271938929
 51
0.0612872806107095
  0
ARC
  8
DETAIL
  6
CONTINUOUS
 62
     5
 10
52.061171397770522
 20
-215.30481856850611
 30
0.0
 40
131.03418368486419
 50
79.186578946302077
 51
80.070715744797951
  0
ARC
  8
DETAIL
  6
CONTINUOUS
 62
     5
 10
159.18915847999961
 20
-147.50279868502039
 30
0.0
 40
5.4996254499996411
 50
193.70193365619531
 51
346.29806634380458
  0
ARC
  8
DETAIL
  6
CONTINUOUS
 62
     5
 10
96.983562210112723
 20
-122.76623625014921
 30
0.0
 40
1.9996281950458541
 50
180.0
 51
208.38471300151161
  0
ARC
  8
DETAIL
  6
CONTINUOUS
 62
     5
 10
97.176158989877877
 20
-122.71749699751889
 30
0.0
 40
1.9999423571501169
 50
180.0
 51
208.42130444018909
  0
ARC
  8
DETAIL
  6
CONTINUOUS
 62
     5
 10
96.983717686522141
 20
-122.7661969338246
 30
0.0
 40
3.9995713221436069
 50
180.0
 51
208.38295604911971
  0
ARC
  8
DETAIL
  6
CONTINUOUS
 62
     5
 10
88.09743015391723
 20
-90.788697567341273
 30
0.0
 40
135.20137807159861
 50
7.4106784821940241
 51
10.10320002129872
  0
ARC
  8
DETAIL
  6
CONTINUOUS
 62
     5
 10
83.694300030001614
 20
-89.155772388121932
 30
0.0
 40
7.499489250000174
 50
160.05431942931531
 51
199.94568057068469
  0
ARC
  8
DETAIL
  6
CONTINUOUS
 62
     5
 10
83.694300030001614
 20
-89.155772388121932
 30
0.0
 40
9.4993530499997192
 50
162.08420307990411
 51
197.91579692009589
  0
ARC
  8
DETAIL
  6
CONTINUOUS
 62
     5
 10
88.094395453597826
 20
-87.522366126164798
 30
0.0
 40
135.2044507113381
 50
349.89682486648059
 51
352.58928528488121
  0
ARC
  8
DETAIL
  6
CONTINUOUS
 62
     5
 10
150.99563554291311
 20
-92.141354577625407
 30
0.0
 40
72.556033695095962
 50
14.619442025210271
 51
19.65234993460216
  0
ARC
  8
DETAIL
  6
CONTINUOUS
 62
     5
 10
150.9974097100858
 20
-86.170774530319704
 30
0.0
 40
72.554168542621127
 50
340.34761344011571
 51
345.38066474431321
  0
ARC
  8
DETAIL
  6
CONTINUOUS
 62
     5
 10
159.18915847999961
 20
-89.155772388121932
 30
0.0
 40
47.978948813063319
 50
88.697961056597109
 51
91.302038943402877
  0
ARC
  8
DETAIL
  6
CONTINUOUS
 62
     5
 10
159.18915847999961
 20
-89.155772388121932
 30
0.0
 40
47.992230605011493
 50
91.31618190529899
 51
88.683818094701024
  0
CIRCLE
  8
DETAIL
  6
CONTINUOUS
 62
     5
 10
159.18915847999961
 20
-89.155772388121932
 30
0.0
 40
49.043579604768418
  0
CIRCLE
  8
DETAIL
  6
CONTINUOUS
 62
     5
 10
159.18915847999961
 20
-89.155772388121932
 30
0.0
 40
51.496492850000067
  0
CIRCLE
  8
DETAIL
  6
CONTINUOUS
 62
     5
 10
159.18915847999961
 20
-89.155772388121932
 30
0.0
 40
52.286268190136397
  0
CIRCLE
  8
DETAIL
  6
CONTINUOUS
 62
     5
 10
159.18915847999961
 20
-89.155772388121932
 30
0.0
 40
52.496705260396112
  0
CIRCLE
  8
DETAIL
  6
CONTINUOUS
 62
     5
 10
159.18915847999961
 20
-89.155772388121932
 30
0.0
 40
52.847885962361183
  0
ARC
  8
DETAIL
  6
CONTINUOUS
 62
     5
 10
159.18915847999961
 20
-89.155772388121932
 30
0.0
 40
59.888553712233907
 50
275.11859710500579
 51
84.881402894994139
  0
ARC
  8
DETAIL
  6
CONTINUOUS
 62
     5
 10
159.18915847999961
 20
-89.155772388121932
 30
0.0
 40
59.888553712232358
 50
95.118597105005861
 51
264.88140289499421
  0
ARC
  8
DETAIL
  6
CONTINUOUS
 62
     5
 10
159.18915847999961
 20
-89.155772388121932
 30
0.0
 40
61.880807426515062
 50
94.019061621604067
 51
265.98093837839588
  0
ARC
  8
DETAIL
  6
CONTINUOUS
 62
     5
 10
159.18915847999961
 20
-89.155772388121932
 30
0.0
 40
61.880807426516618
 50
274.01906162160401
 51
85.980938378395948
  0
ARC
  8
DETAIL
  6
CONTINUOUS
 62
     5
 10
159.18915847999961
 20
-89.155772388121932
 30
0.0
 40
63.835925429412001
 50
199.6020044612786
 51
269.6776881438937
  0
ARC
  8
DETAIL
  6
CONTINUOUS
 62
     5
 10
159.18915847999961
 20
-89.155772388121932
 30
0.0
 40
63.83592542941124
 50
90.322311856093222
 51
160.3979955387214
  0
ARC
  8
DETAIL
  6
CONTINUOUS
 62
     5
 10
159.18915847999961
 20
-89.155772388121932
 30
0.0
 40
63.835925429412008
 50
270.32231185609328
 51
340.39799553872137
  0
ARC
  8
DETAIL
  6
CONTINUOUS
 62
     5
 10
159.18915847999961
 20
-89.155772388121932
 30
0.0
 40
63.835925429412242
 50
19.60200446127865
 51
89.677688143893747
  0
ARC
  8
DETAIL
  6
CONTINUOUS
 62
     5
 10
159.18915847999961
 20
-89.155772388121932
 30
0.0
 40
65.828179143694001
 50
199.6020044612786
 51
340.39799553872137
  0
ARC
  8
DETAIL
  6
CONTINUOUS
 62
     5
 10
159.18915847999961
 20
-89.155772388121932
 30
0.0
 40
65.828179143693717
 50
19.60200446127865
 51
160.3979955387214
  0
ARC
  8
DETAIL
  6
CONTINUOUS
 62
     5
 10
159.18915847999961
 20
-89.155772388121932
 30
0.0
 40
70.512575344587006
 50
208.422426853411
 51
331.57757314658897
  0
ARC
  8
DETAIL
  6
CONTINUOUS
 62
     5
 10
159.18915847999961
 20
-89.155772388121932
 30
0.0
 40
70.512575344587205
 50
28.42242685341099
 51
151.577573146589
  0
ARC
  8
DETAIL
  6
CONTINUOUS
 62
     5
 10
159.18915847999961
 20
-89.155772388121932
 30
0.0
 40
72.512362996772623
 50
208.422426853411
 51
331.57757314658897
  0
ARC
  8
DETAIL
  6
CONTINUOUS
 62
     5
 10
159.18915847999961
 20
-89.155772388121932
 30
0.0
 40
72.512362996772779
 50
28.42242685341099
 51
151.577573146589
  0
ARC
  8
DETAIL
  6
CONTINUOUS
 62
     5
 10
159.18915847999961
 20
-89.155772388121932
 30
0.0
 40
72.704645613934645
 50
208.38295857070071
 51
331.61703381559818
  0
ARC
  8
DETAIL
  6
CONTINUOUS
 62
     5
 10
159.18915847999961
 20
-89.155772388121932
 30
0.0
 40
72.704645613934446
 50
28.382958570700701
 51
151.61703381559821
  0
ARC
  8
DETAIL
  6
CONTINUOUS
 62
     5
 10
159.18915847999961
 20
-89.155772388121932
 30
0.0
 40
74.704433276120497
 50
208.3829416295105
 51
331.61705837048942
  0
ARC
  8
DETAIL
  6
CONTINUOUS
 62
     5
 10
159.18915847999961
 20
-89.155772388121932
 30
0.0
 40
74.704433276120128
 50
28.382941629510551
 51
151.6170583704895
  0
ARC
  8
DETAIL
  6
CONTINUOUS
 62
     5
 10
159.18915847999961
 20
-89.155772388121932
 30
0.0
 40
82.584131403132005
 50
236.87098761190319
 51
303.12901238809678
  0
ARC
  8
DETAIL
  6
CONTINUOUS
 62
     5
 10
159.18915847999961
 20
-89.155772388121932
 30
0.0
 40
82.584136552280839
 50
56.870987611903203
 51
123.1290123880968
  0
ARC
  8
DETAIL
  6
CONTINUOUS
 62
     5
 10
159.18915847999961
 20
-89.155772388121932
 30
0.0
 40
82.58413669427155
 50
334.38257868629768
 51
358.22480545531192
  0
ARC
  8
DETAIL
  6
CONTINUOUS
 62
     5
 10
159.18915847999961
 20
-89.155772388121932
 30
0.0
 40
82.584136694272217
 50
1.775194544688145
 51
25.617421313702248
  0
ARC
  8
DETAIL
  6
CONTINUOUS
 62
     5
 10
159.18915847999961
 20
-89.155772388121932
 30
0.0
 40
82.584136694271933
 50
154.38257868629779
 51
178.22480545531189
  0
ARC
  8
DETAIL
  6
CONTINUOUS
 62
     5
 10
159.18915847999961
 20
-89.155772388121932
 30
0.0
 40
82.584136694272189
 50
181.77519454468811
 51
205.61742131370221
  0
ARC
  8
DETAIL
  6
CONTINUOUS
 62
     5
 10
159.18915847999961
 20
-89.155772388121932
 30
0.0
 40
84.583924345457987
 50
236.87098761190319
 51
303.12901238809678
  0
ARC
  8
DETAIL
  6
CONTINUOUS
 62
     5
 10
159.18915847999961
 20
-89.155772388121932
 30
0.0
 40
84.58392434545766
 50
56.870987611903203
 51
123.1290123880968
  0
ARC
  8
DETAIL
  6
CONTINUOUS
 62
     5
 10
159.18915847999961
 20
-89.155772388121932
 30
0.0
 40
84.58392434545884
 50
181.98000200640649
 51
205.61742131370221
  0
ARC
  8
DETAIL
  6
CONTINUOUS
 62
     5
 10
159.18915847999961
 20
-89.155772388121932
 30
0.0
 40
84.583924345457618
 50
154.38257868629779
 51
178.01999799359351
  0
ARC
  8
DETAIL
  6
CONTINUOUS
 62
     5
 10
159.18915847999961
 20
-89.155772388121932
 30
0.0
 40
84.58392434545884
 50
1.980002006406461
 51
25.617421313702248
  0
ARC
  8
DETAIL
  6
CONTINUOUS
 62
     5
 10
159.18915847999961
 20
-89.155772388121932
 30
0.0
 40
84.583924345457561
 50
334.38257868629768
 51
358.01999799359362
  0
ARC
  8
DETAIL
  6
CONTINUOUS
 62
     5
 10
159.18915847999961
 20
-89.155772388121932
 30
0.0
 40
84.940977423987164
 50
236.73658032959329
 51
303.26341907319801
  0
ARC
  8
DETAIL
  6
CONTINUOUS
 62
     5
 10
159.18915847999961
 20
-89.155772388121932
 30
0.0
 40
84.940977423986823
 50
56.736580329593373
 51
123.26341907319799
  0
ARC
  8
DETAIL
  6
CONTINUOUS
 62
     5
 10
159.18915847999961
 20
-89.155772388121932
 30
0.0
 40
84.994211499999977
 50
334.46189433749578
 51
25.538105662504201
  0
ARC
  8
DETAIL
  6
CONTINUOUS
 62
     5
 10
96.983562210611126
 20
-55.545308525592532
 30
0.0
 40
1.999628195047108
 50
151.61501018056819
 51
180.0
  0
ARC
  8
DETAIL
  6
CONTINUOUS
 62
     5
 10
97.176158989877877
 20
-55.594047778721233
 30
0.0
 40
1.9999423571510579
 50
151.5786955655002
 51
180.0
  0
ARC
  8
DETAIL
  6
CONTINUOUS
 62
     5
 10
96.983717363047617
 20
-55.545347760921231
 30
0.0
 40
3.999570998165602
 50
151.61704277791
 51
180.0
  0
ARC
  8
DETAIL
  6
CONTINUOUS
 62
     5
 10
159.18915847999961
 20
-40.159109288119453
 30
0.0
 40
1.499897850000546
 50
222.69607273416631
 51
317.30392726583358
  0
ARC
  8
DETAIL
  6
CONTINUOUS
 62
     5
 10
159.18915847999961
 20
-30.808746091219749
 30
0.0
 40
5.4996254499995052
 50
13.70193365608791
 51
166.2980663439121
  0
ARC
  8
DETAIL
  6
CONTINUOUS
 62
     5
 10
52.061171352273959
 20
36.993273793761091
 30
0.0
 40
131.0341836943615
 50
279.92928427460453
 51
280.81342107310132
  0
ARC
  8
DETAIL
  6
CONTINUOUS
 62
     5
 10
266.31714558372551
 20
-215.3048185635075
 30
0.0
 40
131.03418368436539
 50
99.929284264896879
 51
100.8134210634063
  0
ARC
  8
DETAIL
  6
CONTINUOUS
 62
     5
 10
221.39475474938811
 20
-122.76623625064749
 30
0.0
 40
1.999628195046659
 50
331.61501018059761
 51
0.0
  0
ARC
  8
DETAIL
  6
CONTINUOUS
 62
     5
 10
221.202157970125
 20
-122.71749699751889
 30
0.0
 40
1.9999423571510579
 50
331.5786955655002
 51
0.0
  0
ARC
  8
DETAIL
  6
CONTINUOUS
 62
     5
 10
221.3945995969552
 20
-122.76619701531889
 30
0.0
 40
3.9995709981659711
 50
331.61704277791011
 51
0.0
  0
ARC
  8
DETAIL
  6
CONTINUOUS
 62
     5
 10
234.68401693000121
 20
-89.155772388121932
 30
0.0
 40
7.4994892499999182
 50
340.05431942931529
 51
19.945680570684729
  0
ARC
  8
DETAIL
  6
CONTINUOUS
 62
     5
 10
234.68401693000121
 20
-89.155772388121932
 30
0.0
 40
9.4993530500000603
 50
342.08420307990411
 51
17.9157969200959
  0
ARC
  8
DETAIL
  6
CONTINUOUS
 62
     5
 10
188.4206450876882
 20
-74.441240100516097
 30
0.0
 40
52.068562628895847
 50
25.571487751697369
 51
26.11637143698535
  0
ARC
  8
DETAIL
  6
CONTINUOUS
 62
     5
 10
167.38090783987721
 20
-92.140768320552979
 30
0.0
 40
72.554168542621014
 50
160.34761502868051
 51
165.38066633329589
  0
ARC
  8
DETAIL
  6
CONTINUOUS
 62
     5
 10
167.38268116910331
 20
-86.170189387669325
 30
0.0
 40
72.556033694596493
 50
194.6194426942082
 51
199.6523506034998
  0
ARC
  8
DETAIL
  6
CONTINUOUS
 62
     5
 10
160.30037161423391
 20
-88.18085108528112
 30
0.0
 40
83.365948647251699
 50
25.93862681371618
 51
26.08777851628173
  0
ARC
  8
DETAIL
  6
CONTINUOUS
 62
     5
 10
230.280886487104
 20
-87.522845129539292
 30
0.0
 40
135.20137807109899
 50
187.4106793735063
 51
190.1032009124969
  0
ARC
  8
DETAIL
  6
CONTINUOUS
 62
     5
 10
230.28392191887909
 20
-90.789175955260816
 30
0.0
 40
135.2044507113383
 50
169.89682602159451
 51
172.58928644009569
  0
ARC
  8
DETAIL
  6
CONTINUOUS
 62
     5
 10
1066.8448063757389
 20
-89.155772388620449
 30
0.0
 40
843.66685219250166
 50
179.93871271938929
 51
180.06128728061071
  0
ARC
  8
DETAIL
  6
CONTINUOUS
 62
     5
 10
206.01330468697421
 20
-17.846367563818148
 30
0.0
 40
0.4999857276538319
 50
236.7110769757
 51
269.9986701947322
  0
ARC
  8
DETAIL
  6
CONTINUOUS
 62
     5
 10
214.88474993191269
 20
-24.523546584458359
 30
0.0
 40
1.918544647711069
 50
51.737314612345429
 51
53.518566011938127
  0
ARC
  8
DETAIL
  6
CONTINUOUS
 62
     5
 10
204.5084050376245
 20
-19.79752289108956
 30
0.0
 40
1.931693227732046
 50
41.247460839298597
 51
57.408332303706281
  0
ARC
  8
DETAIL
  6
CONTINUOUS
 62
     5
 10
204.32344174848191
 20
-19.996457494222678
 30
0.0
 40
1.9999406517660701
 50
41.244805941112148
 51
56.870386137788067
  0
ARC
  8
DETAIL
  6
CONTINUOUS
 62
     5
 10
213.5650203971127
 20
-24.531172315610551
 30
0.0
 40
2.929412102949235
 50
31.12031622049583
 51
32.837450116605488
  0
ARC
  8
DETAIL
  6
CONTINUOUS
 62
     5
 10
214.00947352179361
 20
-24.710745643833771
 30
0.0
 40
4.4708685186186203
 50
39.380953999995043
 51
41.241101074296701
  0
ARC
  8
DETAIL
  6
CONTINUOUS
 62
     5
 10
233.87664260693779
 20
-53.292415787537273
 30
0.0
 40
1.931694686633624
 50
25.080524302712771
 51
41.240766474318697
  0
ARC
  8
DETAIL
  6
CONTINUOUS
 62
     5
 10
221.39475474938811
 20
-55.545308526091048
 30
0.0
 40
1.9996281950458541
 50
0.0
 51
28.384713001572891
  0
ARC
  8
DETAIL
  6
CONTINUOUS
 62
     5
 10
237.68373476680429
 20
-51.651678163877023
 30
0.0
 40
1.9997859368032811
 50
180.0
 51
205.53811679338679
  0
ARC
  8
DETAIL
  6
CONTINUOUS
 62
     5
 10
233.65523691219281
 20
-53.44978513595413
 30
0.0
 40
1.999940651766466
 50
25.618022787841308
 51
41.243602984604593
  0
ARC
  8
DETAIL
  6
CONTINUOUS
 62
     5
 10
221.202157970125
 20
-55.594047778721233
 30
0.0
 40
1.999942357150212
 50
0.0
 51
28.421304440218261
  0
ARC
  8
DETAIL
  6
CONTINUOUS
 62
     5
 10
237.49815467866941
 20
-51.693765689522927
 30
0.0
 40
1.999956622178134
 50
180.0
 51
205.56460405238781
  0
ARC
  8
DETAIL
  6
CONTINUOUS
 62
     5
 10
233.70065202671319
 20
-51.19407160300625
 30
0.0
 40
2.0007493596893422
 50
0.0055671586609874
 51
5.6565944326982844
  0
ARC
  8
DETAIL
  6
CONTINUOUS
 62
     5
 10
233.69714246572769
 20
-51.194240207022062
 30
0.0
 40
2.00425845720329
 50
5.6515019431827698
 51
10.550538694470021
  0
ARC
  8
DETAIL
  6
CONTINUOUS
 62
     5
 10
233.566089656033
 20
-44.028183091248593
 30
0.0
 40
2.0218813820007679
 50
0.5616995810079272
 51
47.663801323325472
  0
ARC
  8
DETAIL
  6
CONTINUOUS
 62
     5
 10
221.3945992729787
 20
-55.545347842415588
 30
0.0
 40
3.999571322143701
 50
0.0
 51
28.382956049119699
  0
ARC
  8
DETAIL
  6
CONTINUOUS
 62
     5
 10
226.18459577999971
 20
-25.660096738118678
 30
0.0
 40
1.599891040000623
 50
176.9738332792092
 51
3.0261667207908109
  0
ARC
  8
DETAIL
  6
CONTINUOUS
 62
     5
 10
233.68419146925231
 20
-20.160364848869339
 30
0.0
 40
1.9997561133344981
 50
0.0
 51
90.000867863582101
  0
ARC
  8
DETAIL
  6
CONTINUOUS
 62
     5
 10
233.58783753940219
 20
-20.25671877871935
 30
0.0
 40
1.999971087692588
 50
0.0052234627087494
 51
89.994776536718049
  0
ARC
  8
DETAIL
  6
CONTINUOUS
 62
     5
 10
233.6820114672191
 20
-35.159183884729373
 30
0.0
 40
2.0019373802794891
 50
352.85104772148208
 51
359.9923897966072
  0
CIRCLE
  8
DETAIL
  6
CONTINUOUS
 62
     5
 10
226.18459577999971
 20
-27.159994588119389
 30
0.0
 40
2.251489910595081
  0
CIRCLE
  8
DETAIL
  6
CONTINUOUS
 62
     5
 10
226.18459577999971
 20
-27.159994588119389
 30
0.0
 40
2.964887947380058
  0
CIRCLE
  8
DETAIL
  6
CONTINUOUS
 62
     5
 10
226.18459577999971
 20
-27.159994588119389
 30
0.0
 40
2.9997956999999871
  0
ARC
  8
DETAIL
  6
CONTINUOUS
 62
     5
 10
226.18459577999971
 20
-25.660096738118678
 30
0.0
 40
3.1997820800007002
 50
230.61964185720001
 51
309.38035814278368
  0
CIRCLE
  8
DETAIL
  6
CONTINUOUS
 62
     5
 10
226.18459577999971
 20
-27.159994588119389
 30
0.0
 40
3.7728272089690091
  0
ARC
  8
DETAIL
  6
CONTINUOUS
 62
     5
 10
229.68435743000009
 20
-24.160198888121609
 30
0.0
 40
11.033849518173049
 50
184.94140072061691
 51
257.54698356310001
  0
ARC
  8
DETAIL
  6
CONTINUOUS
 62
     5
 10
229.29029939167961
 20
-24.505710016210632
 30
0.0
 40
12.614842097246621
 50
183.53230475501101
 51
258.95649826729692
  0
ARC
  8
DETAIL
  6
CONTINUOUS
 62
     5
 10
229.68435743000009
 20
-24.160198888121609
 30
0.0
 40
13.03341322611081
 50
184.94172229930831
 51
257.54707866679888
  0
ARC
  8
DETAIL
  6
CONTINUOUS
 62
     5
 10
230.6335898653706
 20
-23.32790336780317
 30
0.0
 40
14.612180348248
 50
178.63940922740659
 51
263.99880432919451
  0
ARC
  8
DETAIL
  6
CONTINUOUS
 62
     5
 10
266.31714558372551
 20
36.993273787263661
 30
0.0
 40
131.03418368436189
 50
259.18657893659372
 51
260.07071573510308
  0
LINE
  8
DETAIL
  6
CONTINUOUS
 62
     5
 10
92.98414636437883
 20
-122.7661959268939
 30
0.0
 11
92.98414636437883
 21
-55.545348849346283
 31
0.0
  0
LINE
  8
DETAIL
  6
CONTINUOUS
 62
     5
 10
94.983934016065177
 20
-122.76616274865459
 30
0.0
 11
94.983934016065177
 21
-55.54537279471549
 31
0.0
  0
LINE
  8
DETAIL
  6
CONTINUOUS
 62
     5
 10
95.176216633226431
 20
-104.9611781256849
 30
0.0
 11
95.176216633226431
 21
-122.7175361763498
 31
0.0
  0
LINE
  8
DETAIL
  6
CONTINUOUS
 62
     5
 10
95.176216633226431
 20
-55.594008599890337
 30
0.0
 11
95.176216633226431
 21
-73.350366650555316
 31
0.0
  0
LINE
  8
DETAIL
  6
CONTINUOUS
 62
     5
 10
97.176004284414375
 20
-111.2401079254436
 30
0.0
 11
97.176004284414375
 21
-122.7175361763498
 31
0.0
  0
LINE
  8
DETAIL
  6
CONTINUOUS
 62
     5
 10
97.176004284414375
 20
-55.594008599890337
 30
0.0
 11
97.176004284414375
 21
-67.071436850792907
 31
0.0
  0
LINE
  8
DETAIL
  6
CONTINUOUS
 62
     5
 10
221.2023126750864
 20
-122.7175361763498
 30
0.0
 11
222.96105059387631
 21
-123.6693720789103
 31
0.0
  0
LINE
  8
DETAIL
  6
CONTINUOUS
 62
     5
 10
97.176004284414375
 20
-55.594008599890337
 30
0.0
 11
95.417266366122931
 21
-54.642172697329897
 31
0.0
  0
LINE
  8
DETAIL
  6
CONTINUOUS
 62
     5
 10
223.15398874839229
 20
-123.71681957401459
 30
0.0
 11
224.9133822040385
 21
-124.6674432216373
 31
0.0
  0
LINE
  8
DETAIL
  6
CONTINUOUS
 62
     5
 10
95.224328211606917
 20
-54.594725202225618
 30
0.0
 11
93.464934755960712
 21
-53.644101554602912
 31
0.0
  0
LINE
  8
DETAIL
  6
CONTINUOUS
 62
     5
 10
221.2023126750864
 20
-111.2401079254436
 30
0.0
 11
219.32551859696829
 21
-110.57173763056061
 31
0.0
  0
LINE
  8
DETAIL
  6
CONTINUOUS
 62
     5
 10
97.176004284414375
 20
-67.071436850792907
 30
0.0
 11
99.052798362532485
 21
-67.739807145679492
 31
0.0
  0
LINE
  8
DETAIL
  6
CONTINUOUS
 62
     5
 10
94.983934016065177
 20
-122.7661959268939
 30
0.0
 11
92.98414636437883
 21
-122.7661959268939
 31
0.0
  0
LINE
  8
DETAIL
  6
CONTINUOUS
 62
     5
 10
223.394382943934
 20
-122.7661959268939
 30
0.0
 11
225.39417059512201
 21
-122.7661959268939
 31
0.0
  0
LINE
  8
DETAIL
  6
CONTINUOUS
 62
     5
 10
97.176004284414375
 20
-122.7175361763498
 30
0.0
 11
95.176216633226431
 21
-122.7175361763498
 31
0.0
  0
LINE
  8
DETAIL
  6
CONTINUOUS
 62
     5
 10
221.2023126750864
 20
-122.7175361763498
 30
0.0
 11
223.20210032677281
 21
-122.7175361763498
 31
0.0
  0
LINE
  8
DETAIL
  6
CONTINUOUS
 62
     5
 10
205.96080418350539
 20
-18.523956660358071
 30
0.0
 11
206.02061781541849
 21
-18.471512215065101
 31
0.0
  0
LINE
  8
DETAIL
  6
CONTINUOUS
 62
     5
 10
204.3235429490887
 20
-19.996340839667479
 30
0.0
 11
205.82719627732149
 21
-18.677941310290858
 31
0.0
  0
LINE
  8
DETAIL
  6
CONTINUOUS
 62
     5
 10
204.3235429490887
 20
-19.996340839667479
 30
0.0
 11
205.41647905456921
 21
-18.321634500933559
 31
0.0
  0
LINE
  8
DETAIL
  6
CONTINUOUS
 62
     5
 10
217.46520686482469
 20
-21.87409755722399
 30
0.0
 11
216.07284539660029
 21
-23.017148154677219
 31
0.0
  0
LINE
  8
DETAIL
  6
CONTINUOUS
 62
     5
 10
216.0500770807266
 20
-20.25653644813644
 30
0.0
 11
214.7051174462176
 21
-21.435793738246961
 31
0.0
  0
LINE
  8
DETAIL
  6
CONTINUOUS
 62
     5
 10
217.37130825425629
 20
-21.76341930592616
 30
0.0
 11
216.0263486197473
 21
-22.942676596036559
 31
0.0
  0
LINE
  8
DETAIL
  6
CONTINUOUS
 62
     5
 10
233.58801986998509
 20
-18.256748796952142
 30
0.0
 11
233.68416117881131
 21
-18.160607488118789
 31
0.0
  0
LINE
  8
DETAIL
  6
CONTINUOUS
 62
     5
 10
235.58780752116579
 20
-20.25653644813644
 30
0.0
 11
235.68394882999931
 21
-20.160395139306619
 31
0.0
  0
LINE
  8
DETAIL
  6
CONTINUOUS
 62
     5
 10
227.30502862082719
 20
-34.93446118638758
 30
0.0
 11
226.8738478472369
 21
-36.886977551969267
 31
0.0
  0
LINE
  8
DETAIL
  6
CONTINUOUS
 62
     5
 10
216.02544420284181
 20
-22.98094159801121
 30
0.0
 11
216.0263486197473
 21
-22.942676596036559
 31
0.0
  0
LINE
  8
DETAIL
  6
CONTINUOUS
 62
     5
 10
221.2023126750864
 20
-67.071436850792907
 30
0.0
 11
221.2023126750864
 21
-55.594008599890337
 31
0.0
  0
LINE
  8
DETAIL
  6
CONTINUOUS
 62
     5
 10
221.2023126750864
 20
-122.7175361763498
 30
0.0
 11
221.2023126750864
 21
-111.2401079254436
 31
0.0
  0
LINE
  8
DETAIL
  6
CONTINUOUS
 62
     5
 10
223.20210032677281
 20
-73.350366650555316
 30
0.0
 11
223.20210032677281
 21
-55.594008599890337
 31
0.0
  0
LINE
  8
DETAIL
  6
CONTINUOUS
 62
     5
 10
223.20210032677281
 20
-122.7175361763498
 30
0.0
 11
223.20210032677281
 21
-104.9611781256849
 31
0.0
  0
LINE
  8
DETAIL
  6
CONTINUOUS
 62
     5
 10
223.394382943934
 20
-55.545382027585667
 30
0.0
 11
223.394382943934
 21
-122.76617198152459
 31
0.0
  0
LINE
  8
DETAIL
  6
CONTINUOUS
 62
     5
 10
225.39417059512201
 20
-55.545348849346283
 30
0.0
 11
225.39417059512201
 21
-122.7661959268939
 31
0.0
  0
LINE
  8
DETAIL
  6
CONTINUOUS
 62
     5
 10
235.66649628309821
 20
-51.124061694509237
 30
0.0
 11
235.70140137690029
 21
-51.193877199743383
 31
0.0
  0
LINE
  8
DETAIL
  6
CONTINUOUS
 62
     5
 10
233.6553657954137
 20
-53.449700053248648
 30
0.0
 11
204.3235429490887
 21
-19.996340839667479
 31
0.0
  0
LINE
  8
DETAIL
  6
CONTINUOUS
 62
     5
 10
235.1590191236464
 20
-52.131300523868497
 30
0.0
 11
205.82719627732149
 21
-18.677941310290858
 31
0.0
  0
LINE
  8
DETAIL
  6
CONTINUOUS
 62
     5
 10
205.96078446684621
 20
-18.52393417289068
 30
0.0
 11
235.32917191595701
 21
-52.018995833839988
 31
0.0
  0
LINE
  8
DETAIL
  6
CONTINUOUS
 62
     5
 10
206.43422620077041
 20
-18.743766530284571
 30
0.0
 11
235.17311384322969
 21
-51.520874749198242
 31
0.0
  0
LINE
  8
DETAIL
  6
CONTINUOUS
 62
     5
 10
216.0263486197473
 20
-22.942676596036559
 30
0.0
 11
214.7051174462176
 21
-21.435793738246961
 31
0.0
  0
LINE
  8
DETAIL
  6
CONTINUOUS
 62
     5
 10
232.24306023547251
 20
-41.438065778251712
 30
0.0
 11
229.105889900824
 21
-37.860080370154257
 31
0.0
  0
LINE
  8
DETAIL
  6
CONTINUOUS
 62
     5
 10
217.37130825425629
 20
-21.76341930592616
 30
0.0
 11
216.05006215024329
 21
-20.256519419296179
 31
0.0
  0
LINE
  8
DETAIL
  6
CONTINUOUS
 62
     5
 10
233.58801544378369
 20
-40.258803439987332
 30
0.0
 11
230.45087484660689
 21
-36.6808502636909
 31
0.0
  0
LINE
  8
DETAIL
  6
CONTINUOUS
 62
     5
 10
97.176004284414375
 20
-55.594008599890337
 30
0.0
 11
95.176216633226431
 21
-55.594008599890337
 31
0.0
  0
LINE
  8
DETAIL
  6
CONTINUOUS
 62
     5
 10
221.2023126750864
 20
-55.594008599890337
 30
0.0
 11
223.20210032677281
 21
-55.594008599890337
 31
0.0
  0
LINE
  8
DETAIL
  6
CONTINUOUS
 62
     5
 10
94.983934016065177
 20
-55.545348849346283
 30
0.0
 11
92.98414636437883
 21
-55.545348849346283
 31
0.0
  0
LINE
  8
DETAIL
  6
CONTINUOUS
 62
     5
 10
223.394382943934
 20
-55.545348849346283
 30
0.0
 11
225.39417059512201
 21
-55.545348849346283
 31
0.0
  0
LINE
  8
DETAIL
  6
CONTINUOUS
 62
     5
 10
233.6553657954137
 20
-53.449700053248648
 30
0.0
 11
235.4585765308984
 21
-52.585071985928487
 31
0.0
  0
LINE
  8
DETAIL
  6
CONTINUOUS
 62
     5
 10
95.224328211606917
 20
-123.71681957401459
 30
0.0
 11
93.464934755960712
 21
-124.6674432216373
 31
0.0
  0
LINE
  8
DETAIL
  6
CONTINUOUS
 62
     5
 10
223.15398874839229
 20
-54.594725202225618
 30
0.0
 11
224.9133822040385
 21
-53.644101554602912
 31
0.0
  0
LINE
  8
DETAIL
  6
CONTINUOUS
 62
     5
 10
97.176004284414375
 20
-122.7175361763498
 30
0.0
 11
95.417266366122931
 21
-123.6693720789103
 31
0.0
  0
LINE
  8
DETAIL
  6
CONTINUOUS
 62
     5
 10
221.2023126750864
 20
-55.594008599890337
 30
0.0
 11
222.96105059387631
 21
-54.642172697329897
 31
0.0
  0
LINE
  8
DETAIL
  6
CONTINUOUS
 62
     5
 10
230.45087484660689
 20
-36.6808502636909
 30
0.0
 11
229.10591354921419
 21
-37.860107341816267
 31
0.0
  0
LINE
  8
DETAIL
  6
CONTINUOUS
 62
     5
 10
233.58801986998509
 20
-40.258808487639271
 30
0.0
 11
232.24306023547251
 21
-41.438065778251712
 31
0.0
  0
LINE
  8
DETAIL
  6
CONTINUOUS
 62
     5
 10
233.6553657954137
 20
-53.449700053248648
 30
0.0
 11
235.1590191236464
 21
-52.131300523868497
 31
0.0
  0
LINE
  8
DETAIL
  6
CONTINUOUS
 62
     5
 10
235.3889621054623
 20
-51.96652465237139
 30
0.0
 11
235.32914847305071
 21
-52.018969097158788
 31
0.0
  0
LINE
  8
DETAIL
  6
CONTINUOUS
 62
     5
 10
234.92266065275541
 20
-43.712800152292743
 30
0.0
 11
234.84612674956949
 21
-50.282883481146648
 31
0.0
  0
LINE
  8
DETAIL
  6
CONTINUOUS
 62
     5
 10
235.49819665858379
 20
-51.693797788835923
 30
0.0
 11
235.58780752116579
 21
-44.008362531122202
 31
0.0
  0
LINE
  8
DETAIL
  6
CONTINUOUS
 62
     5
 10
233.58801544378369
 20
-40.258803439987332
 30
0.0
 11
233.58801986998509
 21
-18.256748796952142
 31
0.0
  0
LINE
  8
DETAIL
  6
CONTINUOUS
 62
     5
 10
235.18398288000029
 20
-18.160607488118789
 30
0.0
 11
235.18398288000029
 21
-18.175443282735049
 31
0.0
  0
LINE
  8
DETAIL
  6
CONTINUOUS
 62
     5
 10
235.58780752116579
 20
-44.008362531122202
 30
0.0
 11
235.58780752116579
 21
-20.25653644813644
 31
0.0
  0
LINE
  8
DETAIL
  6
CONTINUOUS
 62
     5
 10
235.66649628309821
 20
-51.124061694509237
 30
0.0
 11
235.66649628309821
 21
-35.159449788121947
 31
0.0
  0
LINE
  8
DETAIL
  6
CONTINUOUS
 62
     5
 10
235.68394882999931
 20
-35.159449788121947
 30
0.0
 11
235.68394882999931
 21
-20.160395139306619
 31
0.0
  0
LINE
  8
DETAIL
  6
CONTINUOUS
 62
     5
 10
235.70140137690029
 20
-51.193877199743383
 30
0.0
 11
235.70140137690029
 21
-51.906949716702343
 31
0.0
  0
LINE
  8
DETAIL
  6
CONTINUOUS
 62
     5
 10
235.98392840000091
 20
-18.195515240741202
 30
0.0
 11
235.98392840000091
 21
-36.124473935501101
 31
0.0
  0
LINE
  8
DETAIL
  6
CONTINUOUS
 62
     5
 10
205.78207521677899
 20
-18.134137854822601
 30
0.0
 11
205.77863354616781
 21
-18.13190038620667
 31
0.0
  0
LINE
  8
DETAIL
  6
CONTINUOUS
 62
     5
 10
235.98392840000091
 20
-36.124473935501101
 30
0.0
 11
235.66649628309821
 21
-36.124473935501101
 31
0.0
  0
LINE
  8
DETAIL
  6
CONTINUOUS
 62
     5
 10
235.66649628309821
 20
-35.159449788121947
 30
0.0
 11
235.68394882999931
 21
-35.159449788121947
 31
0.0
  0
LINE
  8
DETAIL
  6
CONTINUOUS
 62
     5
 10
99.052798362532485
 20
-110.57173763056061
 30
0.0
 11
97.176004284414375
 21
-111.2401079254436
 31
0.0
  0
LINE
  8
DETAIL
  6
CONTINUOUS
 62
     5
 10
219.32551859696829
 20
-67.739807145679492
 30
0.0
 11
221.2023126750864
 21
-67.071436850792907
 31
0.0
  0
LINE
  8
DETAIL
  6
CONTINUOUS
 62
     5
 10
235.58780752116579
 20
-20.256536448638489
 30
0.0
 11
216.05006215024329
 21
-20.256519419296179
 31
0.0
  0
LINE
  8
DETAIL
  6
CONTINUOUS
 62
     5
 10
233.58801986998509
 20
-18.256748796952142
 30
0.0
 11
212.7624773440148
 21
-18.256748796952142
 31
0.0
  0
LINE
  8
DETAIL
  6
CONTINUOUS
 62
     5
 10
234.0505773821715
 20
-18.195515240741202
 30
0.0
 11
235.98392840000091
 21
-18.195515240741202
 31
0.0
  0
LINE
  8
DETAIL
  6
CONTINUOUS
 62
     5
 10
235.18398288000029
 20
-18.160607488118789
 30
0.0
 11
205.8285253933027
 21
-18.160607488118789
 31
0.0
  0
LINE
  8
DETAIL
  6
CONTINUOUS
 62
     5
 10
207.18562588646449
 20
-19.169299577012229
 30
0.0
 11
213.1537829477893
 21
-19.08997377246715
 31
0.0
  0
LINE
  8
DETAIL
  6
CONTINUOUS
 62
     5
 10
212.7624773440148
 20
-18.256748796952142
 30
0.0
 11
206.01329340424491
 21
-18.346352215545611
 31
0.0
  0
LINE
  8
DETAIL
  6
CONTINUOUS
 62
     5
 10
218.69150859449289
 20
-25.11062055400043
 30
0.0
 11
216.69938641924821
 21
-25.282872951810081
 31
0.0
  0
ARC
  8
DETAIL
  6
CONTINUOUS
 62
     5
 10
159.18915847999961
 20
-89.155772388121932
 30
0.0
 40
84.994211499999651
 50
154.15806723679319
 51
205.84193276320681
  0
LINE
  8
DETAIL
  6
CONTINUOUS
 62
     5
 10
205.82719627732149
 20
-159.63360346595289
 30
0.0
 11
205.96078446684621
 21
-159.7876106033531
 31
0.0
  0
LINE
  8
DETAIL
  6
CONTINUOUS
 62
     5
 10
235.32917191595701
 20
-126.2925489424038
 30
0.0
 11
235.1590191236464
 21
-126.1802442523754
 31
0.0
  0
LINE
  8
DETAIL
  6
CONTINUOUS
 62
     5
 10
205.54890962793431
 20
-160.14153496846339
 30
0.0
 11
205.41647905456921
 21
-159.98991027531011
 31
0.0
  0
LINE
  8
DETAIL
  6
CONTINUOUS
 62
     5
 10
205.73888190993969
 20
-160.04723239890379
 30
0.0
 11
205.7786750238447
 21
-160.17961308366881
 31
0.0
  0
LINE
  8
DETAIL
  6
CONTINUOUS
 62
     5
 10
235.87933055309989
 20
-125.7977359804631
 30
0.0
 11
235.69399716416231
 21
-125.75474165557389
 31
0.0
  0
LINE
  8
DETAIL
  6
CONTINUOUS
 62
     5
 10
235.6262059490582
 20
-125.837959290066
 30
0.0
 11
235.45857653039999
 21
-125.7264727903153
 31
0.0
  0
LINE
  8
DETAIL
  6
CONTINUOUS
 62
     5
 10
206.01329340424491
 20
-159.96519256069811
 30
0.0
 11
206.05082631058031
 21
-160.09078327289029
 31
0.0
  0
LINE
  8
DETAIL
  6
CONTINUOUS
 62
     5
 10
235.68394882999931
 20
-126.65986700083739
 30
0.0
 11
235.49819665858379
 21
-126.6177469874078
 31
0.0
  0
ARC
  8
DETAIL
  6
CONTINUOUS
 62
     5
 10
188.4206450876882
 20
-103.87030467572779
 30
0.0
 40
52.068562628895847
 50
333.88362856301472
 51
334.42851224830258
  0
ARC
  8
DETAIL
  6
CONTINUOUS
 62
     5
 10
160.30037161423391
 20
-90.130693690962744
 30
0.0
 40
83.365948647251699
 50
333.91222148368922
 51
334.06137318628379
  0
ARC
  8
DETAIL
  6
CONTINUOUS
 62
     5
 10
206.01330468697421
 20
-160.46517721242569
 30
0.0
 40
0.4999857276538319
 50
90.001329805267858
 51
123.2889230243
  0
ARC
  8
DETAIL
  6
CONTINUOUS
 62
     5
 10
214.88474993191269
 20
-153.78799819178531
 30
0.0
 40
1.918544647711069
 50
306.48143398806189
 51
308.26268538765459
  0
ARC
  8
DETAIL
  6
CONTINUOUS
 62
     5
 10
204.5084050376245
 20
-158.51402188515419
 30
0.0
 40
1.931693227732046
 50
302.59166769629371
 51
318.75253916070142
  0
ARC
  8
DETAIL
  6
CONTINUOUS
 62
     5
 10
204.32344174848191
 20
-158.3150872820211
 30
0.0
 40
1.9999406517660701
 50
303.12961386221201
 51
318.75519405886939
  0
ARC
  8
DETAIL
  6
CONTINUOUS
 62
     5
 10
213.5650203971127
 20
-153.78037246063329
 30
0.0
 40
2.929412102949235
 50
327.16254988339449
 51
328.87968377953382
  0
ARC
  8
DETAIL
  6
CONTINUOUS
 62
     5
 10
214.00947352179361
 20
-153.60079913240989
 30
0.0
 40
4.4708685186186203
 50
318.75889892566647
 51
320.61904600002828
  0
ARC
  8
DETAIL
  6
CONTINUOUS
 62
     5
 10
233.87664260693779
 20
-125.0191289887065
 30
0.0
 40
1.931694686633624
 50
318.75923352570459
 51
334.91947569728723
  0
ARC
  8
DETAIL
  6
CONTINUOUS
 62
     5
 10
237.68373476680429
 20
-126.6598666123668
 30
0.0
 40
1.9997859368032811
 50
154.4618832065841
 51
180.0
  0
ARC
  8
DETAIL
  6
CONTINUOUS
 62
     5
 10
233.65523691219281
 20
-124.86175964028961
 30
0.0
 40
1.999940651766466
 50
318.75639701537699
 51
334.38197721219069
  0
ARC
  8
DETAIL
  6
CONTINUOUS
 62
     5
 10
237.49815467866941
 20
-126.6177790867209
 30
0.0
 40
1.999956622178134
 50
154.43539594761219
 51
180.0
  0
ARC
  8
DETAIL
  6
CONTINUOUS
 62
     5
 10
233.70065202671319
 20
-127.1174731732376
 30
0.0
 40
2.0007493596893422
 50
354.34340556727579
 51
359.99443284131303
  0
ARC
  8
DETAIL
  6
CONTINUOUS
 62
     5
 10
233.69714246572769
 20
-127.1173045692216
 30
0.0
 40
2.00425845720329
 50
349.44946130555559
 51
354.3484980567913
  0
ARC
  8
DETAIL
  6
CONTINUOUS
 62
     5
 10
233.566089656033
 20
-134.2833616849953
 30
0.0
 40
2.0218813820007679
 50
312.33619867667448
 51
359.43830041899201
  0
ARC
  8
DETAIL
  6
CONTINUOUS
 62
     5
 10
226.18459577999971
 20
-152.6514480381251
 30
0.0
 40
1.599891040000623
 50
356.97383327923518
 51
183.02616672076479
  0
ARC
  8
DETAIL
  6
CONTINUOUS
 62
     5
 10
233.68419146925231
 20
-158.15117992737439
 30
0.0
 40
1.9997561133344981
 50
269.99913213641793
 51
0.0
  0
ARC
  8
DETAIL
  6
CONTINUOUS
 62
     5
 10
233.58783753940219
 20
-158.05482599752429
 30
0.0
 40
1.999971087692588
 50
270.00522346328188
 51
359.99477653731731
  0
ARC
  8
DETAIL
  6
CONTINUOUS
 62
     5
 10
233.6820114672191
 20
-143.15236089151441
 30
0.0
 40
2.0019373802794891
 50
0.0076102033927568
 51
7.1489522785179416
  0
CIRCLE
  8
DETAIL
  6
CONTINUOUS
 62
     5
 10
226.18459577999971
 20
-151.1515501881245
 30
0.0
 40
2.251489910595081
  0
CIRCLE
  8
DETAIL
  6
CONTINUOUS
 62
     5
 10
226.18459577999971
 20
-151.1515501881245
 30
0.0
 40
2.964887947380058
  0
CIRCLE
  8
DETAIL
  6
CONTINUOUS
 62
     5
 10
226.18459577999971
 20
-151.1515501881245
 30
0.0
 40
2.9997956999999871
  0
ARC
  8
DETAIL
  6
CONTINUOUS
 62
     5
 10
226.18459577999971
 20
-152.6514480381251
 30
0.0
 40
3.1997820800007002
 50
50.619641857234562
 51
129.38035814281631
  0
CIRCLE
  8
DETAIL
  6
CONTINUOUS
 62
     5
 10
226.18459577999971
 20
-151.1515501881245
 30
0.0
 40
3.7728272089690091
  0
ARC
  8
DETAIL
  6
CONTINUOUS
 62
     5
 10
229.68435743000009
 20
-154.15134588812231
 30
0.0
 40
11.033849518173049
 50
102.4530164368866
 51
175.05859927938309
  0
ARC
  8
DETAIL
  6
CONTINUOUS
 62
     5
 10
229.29029939167961
 20
-153.80583476003309
 30
0.0
 40
12.614842097246621
 50
101.04350173270321
 51
176.46769524498899
  0
ARC
  8
DETAIL
  6
CONTINUOUS
 62
     5
 10
229.68435743000009
 20
-154.15134588812231
 30
0.0
 40
13.03341322611081
 50
102.4529213332011
 51
175.05827770069169
  0
ARC
  8
DETAIL
  6
CONTINUOUS
 62
     5
 10
230.6335898653706
 20
-154.9836414084406
 30
0.0
 40
14.612180348248
 50
96.001195670805487
 51
181.36059077261939
  0
LINE
  8
DETAIL
  6
CONTINUOUS
 62
     5
 10
205.96080418350539
 20
-159.7875881158856
 30
0.0
 11
206.02061781541849
 21
-159.84003256117859
 31
0.0
  0
LINE
  8
DETAIL
  6
CONTINUOUS
 62
     5
 10
204.3235429490887
 20
-158.3152039365763
 30
0.0
 11
205.82719627732149
 21
-159.63360346595289
 31
0.0
  0
LINE
  8
DETAIL
  6
CONTINUOUS
 62
     5
 10
204.3235429490887
 20
-158.3152039365763
 30
0.0
 11
205.41647905456921
 21
-159.98991027531011
 31
0.0
  0
LINE
  8
DETAIL
  6
CONTINUOUS
 62
     5
 10
217.46520686482469
 20
-156.43744721901959
 30
0.0
 11
216.07284539660029
 21
-155.29439662156659
 31
0.0
  0
LINE
  8
DETAIL
  6
CONTINUOUS
 62
     5
 10
216.0500770807266
 20
-158.05500832810719
 30
0.0
 11
214.7051174462176
 21
-156.87575103799679
 31
0.0
  0
LINE
  8
DETAIL
  6
CONTINUOUS
 62
     5
 10
217.37130825425629
 20
-156.54812547031759
 30
0.0
 11
216.0263486197473
 21
-155.36886818020719
 31
0.0
  0
LINE
  8
DETAIL
  6
CONTINUOUS
 62
     5
 10
233.58801986998509
 20
-160.05479597929161
 30
0.0
 11
233.68416117881131
 21
-160.15093728812499
 31
0.0
  0
LINE
  8
DETAIL
  6
CONTINUOUS
 62
     5
 10
235.58780752116579
 20
-158.05500832810719
 30
0.0
 11
235.68394882999931
 21
-158.15114963693711
 31
0.0
  0
LINE
  8
DETAIL
  6
CONTINUOUS
 62
     5
 10
227.30502862082719
 20
-143.3770835898562
 30
0.0
 11
226.8738478472369
 21
-141.4245672242746
 31
0.0
  0
LINE
  8
DETAIL
  6
CONTINUOUS
 62
     5
 10
216.02544420284181
 20
-155.33060317823259
 30
0.0
 11
216.0263486197473
 21
-155.36886818020719
 31
0.0
  0
LINE
  8
DETAIL
  6
CONTINUOUS
 62
     5
 10
235.66649628309821
 20
-127.1874830817346
 30
0.0
 11
235.70140137690029
 21
-127.11766757650039
 31
0.0
  0
LINE
  8
DETAIL
  6
CONTINUOUS
 62
     5
 10
233.6553657954137
 20
-124.861844722995
 30
0.0
 11
204.3235429490887
 21
-158.3152039365763
 31
0.0
  0
LINE
  8
DETAIL
  6
CONTINUOUS
 62
     5
 10
235.1590191236464
 20
-126.1802442523754
 30
0.0
 11
205.82719627732149
 21
-159.63360346595289
 31
0.0
  0
LINE
  8
DETAIL
  6
CONTINUOUS
 62
     5
 10
205.96078446684621
 20
-159.7876106033531
 30
0.0
 11
235.32917191595701
 21
-126.2925489424038
 31
0.0
  0
LINE
  8
DETAIL
  6
CONTINUOUS
 62
     5
 10
206.43422620077041
 20
-159.5677782459592
 30
0.0
 11
235.17311384322969
 21
-126.79067002704549
 31
0.0
  0
LINE
  8
DETAIL
  6
CONTINUOUS
 62
     5
 10
216.0263486197473
 20
-155.36886818020719
 30
0.0
 11
214.7051174462176
 21
-156.87575103799679
 31
0.0
  0
LINE
  8
DETAIL
  6
CONTINUOUS
 62
     5
 10
232.24306023547251
 20
-136.87347899799201
 30
0.0
 11
229.105889900824
 21
-140.45146440608951
 31
0.0
  0
LINE
  8
DETAIL
  6
CONTINUOUS
 62
     5
 10
217.37130825425629
 20
-156.54812547031759
 30
0.0
 11
216.05006215024329
 21
-158.0550253569476
 31
0.0
  0
LINE
  8
DETAIL
  6
CONTINUOUS
 62
     5
 10
233.58801544378369
 20
-138.0527413362565
 30
0.0
 11
230.45087484660689
 21
-141.63069451255299
 31
0.0
  0
LINE
  8
DETAIL
  6
CONTINUOUS
 62
     5
 10
233.6553657954137
 20
-124.861844722995
 30
0.0
 11
235.4585765308984
 21
-125.7264727903153
 31
0.0
  0
LINE
  8
DETAIL
  6
CONTINUOUS
 62
     5
 10
230.45087484660689
 20
-141.63069451255299
 30
0.0
 11
229.10591354921419
 21
-140.4514374344275
 31
0.0
  0
LINE
  8
DETAIL
  6
CONTINUOUS
 62
     5
 10
233.58801986998509
 20
-138.05273628860451
 30
0.0
 11
232.24306023547251
 21
-136.87347899799201
 31
0.0
  0
LINE
  8
DETAIL
  6
CONTINUOUS
 62
     5
 10
233.6553657954137
 20
-124.861844722995
 30
0.0
 11
235.1590191236464
 21
-126.1802442523754
 31
0.0
  0
LINE
  8
DETAIL
  6
CONTINUOUS
 62
     5
 10
235.3889621054623
 20
-126.3450201238725
 30
0.0
 11
235.32914847305071
 21
-126.2925756790851
 31
0.0
  0
LINE
  8
DETAIL
  6
CONTINUOUS
 62
     5
 10
234.92266065275541
 20
-134.59874462395089
 30
0.0
 11
234.84612674956949
 21
-128.02866129509721
 31
0.0
  0
LINE
  8
DETAIL
  6
CONTINUOUS
 62
     5
 10
235.49819665858379
 20
-126.6177469874078
 30
0.0
 11
235.58780752116579
 21
-134.30318224512169
 31
0.0
  0
LINE
  8
DETAIL
  6
CONTINUOUS
 62
     5
 10
233.58801544378369
 20
-138.0527413362565
 30
0.0
 11
233.58801986998509
 21
-160.05479597929161
 31
0.0
  0
LINE
  8
DETAIL
  6
CONTINUOUS
 62
     5
 10
235.18398288000029
 20
-160.15093728812499
 30
0.0
 11
235.18398288000029
 21
-160.13610149350859
 31
0.0
  0
LINE
  8
DETAIL
  6
CONTINUOUS
 62
     5
 10
235.58780752116579
 20
-134.30318224512169
 30
0.0
 11
235.58780752116579
 21
-158.05500832810719
 31
0.0
  0
LINE
  8
DETAIL
  6
CONTINUOUS
 62
     5
 10
235.66649628309821
 20
-127.1874830817346
 30
0.0
 11
235.66649628309821
 21
-143.15209498812189
 31
0.0
  0
LINE
  8
DETAIL
  6
CONTINUOUS
 62
     5
 10
235.68394882999931
 20
-143.15209498812189
 30
0.0
 11
235.68394882999931
 21
-158.15114963693711
 31
0.0
  0
LINE
  8
DETAIL
  6
CONTINUOUS
 62
     5
 10
235.70140137690029
 20
-127.11766757650039
 30
0.0
 11
235.70140137690029
 21
-126.40459505954141
 31
0.0
  0
LINE
  8
DETAIL
  6
CONTINUOUS
 62
     5
 10
235.98392840000091
 20
-160.11602953550241
 30
0.0
 11
235.98392840000091
 21
-142.18707084074279
 31
0.0
  0
LINE
  8
DETAIL
  6
CONTINUOUS
 62
     5
 10
205.78207521677899
 20
-160.17740692142121
 30
0.0
 11
205.77863354616781
 21
-160.179644390037
 31
0.0
  0
LINE
  8
DETAIL
  6
CONTINUOUS
 62
     5
 10
235.98392840000091
 20
-142.18707084074279
 30
0.0
 11
235.66649628309821
 21
-142.18707084074279
 31
0.0
  0
LINE
  8
DETAIL
  6
CONTINUOUS
 62
     5
 10
235.66649628309821
 20
-143.15209498812189
 30
0.0
 11
235.68394882999931
 21
-143.15209498812189
 31
0.0
  0
LINE
  8
DETAIL
  6
CONTINUOUS
 62
     5
 10
235.58780752116579
 20
-158.05500832760521
 30
0.0
 11
216.05006215024329
 21
-158.0550253569476
 31
0.0
  0
LINE
  8
DETAIL
  6
CONTINUOUS
 62
     5
 10
233.58801986998509
 20
-160.05479597929161
 30
0.0
 11
212.7624773440148
 21
-160.05479597929161
 31
0.0
  0
LINE
  8
DETAIL
  6
CONTINUOUS
 62
     5
 10
234.0505773821715
 20
-160.11602953550241
 30
0.0
 11
235.98392840000091
 21
-160.11602953550241
 31
0.0
  0
LINE
  8
DETAIL
  6
CONTINUOUS
 62
     5
 10
235.18398288000029
 20
-160.15093728812499
 30
0.0
 11
205.8285253933027
 21
-160.15093728812499
 31
0.0
  0
LINE
  8
DETAIL
  6
CONTINUOUS
 62
     5
 10
207.18562588646449
 20
-159.14224519923161
 30
0.0
 11
213.1537829477893
 21
-159.22157100377669
 31
0.0
  0
LINE
  8
DETAIL
  6
CONTINUOUS
 62
     5
 10
212.7624773440148
 20
-160.05479597929161
 30
0.0
 11
206.01329340424491
 21
-159.96519256069811
 31
0.0
  0
LINE
  8
DETAIL
  6
CONTINUOUS
 62
     5
 10
218.69150859449289
 20
-153.2009242222434
 30
0.0
 11
216.69938641924821
 21
-153.0286718244337
 31
0.0
  0
LINE
  8
DETAIL
  6
CONTINUOUS
 62
     5
 10
112.55112068267771
 20
-18.677941310290858
 30
0.0
 11
112.417532493153
 21
-18.52393417289068
 31
0.0
  0
LINE
  8
DETAIL
  6
CONTINUOUS
 62
     5
 10
83.049145044042234
 20
-52.018995833839988
 30
0.0
 11
83.21929783635278
 21
-52.131300523868497
 31
0.0
  0
LINE
  8
DETAIL
  6
CONTINUOUS
 62
     5
 10
112.8294073320649
 20
-18.170009807780271
 30
0.0
 11
112.96183790543
 21
-18.321634500933559
 31
0.0
  0
LINE
  8
DETAIL
  6
CONTINUOUS
 62
     5
 10
112.6394350500595
 20
-18.264312377340051
 30
0.0
 11
112.5996419361545
 21
-18.131931692574991
 31
0.0
  0
LINE
  8
DETAIL
  6
CONTINUOUS
 62
     5
 10
82.498986406899348
 20
-52.513808795780733
 30
0.0
 11
82.684319795836927
 21
-52.556803120669883
 31
0.0
  0
LINE
  8
DETAIL
  6
CONTINUOUS
 62
     5
 10
82.752111010941007
 20
-52.473585486177853
 30
0.0
 11
82.919740429599187
 21
-52.585071985928487
 31
0.0
  0
LINE
  8
DETAIL
  6
CONTINUOUS
 62
     5
 10
112.36502355575431
 20
-18.346352215545611
 30
0.0
 11
112.32749064941891
 21
-18.220761503353511
 31
0.0
  0
LINE
  8
DETAIL
  6
CONTINUOUS
 62
     5
 10
82.69436812999993
 20
-51.65167777540637
 30
0.0
 11
82.880120301415445
 21
-51.693797788835923
 31
0.0
  0
ARC
  8
DETAIL
  6
CONTINUOUS
 62
     5
 10
129.95767187231101
 20
-74.441240100516097
 30
0.0
 40
52.068562628895847
 50
153.8836285630147
 51
154.42851224830261
  0
ARC
  8
DETAIL
  6
CONTINUOUS
 62
     5
 10
158.0779453457653
 20
-88.18085108528112
 30
0.0
 40
83.365948647251699
 50
153.9122214837183
 51
154.06137318628379
  0
ARC
  8
DETAIL
  6
CONTINUOUS
 62
     5
 10
112.3650122730251
 20
-17.846367563818148
 30
0.0
 40
0.4999857276538319
 50
270.0013298052678
 51
303.2889230243
  0
ARC
  8
DETAIL
  6
CONTINUOUS
 62
     5
 10
103.4935670280865
 20
-24.523546584458359
 30
0.0
 40
1.918544647711069
 50
126.48143398807819
 51
128.26268538768511
  0
ARC
  8
DETAIL
  6
CONTINUOUS
 62
     5
 10
113.8699119223747
 20
-19.79752289108956
 30
0.0
 40
1.931693227732046
 50
122.5916676962937
 51
138.75253916070139
  0
ARC
  8
DETAIL
  6
CONTINUOUS
 62
     5
 10
114.0548752115174
 20
-19.996457494222678
 30
0.0
 40
1.9999406517660701
 50
123.1296138622119
 51
138.75519405890631
  0
ARC
  8
DETAIL
  6
CONTINUOUS
 62
     5
 10
104.81329656288651
 20
-24.531172315610551
 30
0.0
 40
2.929412102949235
 50
147.16254988339449
 51
148.87968377950421
  0
ARC
  8
DETAIL
  6
CONTINUOUS
 62
     5
 10
104.3688434382057
 20
-24.710745643833771
 30
0.0
 40
4.4708685186186203
 50
138.75889892570331
 51
140.619046000005
  0
ARC
  8
DETAIL
  6
CONTINUOUS
 62
     5
 10
84.501674353061389
 20
-53.292415787537273
 30
0.0
 40
1.931694686633624
 50
138.75923352566539
 51
154.9194756972872
  0
ARC
  8
DETAIL
  6
CONTINUOUS
 62
     5
 10
80.694582193194947
 20
-51.651678163877023
 30
0.0
 40
1.9997859368032811
 50
334.46188320661321
 51
0.0
  0
ARC
  8
DETAIL
  6
CONTINUOUS
 62
     5
 10
84.723080047806434
 20
-53.44978513595413
 30
0.0
 40
1.999940651766466
 50
138.75639701539541
 51
154.38197721215869
  0
ARC
  8
DETAIL
  6
CONTINUOUS
 62
     5
 10
80.880162281329831
 20
-51.693765689522927
 30
0.0
 40
1.999956622178134
 50
334.43539594761222
 51
0.0
  0
ARC
  8
DETAIL
  6
CONTINUOUS
 62
     5
 10
84.677664933285996
 20
-51.19407160300625
 30
0.0
 40
2.0007493596893422
 50
174.34340556730169
 51
179.99443284133901
  0
ARC
  8
DETAIL
  6
CONTINUOUS
 62
     5
 10
84.681174494271545
 20
-51.194240207022062
 30
0.0
 40
2.00425845720329
 50
169.44946130553001
 51
174.34849805681719
  0
ARC
  8
DETAIL
  6
CONTINUOUS
 62
     5
 10
84.81222730396621
 20
-44.028183091248593
 30
0.0
 40
2.0218813820007679
 50
132.33619867667451
 51
179.4383004189921
  0
ARC
  8
DETAIL
  6
CONTINUOUS
 62
     5
 10
92.193721179999557
 20
-25.660096738118678
 30
0.0
 40
1.599891040000623
 50
176.9738332792092
 51
3.0261667207908109
  0
ARC
  8
DETAIL
  6
CONTINUOUS
 62
     5
 10
84.694125490746956
 20
-20.160364848869339
 30
0.0
 40
1.9997561133344981
 50
89.999132136404882
 51
180.0
  0
ARC
  8
DETAIL
  6
CONTINUOUS
 62
     5
 10
84.790479420596967
 20
-20.25671877871935
 30
0.0
 40
1.999971087692588
 50
90.005223463281965
 51
179.9947765372913
  0
ARC
  8
DETAIL
  6
CONTINUOUS
 62
     5
 10
84.696305492780084
 20
-35.159183884729373
 30
0.0
 40
2.0019373802794891
 50
180.00761020339269
 51
187.14895227851801
  0
CIRCLE
  8
DETAIL
  6
CONTINUOUS
 62
     5
 10
92.193721179999557
 20
-27.159994588119389
 30
0.0
 40
2.251489910595081
  0
CIRCLE
  8
DETAIL
  6
CONTINUOUS
 62
     5
 10
92.193721179999557
 20
-27.159994588119389
 30
0.0
 40
2.964887947380058
  0
CIRCLE
  8
DETAIL
  6
CONTINUOUS
 62
     5
 10
92.193721179999557
 20
-27.159994588119389
 30
0.0
 40
2.9997956999999871
  0
ARC
  8
DETAIL
  6
CONTINUOUS
 62
     5
 10
92.193721179999557
 20
-25.660096738118678
 30
0.0
 40
3.1997820800007002
 50
230.6196418572346
 51
309.38035814279999
  0
CIRCLE
  8
DETAIL
  6
CONTINUOUS
 62
     5
 10
92.193721179999557
 20
-27.159994588119389
 30
0.0
 40
3.7728272089690091
  0
ARC
  8
DETAIL
  6
CONTINUOUS
 62
     5
 10
88.69395952999912
 20
-24.160198888121609
 30
0.0
 40
11.033849518173049
 50
282.45301643689999
 51
355.05859927938309
  0
ARC
  8
DETAIL
  6
CONTINUOUS
 62
     5
 10
89.088017568319628
 20
-24.505710016210632
 30
0.0
 40
12.614842097246621
 50
281.04350173268978
 51
356.46769524498899
  0
ARC
  8
DETAIL
  6
CONTINUOUS
 62
     5
 10
88.69395952999912
 20
-24.160198888121609
 30
0.0
 40
13.03341322611081
 50
282.45292133320112
 51
355.05827770069169
  0
ARC
  8
DETAIL
  6
CONTINUOUS
 62
     5
 10
87.744727094628615
 20
-23.32790336780317
 30
0.0
 40
14.612180348248
 50
276.00119567080549
 51
1.360590772593399
  0
LINE
  8
DETAIL
  6
CONTINUOUS
 62
     5
 10
112.41751277649379
 20
-18.523956660358071
 30
0.0
 11
112.35769914458071
 21
-18.471512215065101
 31
0.0
  0
LINE
  8
DETAIL
  6
CONTINUOUS
 62
     5
 10
114.05477401091051
 20
-19.996340839667479
 30
0.0
 11
112.55112068267771
 21
-18.677941310290858
 31
0.0
  0
LINE
  8
DETAIL
  6
CONTINUOUS
 62
     5
 10
114.05477401091051
 20
-19.996340839667479
 30
0.0
 11
112.96183790543
 21
-18.321634500933559
 31
0.0
  0
LINE
  8
DETAIL
  6
CONTINUOUS
 62
     5
 10
100.9131100951745
 20
-21.87409755722399
 30
0.0
 11
102.3054715633989
 21
-23.017148154677219
 31
0.0
  0
LINE
  8
DETAIL
  6
CONTINUOUS
 62
     5
 10
102.3282398792726
 20
-20.25653644813644
 30
0.0
 11
103.6731995137816
 21
-21.435793738246961
 31
0.0
  0
LINE
  8
DETAIL
  6
CONTINUOUS
 62
     5
 10
101.0070087057429
 20
-21.76341930592616
 30
0.0
 11
102.3519683402519
 21
-22.942676596036559
 31
0.0
  0
LINE
  8
DETAIL
  6
CONTINUOUS
 62
     5
 10
84.790297090014064
 20
-18.256748796952142
 30
0.0
 11
84.694155781187874
 21
-18.160607488118789
 31
0.0
  0
LINE
  8
DETAIL
  6
CONTINUOUS
 62
     5
 10
82.790509438833396
 20
-20.25653644813644
 30
0.0
 11
82.69436812999993
 21
-20.160395139306619
 31
0.0
  0
LINE
  8
DETAIL
  6
CONTINUOUS
 62
     5
 10
91.073288339171995
 20
-34.93446118638758
 30
0.0
 11
91.504469112762308
 21
-36.886977551969267
 31
0.0
  0
LINE
  8
DETAIL
  6
CONTINUOUS
 62
     5
 10
102.3528727571575
 20
-22.98094159801121
 30
0.0
 11
102.3519683402519
 21
-22.942676596036559
 31
0.0
  0
LINE
  8
DETAIL
  6
CONTINUOUS
 62
     5
 10
82.71182067690097
 20
-51.124061694509237
 30
0.0
 11
82.676915583098889
 21
-51.193877199743383
 31
0.0
  0
LINE
  8
DETAIL
  6
CONTINUOUS
 62
     5
 10
84.722951164585538
 20
-53.449700053248648
 30
0.0
 11
114.05477401091051
 21
-19.996340839667479
 31
0.0
  0
LINE
  8
DETAIL
  6
CONTINUOUS
 62
     5
 10
83.21929783635278
 20
-52.131300523868497
 30
0.0
 11
112.55112068267771
 21
-18.677941310290858
 31
0.0
  0
LINE
  8
DETAIL
  6
CONTINUOUS
 62
     5
 10
112.417532493153
 20
-18.52393417289068
 30
0.0
 11
83.049145044042234
 21
-52.018995833839988
 31
0.0
  0
LINE
  8
DETAIL
  6
CONTINUOUS
 62
     5
 10
111.9440907592289
 20
-18.743766530284571
 30
0.0
 11
83.205203116769553
 21
-51.520874749198242
 31
0.0
  0
LINE
  8
DETAIL
  6
CONTINUOUS
 62
     5
 10
102.3519683402519
 20
-22.942676596036559
 30
0.0
 11
103.6731995137816
 21
-21.435793738246961
 31
0.0
  0
LINE
  8
DETAIL
  6
CONTINUOUS
 62
     5
 10
86.135256724526698
 20
-41.438065778251712
 30
0.0
 11
89.272427059175243
 21
-37.860080370154257
 31
0.0
  0
LINE
  8
DETAIL
  6
CONTINUOUS
 62
     5
 10
101.0070087057429
 20
-21.76341930592616
 30
0.0
 11
102.3282548097559
 21
-20.256519419296179
 31
0.0
  0
LINE
  8
DETAIL
  6
CONTINUOUS
 62
     5
 10
84.79030151621555
 20
-40.258803439987332
 30
0.0
 11
87.927442113392317
 21
-36.6808502636909
 31
0.0
  0
LINE
  8
DETAIL
  6
CONTINUOUS
 62
     5
 10
84.722951164585538
 20
-53.449700053248648
 30
0.0
 11
82.919740429100784
 21
-52.585071985928487
 31
0.0
  0
LINE
  8
DETAIL
  6
CONTINUOUS
 62
     5
 10
87.927442113392317
 20
-36.6808502636909
 30
0.0
 11
89.272403410785046
 21
-37.860107341816267
 31
0.0
  0
LINE
  8
DETAIL
  6
CONTINUOUS
 62
     5
 10
84.790297090014064
 20
-40.258808487639271
 30
0.0
 11
86.135256724526698
 21
-41.438065778251712
 31
0.0
  0
LINE
  8
DETAIL
  6
CONTINUOUS
 62
     5
 10
84.722951164585538
 20
-53.449700053248648
 30
0.0
 11
83.21929783635278
 21
-52.131300523868497
 31
0.0
  0
LINE
  8
DETAIL
  6
CONTINUOUS
 62
     5
 10
82.989354854536941
 20
-51.96652465237139
 30
0.0
 11
83.049168486948474
 21
-52.018969097158788
 31
0.0
  0
LINE
  8
DETAIL
  6
CONTINUOUS
 62
     5
 10
83.455656307243771
 20
-43.712800152292743
 30
0.0
 11
83.53219021042969
 21
-50.282883481146648
 31
0.0
  0
LINE
  8
DETAIL
  6
CONTINUOUS
 62
     5
 10
82.880120301415445
 20
-51.693797788835923
 30
0.0
 11
82.790509438833396
 21
-44.008362531122202
 31
0.0
  0
LINE
  8
DETAIL
  6
CONTINUOUS
 62
     5
 10
84.79030151621555
 20
-40.258803439987332
 30
0.0
 11
84.790297090014064
 21
-18.256748796952142
 31
0.0
  0
LINE
  8
DETAIL
  6
CONTINUOUS
 62
     5
 10
83.194334079998953
 20
-18.160607488118789
 30
0.0
 11
83.194334079998953
 21
-18.175443282735049
 31
0.0
  0
LINE
  8
DETAIL
  6
CONTINUOUS
 62
     5
 10
82.790509438833396
 20
-44.008362531122202
 30
0.0
 11
82.790509438833396
 21
-20.25653644813644
 31
0.0
  0
LINE
  8
DETAIL
  6
CONTINUOUS
 62
     5
 10
82.71182067690097
 20
-51.124061694509237
 30
0.0
 11
82.71182067690097
 21
-35.159449788121947
 31
0.0
  0
LINE
  8
DETAIL
  6
CONTINUOUS
 62
     5
 10
82.69436812999993
 20
-35.159449788121947
 30
0.0
 11
82.69436812999993
 21
-20.160395139306619
 31
0.0
  0
LINE
  8
DETAIL
  6
CONTINUOUS
 62
     5
 10
82.676915583098889
 20
-51.193877199743383
 30
0.0
 11
82.676915583098889
 21
-51.906949716702343
 31
0.0
  0
LINE
  8
DETAIL
  6
CONTINUOUS
 62
     5
 10
82.394388559998333
 20
-18.195515240741202
 30
0.0
 11
82.394388559998333
 21
-36.124473935501101
 31
0.0
  0
LINE
  8
DETAIL
  6
CONTINUOUS
 62
     5
 10
112.5962417432202
 20
-18.134137854822601
 30
0.0
 11
112.5996834138314
 21
-18.13190038620667
 31
0.0
  0
LINE
  8
DETAIL
  6
CONTINUOUS
 62
     5
 10
82.394388559998333
 20
-36.124473935501101
 30
0.0
 11
82.71182067690097
 21
-36.124473935501101
 31
0.0
  0
LINE
  8
DETAIL
  6
CONTINUOUS
 62
     5
 10
82.71182067690097
 20
-35.159449788121947
 30
0.0
 11
82.69436812999993
 21
-35.159449788121947
 31
0.0
  0
LINE
  8
DETAIL
  6
CONTINUOUS
 62
     5
 10
82.790509438833396
 20
-20.256536448638489
 30
0.0
 11
102.3282548097559
 21
-20.256519419296179
 31
0.0
  0
LINE
  8
DETAIL
  6
CONTINUOUS
 62
     5
 10
84.790297090014064
 20
-18.256748796952142
 30
0.0
 11
105.6158396159844
 21
-18.256748796952142
 31
0.0
  0
LINE
  8
DETAIL
  6
CONTINUOUS
 62
     5
 10
84.327739577827742
 20
-18.195515240741202
 30
0.0
 11
82.394388559998333
 21
-18.195515240741202
 31
0.0
  0
LINE
  8
DETAIL
  6
CONTINUOUS
 62
     5
 10
83.194334079998953
 20
-18.160607488118789
 30
0.0
 11
112.5497915666965
 21
-18.160607488118789
 31
0.0
  0
LINE
  8
DETAIL
  6
CONTINUOUS
 62
     5
 10
111.1926910735347
 20
-19.169299577012229
 30
0.0
 11
105.2245340122099
 21
-19.08997377246715
 31
0.0
  0
LINE
  8
DETAIL
  6
CONTINUOUS
 62
     5
 10
105.6158396159844
 20
-18.256748796952142
 30
0.0
 11
112.36502355575431
 21
-18.346352215545611
 31
0.0
  0
LINE
  8
DETAIL
  6
CONTINUOUS
 62
     5
 10
99.686808365506295
 20
-25.11062055400043
 30
0.0
 11
101.678930540751
 21
-25.282872951810081
 31
0.0
  0
LINE
  8
DETAIL
  6
CONTINUOUS
 62
     5
 10
112.55112068267771
 20
-159.63360346595289
 30
0.0
 11
112.417532493153
 21
-159.7876106033531
 31
0.0
  0
LINE
  8
DETAIL
  6
CONTINUOUS
 62
     5
 10
83.049145044042234
 20
-126.2925489424038
 30
0.0
 11
83.21929783635278
 21
-126.1802442523754
 31
0.0
  0
LINE
  8
DETAIL
  6
CONTINUOUS
 62
     5
 10
112.8294073320649
 20
-160.14153496846339
 30
0.0
 11
112.96183790543
 21
-159.98991027531011
 31
0.0
  0
LINE
  8
DETAIL
  6
CONTINUOUS
 62
     5
 10
112.6394350500595
 20
-160.04723239890379
 30
0.0
 11
112.5996419361545
 21
-160.17961308366881
 31
0.0
  0
LINE
  8
DETAIL
  6
CONTINUOUS
 62
     5
 10
82.498986406899348
 20
-125.7977359804631
 30
0.0
 11
82.684319795836927
 21
-125.75474165557389
 31
0.0
  0
LINE
  8
DETAIL
  6
CONTINUOUS
 62
     5
 10
82.752111010941007
 20
-125.837959290066
 30
0.0
 11
82.919740429599187
 21
-125.7264727903153
 31
0.0
  0
LINE
  8
DETAIL
  6
CONTINUOUS
 62
     5
 10
112.36502355575431
 20
-159.96519256069811
 30
0.0
 11
112.32749064941891
 21
-160.09078327289029
 31
0.0
  0
LINE
  8
DETAIL
  6
CONTINUOUS
 62
     5
 10
82.69436812999993
 20
-126.65986700083739
 30
0.0
 11
82.880120301415445
 21
-126.6177469874078
 31
0.0
  0
ARC
  8
DETAIL
  6
CONTINUOUS
 62
     5
 10
129.95767187231101
 20
-103.87030467572779
 30
0.0
 40
52.068562628895847
 50
205.57148775169739
 51
206.11637143698539
  0
ARC
  8
DETAIL
  6
CONTINUOUS
 62
     5
 10
158.0779453457653
 20
-90.130693690962744
 30
0.0
 40
83.365948647251699
 50
205.93862681371621
 51
206.08777851631089
  0
ARC
  8
DETAIL
  6
CONTINUOUS
 62
     5
 10
112.3650122730251
 20
-160.46517721242569
 30
0.0
 40
0.4999857276538319
 50
56.711076975699967
 51
89.998670194732156
  0
ARC
  8
DETAIL
  6
CONTINUOUS
 62
     5
 10
103.4935670280865
 20
-153.78799819178531
 30
0.0
 40
1.918544647711069
 50
231.73731461234539
 51
233.51856601195439
  0
ARC
  8
DETAIL
  6
CONTINUOUS
 62
     5
 10
113.8699119223747
 20
-158.51402188515419
 30
0.0
 40
1.931693227732046
 50
221.24746083929861
 51
237.40833230370629
  0
ARC
  8
DETAIL
  6
CONTINUOUS
 62
     5
 10
114.0548752115174
 20
-158.3150872820211
 30
0.0
 40
1.9999406517660701
 50
221.24480594113049
 51
236.87038613778799
  0
ARC
  8
DETAIL
  6
CONTINUOUS
 62
     5
 10
104.81329656288651
 20
-153.78037246063329
 30
0.0
 40
2.929412102949235
 50
211.12031622046621
 51
212.83745011660551
  0
ARC
  8
DETAIL
  6
CONTINUOUS
 62
     5
 10
104.3688434382057
 20
-153.60079913240989
 30
0.0
 40
4.4708685186186203
 50
219.380953999995
 51
221.2411010743335
  0
ARC
  8
DETAIL
  6
CONTINUOUS
 62
     5
 10
84.501674353061389
 20
-125.0191289887065
 30
0.0
 40
1.931694686633624
 50
205.0805243027128
 51
221.24076647429541
  0
ARC
  8
DETAIL
  6
CONTINUOUS
 62
     5
 10
80.694582193194947
 20
-126.6598666123668
 30
0.0
 40
1.9997859368032811
 50
0.0
 51
25.538116793415909
  0
ARC
  8
DETAIL
  6
CONTINUOUS
 62
     5
 10
84.723080047806434
 20
-124.86175964028961
 30
0.0
 40
1.999940651766466
 50
205.61802278780931
 51
221.24360298462301
  0
ARC
  8
DETAIL
  6
CONTINUOUS
 62
     5
 10
80.880162281329831
 20
-126.6177790867209
 30
0.0
 40
1.999956622178134
 50
0.0
 51
25.564604052387839
  0
ARC
  8
DETAIL
  6
CONTINUOUS
 62
     5
 10
84.677664933285996
 20
-127.1174731732376
 30
0.0
 40
2.0007493596893422
 50
180.00556715868709
 51
185.65659443272421
  0
ARC
  8
DETAIL
  6
CONTINUOUS
 62
     5
 10
84.681174494271545
 20
-127.1173045692216
 30
0.0
 40
2.00425845720329
 50
185.6515019432087
 51
190.55053869444441
  0
ARC
  8
DETAIL
  6
CONTINUOUS
 62
     5
 10
84.81222730396621
 20
-134.2833616849953
 30
0.0
 40
2.0218813820007679
 50
180.5616995810079
 51
227.6638013233254
  0
ARC
  8
DETAIL
  6
CONTINUOUS
 62
     5
 10
92.193721179999557
 20
-152.6514480381251
 30
0.0
 40
1.599891040000623
 50
356.97383327923518
 51
183.02616672076479
  0
ARC
  8
DETAIL
  6
CONTINUOUS
 62
     5
 10
84.694125490746956
 20
-158.15117992737439
 30
0.0
 40
1.9997561133344981
 50
180.0
 51
270.00086786359509
  0
ARC
  8
DETAIL
  6
CONTINUOUS
 62
     5
 10
84.790479420596967
 20
-158.05482599752429
 30
0.0
 40
1.999971087692588
 50
180.00522346268269
 51
269.99477653671812
  0
ARC
  8
DETAIL
  6
CONTINUOUS
 62
     5
 10
84.696305492780084
 20
-143.15236089151441
 30
0.0
 40
2.0019373802794891
 50
172.8510477214821
 51
179.99238979660731
  0
CIRCLE
  8
DETAIL
  6
CONTINUOUS
 62
     5
 10
92.193721179999557
 20
-151.1515501881245
 30
0.0
 40
2.251489910595081
  0
CIRCLE
  8
DETAIL
  6
CONTINUOUS
 62
     5
 10
92.193721179999557
 20
-151.1515501881245
 30
0.0
 40
2.964887947380058
  0
CIRCLE
  8
DETAIL
  6
CONTINUOUS
 62
     5
 10
92.193721179999557
 20
-151.1515501881245
 30
0.0
 40
2.9997956999999871
  0
ARC
  8
DETAIL
  6
CONTINUOUS
 62
     5
 10
92.193721179999557
 20
-152.6514480381251
 30
0.0
 40
3.1997820800007002
 50
50.619641857199959
 51
129.3803581427654
  0
CIRCLE
  8
DETAIL
  6
CONTINUOUS
 62
     5
 10
92.193721179999557
 20
-151.1515501881245
 30
0.0
 40
3.7728272089690091
  0
ARC
  8
DETAIL
  6
CONTINUOUS
 62
     5
 10
88.69395952999912
 20
-154.15134588812231
 30
0.0
 40
11.033849518173049
 50
4.9414007206168682
 51
77.546983563099985
  0
ARC
  8
DETAIL
  6
CONTINUOUS
 62
     5
 10
89.088017568319628
 20
-153.80583476003309
 30
0.0
 40
12.614842097246621
 50
3.532304755010979
 51
78.956498267310238
  0
ARC
  8
DETAIL
  6
CONTINUOUS
 62
     5
 10
88.69395952999912
 20
-154.15134588812231
 30
0.0
 40
13.03341322611081
 50
4.9417222993082497
 51
77.54707866679891
  0
ARC
  8
DETAIL
  6
CONTINUOUS
 62
     5
 10
87.744727094628615
 20
-154.9836414084406
 30
0.0
 40
14.612180348248
 50
358.63940922738061
 51
83.998804329194513
  0
LINE
  8
DETAIL
  6
CONTINUOUS
 62
     5
 10
112.41751277649379
 20
-159.7875881158856
 30
0.0
 11
112.35769914458071
 21
-159.84003256117859
 31
0.0
  0
LINE
  8
DETAIL
  6
CONTINUOUS
 62
     5
 10
114.05477401091051
 20
-158.3152039365763
 30
0.0
 11
112.55112068267771
 21
-159.63360346595289
 31
0.0
  0
LINE
  8
DETAIL
  6
CONTINUOUS
 62
     5
 10
114.05477401091051
 20
-158.3152039365763
 30
0.0
 11
112.96183790543
 21
-159.98991027531011
 31
0.0
  0
LINE
  8
DETAIL
  6
CONTINUOUS
 62
     5
 10
100.9131100951745
 20
-156.43744721901959
 30
0.0
 11
102.3054715633989
 21
-155.29439662156659
 31
0.0
  0
LINE
  8
DETAIL
  6
CONTINUOUS
 62
     5
 10
102.3282398792726
 20
-158.05500832810719
 30
0.0
 11
103.6731995137816
 21
-156.87575103799679
 31
0.0
  0
LINE
  8
DETAIL
  6
CONTINUOUS
 62
     5
 10
101.0070087057429
 20
-156.54812547031759
 30
0.0
 11
102.3519683402519
 21
-155.36886818020719
 31
0.0
  0
LINE
  8
DETAIL
  6
CONTINUOUS
 62
     5
 10
84.790297090014064
 20
-160.05479597929161
 30
0.0
 11
84.694155781187874
 21
-160.15093728812499
 31
0.0
  0
LINE
  8
DETAIL
  6
CONTINUOUS
 62
     5
 10
82.790509438833396
 20
-158.05500832810719
 30
0.0
 11
82.69436812999993
 21
-158.15114963693711
 31
0.0
  0
LINE
  8
DETAIL
  6
CONTINUOUS
 62
     5
 10
91.073288339171995
 20
-143.3770835898562
 30
0.0
 11
91.504469112762308
 21
-141.4245672242746
 31
0.0
  0
LINE
  8
DETAIL
  6
CONTINUOUS
 62
     5
 10
102.3528727571575
 20
-155.33060317823259
 30
0.0
 11
102.3519683402519
 21
-155.36886818020719
 31
0.0
  0
LINE
  8
DETAIL
  6
CONTINUOUS
 62
     5
 10
82.71182067690097
 20
-127.1874830817346
 30
0.0
 11
82.676915583098889
 21
-127.11766757650039
 31
0.0
  0
LINE
  8
DETAIL
  6
CONTINUOUS
 62
     5
 10
84.722951164585538
 20
-124.861844722995
 30
0.0
 11
114.05477401091051
 21
-158.3152039365763
 31
0.0
  0
LINE
  8
DETAIL
  6
CONTINUOUS
 62
     5
 10
83.21929783635278
 20
-126.1802442523754
 30
0.0
 11
112.55112068267771
 21
-159.63360346595289
 31
0.0
  0
LINE
  8
DETAIL
  6
CONTINUOUS
 62
     5
 10
112.417532493153
 20
-159.7876106033531
 30
0.0
 11
83.049145044042234
 21
-126.2925489424038
 31
0.0
  0
LINE
  8
DETAIL
  6
CONTINUOUS
 62
     5
 10
111.9440907592289
 20
-159.5677782459592
 30
0.0
 11
83.205203116769553
 21
-126.79067002704549
 31
0.0
  0
LINE
  8
DETAIL
  6
CONTINUOUS
 62
     5
 10
102.3519683402519
 20
-155.36886818020719
 30
0.0
 11
103.6731995137816
 21
-156.87575103799679
 31
0.0
  0
LINE
  8
DETAIL
  6
CONTINUOUS
 62
     5
 10
86.135256724526698
 20
-136.87347899799201
 30
0.0
 11
89.272427059175243
 21
-140.45146440608951
 31
0.0
  0
LINE
  8
DETAIL
  6
CONTINUOUS
 62
     5
 10
101.0070087057429
 20
-156.54812547031759
 30
0.0
 11
102.3282548097559
 21
-158.0550253569476
 31
0.0
  0
LINE
  8
DETAIL
  6
CONTINUOUS
 62
     5
 10
84.79030151621555
 20
-138.0527413362565
 30
0.0
 11
87.927442113392317
 21
-141.63069451255299
 31
0.0
  0
LINE
  8
DETAIL
  6
CONTINUOUS
 62
     5
 10
84.722951164585538
 20
-124.861844722995
 30
0.0
 11
82.919740429100784
 21
-125.7264727903153
 31
0.0
  0
LINE
  8
DETAIL
  6
CONTINUOUS
 62
     5
 10
87.927442113392317
 20
-141.63069451255299
 30
0.0
 11
89.272403410785046
 21
-140.4514374344275
 31
0.0
  0
LINE
  8
DETAIL
  6
CONTINUOUS
 62
     5
 10
84.790297090014064
 20
-138.05273628860451
 30
0.0
 11
86.135256724526698
 21
-136.87347899799201
 31
0.0
  0
LINE
  8
DETAIL
  6
CONTINUOUS
 62
     5
 10
84.722951164585538
 20
-124.861844722995
 30
0.0
 11
83.21929783635278
 21
-126.1802442523754
 31
0.0
  0
LINE
  8
DETAIL
  6
CONTINUOUS
 62
     5
 10
82.989354854536941
 20
-126.3450201238725
 30
0.0
 11
83.049168486948474
 21
-126.2925756790851
 31
0.0
  0
LINE
  8
DETAIL
  6
CONTINUOUS
 62
     5
 10
83.455656307243771
 20
-134.59874462395089
 30
0.0
 11
83.53219021042969
 21
-128.02866129509721
 31
0.0
  0
LINE
  8
DETAIL
  6
CONTINUOUS
 62
     5
 10
82.880120301415445
 20
-126.6177469874078
 30
0.0
 11
82.790509438833396
 21
-134.30318224512169
 31
0.0
  0
LINE
  8
DETAIL
  6
CONTINUOUS
 62
     5
 10
84.79030151621555
 20
-138.0527413362565
 30
0.0
 11
84.790297090014064
 21
-160.05479597929161
 31
0.0
  0
LINE
  8
DETAIL
  6
CONTINUOUS
 62
     5
 10
83.194334079998953
 20
-160.15093728812499
 30
0.0
 11
83.194334079998953
 21
-160.13610149350859
 31
0.0
  0
LINE
  8
DETAIL
  6
CONTINUOUS
 62
     5
 10
82.790509438833396
 20
-134.30318224512169
 30
0.0
 11
82.790509438833396
 21
-158.05500832810719
 31
0.0
  0
LINE
  8
DETAIL
  6
CONTINUOUS
 62
     5
 10
82.71182067690097
 20
-127.1874830817346
 30
0.0
 11
82.71182067690097
 21
-143.15209498812189
 31
0.0
  0
LINE
  8
DETAIL
  6
CONTINUOUS
 62
     5
 10
82.69436812999993
 20
-143.15209498812189
 30
0.0
 11
82.69436812999993
 21
-158.15114963693711
 31
0.0
  0
LINE
  8
DETAIL
  6
CONTINUOUS
 62
     5
 10
82.676915583098889
 20
-127.11766757650039
 30
0.0
 11
82.676915583098889
 21
-126.40459505954141
 31
0.0
  0
LINE
  8
DETAIL
  6
CONTINUOUS
 62
     5
 10
82.394388559998333
 20
-160.11602953550241
 30
0.0
 11
82.394388559998333
 21
-142.18707084074279
 31
0.0
  0
LINE
  8
DETAIL
  6
CONTINUOUS
 62
     5
 10
112.5962417432202
 20
-160.17740692142121
 30
0.0
 11
112.5996834138314
 21
-160.179644390037
 31
0.0
  0
LINE
  8
DETAIL
  6
CONTINUOUS
 62
     5
 10
82.394388559998333
 20
-142.18707084074279
 30
0.0
 11
82.71182067690097
 21
-142.18707084074279
 31
0.0
  0
LINE
  8
DETAIL
  6
CONTINUOUS
 62
     5
 10
82.71182067690097
 20
-143.15209498812189
 30
0.0
 11
82.69436812999993
 21
-143.15209498812189
 31
0.0
  0
LINE
  8
DETAIL
  6
CONTINUOUS
 62
     5
 10
82.790509438833396
 20
-158.05500832760521
 30
0.0
 11
102.3282548097559
 21
-158.0550253569476
 31
0.0
  0
LINE
  8
DETAIL
  6
CONTINUOUS
 62
     5
 10
84.790297090014064
 20
-160.05479597929161
 30
0.0
 11
105.6158396159844
 21
-160.05479597929161
 31
0.0
  0
LINE
  8
DETAIL
  6
CONTINUOUS
 62
     5
 10
84.327739577827742
 20
-160.11602953550241
 30
0.0
 11
82.394388559998333
 21
-160.11602953550241
 31
0.0
  0
LINE
  8
DETAIL
  6
CONTINUOUS
 62
     5
 10
83.194334079998953
 20
-160.15093728812499
 30
0.0
 11
112.5497915666965
 21
-160.15093728812499
 31
0.0
  0
LINE
  8
DETAIL
  6
CONTINUOUS
 62
     5
 10
111.1926910735347
 20
-159.14224519923161
 30
0.0
 11
105.2245340122099
 21
-159.22157100377669
 31
0.0
  0
LINE
  8
DETAIL
  6
CONTINUOUS
 62
     5
 10
105.6158396159844
 20
-160.05479597929161
 30
0.0
 11
112.36502355575431
 21
-159.96519256069811
 31
0.0
  0
LINE
  8
DETAIL
  6
CONTINUOUS
 62
     5
 10
99.686808365506295
 20
-153.2009242222434
 30
0.0
 11
101.678930540751
 21
-153.0286718244337
 31
0.0
  0
LINE
  8
DETAIL
  6
CONTINUOUS
 62
     5
 10
-68.97800085322524
 20
-66.431426211769576
 30
0.0
 11
-68.785718236063985
 21
-66.382799639464793
 31
0.0
  0
LINE
  8
DETAIL
  6
CONTINUOUS
 62
     5
 10
-68.97800085322524
 20
-133.55495378822889
 30
0.0
 11
-68.785718236063985
 21
-133.60358959340371
 31
0.0
  0
LINE
  8
DETAIL
  6
CONTINUOUS
 62
     5
 10
-197.00388454677159
 20
-133.55495378822889
 30
0.0
 11
-197.19616716393281
 21
-133.6035803605337
 31
0.0
  0
LINE
  8
DETAIL
  6
CONTINUOUS
 62
     5
 10
-197.00388454677159
 20
-66.431426211769576
 30
0.0
 11
-197.19616716393281
 21
-66.382790406594722
 31
0.0
  0
LINE
  8
DETAIL
  6
CONTINUOUS
 62
     5
 10
-69.219050586121739
 20
-134.50678969078939
 30
0.0
 11
-69.026127243094379
 21
-134.55426459902819
 31
0.0
  0
LINE
  8
DETAIL
  6
CONTINUOUS
 62
     5
 10
-196.76283481387509
 20
-134.50678969078939
 30
0.0
 11
-196.95576274958881
 21
-134.55425609910901
 31
0.0
  0
LINE
  8
DETAIL
  6
CONTINUOUS
 62
     5
 10
-196.76283481387509
 20
-65.479590309209016
 30
0.0
 11
-196.95575815689881
 21
-65.43211540097036
 31
0.0
  0
LINE
  8
DETAIL
  6
CONTINUOUS
 62
     5
 10
-69.219050586121739
 20
-65.479590309209016
 30
0.0
 11
-69.02612265040807
 21
-65.432123900893203
 31
0.0
  0
LINE
  8
DETAIL
  6
CONTINUOUS
 62
     5
 10
-86.352904902676528
 20
-29.51535892216998
 30
0.0
 11
-86.219316713151784
 21
-29.361351784769791
 31
0.0
  0
LINE
  8
DETAIL
  6
CONTINUOUS
 62
     5
 10
-56.850929264041042
 20
-62.856413445719227
 30
0.0
 11
-57.021082056351588
 21
-62.968718135747622
 31
0.0
  0
LINE
  8
DETAIL
  6
CONTINUOUS
 62
     5
 10
-86.631191552063683
 20
-29.007427419659511
 30
0.0
 11
-86.76362212542881
 21
-29.159052112812791
 31
0.0
  0
LINE
  8
DETAIL
  6
CONTINUOUS
 62
     5
 10
-86.441219270058355
 20
-29.101729989219169
 30
0.0
 11
-86.40142615615332
 21
-28.96934930445423
 31
0.0
  0
LINE
  8
DETAIL
  6
CONTINUOUS
 62
     5
 10
-56.300770626898156
 20
-63.351226407659851
 30
0.0
 11
-56.486104015835743
 21
-63.394220732549122
 31
0.0
  0
LINE
  8
DETAIL
  6
CONTINUOUS
 62
     5
 10
-56.553895230939823
 20
-63.311003098056972
 30
0.0
 11
-56.721524649598003
 21
-63.422489597807733
 31
0.0
  0
LINE
  8
DETAIL
  6
CONTINUOUS
 62
     5
 10
-86.166807775753114
 20
-29.18376982742484
 30
0.0
 11
-86.129274869417713
 21
-29.05817911523263
 31
0.0
  0
LINE
  8
DETAIL
  6
CONTINUOUS
 62
     5
 10
-56.496152349998738
 20
-62.489095387285488
 30
0.0
 11
-56.681904521414253
 21
-62.531215400715148
 31
0.0
  0
ARC
  8
DETAIL
  6
CONTINUOUS
 62
     5
 10
-756.71338900812771
 20
-99.993190000000823
 30
0.0
 40
559.72611882633976
 50
359.91049838318361
 51
0.0895016168164624
  0
ARC
  8
DETAIL
  6
CONTINUOUS
 62
     5
 10
-1040.646590596738
 20
-99.993189999498782
 30
0.0
 40
843.66685219300234
 50
359.93871271938929
 51
0.0612872806107095
  0
ARC
  8
DETAIL
  6
CONTINUOUS
 62
     5
 10
-240.1189297822275
 20
-226.1422361803852
 30
0.0
 40
131.03418368486419
 50
79.186578946302077
 51
80.070715744797951
  0
ARC
  8
DETAIL
  6
CONTINUOUS
 62
     5
 10
-132.99094269999841
 20
-158.34021629689971
 30
0.0
 40
5.4996254499996411
 50
193.70193365619531
 51
346.29806634380458
  0
ARC
  8
DETAIL
  6
CONTINUOUS
 62
     5
 10
-195.1965389698853
 20
-133.60365386202841
 30
0.0
 40
1.9996281950458541
 50
180.0
 51
208.38471300151161
  0
ARC
  8
DETAIL
  6
CONTINUOUS
 62
     5
 10
-195.00394219012011
 20
-133.5549146093982
 30
0.0
 40
1.9999423571501169
 50
180.0
 51
208.42130444018909
  0
ARC
  8
DETAIL
  6
CONTINUOUS
 62
     5
 10
-195.19638349347591
 20
-133.60361454570369
 30
0.0
 40
3.9995713221436069
 50
180.0
 51
208.38295604911971
  0
ARC
  8
DETAIL
  6
CONTINUOUS
 62
     5
 10
-204.08267102608079
 20
-101.62611517922061
 30
0.0
 40
135.20137807159861
 50
7.4106784821940241
 51
10.10320002129872
  0
ARC
  8
DETAIL
  6
CONTINUOUS
 62
     5
 10
-208.48580114999641
 20
-99.99319000000105
 30
0.0
 40
7.499489250000174
 50
160.05431942931531
 51
199.94568057068469
  0
ARC
  8
DETAIL
  6
CONTINUOUS
 62
     5
 10
-208.48580114999641
 20
-99.99319000000105
 30
0.0
 40
9.4993530499997192
 50
162.08420307990411
 51
197.91579692009589
  0
ARC
  8
DETAIL
  6
CONTINUOUS
 62
     5
 10
-204.08570572640019
 20
-98.359783738043916
 30
0.0
 40
135.2044507113381
 50
349.89682486648059
 51
352.58928528488121
  0
ARC
  8
DETAIL
  6
CONTINUOUS
 62
     5
 10
-141.18446563708491
 20
-102.9787721895045
 30
0.0
 40
72.556033695095962
 50
14.619442025210271
 51
19.65234993460216
  0
ARC
  8
DETAIL
  6
CONTINUOUS
 62
     5
 10
-141.18269146991221
 20
-97.008192142198823
 30
0.0
 40
72.554168542621127
 50
340.34761344011571
 51
345.38066474431321
  0
ARC
  8
DETAIL
  6
CONTINUOUS
 62
     5
 10
-132.99094269999841
 20
-99.99319000000105
 30
0.0
 40
47.978948813063319
 50
88.697961056597109
 51
91.302038943402877
  0
ARC
  8
DETAIL
  6
CONTINUOUS
 62
     5
 10
-132.99094269999841
 20
-99.99319000000105
 30
0.0
 40
47.992230605011493
 50
91.31618190529899
 51
88.683818094701024
  0
CIRCLE
  8
DETAIL
  6
CONTINUOUS
 62
     5
 10
-132.99094269999841
 20
-99.99319000000105
 30
0.0
 40
49.043579604768418
  0
CIRCLE
  8
DETAIL
  6
CONTINUOUS
 62
     5
 10
-132.99094269999841
 20
-99.99319000000105
 30
0.0
 40
51.496492850000067
  0
CIRCLE
  8
DETAIL
  6
CONTINUOUS
 62
     5
 10
-132.99094269999841
 20
-99.99319000000105
 30
0.0
 40
52.286268190136397
  0
CIRCLE
  8
DETAIL
  6
CONTINUOUS
 62
     5
 10
-132.99094269999841
 20
-99.99319000000105
 30
0.0
 40
52.496705260396112
  0
CIRCLE
  8
DETAIL
  6
CONTINUOUS
 62
     5
 10
-132.99094269999841
 20
-99.99319000000105
 30
0.0
 40
52.847885962361183
  0
ARC
  8
DETAIL
  6
CONTINUOUS
 62
     5
 10
-132.99094269999841
 20
-99.99319000000105
 30
0.0
 40
59.888553712233907
 50
275.11859710500579
 51
84.881402894994139
  0
ARC
  8
DETAIL
  6
CONTINUOUS
 62
     5
 10
-132.99094269999841
 20
-99.99319000000105
 30
0.0
 40
59.888553712232358
 50
95.118597105005861
 51
264.88140289499421
  0
ARC
  8
DETAIL
  6
CONTINUOUS
 62
     5
 10
-132.99094269999841
 20
-99.99319000000105
 30
0.0
 40
61.880807426515062
 50
94.019061621604067
 51
265.98093837839588
  0
ARC
  8
DETAIL
  6
CONTINUOUS
 62
     5
 10
-132.99094269999841
 20
-99.99319000000105
 30
0.0
 40
61.880807426516618
 50
274.01906162160401
 51
85.980938378395948
  0
ARC
  8
DETAIL
  6
CONTINUOUS
 62
     5
 10
-132.99094269999841
 20
-99.99319000000105
 30
0.0
 40
63.835925429412001
 50
199.6020044612786
 51
269.6776881438937
  0
ARC
  8
DETAIL
  6
CONTINUOUS
 62
     5
 10
-132.99094269999841
 20
-99.99319000000105
 30
0.0
 40
63.83592542941124
 50
90.322311856093222
 51
160.3979955387214
  0
ARC
  8
DETAIL
  6
CONTINUOUS
 62
     5
 10
-132.99094269999841
 20
-99.99319000000105
 30
0.0
 40
63.835925429412008
 50
270.32231185609328
 51
340.39799553872137
  0
ARC
  8
DETAIL
  6
CONTINUOUS
 62
     5
 10
-132.99094269999841
 20
-99.99319000000105
 30
0.0
 40
63.835925429412242
 50
19.60200446127865
 51
89.677688143893747
  0
ARC
  8
DETAIL
  6
CONTINUOUS
 62
     5
 10
-132.99094269999841
 20
-99.99319000000105
 30
0.0
 40
65.828179143694001
 50
199.6020044612786
 51
340.39799553872137
  0
ARC
  8
DETAIL
  6
CONTINUOUS
 62
     5
 10
-132.99094269999841
 20
-99.99319000000105
 30
0.0
 40
65.828179143693717
 50
19.60200446127865
 51
160.3979955387214
  0
ARC
  8
DETAIL
  6
CONTINUOUS
 62
     5
 10
-132.99094269999841
 20
-99.99319000000105
 30
0.0
 40
70.512575344587006
 50
208.422426853411
 51
331.57757314658897
  0
ARC
  8
DETAIL
  6
CONTINUOUS
 62
     5
 10
-132.99094269999841
 20
-99.99319000000105
 30
0.0
 40
70.512575344587205
 50
28.42242685341099
 51
151.577573146589
  0
ARC
  8
DETAIL
  6
CONTINUOUS
 62
     5
 10
-132.99094269999841
 20
-99.99319000000105
 30
0.0
 40
72.512362996772623
 50
208.422426853411
 51
331.57757314658897
  0
ARC
  8
DETAIL
  6
CONTINUOUS
 62
     5
 10
-132.99094269999841
 20
-99.99319000000105
 30
0.0
 40
72.512362996772779
 50
28.42242685341099
 51
151.577573146589
  0
ARC
  8
DETAIL
  6
CONTINUOUS
 62
     5
 10
-132.99094269999841
 20
-99.99319000000105
 30
0.0
 40
72.704645613934645
 50
208.38295857070071
 51
331.61703381559818
  0
ARC
  8
DETAIL
  6
CONTINUOUS
 62
     5
 10
-132.99094269999841
 20
-99.99319000000105
 30
0.0
 40
72.704645613934446
 50
28.382958570700701
 51
151.61703381559821
  0
ARC
  8
DETAIL
  6
CONTINUOUS
 62
     5
 10
-132.99094269999841
 20
-99.99319000000105
 30
0.0
 40
74.704433276120497
 50
208.3829416295105
 51
331.61705837048942
  0
ARC
  8
DETAIL
  6
CONTINUOUS
 62
     5
 10
-132.99094269999841
 20
-99.99319000000105
 30
0.0
 40
74.704433276120128
 50
28.382941629510551
 51
151.6170583704895
  0
ARC
  8
DETAIL
  6
CONTINUOUS
 62
     5
 10
-132.99094269999841
 20
-99.99319000000105
 30
0.0
 40
82.584131403132005
 50
236.87098761190319
 51
303.12901238809678
  0
ARC
  8
DETAIL
  6
CONTINUOUS
 62
     5
 10
-132.99094269999841
 20
-99.99319000000105
 30
0.0
 40
82.584136552280839
 50
56.870987611903203
 51
123.1290123880968
  0
ARC
  8
DETAIL
  6
CONTINUOUS
 62
     5
 10
-132.99094269999841
 20
-99.99319000000105
 30
0.0
 40
82.58413669427155
 50
334.38257868629768
 51
358.22480545531192
  0
ARC
  8
DETAIL
  6
CONTINUOUS
 62
     5
 10
-132.99094269999841
 20
-99.99319000000105
 30
0.0
 40
82.584136694272217
 50
1.775194544688145
 51
25.617421313702248
  0
ARC
  8
DETAIL
  6
CONTINUOUS
 62
     5
 10
-132.99094269999841
 20
-99.99319000000105
 30
0.0
 40
82.584136694271933
 50
154.38257868629779
 51
178.22480545531189
  0
ARC
  8
DETAIL
  6
CONTINUOUS
 62
     5
 10
-132.99094269999841
 20
-99.99319000000105
 30
0.0
 40
82.584136694272189
 50
181.77519454468811
 51
205.61742131370221
  0
ARC
  8
DETAIL
  6
CONTINUOUS
 62
     5
 10
-132.99094269999841
 20
-99.99319000000105
 30
0.0
 40
84.583924345457987
 50
236.87098761190319
 51
303.12901238809678
  0
ARC
  8
DETAIL
  6
CONTINUOUS
 62
     5
 10
-132.99094269999841
 20
-99.99319000000105
 30
0.0
 40
84.58392434545766
 50
56.870987611903203
 51
123.1290123880968
  0
ARC
  8
DETAIL
  6
CONTINUOUS
 62
     5
 10
-132.99094269999841
 20
-99.99319000000105
 30
0.0
 40
84.58392434545884
 50
181.98000200640649
 51
205.61742131370221
  0
ARC
  8
DETAIL
  6
CONTINUOUS
 62
     5
 10
-132.99094269999841
 20
-99.99319000000105
 30
0.0
 40
84.583924345457618
 50
154.38257868629779
 51
178.01999799359351
  0
ARC
  8
DETAIL
  6
CONTINUOUS
 62
     5
 10
-132.99094269999841
 20
-99.99319000000105
 30
0.0
 40
84.58392434545884
 50
1.980002006406461
 51
25.617421313702248
  0
ARC
  8
DETAIL
  6
CONTINUOUS
 62
     5
 10
-132.99094269999841
 20
-99.99319000000105
 30
0.0
 40
84.583924345457561
 50
334.38257868629768
 51
358.01999799359362
  0
ARC
  8
DETAIL
  6
CONTINUOUS
 62
     5
 10
-132.99094269999841
 20
-99.99319000000105
 30
0.0
 40
84.940977423987164
 50
236.73658032959329
 51
303.26341907319801
  0
ARC
  8
DETAIL
  6
CONTINUOUS
 62
     5
 10
-132.99094269999841
 20
-99.99319000000105
 30
0.0
 40
84.940977423986823
 50
56.736580329593373
 51
123.26341907319799
  0
ARC
  8
DETAIL
  6
CONTINUOUS
 62
     5
 10
-132.99094269999841
 20
-99.99319000000105
 30
0.0
 40
84.994211499999977
 50
334.46189433749578
 51
25.538105662504201
  0
ARC
  8
DETAIL
  6
CONTINUOUS
 62
     5
 10
-195.19653896938689
 20
-66.382726137471764
 30
0.0
 40
1.999628195047108
 50
151.61501018056819
 51
180.0
  0
ARC
  8
DETAIL
  6
CONTINUOUS
 62
     5
 10
-195.00394219012011
 20
-66.431465390600351
 30
0.0
 40
1.9999423571510579
 50
151.5786955655002
 51
180.0
  0
ARC
  8
DETAIL
  6
CONTINUOUS
 62
     5
 10
-195.1963838169504
 20
-66.38276537280035
 30
0.0
 40
3.999570998165602
 50
151.61704277791
 51
180.0
  0
ARC
  8
DETAIL
  6
CONTINUOUS
 62
     5
 10
-132.99094269999841
 20
-50.996526899998678
 30
0.0
 40
1.499897850000546
 50
222.69607273416631
 51
317.30392726583358
  0
ARC
  8
DETAIL
  6
CONTINUOUS
 62
     5
 10
-132.99094269999841
 20
-41.646163703098857
 30
0.0
 40
5.4996254499995052
 50
13.70193365608791
 51
166.2980663439121
  0
ARC
  8
DETAIL
  6
CONTINUOUS
 62
     5
 10
-240.11892982772409
 20
26.15585618188209
 30
0.0
 40
131.0341836943615
 50
279.92928427460453
 51
280.81342107310132
  0
ARC
  8
DETAIL
  6
CONTINUOUS
 62
     5
 10
-25.86295559627251
 20
-226.14223617538661
 30
0.0
 40
131.03418368436539
 50
99.929284264896879
 51
100.8134210634063
  0
ARC
  8
DETAIL
  6
CONTINUOUS
 62
     5
 10
-70.785346430609934
 20
-133.60365386252681
 30
0.0
 40
1.999628195046659
 50
331.61501018059761
 51
0.0
  0
ARC
  8
DETAIL
  6
CONTINUOUS
 62
     5
 10
-70.977943209873047
 20
-133.5549146093982
 30
0.0
 40
1.9999423571510579
 50
331.5786955655002
 51
0.0
  0
ARC
  8
DETAIL
  6
CONTINUOUS
 62
     5
 10
-70.785501583042787
 20
-133.6036146271982
 30
0.0
 40
3.9995709981659711
 50
331.61704277791011
 51
0.0
  0
ARC
  8
DETAIL
  6
CONTINUOUS
 62
     5
 10
-57.496084249996777
 20
-99.99319000000105
 30
0.0
 40
7.4994892499999182
 50
340.05431942931529
 51
19.945680570684729
  0
ARC
  8
DETAIL
  6
CONTINUOUS
 62
     5
 10
-57.496084249996777
 20
-99.99319000000105
 30
0.0
 40
9.4993530500000603
 50
342.08420307990411
 51
17.9157969200959
  0
ARC
  8
DETAIL
  6
CONTINUOUS
 62
     5
 10
-103.7594560923098
 20
-85.278657712395216
 30
0.0
 40
52.068562628895847
 50
25.571487751697369
 51
26.11637143698535
  0
ARC
  8
DETAIL
  6
CONTINUOUS
 62
     5
 10
-124.79919334012079
 20
-102.9781859324322
 30
0.0
 40
72.554168542621014
 50
160.34761502868051
 51
165.38066633329589
  0
ARC
  8
DETAIL
  6
CONTINUOUS
 62
     5
 10
-124.7974200108947
 20
-97.007606999548443
 30
0.0
 40
72.556033694596493
 50
194.6194426942082
 51
199.6523506034998
  0
ARC
  8
DETAIL
  6
CONTINUOUS
 62
     5
 10
-131.87972956576411
 20
-99.018268697160238
 30
0.0
 40
83.365948647251699
 50
25.93862681371618
 51
26.08777851628173
  0
ARC
  8
DETAIL
  6
CONTINUOUS
 62
     5
 10
-61.89921469289402
 20
-98.36026274141841
 30
0.0
 40
135.20137807109899
 50
187.4106793735063
 51
190.1032009124969
  0
ARC
  8
DETAIL
  6
CONTINUOUS
 62
     5
 10
-61.896179261118959
 20
-101.62659356714001
 30
0.0
 40
135.2044507113383
 50
169.89682602159451
 51
172.58928644009569
  0
ARC
  8
DETAIL
  6
CONTINUOUS
 62
     5
 10
774.66470519574068
 20
-99.993190000499453
 30
0.0
 40
843.66685219250166
 50
179.93871271938929
 51
180.06128728061071
  0
ARC
  8
DETAIL
  6
CONTINUOUS
 62
     5
 10
-86.166796493023867
 20
-28.68378517569727
 30
0.0
 40
0.4999857276538319
 50
236.7110769757
 51
269.9986701947322
  0
ARC
  8
DETAIL
  6
CONTINUOUS
 62
     5
 10
-77.295351248085353
 20
-35.360964196337591
 30
0.0
 40
1.918544647711069
 50
51.737314612345429
 51
53.518566011938127
  0
ARC
  8
DETAIL
  6
CONTINUOUS
 62
     5
 10
-87.671696142373548
 20
-30.634940502968671
 30
0.0
 40
1.931693227732046
 50
41.247460839298597
 51
57.408332303706281
  0
ARC
  8
DETAIL
  6
CONTINUOUS
 62
     5
 10
-87.856659431516164
 20
-30.83387510610191
 30
0.0
 40
1.9999406517660701
 50
41.244805941112148
 51
56.870386137788067
  0
ARC
  8
DETAIL
  6
CONTINUOUS
 62
     5
 10
-78.615080782885343
 20
-35.368589927489673
 30
0.0
 40
2.929412102949235
 50
31.12031622049583
 51
32.837450116605488
  0
ARC
  8
DETAIL
  6
CONTINUOUS
 62
     5
 10
-78.170627658204467
 20
-35.548163255713007
 30
0.0
 40
4.4708685186186203
 50
39.380953999995043
 51
41.241101074296701
  0
ARC
  8
DETAIL
  6
CONTINUOUS
 62
     5
 10
-58.303458573060198
 20
-64.129833399416384
 30
0.0
 40
1.931694686633624
 50
25.080524302712771
 51
41.240766474318697
  0
ARC
  8
DETAIL
  6
CONTINUOUS
 62
     5
 10
-70.785346430609934
 20
-66.382726137970167
 30
0.0
 40
1.9996281950458541
 50
0.0
 51
28.384713001572891
  0
ARC
  8
DETAIL
  6
CONTINUOUS
 62
     5
 10
-54.496366413193748
 20
-62.489095775756248
 30
0.0
 40
1.9997859368032811
 50
180.0
 51
205.53811679338679
  0
ARC
  8
DETAIL
  6
CONTINUOUS
 62
     5
 10
-58.524864267805242
 20
-64.287202747833362
 30
0.0
 40
1.999940651766466
 50
25.618022787841308
 51
41.243602984604593
  0
ARC
  8
DETAIL
  6
CONTINUOUS
 62
     5
 10
-70.977943209873047
 20
-66.431465390600351
 30
0.0
 40
1.999942357150212
 50
0.0
 51
28.421304440218261
  0
ARC
  8
DETAIL
  6
CONTINUOUS
 62
     5
 10
-54.681946501328639
 20
-62.531183301402052
 30
0.0
 40
1.999956622178134
 50
180.0
 51
205.56460405238781
  0
ARC
  8
DETAIL
  6
CONTINUOUS
 62
     5
 10
-58.479449153284797
 20
-62.031489214885369
 30
0.0
 40
2.0007493596893422
 50
0.0055671586609874
 51
5.6565944326982844
  0
ARC
  8
DETAIL
  6
CONTINUOUS
 62
     5
 10
-58.482958714270353
 20
-62.031657818901287
 30
0.0
 40
2.00425845720329
 50
5.6515019431827698
 51
10.550538694470021
  0
ARC
  8
DETAIL
  6
CONTINUOUS
 62
     5
 10
-58.614011523965019
 20
-54.865600703127818
 30
0.0
 40
2.0218813820007679
 50
0.5616995810079272
 51
47.663801323325472
  0
ARC
  8
DETAIL
  6
CONTINUOUS
 62
     5
 10
-70.785501907019352
 20
-66.382765454294713
 30
0.0
 40
3.999571322143701
 50
0.0
 51
28.382956049119699
  0
ARC
  8
DETAIL
  6
CONTINUOUS
 62
     5
 10
-65.995505399998365
 20
-36.4975143499978
 30
0.0
 40
1.599891040000623
 50
176.9738332792092
 51
3.0261667207908109
  0
ARC
  8
DETAIL
  6
CONTINUOUS
 62
     5
 10
-58.495909710745757
 20
-30.997782460748571
 30
0.0
 40
1.9997561133344981
 50
0.0
 51
90.000867863582101
  0
ARC
  8
DETAIL
  6
CONTINUOUS
 62
     5
 10
-58.592263640595768
 20
-31.094136390598582
 30
0.0
 40
1.999971087692588
 50
0.0052234627087494
 51
89.994776536718049
  0
ARC
  8
DETAIL
  6
CONTINUOUS
 62
     5
 10
-58.498089712778892
 20
-45.996601496608491
 30
0.0
 40
2.0019373802794891
 50
352.85104772148208
 51
359.9923897966072
  0
CIRCLE
  8
DETAIL
  6
CONTINUOUS
 62
     5
 10
-65.995505399998365
 20
-37.997412199998507
 30
0.0
 40
2.251489910595081
  0
CIRCLE
  8
DETAIL
  6
CONTINUOUS
 62
     5
 10
-65.995505399998365
 20
-37.997412199998507
 30
0.0
 40
2.964887947380058
  0
CIRCLE
  8
DETAIL
  6
CONTINUOUS
 62
     5
 10
-65.995505399998365
 20
-37.997412199998507
 30
0.0
 40
2.9997956999999871
  0
ARC
  8
DETAIL
  6
CONTINUOUS
 62
     5
 10
-65.995505399998365
 20
-36.4975143499978
 30
0.0
 40
3.1997820800007002
 50
230.61964185720001
 51
309.38035814278368
  0
CIRCLE
  8
DETAIL
  6
CONTINUOUS
 62
     5
 10
-65.995505399998365
 20
-37.997412199998507
 30
0.0
 40
3.7728272089690091
  0
ARC
  8
DETAIL
  6
CONTINUOUS
 62
     5
 10
-62.495743749997928
 20
-34.997616500000731
 30
0.0
 40
11.033849518173049
 50
184.94140072061691
 51
257.54698356310001
  0
ARC
  8
DETAIL
  6
CONTINUOUS
 62
     5
 10
-62.889801788318437
 20
-35.343127628089967
 30
0.0
 40
12.614842097246621
 50
183.53230475501101
 51
258.95649826729692
  0
ARC
  8
DETAIL
  6
CONTINUOUS
 62
     5
 10
-62.495743749997928
 20
-34.997616500000731
 30
0.0
 40
13.03341322611081
 50
184.94172229930831
 51
257.54707866679888
  0
ARC
  8
DETAIL
  6
CONTINUOUS
 62
     5
 10
-61.546511314627423
 20
-34.165320979682292
 30
0.0
 40
14.612180348248
 50
178.63940922740659
 51
263.99880432919451
  0
ARC
  8
DETAIL
  6
CONTINUOUS
 62
     5
 10
-25.86295559627251
 20
26.155856175384539
 30
0.0
 40
131.03418368436189
 50
259.18657893659372
 51
260.07071573510308
  0
LINE
  8
DETAIL
  6
CONTINUOUS
 62
     5
 10
-199.19595481561919
 20
-133.60361353877309
 30
0.0
 11
-199.19595481561919
 21
-66.382766461225401
 31
0.0
  0
LINE
  8
DETAIL
  6
CONTINUOUS
 62
     5
 10
-197.19616716393281
 20
-133.6035803605337
 30
0.0
 11
-197.19616716393281
 21
-66.382790406594722
 31
0.0
  0
LINE
  8
DETAIL
  6
CONTINUOUS
 62
     5
 10
-197.00388454677159
 20
-115.798595737564
 30
0.0
 11
-197.00388454677159
 21
-133.55495378822889
 31
0.0
  0
LINE
  8
DETAIL
  6
CONTINUOUS
 62
     5
 10
-197.00388454677159
 20
-66.431426211769576
 30
0.0
 11
-197.00388454677159
 21
-84.187784262434548
 31
0.0
  0
LINE
  8
DETAIL
  6
CONTINUOUS
 62
     5
 10
-195.00409689558359
 20
-122.0775255373229
 30
0.0
 11
-195.00409689558359
 21
-133.55495378822889
 31
0.0
  0
LINE
  8
DETAIL
  6
CONTINUOUS
 62
     5
 10
-195.00409689558359
 20
-66.431426211769576
 30
0.0
 11
-195.00409689558359
 21
-77.908854462672025
 31
0.0
  0
LINE
  8
DETAIL
  6
CONTINUOUS
 62
     5
 10
-70.977788504911587
 20
-133.55495378822889
 30
0.0
 11
-69.219050586121739
 21
-134.50678969078939
 31
0.0
  0
LINE
  8
DETAIL
  6
CONTINUOUS
 62
     5
 10
-195.00409689558359
 20
-66.431426211769576
 30
0.0
 11
-196.76283481387509
 21
-65.479590309209016
 31
0.0
  0
LINE
  8
DETAIL
  6
CONTINUOUS
 62
     5
 10
-69.026112431605725
 20
-134.55423718589381
 30
0.0
 11
-67.26671897595952
 21
-135.5048608335164
 31
0.0
  0
LINE
  8
DETAIL
  6
CONTINUOUS
 62
     5
 10
-196.9557729683911
 20
-65.432142814104736
 30
0.0
 11
-198.71516642403731
 21
-64.481519166482144
 31
0.0
  0
LINE
  8
DETAIL
  6
CONTINUOUS
 62
     5
 10
-70.977788504911587
 20
-122.0775255373229
 30
0.0
 11
-72.854582583029696
 21
-121.40915524243989
 31
0.0
  0
LINE
  8
DETAIL
  6
CONTINUOUS
 62
     5
 10
-195.00409689558359
 20
-77.908854462672025
 30
0.0
 11
-193.12730281746551
 21
-78.577224757558724
 31
0.0
  0
LINE
  8
DETAIL
  6
CONTINUOUS
 62
     5
 10
-197.19616716393281
 20
-133.60361353877309
 30
0.0
 11
-199.19595481561919
 21
-133.60361353877309
 31
0.0
  0
LINE
  8
DETAIL
  6
CONTINUOUS
 62
     5
 10
-68.785718236063985
 20
-133.60361353877309
 30
0.0
 11
-66.785930584876041
 21
-133.60361353877309
 31
0.0
  0
LINE
  8
DETAIL
  6
CONTINUOUS
 62
     5
 10
-195.00409689558359
 20
-133.55495378822889
 30
0.0
 11
-197.00388454677159
 21
-133.55495378822889
 31
0.0
  0
LINE
  8
DETAIL
  6
CONTINUOUS
 62
     5
 10
-70.977788504911587
 20
-133.55495378822889
 30
0.0
 11
-68.97800085322524
 21
-133.55495378822889
 31
0.0
  0
LINE
  8
DETAIL
  6
CONTINUOUS
 62
     5
 10
-86.219296996492631
 20
-29.361374272237409
 30
0.0
 11
-86.159483364579501
 21
-29.308929826944219
 31
0.0
  0
LINE
  8
DETAIL
  6
CONTINUOUS
 62
     5
 10
-87.856558230909286
 20
-30.833758451546711
 30
0.0
 11
-86.352904902676528
 21
-29.51535892216998
 31
0.0
  0
LINE
  8
DETAIL
  6
CONTINUOUS
 62
     5
 10
-87.856558230909286
 20
-30.833758451546711
 30
0.0
 11
-86.76362212542881
 21
-29.159052112812791
 31
0.0
  0
LINE
  8
DETAIL
  6
CONTINUOUS
 62
     5
 10
-74.714894315173296
 20
-32.711515169103222
 30
0.0
 11
-76.107255783397704
 21
-33.854565766556327
 31
0.0
  0
LINE
  8
DETAIL
  6
CONTINUOUS
 62
     5
 10
-76.130024099271395
 20
-31.09395406001568
 30
0.0
 11
-77.474983733780391
 21
-32.273211350126083
 31
0.0
  0
LINE
  8
DETAIL
  6
CONTINUOUS
 62
     5
 10
-74.808792925741727
 20
-32.600836917805282
 30
0.0
 11
-76.153752560250723
 21
-33.780094207915681
 31
0.0
  0
LINE
  8
DETAIL
  6
CONTINUOUS
 62
     5
 10
-58.592081310012873
 20
-29.09416640883148
 30
0.0
 11
-58.495940001186682
 21
-28.9980250999979
 31
0.0
  0
LINE
  8
DETAIL
  6
CONTINUOUS
 62
     5
 10
-56.592293658832197
 20
-31.09395406001568
 30
0.0
 11
-56.496152349998738
 21
-30.997812751185851
 31
0.0
  0
LINE
  8
DETAIL
  6
CONTINUOUS
 62
     5
 10
-64.875072559170803
 20
-45.771878798266698
 30
0.0
 11
-65.306253332761116
 21
-47.724395163848378
 31
0.0
  0
LINE
  8
DETAIL
  6
CONTINUOUS
 62
     5
 10
-76.154656977156264
 20
-33.818359209890332
 30
0.0
 11
-76.153752560250723
 21
-33.780094207915681
 31
0.0
  0
LINE
  8
DETAIL
  6
CONTINUOUS
 62
     5
 10
-70.977788504911587
 20
-77.908854462672025
 30
0.0
 11
-70.977788504911587
 21
-66.431426211769576
 31
0.0
  0
LINE
  8
DETAIL
  6
CONTINUOUS
 62
     5
 10
-70.977788504911587
 20
-133.55495378822889
 30
0.0
 11
-70.977788504911587
 21
-122.0775255373229
 31
0.0
  0
LINE
  8
DETAIL
  6
CONTINUOUS
 62
     5
 10
-68.97800085322524
 20
-84.187784262434548
 30
0.0
 11
-68.97800085322524
 21
-66.431426211769576
 31
0.0
  0
LINE
  8
DETAIL
  6
CONTINUOUS
 62
     5
 10
-68.97800085322524
 20
-133.55495378822889
 30
0.0
 11
-68.97800085322524
 21
-115.798595737564
 31
0.0
  0
LINE
  8
DETAIL
  6
CONTINUOUS
 62
     5
 10
-68.785718236063985
 20
-66.382799639464793
 30
0.0
 11
-68.785718236063985
 21
-133.60358959340371
 31
0.0
  0
LINE
  8
DETAIL
  6
CONTINUOUS
 62
     5
 10
-66.785930584876041
 20
-66.382766461225401
 30
0.0
 11
-66.785930584876041
 21
-133.60361353877309
 31
0.0
  0
LINE
  8
DETAIL
  6
CONTINUOUS
 62
     5
 10
-56.513604896899778
 20
-61.961479306388362
 30
0.0
 11
-56.478699803097697
 21
-62.031294811622622
 31
0.0
  0
LINE
  8
DETAIL
  6
CONTINUOUS
 62
     5
 10
-58.524735384584353
 20
-64.28711766512788
 30
0.0
 11
-87.856558230909286
 21
-30.833758451546711
 31
0.0
  0
LINE
  8
DETAIL
  6
CONTINUOUS
 62
     5
 10
-57.021082056351588
 20
-62.968718135747622
 30
0.0
 11
-86.352904902676528
 21
-29.51535892216998
 31
0.0
  0
LINE
  8
DETAIL
  6
CONTINUOUS
 62
     5
 10
-86.219316713151784
 20
-29.361351784769791
 30
0.0
 11
-56.850929264041042
 21
-62.856413445719227
 31
0.0
  0
LINE
  8
DETAIL
  6
CONTINUOUS
 62
     5
 10
-85.745874979227665
 20
-29.581184142163689
 30
0.0
 11
-57.006987336768361
 21
-62.358292361077467
 31
0.0
  0
LINE
  8
DETAIL
  6
CONTINUOUS
 62
     5
 10
-76.153752560250723
 20
-33.780094207915681
 30
0.0
 11
-77.474983733780391
 21
-32.273211350126083
 31
0.0
  0
LINE
  8
DETAIL
  6
CONTINUOUS
 62
     5
 10
-59.937040944525513
 20
-52.275483390130937
 30
0.0
 11
-63.074211279174051
 21
-48.697497982033383
 31
0.0
  0
LINE
  8
DETAIL
  6
CONTINUOUS
 62
     5
 10
-74.808792925741727
 20
-32.600836917805282
 30
0.0
 11
-76.130039029754698
 21
-31.093937031175411
 31
0.0
  0
LINE
  8
DETAIL
  6
CONTINUOUS
 62
     5
 10
-58.592085736214358
 20
-51.096221051866451
 30
0.0
 11
-61.729226333391132
 21
-47.518267875570018
 31
0.0
  0
LINE
  8
DETAIL
  6
CONTINUOUS
 62
     5
 10
-195.00409689558359
 20
-66.431426211769576
 30
0.0
 11
-197.00388454677159
 21
-66.431426211769576
 31
0.0
  0
LINE
  8
DETAIL
  6
CONTINUOUS
 62
     5
 10
-70.977788504911587
 20
-66.431426211769576
 30
0.0
 11
-68.97800085322524
 21
-66.431426211769576
 31
0.0
  0
LINE
  8
DETAIL
  6
CONTINUOUS
 62
     5
 10
-197.19616716393281
 20
-66.382766461225401
 30
0.0
 11
-199.19595481561919
 21
-66.382766461225401
 31
0.0
  0
LINE
  8
DETAIL
  6
CONTINUOUS
 62
     5
 10
-68.785718236063985
 20
-66.382766461225401
 30
0.0
 11
-66.785930584876041
 21
-66.382766461225401
 31
0.0
  0
LINE
  8
DETAIL
  6
CONTINUOUS
 62
     5
 10
-58.524735384584353
 20
-64.28711766512788
 30
0.0
 11
-56.721524649099592
 21
-63.422489597807733
 31
0.0
  0
LINE
  8
DETAIL
  6
CONTINUOUS
 62
     5
 10
-196.9557729683911
 20
-134.55423718589381
 30
0.0
 11
-198.71516642403731
 21
-135.5048608335164
 31
0.0
  0
LINE
  8
DETAIL
  6
CONTINUOUS
 62
     5
 10
-69.026112431605725
 20
-65.432142814104736
 30
0.0
 11
-67.26671897595952
 21
-64.481519166482144
 31
0.0
  0
LINE
  8
DETAIL
  6
CONTINUOUS
 62
     5
 10
-195.00409689558359
 20
-133.55495378822889
 30
0.0
 11
-196.76283481387509
 21
-134.50678969078939
 31
0.0
  0
LINE
  8
DETAIL
  6
CONTINUOUS
 62
     5
 10
-70.977788504911587
 20
-66.431426211769576
 30
0.0
 11
-69.219050586121739
 21
-65.479590309209016
 31
0.0
  0
LINE
  8
DETAIL
  6
CONTINUOUS
 62
     5
 10
-61.729226333391132
 20
-47.518267875570018
 30
0.0
 11
-63.074187630783847
 21
-48.697524953695392
 31
0.0
  0
LINE
  8
DETAIL
  6
CONTINUOUS
 62
     5
 10
-58.592081310012873
 20
-51.096226099518503
 30
0.0
 11
-59.937040944525513
 21
-52.275483390130937
 31
0.0
  0
LINE
  8
DETAIL
  6
CONTINUOUS
 62
     5
 10
-58.524735384584353
 20
-64.28711766512788
 30
0.0
 11
-57.021082056351588
 21
-62.968718135747622
 31
0.0
  0
LINE
  8
DETAIL
  6
CONTINUOUS
 62
     5
 10
-56.791139074535749
 20
-62.803942264250622
 30
0.0
 11
-56.850952706947282
 21
-62.856386709037913
 31
0.0
  0
LINE
  8
DETAIL
  6
CONTINUOUS
 62
     5
 10
-57.257440527242579
 20
-54.550217764171983
 30
0.0
 11
-57.333974430428498
 21
-61.120301093025773
 31
0.0
  0
LINE
  8
DETAIL
  6
CONTINUOUS
 62
     5
 10
-56.681904521414253
 20
-62.531215400715148
 30
0.0
 11
-56.592293658832197
 21
-54.845780143001427
 31
0.0
  0
LINE
  8
DETAIL
  6
CONTINUOUS
 62
     5
 10
-58.592085736214358
 20
-51.096221051866451
 30
0.0
 11
-58.592081310012873
 21
-29.09416640883148
 31
0.0
  0
LINE
  8
DETAIL
  6
CONTINUOUS
 62
     5
 10
-56.996118299997761
 20
-28.9980250999979
 30
0.0
 11
-56.996118299997761
 21
-29.012860894614281
 31
0.0
  0
LINE
  8
DETAIL
  6
CONTINUOUS
 62
     5
 10
-56.592293658832197
 20
-54.845780143001427
 30
0.0
 11
-56.592293658832197
 21
-31.09395406001568
 31
0.0
  0
LINE
  8
DETAIL
  6
CONTINUOUS
 62
     5
 10
-56.513604896899778
 20
-61.961479306388362
 30
0.0
 11
-56.513604896899778
 21
-45.996867400001072
 31
0.0
  0
LINE
  8
DETAIL
  6
CONTINUOUS
 62
     5
 10
-56.496152349998738
 20
-45.996867400001072
 30
0.0
 11
-56.496152349998738
 21
-30.997812751185851
 31
0.0
  0
LINE
  8
DETAIL
  6
CONTINUOUS
 62
     5
 10
-56.478699803097697
 20
-62.031294811622622
 30
0.0
 11
-56.478699803097697
 21
-62.744367328581568
 31
0.0
  0
LINE
  8
DETAIL
  6
CONTINUOUS
 62
     5
 10
-56.196172779997141
 20
-29.03293285262043
 30
0.0
 11
-56.196172779997141
 21
-46.961891547380333
 31
0.0
  0
LINE
  8
DETAIL
  6
CONTINUOUS
 62
     5
 10
-86.39802596321897
 20
-28.97155546670194
 30
0.0
 11
-86.40146763383018
 21
-28.969317998086009
 31
0.0
  0
LINE
  8
DETAIL
  6
CONTINUOUS
 62
     5
 10
-56.196172779997141
 20
-46.961891547380333
 30
0.0
 11
-56.513604896899778
 21
-46.961891547380333
 31
0.0
  0
LINE
  8
DETAIL
  6
CONTINUOUS
 62
     5
 10
-56.513604896899778
 20
-45.996867400001072
 30
0.0
 11
-56.496152349998738
 21
-45.996867400001072
 31
0.0
  0
LINE
  8
DETAIL
  6
CONTINUOUS
 62
     5
 10
-193.12730281746551
 20
-121.40915524243989
 30
0.0
 11
-195.00409689558359
 21
-122.0775255373229
 31
0.0
  0
LINE
  8
DETAIL
  6
CONTINUOUS
 62
     5
 10
-72.854582583029696
 20
-78.577224757558724
 30
0.0
 11
-70.977788504911587
 21
-77.908854462672025
 31
0.0
  0
LINE
  8
DETAIL
  6
CONTINUOUS
 62
     5
 10
-56.592293658832197
 20
-31.093954060517721
 30
0.0
 11
-76.130039029754698
 21
-31.093937031175411
 31
0.0
  0
LINE
  8
DETAIL
  6
CONTINUOUS
 62
     5
 10
-58.592081310012873
 20
-29.09416640883148
 30
0.0
 11
-79.41762383598325
 21
-29.09416640883148
 31
0.0
  0
LINE
  8
DETAIL
  6
CONTINUOUS
 62
     5
 10
-58.12952379782655
 20
-29.03293285262043
 30
0.0
 11
-56.196172779997141
 21
-29.03293285262043
 31
0.0
  0
LINE
  8
DETAIL
  6
CONTINUOUS
 62
     5
 10
-56.996118299997761
 20
-28.9980250999979
 30
0.0
 11
-86.351575786695321
 21
-28.9980250999979
 31
0.0
  0
LINE
  8
DETAIL
  6
CONTINUOUS
 62
     5
 10
-84.994475293533469
 20
-30.00671718889134
 30
0.0
 11
-79.026318232208723
 21
-29.927391384346269
 31
0.0
  0
LINE
  8
DETAIL
  6
CONTINUOUS
 62
     5
 10
-79.41762383598325
 20
-29.09416640883148
 30
0.0
 11
-86.166807775753114
 21
-29.18376982742484
 31
0.0
  0
LINE
  8
DETAIL
  6
CONTINUOUS
 62
     5
 10
-73.488592585505103
 20
-35.948038165879552
 30
0.0
 11
-75.480714760749834
 21
-36.120290563689203
 31
0.0
  0
ARC
  8
DETAIL
  6
CONTINUOUS
 62
     5
 10
-132.99094269999841
 20
-99.99319000000105
 30
0.0
 40
84.994211499999651
 50
154.15806723679319
 51
205.84193276320681
  0
LINE
  8
DETAIL
  6
CONTINUOUS
 62
     5
 10
-86.352904902676528
 20
-170.47102107783209
 30
0.0
 11
-86.219316713151784
 21
-170.62502821523239
 31
0.0
  0
LINE
  8
DETAIL
  6
CONTINUOUS
 62
     5
 10
-56.850929264041042
 20
-137.1299665542829
 30
0.0
 11
-57.021082056351588
 21
-137.01766186425451
 31
0.0
  0
LINE
  8
DETAIL
  6
CONTINUOUS
 62
     5
 10
-86.631191552063683
 20
-170.97895258034259
 30
0.0
 11
-86.76362212542881
 21
-170.8273278871894
 31
0.0
  0
LINE
  8
DETAIL
  6
CONTINUOUS
 62
     5
 10
-86.441219270058355
 20
-170.88465001078291
 30
0.0
 11
-86.40142615615332
 21
-171.0170306955479
 31
0.0
  0
LINE
  8
DETAIL
  6
CONTINUOUS
 62
     5
 10
-56.300770626898156
 20
-136.63515359234219
 30
0.0
 11
-56.486104015835743
 21
-136.59215926745321
 31
0.0
  0
LINE
  8
DETAIL
  6
CONTINUOUS
 62
     5
 10
-56.553895230939823
 20
-136.67537690194521
 30
0.0
 11
-56.721524649598003
 21
-136.5638904021944
 31
0.0
  0
LINE
  8
DETAIL
  6
CONTINUOUS
 62
     5
 10
-86.166807775753114
 20
-170.80261017257729
 30
0.0
 11
-86.129274869417713
 21
-170.9282008847695
 31
0.0
  0
LINE
  8
DETAIL
  6
CONTINUOUS
 62
     5
 10
-56.496152349998738
 20
-137.4972846127167
 30
0.0
 11
-56.681904521414253
 21
-137.45516459928689
 31
0.0
  0
ARC
  8
DETAIL
  6
CONTINUOUS
 62
     5
 10
-103.7594560923098
 20
-114.7077222876069
 30
0.0
 40
52.068562628895847
 50
333.88362856301472
 51
334.42851224830258
  0
ARC
  8
DETAIL
  6
CONTINUOUS
 62
     5
 10
-131.87972956576411
 20
-100.968111302842
 30
0.0
 40
83.365948647251699
 50
333.91222148368922
 51
334.06137318628379
  0
ARC
  8
DETAIL
  6
CONTINUOUS
 62
     5
 10
-86.166796493023867
 20
-171.3025948243048
 30
0.0
 40
0.4999857276538319
 50
90.001329805267858
 51
123.2889230243
  0
ARC
  8
DETAIL
  6
CONTINUOUS
 62
     5
 10
-77.295351248085353
 20
-164.62541580366459
 30
0.0
 40
1.918544647711069
 50
306.48143398806189
 51
308.26268538765459
  0
ARC
  8
DETAIL
  6
CONTINUOUS
 62
     5
 10
-87.671696142373548
 20
-169.35143949703351
 30
0.0
 40
1.931693227732046
 50
302.59166769629371
 51
318.75253916070142
  0
ARC
  8
DETAIL
  6
CONTINUOUS
 62
     5
 10
-87.856659431516164
 20
-169.15250489390019
 30
0.0
 40
1.9999406517660701
 50
303.12961386221201
 51
318.75519405886939
  0
ARC
  8
DETAIL
  6
CONTINUOUS
 62
     5
 10
-78.615080782885343
 20
-164.61779007251241
 30
0.0
 40
2.929412102949235
 50
327.16254988339449
 51
328.87968377953382
  0
ARC
  8
DETAIL
  6
CONTINUOUS
 62
     5
 10
-78.170627658204467
 20
-164.43821674428921
 30
0.0
 40
4.4708685186186203
 50
318.75889892566647
 51
320.61904600002828
  0
ARC
  8
DETAIL
  6
CONTINUOUS
 62
     5
 10
-58.303458573060198
 20
-135.8565466005858
 30
0.0
 40
1.931694686633624
 50
318.75923352570459
 51
334.91947569728723
  0
ARC
  8
DETAIL
  6
CONTINUOUS
 62
     5
 10
-54.496366413193748
 20
-137.4972842242461
 30
0.0
 40
1.9997859368032811
 50
154.4618832065841
 51
180.0
  0
ARC
  8
DETAIL
  6
CONTINUOUS
 62
     5
 10
-58.524864267805242
 20
-135.69917725216871
 30
0.0
 40
1.999940651766466
 50
318.75639701537699
 51
334.38197721219069
  0
ARC
  8
DETAIL
  6
CONTINUOUS
 62
     5
 10
-54.681946501328639
 20
-137.45519669859999
 30
0.0
 40
1.999956622178134
 50
154.43539594761219
 51
180.0
  0
ARC
  8
DETAIL
  6
CONTINUOUS
 62
     5
 10
-58.479449153284797
 20
-137.95489078511679
 30
0.0
 40
2.0007493596893422
 50
354.34340556727579
 51
359.99443284131303
  0
ARC
  8
DETAIL
  6
CONTINUOUS
 62
     5
 10
-58.482958714270353
 20
-137.95472218110089
 30
0.0
 40
2.00425845720329
 50
349.44946130555559
 51
354.3484980567913
  0
ARC
  8
DETAIL
  6
CONTINUOUS
 62
     5
 10
-58.614011523965019
 20
-145.12077929687439
 30
0.0
 40
2.0218813820007679
 50
312.33619867667448
 51
359.43830041899201
  0
ARC
  8
DETAIL
  6
CONTINUOUS
 62
     5
 10
-65.995505399998365
 20
-163.48886565000441
 30
0.0
 40
1.599891040000623
 50
356.97383327923518
 51
183.02616672076479
  0
ARC
  8
DETAIL
  6
CONTINUOUS
 62
     5
 10
-58.495909710745757
 20
-168.9885975392535
 30
0.0
 40
1.9997561133344981
 50
269.99913213641793
 51
0.0
  0
ARC
  8
DETAIL
  6
CONTINUOUS
 62
     5
 10
-58.592263640595768
 20
-168.89224360940349
 30
0.0
 40
1.999971087692588
 50
270.00522346328188
 51
359.99477653731731
  0
ARC
  8
DETAIL
  6
CONTINUOUS
 62
     5
 10
-58.498089712778892
 20
-153.98977850339369
 30
0.0
 40
2.0019373802794891
 50
0.0076102033927568
 51
7.1489522785179416
  0
CIRCLE
  8
DETAIL
  6
CONTINUOUS
 62
     5
 10
-65.995505399998365
 20
-161.98896780000359
 30
0.0
 40
2.251489910595081
  0
CIRCLE
  8
DETAIL
  6
CONTINUOUS
 62
     5
 10
-65.995505399998365
 20
-161.98896780000359
 30
0.0
 40
2.964887947380058
  0
CIRCLE
  8
DETAIL
  6
CONTINUOUS
 62
     5
 10
-65.995505399998365
 20
-161.98896780000359
 30
0.0
 40
2.9997956999999871
  0
ARC
  8
DETAIL
  6
CONTINUOUS
 62
     5
 10
-65.995505399998365
 20
-163.48886565000441
 30
0.0
 40
3.1997820800007002
 50
50.619641857234562
 51
129.38035814281631
  0
CIRCLE
  8
DETAIL
  6
CONTINUOUS
 62
     5
 10
-65.995505399998365
 20
-161.98896780000359
 30
0.0
 40
3.7728272089690091
  0
ARC
  8
DETAIL
  6
CONTINUOUS
 62
     5
 10
-62.495743749997928
 20
-164.9887635000014
 30
0.0
 40
11.033849518173049
 50
102.4530164368866
 51
175.05859927938309
  0
ARC
  8
DETAIL
  6
CONTINUOUS
 62
     5
 10
-62.889801788318437
 20
-164.64325237191221
 30
0.0
 40
12.614842097246621
 50
101.04350173270321
 51
176.46769524498899
  0
ARC
  8
DETAIL
  6
CONTINUOUS
 62
     5
 10
-62.495743749997928
 20
-164.9887635000014
 30
0.0
 40
13.03341322611081
 50
102.4529213332011
 51
175.05827770069169
  0
ARC
  8
DETAIL
  6
CONTINUOUS
 62
     5
 10
-61.546511314627423
 20
-165.82105902031989
 30
0.0
 40
14.612180348248
 50
96.001195670805487
 51
181.36059077261939
  0
LINE
  8
DETAIL
  6
CONTINUOUS
 62
     5
 10
-86.219296996492631
 20
-170.62500572776489
 30
0.0
 11
-86.159483364579501
 21
-170.67745017305791
 31
0.0
  0
LINE
  8
DETAIL
  6
CONTINUOUS
 62
     5
 10
-87.856558230909286
 20
-169.15262154845561
 30
0.0
 11
-86.352904902676528
 21
-170.47102107783209
 31
0.0
  0
LINE
  8
DETAIL
  6
CONTINUOUS
 62
     5
 10
-87.856558230909286
 20
-169.15262154845561
 30
0.0
 11
-86.76362212542881
 21
-170.8273278871894
 31
0.0
  0
LINE
  8
DETAIL
  6
CONTINUOUS
 62
     5
 10
-74.714894315173296
 20
-167.27486483089891
 30
0.0
 11
-76.107255783397704
 21
-166.13181423344591
 31
0.0
  0
LINE
  8
DETAIL
  6
CONTINUOUS
 62
     5
 10
-76.130024099271395
 20
-168.89242593998651
 30
0.0
 11
-77.474983733780391
 21
-167.71316864987611
 31
0.0
  0
LINE
  8
DETAIL
  6
CONTINUOUS
 62
     5
 10
-74.808792925741727
 20
-167.3855430821969
 30
0.0
 11
-76.153752560250723
 21
-166.2062857920865
 31
0.0
  0
LINE
  8
DETAIL
  6
CONTINUOUS
 62
     5
 10
-58.592081310012873
 20
-170.89221359117079
 30
0.0
 11
-58.495940001186682
 21
-170.98835490000431
 31
0.0
  0
LINE
  8
DETAIL
  6
CONTINUOUS
 62
     5
 10
-56.592293658832197
 20
-168.89242593998651
 30
0.0
 11
-56.496152349998738
 21
-168.98856724881651
 31
0.0
  0
LINE
  8
DETAIL
  6
CONTINUOUS
 62
     5
 10
-64.875072559170803
 20
-154.21450120173549
 30
0.0
 11
-65.306253332761116
 21
-152.2619848361538
 31
0.0
  0
LINE
  8
DETAIL
  6
CONTINUOUS
 62
     5
 10
-76.154656977156264
 20
-166.1680207901118
 30
0.0
 11
-76.153752560250723
 21
-166.2062857920865
 31
0.0
  0
LINE
  8
DETAIL
  6
CONTINUOUS
 62
     5
 10
-56.513604896899778
 20
-138.02490069361369
 30
0.0
 11
-56.478699803097697
 21
-137.95508518837971
 31
0.0
  0
LINE
  8
DETAIL
  6
CONTINUOUS
 62
     5
 10
-58.524735384584353
 20
-135.69926233487431
 30
0.0
 11
-87.856558230909286
 21
-169.15262154845561
 31
0.0
  0
LINE
  8
DETAIL
  6
CONTINUOUS
 62
     5
 10
-57.021082056351588
 20
-137.01766186425451
 30
0.0
 11
-86.352904902676528
 21
-170.47102107783209
 31
0.0
  0
LINE
  8
DETAIL
  6
CONTINUOUS
 62
     5
 10
-86.219316713151784
 20
-170.62502821523239
 30
0.0
 11
-56.850929264041042
 21
-137.1299665542829
 31
0.0
  0
LINE
  8
DETAIL
  6
CONTINUOUS
 62
     5
 10
-85.745874979227665
 20
-170.40519585783841
 30
0.0
 11
-57.006987336768361
 21
-137.62808763892471
 31
0.0
  0
LINE
  8
DETAIL
  6
CONTINUOUS
 62
     5
 10
-76.153752560250723
 20
-166.2062857920865
 30
0.0
 11
-77.474983733780391
 21
-167.71316864987611
 31
0.0
  0
LINE
  8
DETAIL
  6
CONTINUOUS
 62
     5
 10
-59.937040944525513
 20
-147.7108966098713
 30
0.0
 11
-63.074211279174051
 21
-151.2888820179688
 31
0.0
  0
LINE
  8
DETAIL
  6
CONTINUOUS
 62
     5
 10
-74.808792925741727
 20
-167.3855430821969
 30
0.0
 11
-76.130039029754698
 21
-168.89244296882691
 31
0.0
  0
LINE
  8
DETAIL
  6
CONTINUOUS
 62
     5
 10
-58.592085736214358
 20
-148.89015894813559
 30
0.0
 11
-61.729226333391132
 21
-152.4681121244322
 31
0.0
  0
LINE
  8
DETAIL
  6
CONTINUOUS
 62
     5
 10
-58.524735384584353
 20
-135.69926233487431
 30
0.0
 11
-56.721524649099592
 21
-136.5638904021944
 31
0.0
  0
LINE
  8
DETAIL
  6
CONTINUOUS
 62
     5
 10
-61.729226333391132
 20
-152.4681121244322
 30
0.0
 11
-63.074187630783847
 21
-151.28885504630679
 31
0.0
  0
LINE
  8
DETAIL
  6
CONTINUOUS
 62
     5
 10
-58.592081310012873
 20
-148.8901539004838
 30
0.0
 11
-59.937040944525513
 21
-147.7108966098713
 31
0.0
  0
LINE
  8
DETAIL
  6
CONTINUOUS
 62
     5
 10
-58.524735384584353
 20
-135.69926233487431
 30
0.0
 11
-57.021082056351588
 21
-137.01766186425451
 31
0.0
  0
LINE
  8
DETAIL
  6
CONTINUOUS
 62
     5
 10
-56.791139074535749
 20
-137.18243773575159
 30
0.0
 11
-56.850952706947282
 21
-137.12999329096431
 31
0.0
  0
LINE
  8
DETAIL
  6
CONTINUOUS
 62
     5
 10
-57.257440527242579
 20
-145.4361622358301
 30
0.0
 11
-57.333974430428498
 21
-138.86607890697641
 31
0.0
  0
LINE
  8
DETAIL
  6
CONTINUOUS
 62
     5
 10
-56.681904521414253
 20
-137.45516459928689
 30
0.0
 11
-56.592293658832197
 21
-145.14059985700081
 31
0.0
  0
LINE
  8
DETAIL
  6
CONTINUOUS
 62
     5
 10
-58.592085736214358
 20
-148.89015894813559
 30
0.0
 11
-58.592081310012873
 21
-170.89221359117079
 31
0.0
  0
LINE
  8
DETAIL
  6
CONTINUOUS
 62
     5
 10
-56.996118299997761
 20
-170.98835490000431
 30
0.0
 11
-56.996118299997761
 21
-170.97351910538791
 31
0.0
  0
LINE
  8
DETAIL
  6
CONTINUOUS
 62
     5
 10
-56.592293658832197
 20
-145.14059985700081
 30
0.0
 11
-56.592293658832197
 21
-168.89242593998651
 31
0.0
  0
LINE
  8
DETAIL
  6
CONTINUOUS
 62
     5
 10
-56.513604896899778
 20
-138.02490069361369
 30
0.0
 11
-56.513604896899778
 21
-153.98951260000101
 31
0.0
  0
LINE
  8
DETAIL
  6
CONTINUOUS
 62
     5
 10
-56.496152349998738
 20
-153.98951260000101
 30
0.0
 11
-56.496152349998738
 21
-168.98856724881651
 31
0.0
  0
LINE
  8
DETAIL
  6
CONTINUOUS
 62
     5
 10
-56.478699803097697
 20
-137.95508518837971
 30
0.0
 11
-56.478699803097697
 21
-137.2420126714205
 31
0.0
  0
LINE
  8
DETAIL
  6
CONTINUOUS
 62
     5
 10
-56.196172779997141
 20
-170.9534471473817
 30
0.0
 11
-56.196172779997141
 21
-153.02448845262191
 31
0.0
  0
LINE
  8
DETAIL
  6
CONTINUOUS
 62
     5
 10
-86.39802596321897
 20
-171.0148245333003
 30
0.0
 11
-86.40146763383018
 21
-171.01706200191629
 31
0.0
  0
LINE
  8
DETAIL
  6
CONTINUOUS
 62
     5
 10
-56.196172779997141
 20
-153.02448845262191
 30
0.0
 11
-56.513604896899778
 21
-153.02448845262191
 31
0.0
  0
LINE
  8
DETAIL
  6
CONTINUOUS
 62
     5
 10
-56.513604896899778
 20
-153.98951260000101
 30
0.0
 11
-56.496152349998738
 21
-153.98951260000101
 31
0.0
  0
LINE
  8
DETAIL
  6
CONTINUOUS
 62
     5
 10
-56.592293658832197
 20
-168.89242593948441
 30
0.0
 11
-76.130039029754698
 21
-168.89244296882691
 31
0.0
  0
LINE
  8
DETAIL
  6
CONTINUOUS
 62
     5
 10
-58.592081310012873
 20
-170.89221359117079
 30
0.0
 11
-79.41762383598325
 21
-170.89221359117079
 31
0.0
  0
LINE
  8
DETAIL
  6
CONTINUOUS
 62
     5
 10
-58.12952379782655
 20
-170.9534471473817
 30
0.0
 11
-56.196172779997141
 21
-170.9534471473817
 31
0.0
  0
LINE
  8
DETAIL
  6
CONTINUOUS
 62
     5
 10
-56.996118299997761
 20
-170.98835490000431
 30
0.0
 11
-86.351575786695321
 21
-170.98835490000431
 31
0.0
  0
LINE
  8
DETAIL
  6
CONTINUOUS
 62
     5
 10
-84.994475293533469
 20
-169.9796628111109
 30
0.0
 11
-79.026318232208723
 21
-170.05898861565581
 31
0.0
  0
LINE
  8
DETAIL
  6
CONTINUOUS
 62
     5
 10
-79.41762383598325
 20
-170.89221359117079
 30
0.0
 11
-86.166807775753114
 21
-170.80261017257729
 31
0.0
  0
LINE
  8
DETAIL
  6
CONTINUOUS
 62
     5
 10
-73.488592585505103
 20
-164.03834183412241
 30
0.0
 11
-75.480714760749834
 21
-163.86608943631299
 31
0.0
  0
LINE
  8
DETAIL
  6
CONTINUOUS
 62
     5
 10
-179.6289804973203
 20
-29.51535892216998
 30
0.0
 11
-179.76256868684499
 21
-29.361351784769791
 31
0.0
  0
LINE
  8
DETAIL
  6
CONTINUOUS
 62
     5
 10
-209.13095613595581
 20
-62.856413445719227
 30
0.0
 11
-208.96080334364521
 21
-62.968718135747622
 31
0.0
  0
LINE
  8
DETAIL
  6
CONTINUOUS
 62
     5
 10
-179.35069384793309
 20
-29.007427419659511
 30
0.0
 11
-179.21826327456799
 21
-29.159052112812791
 31
0.0
  0
LINE
  8
DETAIL
  6
CONTINUOUS
 62
     5
 10
-179.5406661299385
 20
-29.101729989219169
 30
0.0
 11
-179.58045924384351
 21
-28.96934930445423
 31
0.0
  0
LINE
  8
DETAIL
  6
CONTINUOUS
 62
     5
 10
-209.6811147730987
 20
-63.351226407659851
 30
0.0
 11
-209.49578138416109
 21
-63.394220732549122
 31
0.0
  0
LINE
  8
DETAIL
  6
CONTINUOUS
 62
     5
 10
-209.42799016905701
 20
-63.311003098056972
 30
0.0
 11
-209.2603607503988
 21
-63.422489597807733
 31
0.0
  0
LINE
  8
DETAIL
  6
CONTINUOUS
 62
     5
 10
-179.81507762424371
 20
-29.18376982742484
 30
0.0
 11
-179.85261053057911
 21
-29.05817911523263
 31
0.0
  0
LINE
  8
DETAIL
  6
CONTINUOUS
 62
     5
 10
-209.48573304999809
 20
-62.489095387285488
 30
0.0
 11
-209.2999808785826
 21
-62.531215400715148
 31
0.0
  0
ARC
  8
DETAIL
  6
CONTINUOUS
 62
     5
 10
-162.22242930768701
 20
-85.278657712395216
 30
0.0
 40
52.068562628895847
 50
153.8836285630147
 51
154.42851224830261
  0
ARC
  8
DETAIL
  6
CONTINUOUS
 62
     5
 10
-134.10215583423269
 20
-99.018268697160238
 30
0.0
 40
83.365948647251699
 50
153.9122214837183
 51
154.06137318628379
  0
ARC
  8
DETAIL
  6
CONTINUOUS
 62
     5
 10
-179.81508890697299
 20
-28.68378517569727
 30
0.0
 40
0.4999857276538319
 50
270.0013298052678
 51
303.2889230243
  0
ARC
  8
DETAIL
  6
CONTINUOUS
 62
     5
 10
-188.6865341519115
 20
-35.360964196337591
 30
0.0
 40
1.918544647711069
 50
126.48143398807819
 51
128.26268538768511
  0
ARC
  8
DETAIL
  6
CONTINUOUS
 62
     5
 10
-178.31018925762331
 20
-30.634940502968671
 30
0.0
 40
1.931693227732046
 50
122.5916676962937
 51
138.75253916070139
  0
ARC
  8
DETAIL
  6
CONTINUOUS
 62
     5
 10
-178.12522596848069
 20
-30.83387510610191
 30
0.0
 40
1.9999406517660701
 50
123.1296138622119
 51
138.75519405890631
  0
ARC
  8
DETAIL
  6
CONTINUOUS
 62
     5
 10
-187.36680461711151
 20
-35.368589927489673
 30
0.0
 40
2.929412102949235
 50
147.16254988339449
 51
148.87968377950421
  0
ARC
  8
DETAIL
  6
CONTINUOUS
 62
     5
 10
-187.81125774179239
 20
-35.548163255713007
 30
0.0
 40
4.4708685186186203
 50
138.75889892570331
 51
140.619046000005
  0
ARC
  8
DETAIL
  6
CONTINUOUS
 62
     5
 10
-207.6784268269366
 20
-64.129833399416384
 30
0.0
 40
1.931694686633624
 50
138.75923352566539
 51
154.9194756972872
  0
ARC
  8
DETAIL
  6
CONTINUOUS
 62
     5
 10
-211.4855189868031
 20
-62.489095775756248
 30
0.0
 40
1.9997859368032811
 50
334.46188320661321
 51
0.0
  0
ARC
  8
DETAIL
  6
CONTINUOUS
 62
     5
 10
-207.45702113219161
 20
-64.287202747833362
 30
0.0
 40
1.999940651766466
 50
138.75639701539541
 51
154.38197721215869
  0
ARC
  8
DETAIL
  6
CONTINUOUS
 62
     5
 10
-211.29993889866819
 20
-62.531183301402052
 30
0.0
 40
1.999956622178134
 50
334.43539594761222
 51
0.0
  0
ARC
  8
DETAIL
  6
CONTINUOUS
 62
     5
 10
-207.50243624671199
 20
-62.031489214885369
 30
0.0
 40
2.0007493596893422
 50
174.34340556730169
 51
179.99443284133901
  0
ARC
  8
DETAIL
  6
CONTINUOUS
 62
     5
 10
-207.4989266857265
 20
-62.031657818901287
 30
0.0
 40
2.00425845720329
 50
169.44946130553001
 51
174.34849805681719
  0
ARC
  8
DETAIL
  6
CONTINUOUS
 62
     5
 10
-207.36787387603181
 20
-54.865600703127818
 30
0.0
 40
2.0218813820007679
 50
132.33619867667451
 51
179.4383004189921
  0
ARC
  8
DETAIL
  6
CONTINUOUS
 62
     5
 10
-199.98637999999849
 20
-36.4975143499978
 30
0.0
 40
1.599891040000623
 50
176.9738332792092
 51
3.0261667207908109
  0
ARC
  8
DETAIL
  6
CONTINUOUS
 62
     5
 10
-207.48597568925109
 20
-30.997782460748571
 30
0.0
 40
1.9997561133344981
 50
89.999132136404882
 51
180.0
  0
ARC
  8
DETAIL
  6
CONTINUOUS
 62
     5
 10
-207.38962175940111
 20
-31.094136390598582
 30
0.0
 40
1.999971087692588
 50
90.005223463281965
 51
179.9947765372913
  0
ARC
  8
DETAIL
  6
CONTINUOUS
 62
     5
 10
-207.48379568721791
 20
-45.996601496608491
 30
0.0
 40
2.0019373802794891
 50
180.00761020339269
 51
187.14895227851801
  0
CIRCLE
  8
DETAIL
  6
CONTINUOUS
 62
     5
 10
-199.98637999999849
 20
-37.997412199998507
 30
0.0
 40
2.251489910595081
  0
CIRCLE
  8
DETAIL
  6
CONTINUOUS
 62
     5
 10
-199.98637999999849
 20
-37.997412199998507
 30
0.0
 40
2.964887947380058
  0
CIRCLE
  8
DETAIL
  6
CONTINUOUS
 62
     5
 10
-199.98637999999849
 20
-37.997412199998507
 30
0.0
 40
2.9997956999999871
  0
ARC
  8
DETAIL
  6
CONTINUOUS
 62
     5
 10
-199.98637999999849
 20
-36.4975143499978
 30
0.0
 40
3.1997820800007002
 50
230.6196418572346
 51
309.38035814279999
  0
CIRCLE
  8
DETAIL
  6
CONTINUOUS
 62
     5
 10
-199.98637999999849
 20
-37.997412199998507
 30
0.0
 40
3.7728272089690091
  0
ARC
  8
DETAIL
  6
CONTINUOUS
 62
     5
 10
-203.4861416499989
 20
-34.997616500000731
 30
0.0
 40
11.033849518173049
 50
282.45301643689999
 51
355.05859927938309
  0
ARC
  8
DETAIL
  6
CONTINUOUS
 62
     5
 10
-203.09208361167839
 20
-35.343127628089967
 30
0.0
 40
12.614842097246621
 50
281.04350173268978
 51
356.46769524498899
  0
ARC
  8
DETAIL
  6
CONTINUOUS
 62
     5
 10
-203.4861416499989
 20
-34.997616500000731
 30
0.0
 40
13.03341322611081
 50
282.45292133320112
 51
355.05827770069169
  0
ARC
  8
DETAIL
  6
CONTINUOUS
 62
     5
 10
-204.4353740853694
 20
-34.165320979682292
 30
0.0
 40
14.612180348248
 50
276.00119567080549
 51
1.360590772593399
  0
LINE
  8
DETAIL
  6
CONTINUOUS
 62
     5
 10
-179.7625884035042
 20
-29.361374272237409
 30
0.0
 11
-179.8224020354173
 21
-29.308929826944219
 31
0.0
  0
LINE
  8
DETAIL
  6
CONTINUOUS
 62
     5
 10
-178.12532716908751
 20
-30.833758451546711
 30
0.0
 11
-179.6289804973203
 21
-29.51535892216998
 31
0.0
  0
LINE
  8
DETAIL
  6
CONTINUOUS
 62
     5
 10
-178.12532716908751
 20
-30.833758451546711
 30
0.0
 11
-179.21826327456799
 21
-29.159052112812791
 31
0.0
  0
LINE
  8
DETAIL
  6
CONTINUOUS
 62
     5
 10
-191.2669910848235
 20
-32.711515169103222
 30
0.0
 11
-189.87462961659909
 21
-33.854565766556327
 31
0.0
  0
LINE
  8
DETAIL
  6
CONTINUOUS
 62
     5
 10
-189.8518613007254
 20
-31.09395406001568
 30
0.0
 11
-188.50690166621641
 21
-32.273211350126083
 31
0.0
  0
LINE
  8
DETAIL
  6
CONTINUOUS
 62
     5
 10
-191.1730924742551
 20
-32.600836917805282
 30
0.0
 11
-189.8281328397461
 21
-33.780094207915681
 31
0.0
  0
LINE
  8
DETAIL
  6
CONTINUOUS
 62
     5
 10
-207.38980408998401
 20
-29.09416640883148
 30
0.0
 11
-207.48594539881009
 21
-28.9980250999979
 31
0.0
  0
LINE
  8
DETAIL
  6
CONTINUOUS
 62
     5
 10
-209.38959174116439
 20
-31.09395406001568
 30
0.0
 11
-209.48573304999809
 21
-30.997812751185851
 31
0.0
  0
LINE
  8
DETAIL
  6
CONTINUOUS
 62
     5
 10
-201.106812840826
 20
-45.771878798266698
 30
0.0
 11
-200.67563206723571
 21
-47.724395163848378
 31
0.0
  0
LINE
  8
DETAIL
  6
CONTINUOUS
 62
     5
 10
-189.82722842284059
 20
-33.818359209890332
 30
0.0
 11
-189.8281328397461
 21
-33.780094207915681
 31
0.0
  0
LINE
  8
DETAIL
  6
CONTINUOUS
 62
     5
 10
-209.46828050309679
 20
-61.961479306388362
 30
0.0
 11
-209.5031855968991
 21
-62.031294811622622
 31
0.0
  0
LINE
  8
DETAIL
  6
CONTINUOUS
 62
     5
 10
-207.45715001541251
 20
-64.28711766512788
 30
0.0
 11
-178.12532716908751
 21
-30.833758451546711
 31
0.0
  0
LINE
  8
DETAIL
  6
CONTINUOUS
 62
     5
 10
-208.96080334364521
 20
-62.968718135747622
 30
0.0
 11
-179.6289804973203
 21
-29.51535892216998
 31
0.0
  0
LINE
  8
DETAIL
  6
CONTINUOUS
 62
     5
 10
-179.76256868684499
 20
-29.361351784769791
 30
0.0
 11
-209.13095613595581
 21
-62.856413445719227
 31
0.0
  0
LINE
  8
DETAIL
  6
CONTINUOUS
 62
     5
 10
-180.23601042076919
 20
-29.581184142163689
 30
0.0
 11
-208.97489806322849
 21
-62.358292361077467
 31
0.0
  0
LINE
  8
DETAIL
  6
CONTINUOUS
 62
     5
 10
-189.8281328397461
 20
-33.780094207915681
 30
0.0
 11
-188.50690166621641
 21
-32.273211350126083
 31
0.0
  0
LINE
  8
DETAIL
  6
CONTINUOUS
 62
     5
 10
-206.04484445547129
 20
-52.275483390130937
 30
0.0
 11
-202.9076741208228
 21
-48.697497982033383
 31
0.0
  0
LINE
  8
DETAIL
  6
CONTINUOUS
 62
     5
 10
-191.1730924742551
 20
-32.600836917805282
 30
0.0
 11
-189.8518463702421
 21
-31.093937031175411
 31
0.0
  0
LINE
  8
DETAIL
  6
CONTINUOUS
 62
     5
 10
-207.3897996637825
 20
-51.096221051866451
 30
0.0
 11
-204.2526590666057
 21
-47.518267875570018
 31
0.0
  0
LINE
  8
DETAIL
  6
CONTINUOUS
 62
     5
 10
-207.45715001541251
 20
-64.28711766512788
 30
0.0
 11
-209.26036075089721
 21
-63.422489597807733
 31
0.0
  0
LINE
  8
DETAIL
  6
CONTINUOUS
 62
     5
 10
-204.2526590666057
 20
-47.518267875570018
 30
0.0
 11
-202.907697769213
 21
-48.697524953695392
 31
0.0
  0
LINE
  8
DETAIL
  6
CONTINUOUS
 62
     5
 10
-207.38980408998401
 20
-51.096226099518503
 30
0.0
 11
-206.04484445547129
 21
-52.275483390130937
 31
0.0
  0
LINE
  8
DETAIL
  6
CONTINUOUS
 62
     5
 10
-207.45715001541251
 20
-64.28711766512788
 30
0.0
 11
-208.96080334364521
 21
-62.968718135747622
 31
0.0
  0
LINE
  8
DETAIL
  6
CONTINUOUS
 62
     5
 10
-209.19074632546111
 20
-62.803942264250622
 30
0.0
 11
-209.13093269304929
 21
-62.856386709037913
 31
0.0
  0
LINE
  8
DETAIL
  6
CONTINUOUS
 62
     5
 10
-208.72444487275399
 20
-54.550217764171983
 30
0.0
 11
-208.6479109695683
 21
-61.120301093025773
 31
0.0
  0
LINE
  8
DETAIL
  6
CONTINUOUS
 62
     5
 10
-209.2999808785826
 20
-62.531215400715148
 30
0.0
 11
-209.38959174116439
 21
-54.845780143001427
 31
0.0
  0
LINE
  8
DETAIL
  6
CONTINUOUS
 62
     5
 10
-207.3897996637825
 20
-51.096221051866451
 30
0.0
 11
-207.38980408998401
 21
-29.09416640883148
 31
0.0
  0
LINE
  8
DETAIL
  6
CONTINUOUS
 62
     5
 10
-208.98576709999909
 20
-28.9980250999979
 30
0.0
 11
-208.98576709999909
 21
-29.012860894614281
 31
0.0
  0
LINE
  8
DETAIL
  6
CONTINUOUS
 62
     5
 10
-209.38959174116439
 20
-54.845780143001427
 30
0.0
 11
-209.38959174116439
 21
-31.09395406001568
 31
0.0
  0
LINE
  8
DETAIL
  6
CONTINUOUS
 62
     5
 10
-209.46828050309679
 20
-61.961479306388362
 30
0.0
 11
-209.46828050309679
 21
-45.996867400001072
 31
0.0
  0
LINE
  8
DETAIL
  6
CONTINUOUS
 62
     5
 10
-209.48573304999809
 20
-45.996867400001072
 30
0.0
 11
-209.48573304999809
 21
-30.997812751185851
 31
0.0
  0
LINE
  8
DETAIL
  6
CONTINUOUS
 62
     5
 10
-209.5031855968991
 20
-62.031294811622622
 30
0.0
 11
-209.5031855968991
 21
-62.744367328581568
 31
0.0
  0
LINE
  8
DETAIL
  6
CONTINUOUS
 62
     5
 10
-209.78571261999971
 20
-29.03293285262043
 30
0.0
 11
-209.78571261999971
 21
-46.961891547380333
 31
0.0
  0
LINE
  8
DETAIL
  6
CONTINUOUS
 62
     5
 10
-179.58385943677791
 20
-28.97155546670194
 30
0.0
 11
-179.58041776616659
 21
-28.969317998086009
 31
0.0
  0
LINE
  8
DETAIL
  6
CONTINUOUS
 62
     5
 10
-209.78571261999971
 20
-46.961891547380333
 30
0.0
 11
-209.46828050309679
 21
-46.961891547380333
 31
0.0
  0
LINE
  8
DETAIL
  6
CONTINUOUS
 62
     5
 10
-209.46828050309679
 20
-45.996867400001072
 30
0.0
 11
-209.48573304999809
 21
-45.996867400001072
 31
0.0
  0
LINE
  8
DETAIL
  6
CONTINUOUS
 62
     5
 10
-209.38959174116439
 20
-31.093954060517721
 30
0.0
 11
-189.8518463702421
 21
-31.093937031175411
 31
0.0
  0
LINE
  8
DETAIL
  6
CONTINUOUS
 62
     5
 10
-207.38980408998401
 20
-29.09416640883148
 30
0.0
 11
-186.56426156401361
 21
-29.09416640883148
 31
0.0
  0
LINE
  8
DETAIL
  6
CONTINUOUS
 62
     5
 10
-207.8523616021703
 20
-29.03293285262043
 30
0.0
 11
-209.78571261999971
 21
-29.03293285262043
 31
0.0
  0
LINE
  8
DETAIL
  6
CONTINUOUS
 62
     5
 10
-208.98576709999909
 20
-28.9980250999979
 30
0.0
 11
-179.63030961330151
 21
-28.9980250999979
 31
0.0
  0
LINE
  8
DETAIL
  6
CONTINUOUS
 62
     5
 10
-180.98741010646339
 20
-30.00671718889134
 30
0.0
 11
-186.9555671677881
 21
-29.927391384346269
 31
0.0
  0
LINE
  8
DETAIL
  6
CONTINUOUS
 62
     5
 10
-186.56426156401361
 20
-29.09416640883148
 30
0.0
 11
-179.81507762424371
 21
-29.18376982742484
 31
0.0
  0
LINE
  8
DETAIL
  6
CONTINUOUS
 62
     5
 10
-192.4932928144917
 20
-35.948038165879552
 30
0.0
 11
-190.50117063924699
 21
-36.120290563689203
 31
0.0
  0
LINE
  8
DETAIL
  6
CONTINUOUS
 62
     5
 10
-179.6289804973203
 20
-170.47102107783209
 30
0.0
 11
-179.76256868684499
 21
-170.62502821523239
 31
0.0
  0
LINE
  8
DETAIL
  6
CONTINUOUS
 62
     5
 10
-209.13095613595581
 20
-137.1299665542829
 30
0.0
 11
-208.96080334364521
 21
-137.01766186425451
 31
0.0
  0
LINE
  8
DETAIL
  6
CONTINUOUS
 62
     5
 10
-179.35069384793309
 20
-170.97895258034259
 30
0.0
 11
-179.21826327456799
 21
-170.8273278871894
 31
0.0
  0
LINE
  8
DETAIL
  6
CONTINUOUS
 62
     5
 10
-179.5406661299385
 20
-170.88465001078291
 30
0.0
 11
-179.58045924384351
 21
-171.0170306955479
 31
0.0
  0
LINE
  8
DETAIL
  6
CONTINUOUS
 62
     5
 10
-209.6811147730987
 20
-136.63515359234219
 30
0.0
 11
-209.49578138416109
 21
-136.59215926745321
 31
0.0
  0
LINE
  8
DETAIL
  6
CONTINUOUS
 62
     5
 10
-209.42799016905701
 20
-136.67537690194521
 30
0.0
 11
-209.2603607503988
 21
-136.5638904021944
 31
0.0
  0
LINE
  8
DETAIL
  6
CONTINUOUS
 62
     5
 10
-179.81507762424371
 20
-170.80261017257729
 30
0.0
 11
-179.85261053057911
 21
-170.9282008847695
 31
0.0
  0
LINE
  8
DETAIL
  6
CONTINUOUS
 62
     5
 10
-209.48573304999809
 20
-137.4972846127167
 30
0.0
 11
-209.2999808785826
 21
-137.45516459928689
 31
0.0
  0
ARC
  8
DETAIL
  6
CONTINUOUS
 62
     5
 10
-162.22242930768701
 20
-114.7077222876069
 30
0.0
 40
52.068562628895847
 50
205.57148775169739
 51
206.11637143698539
  0
ARC
  8
DETAIL
  6
CONTINUOUS
 62
     5
 10
-134.10215583423269
 20
-100.968111302842
 30
0.0
 40
83.365948647251699
 50
205.93862681371621
 51
206.08777851631089
  0
ARC
  8
DETAIL
  6
CONTINUOUS
 62
     5
 10
-179.81508890697299
 20
-171.3025948243048
 30
0.0
 40
0.4999857276538319
 50
56.711076975699967
 51
89.998670194732156
  0
ARC
  8
DETAIL
  6
CONTINUOUS
 62
     5
 10
-188.6865341519115
 20
-164.62541580366459
 30
0.0
 40
1.918544647711069
 50
231.73731461234539
 51
233.51856601195439
  0
ARC
  8
DETAIL
  6
CONTINUOUS
 62
     5
 10
-178.31018925762331
 20
-169.35143949703351
 30
0.0
 40
1.931693227732046
 50
221.24746083929861
 51
237.40833230370629
  0
ARC
  8
DETAIL
  6
CONTINUOUS
 62
     5
 10
-178.12522596848069
 20
-169.15250489390019
 30
0.0
 40
1.9999406517660701
 50
221.24480594113049
 51
236.87038613778799
  0
ARC
  8
DETAIL
  6
CONTINUOUS
 62
     5
 10
-187.36680461711151
 20
-164.61779007251241
 30
0.0
 40
2.929412102949235
 50
211.12031622046621
 51
212.83745011660551
  0
ARC
  8
DETAIL
  6
CONTINUOUS
 62
     5
 10
-187.81125774179239
 20
-164.43821674428921
 30
0.0
 40
4.4708685186186203
 50
219.380953999995
 51
221.2411010743335
  0
ARC
  8
DETAIL
  6
CONTINUOUS
 62
     5
 10
-207.6784268269366
 20
-135.8565466005858
 30
0.0
 40
1.931694686633624
 50
205.0805243027128
 51
221.24076647429541
  0
ARC
  8
DETAIL
  6
CONTINUOUS
 62
     5
 10
-211.4855189868031
 20
-137.4972842242461
 30
0.0
 40
1.9997859368032811
 50
0.0
 51
25.538116793415909
  0
ARC
  8
DETAIL
  6
CONTINUOUS
 62
     5
 10
-207.45702113219161
 20
-135.69917725216871
 30
0.0
 40
1.999940651766466
 50
205.61802278780931
 51
221.24360298462301
  0
ARC
  8
DETAIL
  6
CONTINUOUS
 62
     5
 10
-211.29993889866819
 20
-137.45519669859999
 30
0.0
 40
1.999956622178134
 50
0.0
 51
25.564604052387839
  0
ARC
  8
DETAIL
  6
CONTINUOUS
 62
     5
 10
-207.50243624671199
 20
-137.95489078511679
 30
0.0
 40
2.0007493596893422
 50
180.00556715868709
 51
185.65659443272421
  0
ARC
  8
DETAIL
  6
CONTINUOUS
 62
     5
 10
-207.4989266857265
 20
-137.95472218110089
 30
0.0
 40
2.00425845720329
 50
185.6515019432087
 51
190.55053869444441
  0
ARC
  8
DETAIL
  6
CONTINUOUS
 62
     5
 10
-207.36787387603181
 20
-145.12077929687439
 30
0.0
 40
2.0218813820007679
 50
180.5616995810079
 51
227.6638013233254
  0
ARC
  8
DETAIL
  6
CONTINUOUS
 62
     5
 10
-199.98637999999849
 20
-163.48886565000441
 30
0.0
 40
1.599891040000623
 50
356.97383327923518
 51
183.02616672076479
  0
ARC
  8
DETAIL
  6
CONTINUOUS
 62
     5
 10
-207.48597568925109
 20
-168.9885975392535
 30
0.0
 40
1.9997561133344981
 50
180.0
 51
270.00086786359509
  0
ARC
  8
DETAIL
  6
CONTINUOUS
 62
     5
 10
-207.38962175940111
 20
-168.89224360940349
 30
0.0
 40
1.999971087692588
 50
180.00522346268269
 51
269.99477653671812
  0
ARC
  8
DETAIL
  6
CONTINUOUS
 62
     5
 10
-207.48379568721791
 20
-153.98977850339369
 30
0.0
 40
2.0019373802794891
 50
172.8510477214821
 51
179.99238979660731
  0
CIRCLE
  8
DETAIL
  6
CONTINUOUS
 62
     5
 10
-199.98637999999849
 20
-161.98896780000359
 30
0.0
 40
2.251489910595081
  0
CIRCLE
  8
DETAIL
  6
CONTINUOUS
 62
     5
 10
-199.98637999999849
 20
-161.98896780000359
 30
0.0
 40
2.964887947380058
  0
CIRCLE
  8
DETAIL
  6
CONTINUOUS
 62
     5
 10
-199.98637999999849
 20
-161.98896780000359
 30
0.0
 40
2.9997956999999871
  0
ARC
  8
DETAIL
  6
CONTINUOUS
 62
     5
 10
-199.98637999999849
 20
-163.48886565000441
 30
0.0
 40
3.1997820800007002
 50
50.619641857199959
 51
129.3803581427654
  0
CIRCLE
  8
DETAIL
  6
CONTINUOUS
 62
     5
 10
-199.98637999999849
 20
-161.98896780000359
 30
0.0
 40
3.7728272089690091
  0
ARC
  8
DETAIL
  6
CONTINUOUS
 62
     5
 10
-203.4861416499989
 20
-164.9887635000014
 30
0.0
 40
11.033849518173049
 50
4.9414007206168682
 51
77.546983563099985
  0
ARC
  8
DETAIL
  6
CONTINUOUS
 62
     5
 10
-203.09208361167839
 20
-164.64325237191221
 30
0.0
 40
12.614842097246621
 50
3.532304755010979
 51
78.956498267310238
  0
ARC
  8
DETAIL
  6
CONTINUOUS
 62
     5
 10
-203.4861416499989
 20
-164.9887635000014
 30
0.0
 40
13.03341322611081
 50
4.9417222993082497
 51
77.54707866679891
  0
ARC
  8
DETAIL
  6
CONTINUOUS
 62
     5
 10
-204.4353740853694
 20
-165.82105902031989
 30
0.0
 40
14.612180348248
 50
358.63940922738061
 51
83.998804329194513
  0
LINE
  8
DETAIL
  6
CONTINUOUS
 62
     5
 10
-179.7625884035042
 20
-170.62500572776489
 30
0.0
 11
-179.8224020354173
 21
-170.67745017305791
 31
0.0
  0
LINE
  8
DETAIL
  6
CONTINUOUS
 62
     5
 10
-178.12532716908751
 20
-169.15262154845561
 30
0.0
 11
-179.6289804973203
 21
-170.47102107783209
 31
0.0
  0
LINE
  8
DETAIL
  6
CONTINUOUS
 62
     5
 10
-178.12532716908751
 20
-169.15262154845561
 30
0.0
 11
-179.21826327456799
 21
-170.8273278871894
 31
0.0
  0
LINE
  8
DETAIL
  6
CONTINUOUS
 62
     5
 10
-191.2669910848235
 20
-167.27486483089891
 30
0.0
 11
-189.87462961659909
 21
-166.13181423344591
 31
0.0
  0
LINE
  8
DETAIL
  6
CONTINUOUS
 62
     5
 10
-189.8518613007254
 20
-168.89242593998651
 30
0.0
 11
-188.50690166621641
 21
-167.71316864987611
 31
0.0
  0
LINE
  8
DETAIL
  6
CONTINUOUS
 62
     5
 10
-191.1730924742551
 20
-167.3855430821969
 30
0.0
 11
-189.8281328397461
 21
-166.2062857920865
 31
0.0
  0
LINE
  8
DETAIL
  6
CONTINUOUS
 62
     5
 10
-207.38980408998401
 20
-170.89221359117079
 30
0.0
 11
-207.48594539881009
 21
-170.98835490000431
 31
0.0
  0
LINE
  8
DETAIL
  6
CONTINUOUS
 62
     5
 10
-209.38959174116439
 20
-168.89242593998651
 30
0.0
 11
-209.48573304999809
 21
-168.98856724881651
 31
0.0
  0
LINE
  8
DETAIL
  6
CONTINUOUS
 62
     5
 10
-201.106812840826
 20
-154.21450120173549
 30
0.0
 11
-200.67563206723571
 21
-152.2619848361538
 31
0.0
  0
LINE
  8
DETAIL
  6
CONTINUOUS
 62
     5
 10
-189.82722842284059
 20
-166.1680207901118
 30
0.0
 11
-189.8281328397461
 21
-166.2062857920865
 31
0.0
  0
LINE
  8
DETAIL
  6
CONTINUOUS
 62
     5
 10
-209.46828050309679
 20
-138.02490069361369
 30
0.0
 11
-209.5031855968991
 21
-137.95508518837971
 31
0.0
  0
LINE
  8
DETAIL
  6
CONTINUOUS
 62
     5
 10
-207.45715001541251
 20
-135.69926233487431
 30
0.0
 11
-178.12532716908751
 21
-169.15262154845561
 31
0.0
  0
LINE
  8
DETAIL
  6
CONTINUOUS
 62
     5
 10
-208.96080334364521
 20
-137.01766186425451
 30
0.0
 11
-179.6289804973203
 21
-170.47102107783209
 31
0.0
  0
LINE
  8
DETAIL
  6
CONTINUOUS
 62
     5
 10
-179.76256868684499
 20
-170.62502821523239
 30
0.0
 11
-209.13095613595581
 21
-137.1299665542829
 31
0.0
  0
LINE
  8
DETAIL
  6
CONTINUOUS
 62
     5
 10
-180.23601042076919
 20
-170.40519585783841
 30
0.0
 11
-208.97489806322849
 21
-137.62808763892471
 31
0.0
  0
LINE
  8
DETAIL
  6
CONTINUOUS
 62
     5
 10
-189.8281328397461
 20
-166.2062857920865
 30
0.0
 11
-188.50690166621641
 21
-167.71316864987611
 31
0.0
  0
LINE
  8
DETAIL
  6
CONTINUOUS
 62
     5
 10
-206.04484445547129
 20
-147.7108966098713
 30
0.0
 11
-202.9076741208228
 21
-151.2888820179688
 31
0.0
  0
LINE
  8
DETAIL
  6
CONTINUOUS
 62
     5
 10
-191.1730924742551
 20
-167.3855430821969
 30
0.0
 11
-189.8518463702421
 21
-168.89244296882691
 31
0.0
  0
LINE
  8
DETAIL
  6
CONTINUOUS
 62
     5
 10
-207.3897996637825
 20
-148.89015894813559
 30
0.0
 11
-204.2526590666057
 21
-152.4681121244322
 31
0.0
  0
LINE
  8
DETAIL
  6
CONTINUOUS
 62
     5
 10
-207.45715001541251
 20
-135.69926233487431
 30
0.0
 11
-209.26036075089721
 21
-136.5638904021944
 31
0.0
  0
LINE
  8
DETAIL
  6
CONTINUOUS
 62
     5
 10
-204.2526590666057
 20
-152.4681121244322
 30
0.0
 11
-202.907697769213
 21
-151.28885504630679
 31
0.0
  0
LINE
  8
DETAIL
  6
CONTINUOUS
 62
     5
 10
-207.38980408998401
 20
-148.8901539004838
 30
0.0
 11
-206.04484445547129
 21
-147.7108966098713
 31
0.0
  0
LINE
  8
DETAIL
  6
CONTINUOUS
 62
     5
 10
-207.45715001541251
 20
-135.69926233487431
 30
0.0
 11
-208.96080334364521
 21
-137.01766186425451
 31
0.0
  0
LINE
  8
DETAIL
  6
CONTINUOUS
 62
     5
 10
-209.19074632546111
 20
-137.18243773575159
 30
0.0
 11
-209.13093269304929
 21
-137.12999329096431
 31
0.0
  0
LINE
  8
DETAIL
  6
CONTINUOUS
 62
     5
 10
-208.72444487275399
 20
-145.4361622358301
 30
0.0
 11
-208.6479109695683
 21
-138.86607890697641
 31
0.0
  0
LINE
  8
DETAIL
  6
CONTINUOUS
 62
     5
 10
-209.2999808785826
 20
-137.45516459928689
 30
0.0
 11
-209.38959174116439
 21
-145.14059985700081
 31
0.0
  0
LINE
  8
DETAIL
  6
CONTINUOUS
 62
     5
 10
-207.3897996637825
 20
-148.89015894813559
 30
0.0
 11
-207.38980408998401
 21
-170.89221359117079
 31
0.0
  0
LINE
  8
DETAIL
  6
CONTINUOUS
 62
     5
 10
-208.98576709999909
 20
-170.98835490000431
 30
0.0
 11
-208.98576709999909
 21
-170.97351910538791
 31
0.0
  0
LINE
  8
DETAIL
  6
CONTINUOUS
 62
     5
 10
-209.38959174116439
 20
-145.14059985700081
 30
0.0
 11
-209.38959174116439
 21
-168.89242593998651
 31
0.0
  0
LINE
  8
DETAIL
  6
CONTINUOUS
 62
     5
 10
-209.46828050309679
 20
-138.02490069361369
 30
0.0
 11
-209.46828050309679
 21
-153.98951260000101
 31
0.0
  0
LINE
  8
DETAIL
  6
CONTINUOUS
 62
     5
 10
-209.48573304999809
 20
-153.98951260000101
 30
0.0
 11
-209.48573304999809
 21
-168.98856724881651
 31
0.0
  0
LINE
  8
DETAIL
  6
CONTINUOUS
 62
     5
 10
-209.5031855968991
 20
-137.95508518837971
 30
0.0
 11
-209.5031855968991
 21
-137.2420126714205
 31
0.0
  0
LINE
  8
DETAIL
  6
CONTINUOUS
 62
     5
 10
-209.78571261999971
 20
-170.9534471473817
 30
0.0
 11
-209.78571261999971
 21
-153.02448845262191
 31
0.0
  0
LINE
  8
DETAIL
  6
CONTINUOUS
 62
     5
 10
-179.58385943677791
 20
-171.0148245333003
 30
0.0
 11
-179.58041776616659
 21
-171.01706200191629
 31
0.0
  0
LINE
  8
DETAIL
  6
CONTINUOUS
 62
     5
 10
-209.78571261999971
 20
-153.02448845262191
 30
0.0
 11
-209.46828050309679
 21
-153.02448845262191
 31
0.0
  0
LINE
  8
DETAIL
  6
CONTINUOUS
 62
     5
 10
-209.46828050309679
 20
-153.98951260000101
 30
0.0
 11
-209.48573304999809
 21
-153.98951260000101
 31
0.0
  0
LINE
  8
DETAIL
  6
CONTINUOUS
 62
     5
 10
-209.38959174116439
 20
-168.89242593948441
 30
0.0
 11
-189.8518463702421
 21
-168.89244296882691
 31
0.0
  0
LINE
  8
DETAIL
  6
CONTINUOUS
 62
     5
 10
-207.38980408998401
 20
-170.89221359117079
 30
0.0
 11
-186.56426156401361
 21
-170.89221359117079
 31
0.0
  0
LINE
  8
DETAIL
  6
CONTINUOUS
 62
     5
 10
-207.8523616021703
 20
-170.9534471473817
 30
0.0
 11
-209.78571261999971
 21
-170.9534471473817
 31
0.0
  0
LINE
  8
DETAIL
  6
CONTINUOUS
 62
     5
 10
-208.98576709999909
 20
-170.98835490000431
 30
0.0
 11
-179.63030961330151
 21
-170.98835490000431
 31
0.0
  0
LINE
  8
DETAIL
  6
CONTINUOUS
 62
     5
 10
-180.98741010646339
 20
-169.9796628111109
 30
0.0
 11
-186.9555671677881
 21
-170.05898861565581
 31
0.0
  0
LINE
  8
DETAIL
  6
CONTINUOUS
 62
     5
 10
-186.56426156401361
 20
-170.89221359117079
 30
0.0
 11
-179.81507762424371
 21
-170.80261017257729
 31
0.0
  0
LINE
  8
DETAIL
  6
CONTINUOUS
 62
     5
 10
-192.4932928144917
 20
-164.03834183412241
 30
0.0
 11
-190.50117063924699
 21
-163.86608943631299
 31
0.0
  0
ARC
  8
OUTLINE
  6
CONTINUOUS
 62
     3
 10
248.78305671999991
 20
-1.1999182800027479
 30
0.0
 40
1.199918279999918
 50
0.0
 51
90.0
  0
ARC
  8
OUTLINE
  6
CONTINUOUS
 62
     3
 10
205.39043769210909
 20
-281.98079580000189
 30
0.0
 40
1.9998637999994591
 50
0.9999999999757105
 51
88.641627396311904
  0
ARC
  8
OUTLINE
  6
CONTINUOUS
 62
     3
 10
205.43786654398349
 20
-282.01458382837882
 30
0.0
 40
2.0336518288783769
 50
76.549440670898633
 51
89.998580730676551
  0
ARC
  8
OUTLINE
  6
CONTINUOUS
 62
     3
 10
105.167601288591
 20
-280.15568378859467
 30
0.0
 40
0.9997165531663816
 50
269.99651934279848
 51
0.0
  0
ARC
  8
OUTLINE
  6
CONTINUOUS
 62
     3
 10
104.9930624314984
 20
-279.98114493150212
 30
0.0
 40
0.9997165531656728
 50
269.99652476840907
 51
0.0
  0
ARC
  8
OUTLINE
  6
CONTINUOUS
 62
     3
 10
191.34312950894309
 20
-277.98106820000248
 30
0.0
 40
1.999863800000345
 50
228.7241833824346
 51
270.0
  0
ARC
  8
OUTLINE
  6
CONTINUOUS
 62
     3
 10
110.9930795655055
 20
-285.98116206550549
 30
0.0
 40
2.9991496589980708
 50
269.99652724129902
 51
0.0034727587009918
  0
ARC
  8
OUTLINE
  6
CONTINUOUS
 62
     3
 10
110.81854080290211
 20
-285.80662330340431
 30
0.0
 40
2.9991496589980708
 50
269.99652724090822
 51
0.0034727590657633
  0
ARC
  8
OUTLINE
  6
CONTINUOUS
 62
     3
 10
30.997888900001271
 20
-229.09519300933241
 30
0.0
 40
60.885057990670568
 50
247.54711479273149
 51
304.12836570449173
  0
ARC
  8
OUTLINE
  6
CONTINUOUS
 62
     3
 10
30.997888900001271
 20
-229.09519300933241
 30
0.0
 40
65.22013356091847
 50
230.59971885039519
 51
233.53971754672509
  0
ARC
  8
OUTLINE
  6
CONTINUOUS
 62
     3
 10
30.997888900001271
 20
-229.09519300933241
 30
0.0
 40
65.220133560918299
 50
245.59297688898261
 51
309.40028114960478
  0
ARC
  8
OUTLINE
  6
CONTINUOUS
 62
     3
 10
-248.78305671999991
 20
-1.1999182799991099
 30
0.0
 40
0.5999591399994273
 50
90.0
 51
180.0
  0
ARC
  8
OUTLINE
  6
CONTINUOUS
 62
     3
 10
-248.78305671999991
 20
-1.1999182799991099
 30
0.0
 40
1.1999182800000681
 50
90.0
 51
180.0
  0
ARC
  8
OUTLINE
  6
CONTINUOUS
 62
     3
 10
-43.171823488592047
 20
-280.15568378859467
 30
0.0
 40
0.9997165531664772
 50
180.0
 51
270.00348065720152
  0
ARC
  8
OUTLINE
  6
CONTINUOUS
 62
     3
 10
-42.997284726992802
 20
-279.98114502699548
 30
0.0
 40
0.9997165531663274
 50
180.0
 51
270.00348069469482
  0
ARC
  8
OUTLINE
  6
CONTINUOUS
 62
     3
 10
-117.8875455778943
 20
-281.28084347000208
 30
0.0
 40
1.999863799999841
 50
0.9999999999757105
 51
64.404496187393718
  0
ARC
  8
OUTLINE
  6
CONTINUOUS
 62
     3
 10
-143.39465989211021
 20
-281.98079580000189
 30
0.0
 40
1.999863799999964
 50
91.358372606502897
 51
178.9999999999722
  0
ARC
  8
OUTLINE
  6
CONTINUOUS
 62
     3
 10
-143.44208873848399
 20
-282.01458387437748
 30
0.0
 40
2.033651875375265
 50
90.001419423204894
 51
103.45055917522021
  0
ARC
  8
OUTLINE
  6
CONTINUOUS
 62
     3
 10
-48.997301928491652
 20
-285.98116222799217
 30
0.0
 40
2.9991496589982329
 50
179.99652413459259
 51
270.00347586538129
  0
ARC
  8
OUTLINE
  6
CONTINUOUS
 62
     3
 10
-48.822763165891963
 20
-285.80662346589452
 30
0.0
 40
2.9991496589982329
 50
179.9965241341757
 51
270.00347586579818
  0
ARC
  8
OUTLINE
  6
CONTINUOUS
 62
     3
 10
-276.9811363000008
 20
-230.28431656999959
 30
0.0
 40
0.5999591399999591
 50
0.0
 51
180.0
  0
LINE
  8
OUTLINE
  6
CONTINUOUS
 62
     3
 10
-248.78305671999991
 20
0.0
 30
0.0
 11
248.78305671999991
 21
0.0
 31
0.0
  0
LINE
  8
OUTLINE
  6
CONTINUOUS
 62
     3
 10
-248.78305671999991
 20
-0.5999591400031932
 30
0.0
 11
-248.48307715000189
 21
-0.5999591400031932
 31
0.0
  0
LINE
  8
OUTLINE
  6
CONTINUOUS
 62
     3
 10
-248.63306693499911
 20
-1.099925090002102
 30
0.0
 11
-248.48307715000189
 21
-1.099925090002102
 31
0.0
  0
LINE
  8
OUTLINE
  6
CONTINUOUS
 62
     3
 10
-248.78305671999991
 20
-1.4998978500005931
 30
0.0
 11
-249.98297499999899
 21
-1.4998978500005931
 31
0.0
  0
LINE
  8
OUTLINE
  6
CONTINUOUS
 62
     3
 10
249.98297499999899
 20
-67.995369200001733
 30
0.0
 11
252.9827707000004
 21
-67.995369200001733
 31
0.0
  0
LINE
  8
OUTLINE
  6
CONTINUOUS
 62
     3
 10
-249.98297499999899
 20
-67.995369200001733
 30
0.0
 11
-252.9827707000004
 21
-67.995369200001733
 31
0.0
  0
LINE
  8
OUTLINE
  6
CONTINUOUS
 62
     3
 10
-252.9827707000004
 20
-77.994688200000496
 30
0.0
 11
-250.08296818999949
 21
-77.994688200000496
 31
0.0
  0
LINE
  8
OUTLINE
  6
CONTINUOUS
 62
     3
 10
-252.9827707000004
 20
-81.794429420002416
 30
0.0
 11
-249.98297499999899
 21
-81.794429420002416
 31
0.0
  0
LINE
  8
OUTLINE
  6
CONTINUOUS
 62
     3
 10
289.28146941862718
 20
-257.84034756398609
 30
0.0
 11
287.18993105059047
 21
-281.74674050175241
 31
0.0
  0
LINE
  8
OUTLINE
  6
CONTINUOUS
 62
     3
 10
275.98120439999911
 20
-251.28288647000241
 30
0.0
 11
275.98120439999911
 21
-234.78401012000191
 31
0.0
  0
LINE
  8
OUTLINE
  6
CONTINUOUS
 62
     3
 10
254.63265833500191
 20
-234.78401012000191
 30
0.0
 11
254.63265833500191
 21
-221.78489541999809
 31
0.0
  0
LINE
  8
OUTLINE
  6
CONTINUOUS
 62
     3
 10
252.9827707000004
 20
-67.995369200001733
 30
0.0
 11
252.9827707000004
 21
-91.793748420001066
 31
0.0
  0
LINE
  8
OUTLINE
  6
CONTINUOUS
 62
     3
 10
249.98297499999899
 20
-1.1999182800027479
 30
0.0
 11
249.98297499999899
 21
-91.793748420001066
 31
0.0
  0
LINE
  8
OUTLINE
  6
CONTINUOUS
 62
     3
 10
221.22384090291601
 20
-279.48096604999978
 30
0.0
 11
221.14529846001821
 21
-283.98065960000167
 31
0.0
  0
LINE
  8
OUTLINE
  6
CONTINUOUS
 62
     3
 10
220.284997570001
 20
-285.08058469000042
 30
0.0
 11
220.284997570001
 21
-284.0806527900022
 31
0.0
  0
LINE
  8
OUTLINE
  6
CONTINUOUS
 62
     3
 10
218.98508609999769
 20
-285.58055063999927
 30
0.0
 11
218.98508609999769
 21
-285.08058469000042
 31
0.0
  0
LINE
  8
OUTLINE
  6
CONTINUOUS
 62
     3
 10
209.58572624000229
 20
-285.58055063999927
 30
0.0
 11
209.58572624000229
 21
-285.08058469000042
 31
0.0
  0
LINE
  8
OUTLINE
  6
CONTINUOUS
 62
     3
 10
208.28581476999901
 20
-285.08058469000042
 30
0.0
 11
208.28581476999901
 21
-284.0806527900022
 31
0.0
  0
LINE
  8
OUTLINE
  6
CONTINUOUS
 62
     3
 10
207.38999690284979
 20
-281.94589336401617
 30
0.0
 11
207.42551387998171
 21
-283.98065960000167
 31
0.0
  0
LINE
  8
OUTLINE
  6
CONTINUOUS
 62
     3
 10
111.83528791370919
 20
-280.82377901371012
 30
0.0
 11
111.9923727999994
 21
-280.98086390000049
 31
0.0
  0
LINE
  8
OUTLINE
  6
CONTINUOUS
 62
     3
 10
260.95532733591608
 20
-254.7577170129226
 30
0.0
 11
289.28149792418481
 21
-257.84002174617848
 31
0.0
  0
LINE
  8
OUTLINE
  6
CONTINUOUS
 62
     3
 10
-258.88236890999912
 20
-229.3843778600021
 30
0.0
 11
-254.88264131000321
 21
-229.3843778600021
 31
0.0
  0
LINE
  8
OUTLINE
  6
CONTINUOUS
 62
     3
 10
-258.88236890999912
 20
-229.58436423999959
 30
0.0
 11
-254.88264131000321
 21
-229.58436423999959
 31
0.0
  0
LINE
  8
OUTLINE
  6
CONTINUOUS
 62
     3
 10
-276.9811363000008
 20
-230.28431656999959
 30
0.0
 11
-276.38117716000119
 21
-230.28431656999959
 31
0.0
  0
LINE
  8
OUTLINE
  6
CONTINUOUS
 62
     3
 10
-258.38260069303209
 20
-231.38424166000189
 30
0.0
 11
-258.88236890999912
 21
-231.38424166000189
 31
0.0
  0
LINE
  8
OUTLINE
  6
CONTINUOUS
 62
     3
 10
-254.88264131000321
 20
-231.38424166000189
 30
0.0
 11
-255.38240948946989
 21
-231.38424166000189
 31
0.0
  0
LINE
  8
OUTLINE
  6
CONTINUOUS
 62
     3
 10
-275.98120439999911
 20
-234.78401012000191
 30
0.0
 11
275.98120439999911
 21
-234.78401012000191
 31
0.0
  0
LINE
  8
OUTLINE
  6
CONTINUOUS
 62
     3
 10
-276.38117716000119
 20
-235.2839760700044
 30
0.0
 11
-275.98120439999911
 21
-235.2839760700044
 31
0.0
  0
LINE
  8
OUTLINE
  6
CONTINUOUS
 62
     3
 10
-277.58109544000041
 20
-235.2839760700044
 30
0.0
 11
-276.9811363000008
 21
-235.2839760700044
 31
0.0
  0
LINE
  8
OUTLINE
  6
CONTINUOUS
 62
     3
 10
-275.78121801999811
 20
-255.2826140700017
 30
0.0
 11
-276.38117716000119
 21
-255.2826140700017
 31
0.0
  0
LINE
  8
OUTLINE
  6
CONTINUOUS
 62
     3
 10
-271.65761915270917
 20
-255.88257321000131
 30
0.0
 11
-275.78121801999811
 21
-255.88257321000131
 31
0.0
  0
LINE
  8
OUTLINE
  6
CONTINUOUS
 62
     3
 10
-260.95532733641812
 20
-254.7577170129226
 30
0.0
 11
-289.28149792418481
 21
-257.84002174617848
 31
0.0
  0
LINE
  8
OUTLINE
  6
CONTINUOUS
 62
     3
 10
177.91457191949669
 20
-279.48096604999978
 30
0.0
 11
177.8482471900206
 21
-283.2807072700017
 31
0.0
  0
LINE
  8
OUTLINE
  6
CONTINUOUS
 62
     3
 10
175.33984141208569
 20
-283.27856692876969
 30
0.0
 11
175.33805866499819
 21
-283.38070046000212
 31
0.0
  0
LINE
  8
OUTLINE
  6
CONTINUOUS
 62
     3
 10
176.98794629999969
 20
-284.38063236000028
 30
0.0
 11
176.98794629999969
 21
-283.38070046000212
 31
0.0
  0
LINE
  8
OUTLINE
  6
CONTINUOUS
 62
     3
 10
175.68803483000011
 20
-284.88059830999919
 30
0.0
 11
175.68803483000011
 21
-284.38063236000028
 31
0.0
  0
LINE
  8
OUTLINE
  6
CONTINUOUS
 62
     3
 10
166.28867497000101
 20
-284.88059830999919
 30
0.0
 11
166.28867497000101
 21
-284.38063236000028
 31
0.0
  0
LINE
  8
OUTLINE
  6
CONTINUOUS
 62
     3
 10
164.9887634999977
 20
-284.38063236000028
 30
0.0
 11
164.9887634999977
 21
-283.38070046000212
 31
0.0
  0
LINE
  8
OUTLINE
  6
CONTINUOUS
 62
     3
 10
166.63686838741339
 20
-283.27856692876969
 30
0.0
 11
166.63865113499921
 21
-283.38070046000212
 31
0.0
  0
LINE
  8
OUTLINE
  6
CONTINUOUS
 62
     3
 10
164.06213788000241
 20
-279.48096604999978
 30
0.0
 11
164.12846260998049
 21
-283.2807072700017
 31
0.0
  0
LINE
  8
OUTLINE
  6
CONTINUOUS
 62
     3
 10
258.77402578467081
 20
-279.69010783697388
 30
0.0
 11
287.18990254553501
 21
-281.7470663195636
 31
0.0
  0
LINE
  8
OUTLINE
  6
CONTINUOUS
 62
     3
 10
136.30043204042519
 20
-279.48096604999978
 30
0.0
 11
258.59853343100991
 21
-279.48096604999978
 31
0.0
  0
LINE
  8
OUTLINE
  6
CONTINUOUS
 62
     3
 10
-258.5985334315119
 20
-279.48096604999978
 30
0.0
 11
-136.30043204042519
 21
-279.48096604999978
 31
0.0
  0
LINE
  8
OUTLINE
  6
CONTINUOUS
 62
     3
 10
-6.3092850404282217
 20
-279.48096604999978
 30
0.0
 11
-123.6818619595724
 21
-279.48096604999978
 31
0.0
  0
LINE
  8
OUTLINE
  6
CONTINUOUS
 62
     3
 10
123.6818619595724
 20
-279.48096604999978
 30
0.0
 11
6.3092850404282217
 21
-279.48096604999978
 31
0.0
  0
LINE
  8
OUTLINE
  6
CONTINUOUS
 62
     3
 10
191.34312950894309
 20
-279.98093199999857
 30
0.0
 11
205.43791692754891
 21
-279.98093199999857
 31
0.0
  0
LINE
  8
OUTLINE
  6
CONTINUOUS
 62
     3
 10
-49.839510114208679
 20
-280.82377901371012
 30
0.0
 11
-46.153952286291307
 21
-280.82377901371012
 31
0.0
  0
LINE
  8
OUTLINE
  6
CONTINUOUS
 62
     3
 10
111.83528791370919
 20
-280.82377901371012
 30
0.0
 11
108.1497300857918
 21
-280.82377901371012
 31
0.0
  0
LINE
  8
OUTLINE
  6
CONTINUOUS
 62
     3
 10
107.9926452
 20
-280.98086390000049
 30
0.0
 11
111.9923727999994
 21
-280.98086390000049
 31
0.0
  0
LINE
  8
OUTLINE
  6
CONTINUOUS
 62
     3
 10
-49.996595000000532
 20
-280.98086390000049
 30
0.0
 11
-45.996867400001072
 21
-280.98086390000049
 31
0.0
  0
LINE
  8
OUTLINE
  6
CONTINUOUS
 62
     3
 10
-8.509985435022827
 20
-280.98086390000049
 30
0.0
 11
-42.997223994629167
 21
-280.98086390000049
 31
0.0
  0
LINE
  8
OUTLINE
  6
CONTINUOUS
 62
     3
 10
20.99856989999898
 20
-280.98086390000049
 30
0.0
 11
7.7494722250012273
 21
-280.98086390000049
 31
0.0
  0
LINE
  8
OUTLINE
  6
CONTINUOUS
 62
     3
 10
62.821459202765247
 20
-280.98086390000049
 30
0.0
 11
40.997207899999921
 21
-280.98086390000049
 31
0.0
  0
LINE
  8
OUTLINE
  6
CONTINUOUS
 62
     3
 10
104.9930017941297
 20
-280.98086390000049
 30
0.0
 11
70.505763235021732
 21
-280.98086390000049
 31
0.0
  0
LINE
  8
OUTLINE
  6
CONTINUOUS
 62
     3
 10
70.266893552157853
 20
-281.15540266260018
 30
0.0
 11
105.16754055672941
 21
-281.15540266260018
 31
0.0
  0
LINE
  8
OUTLINE
  6
CONTINUOUS
 62
     3
 10
40.997207899999921
 20
-281.15540266260018
 30
0.0
 11
62.536390234283317
 21
-281.15540266260018
 31
0.0
  0
LINE
  8
OUTLINE
  6
CONTINUOUS
 62
     3
 10
7.7494722250012273
 20
-281.15540266260018
 30
0.0
 11
20.99856989999898
 21
-281.15540266260018
 31
0.0
  0
LINE
  8
OUTLINE
  6
CONTINUOUS
 62
     3
 10
-43.171762756726821
 20
-281.15540266260018
 30
0.0
 11
-8.2711157526573515
 21
-281.15540266260018
 31
0.0
  0
LINE
  8
OUTLINE
  6
CONTINUOUS
 62
     3
 10
-102.1326848099816
 20
-283.2807072700017
 30
0.0
 11
-115.85190418751149
 21
-283.2807072700017
 31
0.0
  0
LINE
  8
OUTLINE
  6
CONTINUOUS
 62
     3
 10
177.8482471900206
 20
-283.2807072700017
 30
0.0
 11
164.12846260998049
 21
-283.2807072700017
 31
0.0
  0
LINE
  8
OUTLINE
  6
CONTINUOUS
 62
     3
 10
164.9887634999977
 20
-283.38070046000212
 30
0.0
 11
176.98794629999969
 21
-283.38070046000212
 31
0.0
  0
LINE
  8
OUTLINE
  6
CONTINUOUS
 62
     3
 10
-114.9921685000008
 20
-283.38070046000212
 30
0.0
 11
-102.9929856999988
 21
-283.38070046000212
 31
0.0
  0
LINE
  8
OUTLINE
  6
CONTINUOUS
 62
     3
 10
-145.42973607997919
 20
-283.98065960000167
 30
0.0
 11
-159.14829920570631
 21
-283.98065960000167
 31
0.0
  0
LINE
  8
OUTLINE
  6
CONTINUOUS
 62
     3
 10
221.14461102633501
 20
-283.98065960000167
 30
0.0
 11
207.4262013136649
 21
-283.98065960000167
 31
0.0
  0
LINE
  8
OUTLINE
  6
CONTINUOUS
 62
     3
 10
208.28581476999901
 20
-284.0806527900022
 30
0.0
 11
220.284997570001
 21
-284.0806527900022
 31
0.0
  0
LINE
  8
OUTLINE
  6
CONTINUOUS
 62
     3
 10
-158.28921977000209
 20
-284.0806527900022
 30
0.0
 11
-146.2900369700001
 21
-284.0806527900022
 31
0.0
  0
LINE
  8
OUTLINE
  6
CONTINUOUS
 62
     3
 10
164.9887634999977
 20
-284.38063236000028
 30
0.0
 11
176.98794629999969
 21
-284.38063236000028
 31
0.0
  0
LINE
  8
OUTLINE
  6
CONTINUOUS
 62
     3
 10
-114.9921685000008
 20
-284.38063236000028
 30
0.0
 11
-102.9929856999988
 21
-284.38063236000028
 31
0.0
  0
LINE
  8
OUTLINE
  6
CONTINUOUS
 62
     3
 10
166.28867497000101
 20
-284.88059830999919
 30
0.0
 11
175.68803483000011
 21
-284.88059830999919
 31
0.0
  0
LINE
  8
OUTLINE
  6
CONTINUOUS
 62
     3
 10
-113.6922570300012
 20
-284.88059830999919
 30
0.0
 11
-104.29289717000211
 21
-284.88059830999919
 31
0.0
  0
LINE
  8
OUTLINE
  6
CONTINUOUS
 62
     3
 10
208.28581476999901
 20
-285.08058469000042
 30
0.0
 11
220.284997570001
 21
-285.08058469000042
 31
0.0
  0
LINE
  8
OUTLINE
  6
CONTINUOUS
 62
     3
 10
-158.28921977000209
 20
-285.08058469000042
 30
0.0
 11
-146.2900369700001
 21
-285.08058469000042
 31
0.0
  0
LINE
  8
OUTLINE
  6
CONTINUOUS
 62
     3
 10
209.58572624000229
 20
-285.58055063999927
 30
0.0
 11
218.98508609999769
 21
-285.58055063999927
 31
0.0
  0
LINE
  8
OUTLINE
  6
CONTINUOUS
 62
     3
 10
-156.98930829999881
 20
-285.58055063999927
 30
0.0
 11
-147.58994843999969
 21
-285.58055063999927
 31
0.0
  0
LINE
  8
OUTLINE
  6
CONTINUOUS
 62
     3
 10
4.785119701653457
 20
-288.80578033739948
 30
0.0
 11
-48.822581221284047
 21
-288.80578033739948
 31
0.0
  0
LINE
  8
OUTLINE
  6
CONTINUOUS
 62
     3
 10
42.863882188325078
 20
-288.80578033739948
 30
0.0
 11
19.131895611677461
 21
-288.80578033739948
 31
0.0
  0
LINE
  8
OUTLINE
  6
CONTINUOUS
 62
     3
 10
110.8183590207846
 20
-288.80578033739948
 30
0.0
 11
57.210658098345448
 21
-288.80578033739948
 31
0.0
  0
LINE
  8
OUTLINE
  6
CONTINUOUS
 62
     3
 10
5.2009833729098318
 20
-288.98031909999918
 30
0.0
 11
-48.997119983381708
 21
-288.98031909999918
 31
0.0
  0
LINE
  8
OUTLINE
  6
CONTINUOUS
 62
     3
 10
41.918899664015044
 20
-288.98031909999918
 30
0.0
 11
20.076878135983861
 21
-288.98031909999918
 31
0.0
  0
LINE
  8
OUTLINE
  6
CONTINUOUS
 62
     3
 10
110.99289778338429
 20
-288.98031909999918
 30
0.0
 11
56.79479442659067
 21
-288.98031909999918
 31
0.0
  0
LINE
  8
OUTLINE
  6
CONTINUOUS
 62
     3
 10
-258.77402578467081
 20
-279.69010783697388
 30
0.0
 11
-287.18990254553501
 21
-281.7470663195636
 31
0.0
  0
LINE
  8
OUTLINE
  6
CONTINUOUS
 62
     3
 10
136.30043204042519
 20
-274.48130655000199
 30
0.0
 11
136.30043204042519
 21
-279.48096604999978
 31
0.0
  0
LINE
  8
OUTLINE
  6
CONTINUOUS
 62
     3
 10
123.6818619595724
 20
-274.48130655000199
 30
0.0
 11
123.6818619595724
 21
-279.48096604999978
 31
0.0
  0
LINE
  8
OUTLINE
  6
CONTINUOUS
 62
     3
 10
113.9922365999992
 20
-279.48096604999978
 30
0.0
 11
113.9922365999992
 21
-285.98098028338438
 31
0.0
  0
LINE
  8
OUTLINE
  6
CONTINUOUS
 62
     3
 10
113.81769783739951
 20
-285.80644152128662
 30
0.0
 11
113.81769783739951
 21
-279.48096604999978
 31
0.0
  0
LINE
  8
OUTLINE
  6
CONTINUOUS
 62
     3
 10
111.9923727999994
 20
-279.48096604999978
 30
0.0
 11
111.9923727999994
 21
-280.98086390000049
 31
0.0
  0
LINE
  8
OUTLINE
  6
CONTINUOUS
 62
     3
 10
111.83528791370919
 20
-279.48096604999978
 30
0.0
 11
111.83528791370919
 21
-280.82377901371012
 31
0.0
  0
LINE
  8
OUTLINE
  6
CONTINUOUS
 62
     3
 10
108.1497300857918
 20
-279.48096604999978
 30
0.0
 11
108.1497300857918
 21
-280.82377901371012
 31
0.0
  0
LINE
  8
OUTLINE
  6
CONTINUOUS
 62
     3
 10
107.9926452
 20
-279.48096604999978
 30
0.0
 11
107.9926452
 21
-280.98086390000049
 31
0.0
  0
LINE
  8
OUTLINE
  6
CONTINUOUS
 62
     3
 10
106.16732016209789
 20
-279.48096604999978
 30
0.0
 11
106.16732016209789
 21
-280.15562305672938
 31
0.0
  0
LINE
  8
OUTLINE
  6
CONTINUOUS
 62
     3
 10
105.9927814000002
 20
-279.48096604999978
 30
0.0
 11
105.9927814000002
 21
-279.98108429462809
 31
0.0
  0
LINE
  8
OUTLINE
  6
CONTINUOUS
 62
     3
 10
-46.153952286291307
 20
-280.82377901371012
 30
0.0
 11
-45.996867400001072
 21
-280.98086390000049
 31
0.0
  0
LINE
  8
OUTLINE
  6
CONTINUOUS
 62
     3
 10
57.329428933000599
 20
-283.97398477258679
 30
0.0
 11
57.329428933000599
 21
-282.98072769999999
 31
0.0
  0
LINE
  8
OUTLINE
  6
CONTINUOUS
 62
     3
 10
57.172344047208753
 20
-284.05060455442441
 30
0.0
 11
57.172344047208753
 21
-283.13781258629018
 31
0.0
  0
LINE
  8
OUTLINE
  6
CONTINUOUS
 62
     3
 10
40.997207899999921
 20
-279.48096604999978
 30
0.0
 11
40.997207899999921
 21
-282.28077537000001
 31
0.0
  0
LINE
  8
OUTLINE
  6
CONTINUOUS
 62
     3
 10
20.99856989999898
 20
-279.48096604999978
 30
0.0
 11
20.99856989999898
 21
-282.28077537000001
 31
0.0
  0
LINE
  8
OUTLINE
  6
CONTINUOUS
 62
     3
 10
6.3092850404282217
 20
-274.48130655000199
 30
0.0
 11
6.3092850404282217
 21
-279.48096604999978
 31
0.0
  0
LINE
  8
OUTLINE
  6
CONTINUOUS
 62
     3
 10
108.1497300857918
 20
-280.82377901371012
 30
0.0
 11
107.9926452
 21
-280.98086390000049
 31
0.0
  0
LINE
  8
OUTLINE
  6
CONTINUOUS
 62
     3
 10
-6.3092850404282217
 20
-274.48130655000199
 30
0.0
 11
-6.3092850404282217
 21
-279.48096604999978
 31
0.0
  0
LINE
  8
OUTLINE
  6
CONTINUOUS
 62
     3
 10
57.172344047208753
 20
-283.13781258629018
 30
0.0
 11
57.329428933000599
 21
-282.98072769999999
 31
0.0
  0
LINE
  8
OUTLINE
  6
CONTINUOUS
 62
     3
 10
-43.997003600001342
 20
-279.98108429462809
 30
0.0
 11
-43.997003600001342
 21
-279.48096604999978
 31
0.0
  0
LINE
  8
OUTLINE
  6
CONTINUOUS
 62
     3
 10
-44.171542362601031
 20
-279.48096604999978
 30
0.0
 11
-44.171542362601031
 21
-280.15562305672938
 31
0.0
  0
LINE
  8
OUTLINE
  6
CONTINUOUS
 62
     3
 10
-45.996867400001072
 20
-279.48096604999978
 30
0.0
 11
-45.996867400001072
 21
-280.98086390000049
 31
0.0
  0
LINE
  8
OUTLINE
  6
CONTINUOUS
 62
     3
 10
-46.153952286291307
 20
-279.48096604999978
 30
0.0
 11
-46.153952286291307
 21
-280.82377901371012
 31
0.0
  0
LINE
  8
OUTLINE
  6
CONTINUOUS
 62
     3
 10
-49.839510114208679
 20
-279.48096604999978
 30
0.0
 11
-49.839510114208679
 21
-280.82377901371012
 31
0.0
  0
LINE
  8
OUTLINE
  6
CONTINUOUS
 62
     3
 10
-49.996595000000532
 20
-279.48096604999978
 30
0.0
 11
-49.996595000000532
 21
-280.98086390000049
 31
0.0
  0
LINE
  8
OUTLINE
  6
CONTINUOUS
 62
     3
 10
-51.821920037898963
 20
-285.80644152128662
 30
0.0
 11
-51.821920037898963
 21
-279.48096604999978
 31
0.0
  0
LINE
  8
OUTLINE
  6
CONTINUOUS
 62
     3
 10
-51.996458800000248
 20
-285.98098028338438
 30
0.0
 11
-51.996458800000248
 21
-279.48096604999978
 31
0.0
  0
LINE
  8
OUTLINE
  6
CONTINUOUS
 62
     3
 10
-102.06636008050189
 20
-279.48096604999978
 30
0.0
 11
-102.1326848099816
 21
-283.2807072700017
 31
0.0
  0
LINE
  8
OUTLINE
  6
CONTINUOUS
 62
     3
 10
-102.9929856999988
 20
-284.38063236000028
 30
0.0
 11
-102.9929856999988
 21
-283.38070046000212
 31
0.0
  0
LINE
  8
OUTLINE
  6
CONTINUOUS
 62
     3
 10
-104.29289717000211
 20
-284.88059830999919
 30
0.0
 11
-104.29289717000211
 21
-284.38063236000028
 31
0.0
  0
LINE
  8
OUTLINE
  6
CONTINUOUS
 62
     3
 10
-49.839510114208679
 20
-280.82377901371012
 30
0.0
 11
-49.996595000000532
 21
-280.98086390000049
 31
0.0
  0
LINE
  8
OUTLINE
  6
CONTINUOUS
 62
     3
 10
-104.6410902714379
 20
-283.27854881600081
 30
0.0
 11
-104.6428733350003
 21
-283.38070046000212
 31
0.0
  0
LINE
  8
OUTLINE
  6
CONTINUOUS
 62
     3
 10
-113.6922570300012
 20
-284.88059830999919
 30
0.0
 11
-113.6922570300012
 21
-284.38063236000028
 31
0.0
  0
LINE
  8
OUTLINE
  6
CONTINUOUS
 62
     3
 10
-114.9921685000008
 20
-284.38063236000028
 30
0.0
 11
-114.9921685000008
 21
-283.38070046000212
 31
0.0
  0
LINE
  8
OUTLINE
  6
CONTINUOUS
 62
     3
 10
-123.6818619595724
 20
-274.48130655000199
 30
0.0
 11
-123.6818619595724
 21
-279.48096604999978
 31
0.0
  0
LINE
  8
OUTLINE
  6
CONTINUOUS
 62
     3
 10
-136.30043204042519
 20
-274.48130655000199
 30
0.0
 11
-136.30043204042519
 21
-279.48096604999978
 31
0.0
  0
LINE
  8
OUTLINE
  6
CONTINUOUS
 62
     3
 10
-113.344026252631
 20
-283.2807072700017
 30
0.0
 11
-113.3422808649993
 21
-283.38070046000212
 31
0.0
  0
LINE
  8
OUTLINE
  6
CONTINUOUS
 62
     3
 10
-115.88798636715001
 20
-281.24594103401608
 30
0.0
 11
-115.8524693900181
 21
-283.2807072700017
 31
0.0
  0
LINE
  8
OUTLINE
  6
CONTINUOUS
 62
     3
 10
-145.95712347545489
 20
-279.98397556122302
 30
0.0
 11
-145.8993124321496
 21
-279.98093441283709
 31
0.0
  0
LINE
  8
OUTLINE
  6
CONTINUOUS
 62
     3
 10
-146.00855629213771
 20
-279.99179668006758
 30
0.0
 11
-145.95712347545489
 21
-279.98397556122302
 31
0.0
  0
LINE
  8
OUTLINE
  6
CONTINUOUS
 62
     3
 10
-146.0587184158685
 20
-280.00401530991797
 30
0.0
 11
-146.00855629213771
 21
-279.99179668006758
 31
0.0
  0
LINE
  8
OUTLINE
  6
CONTINUOUS
 62
     3
 10
-146.10530677998389
 20
-280.01938786447857
 30
0.0
 11
-146.0587184158685
 21
-280.00401530991797
 31
0.0
  0
LINE
  8
OUTLINE
  6
CONTINUOUS
 62
     3
 10
-146.13762587440209
 20
-280.03295714184787
 30
0.0
 11
-146.1020523156258
 21
-280.01821637726238
 31
0.0
  0
LINE
  8
OUTLINE
  6
CONTINUOUS
 62
     3
 10
-146.30443774973901
 20
-280.2044579943431
 30
0.0
 11
-146.2579803067056
 21
-280.12855749902172
 31
0.0
  0
LINE
  8
OUTLINE
  6
CONTINUOUS
 62
     3
 10
-146.34576553612709
 20
-280.31561494904258
 30
0.0
 11
-146.30443774973901
 21
-280.2044579943431
 31
0.0
  0
LINE
  8
OUTLINE
  6
CONTINUOUS
 62
     3
 10
-146.37464571725289
 20
-280.46037083649207
 30
0.0
 11
-146.34576553612709
 21
-280.31561494904258
 31
0.0
  0
LINE
  8
OUTLINE
  6
CONTINUOUS
 62
     3
 10
-146.3864750271205
 20
-280.62338962015559
 30
0.0
 11
-146.37464571725289
 21
-280.46037083649207
 31
0.0
  0
LINE
  8
OUTLINE
  6
CONTINUOUS
 62
     3
 10
-145.39421910334929
 20
-281.94589336401617
 30
0.0
 11
-145.42973607997919
 21
-283.98065960000167
 31
0.0
  0
LINE
  8
OUTLINE
  6
CONTINUOUS
 62
     3
 10
-147.9381415414318
 20
-283.97850114600078
 30
0.0
 11
-147.93992460500161
 21
-284.0806527900022
 31
0.0
  0
LINE
  8
OUTLINE
  6
CONTINUOUS
 62
     3
 10
-150.87176373865441
 20
-279.48096604999978
 30
0.0
 11
-150.87313312139671
 21
-279.55941795606122
 31
0.0
  0
LINE
  8
OUTLINE
  6
CONTINUOUS
 62
     3
 10
-146.2900369700001
 20
-285.08058469000042
 30
0.0
 11
-146.2900369700001
 21
-284.0806527900022
 31
0.0
  0
LINE
  8
OUTLINE
  6
CONTINUOUS
 62
     3
 10
-147.58994843999969
 20
-285.58055063999927
 30
0.0
 11
-147.58994843999969
 21
-285.08058469000042
 31
0.0
  0
LINE
  8
OUTLINE
  6
CONTINUOUS
 62
     3
 10
-156.98930829999881
 20
-285.58055063999927
 30
0.0
 11
-156.98930829999881
 21
-285.08058469000042
 31
0.0
  0
LINE
  8
OUTLINE
  6
CONTINUOUS
 62
     3
 10
-158.28921977000209
 20
-285.08058469000042
 30
0.0
 11
-158.28921977000209
 21
-284.0806527900022
 31
0.0
  0
LINE
  8
OUTLINE
  6
CONTINUOUS
 62
     3
 10
-153.70612361860549
 20
-279.55941795606122
 30
0.0
 11
-153.70749300184249
 21
-279.48096604999978
 31
0.0
  0
LINE
  8
OUTLINE
  6
CONTINUOUS
 62
     3
 10
-156.64107752263229
 20
-283.98065960000167
 30
0.0
 11
-156.63933213500059
 21
-284.0806527900022
 31
0.0
  0
LINE
  8
OUTLINE
  6
CONTINUOUS
 62
     3
 10
-159.22806310341551
 20
-279.48096604999978
 30
0.0
 11
-159.14952066001931
 21
-283.98065960000167
 31
0.0
  0
LINE
  8
OUTLINE
  6
CONTINUOUS
 62
     3
 10
-146.2051562037741
 20
-280.07453962538779
 30
0.0
 11
-146.13762587440209
 21
-280.03295714184787
 31
0.0
  0
LINE
  8
OUTLINE
  6
CONTINUOUS
 62
     3
 10
-146.2579803067056
 20
-280.12855749902172
 30
0.0
 11
-146.2051562037741
 21
-280.07453962538779
 31
0.0
  0
LINE
  8
OUTLINE
  6
CONTINUOUS
 62
     3
 10
-248.48307715000189
 20
0.0
 30
0.0
 11
-248.48307715000189
 21
-1.1999182799991099
 31
0.0
  0
LINE
  8
OUTLINE
  6
CONTINUOUS
 62
     3
 10
-248.63306693499911
 20
-1.649887635001392
 30
0.0
 11
-248.63306693499911
 21
-1.099925090002102
 31
0.0
  0
LINE
  8
OUTLINE
  6
CONTINUOUS
 62
     3
 10
-249.3830158599994
 20
-1.1999182799991099
 30
0.0
 11
-249.3830158599994
 21
-1.4998978500005931
 31
0.0
  0
LINE
  8
OUTLINE
  6
CONTINUOUS
 62
     3
 10
-249.98297499999899
 20
-1.1999182799991099
 30
0.0
 11
-249.98297499999899
 21
-234.78401012000191
 31
0.0
  0
LINE
  8
OUTLINE
  6
CONTINUOUS
 62
     3
 10
-250.08296818999949
 20
-81.794429420002416
 30
0.0
 11
-250.08296818999949
 21
-77.994688200000496
 31
0.0
  0
LINE
  8
OUTLINE
  6
CONTINUOUS
 62
     3
 10
-250.48294095000159
 20
-81.794429420002416
 30
0.0
 11
-250.48294095000159
 21
-77.994688200000496
 31
0.0
  0
LINE
  8
OUTLINE
  6
CONTINUOUS
 62
     3
 10
-252.9827707000004
 20
-234.78401012000191
 30
0.0
 11
-252.9827707000004
 21
-67.995369200001733
 31
0.0
  0
LINE
  8
OUTLINE
  6
CONTINUOUS
 62
     3
 10
-254.88264131000321
 20
-234.78401012000191
 30
0.0
 11
-254.88264131000321
 21
-229.3843778600021
 31
0.0
  0
LINE
  8
OUTLINE
  6
CONTINUOUS
 62
     3
 10
-255.38260726000229
 20
-234.78401012000191
 30
0.0
 11
-255.38260726000229
 21
-229.3843778600021
 31
0.0
  0
LINE
  8
OUTLINE
  6
CONTINUOUS
 62
     3
 10
-258.38240295999998
 20
-234.78401012000191
 30
0.0
 11
-258.38240295999998
 21
-229.3843778600021
 31
0.0
  0
LINE
  8
OUTLINE
  6
CONTINUOUS
 62
     3
 10
-258.88236890999912
 20
-234.78401012000191
 30
0.0
 11
-258.88236890999912
 21
-229.3843778600021
 31
0.0
  0
LINE
  8
OUTLINE
  6
CONTINUOUS
 62
     3
 10
-276.38117716000119
 20
-255.2826140700017
 30
0.0
 11
-276.38117716000119
 21
-235.2839760700044
 31
0.0
  0
LINE
  8
OUTLINE
  6
CONTINUOUS
 62
     3
 10
-276.38117716000119
 20
-230.28431656999959
 30
0.0
 11
-276.38117716000119
 21
-235.2839760700044
 31
0.0
  0
LINE
  8
OUTLINE
  6
CONTINUOUS
 62
     3
 10
-277.58109544000041
 20
-230.28431656999959
 30
0.0
 11
-277.58109544000041
 21
-235.2839760700044
 31
0.0
  0
LINE
  8
OUTLINE
  6
CONTINUOUS
 62
     3
 10
-287.18993105109257
 20
-281.74674050175241
 30
0.0
 11
-289.28146941912928
 21
-257.84034756398609
 31
0.0
  0
LINE
  8
OUTLINE
  6
CONTINUOUS
 62
     3
 10
218.63510993499949
 20
-283.98065960000167
 30
0.0
 11
218.63510993499949
 21
-284.0806527900022
 31
0.0
  0
LINE
  8
OUTLINE
  6
CONTINUOUS
 62
     3
 10
209.93570240500051
 20
-283.98065960000167
 30
0.0
 11
209.93570240500051
 21
-284.0806527900022
 31
0.0
  0
LINE
  8
OUTLINE
  6
CONTINUOUS
 62
     3
 10
-122.24167477500301
 20
-288.48035315000038
 30
0.0
 11
-137.74061922500189
 21
-288.48035315000038
 31
0.0
  0
LINE
  8
OUTLINE
  6
CONTINUOUS
 62
     3
 10
7.7494722250012273
 20
-288.48035315000038
 30
0.0
 11
-7.7494722250012273
 21
-288.48035315000038
 31
0.0
  0
LINE
  8
OUTLINE
  6
CONTINUOUS
 62
     3
 10
137.74061922500189
 20
-288.48035315000038
 30
0.0
 11
122.2416747749994
 21
-288.48035315000038
 31
0.0
  0
LINE
  8
OUTLINE
  6
CONTINUOUS
 62
     3
 10
137.74061922500189
 20
-279.48096604999978
 30
0.0
 11
137.74061922500189
 21
-288.48035315000038
 31
0.0
  0
LINE
  8
OUTLINE
  6
CONTINUOUS
 62
     3
 10
122.2416747749994
 20
-279.48096604999978
 30
0.0
 11
122.2416747749994
 21
-288.48035315000038
 31
0.0
  0
LINE
  8
OUTLINE
  6
CONTINUOUS
 62
     3
 10
7.7494722250012273
 20
-279.48096604999978
 30
0.0
 11
7.7494722250012273
 21
-288.48035315000038
 31
0.0
  0
LINE
  8
OUTLINE
  6
CONTINUOUS
 62
     3
 10
-7.7494722250012273
 20
-279.48096604999978
 30
0.0
 11
-7.7494722250012273
 21
-288.48035315000038
 31
0.0
  0
LINE
  8
OUTLINE
  6
CONTINUOUS
 62
     3
 10
-122.24167477500301
 20
-279.48096604999978
 30
0.0
 11
-122.24167477500301
 21
-288.48035315000038
 31
0.0
  0
LINE
  8
OUTLINE
  6
CONTINUOUS
 62
     3
 10
-137.74061922500189
 20
-279.48096604999978
 30
0.0
 11
-137.74061922500189
 21
-288.48035315000038
 31
0.0
  0
ARC
  8
OUTLINE
  6
CONTINUOUS
 62
     3
 10
-364.7254329249954
 20
-104.4928835499996
 30
0.0
 40
0.4999659500008091
 50
90.0
 51
180.0
  0
ARC
  8
OUTLINE
  6
CONTINUOUS
 62
     3
 10
-338.91709297664062
 20
-102.4930197499999
 30
0.0
 40
1.499897849999605
 50
270.0
 51
319.39870535959432
  0
ARC
  8
OUTLINE
  6
CONTINUOUS
 62
     3
 10
-334.30763467313233
 20
-102.4930197499999
 30
0.0
 40
1.999863800000645
 50
90.0
 51
139.39870535506691
  0
ARC
  8
OUTLINE
  6
CONTINUOUS
 62
     3
 10
-364.7254329249954
 20
-201.4862778499992
 30
0.0
 40
0.4999659500010954
 50
180.0
 51
270.0
  0
ARC
  8
OUTLINE
  6
CONTINUOUS
 62
     3
 10
-364.7254329249954
 20
-215.28533806999999
 30
0.0
 40
0.499965949999541
 50
180.0
 51
270.0
  0
ARC
  8
OUTLINE
  6
CONTINUOUS
 62
     3
 10
-338.91709297664062
 20
-217.28520186999961
 30
0.0
 40
1.4998978500005731
 50
40.601298670476012
 51
90.0
  0
ARC
  8
OUTLINE
  6
CONTINUOUS
 62
     3
 10
-334.30763467313233
 20
-217.28520186999961
 30
0.0
 40
1.99986379999935
 50
220.60129361597629
 51
270.0
  0
ARC
  8
OUTLINE
  6
CONTINUOUS
 62
     3
 10
339.21680014615049
 20
-102.4930197499999
 30
0.0
 40
1.4998978500001909
 50
220.6012946624088
 51
270.0
  0
ARC
  8
OUTLINE
  6
CONTINUOUS
 62
     3
 10
334.6073418431406
 20
-102.4930197499999
 30
0.0
 40
1.9998638000001141
 50
40.601294643209911
 51
90.0
  0
ARC
  8
OUTLINE
  6
CONTINUOUS
 62
     3
 10
364.02514009500368
 20
-104.4928835499996
 30
0.0
 40
0.4999659500007136
 50
0.0
 51
90.0
  0
ARC
  8
OUTLINE
  6
CONTINUOUS
 62
     3
 10
364.02514009500368
 20
-201.4862778499992
 30
0.0
 40
0.499965949999541
 50
270.0
 51
0.0
  0
ARC
  8
OUTLINE
  6
CONTINUOUS
 62
     3
 10
364.02514009500368
 20
-215.28533806999999
 30
0.0
 40
0.499965949999541
 50
270.0
 51
0.0
  0
ARC
  8
OUTLINE
  6
CONTINUOUS
 62
     3
 10
339.21680014615049
 20
-217.28520186999961
 30
0.0
 40
1.4998978500003819
 50
90.0
 51
139.39870132960741
  0
ARC
  8
OUTLINE
  6
CONTINUOUS
 62
     3
 10
334.6073418431406
 20
-217.28520186999961
 30
0.0
 40
1.9998637999990769
 50
270.0
 51
319.39870638397292
  0
LINE
  8
OUTLINE
  6
CONTINUOUS
 62
     3
 10
-365.22539887499443
 20
-104.54171649675121
 30
0.0
 11
-365.22539887499443
 21
-215.28533806999999
 31
0.0
  0
LINE
  8
OUTLINE
  6
CONTINUOUS
 62
     3
 10
-364.7254329249954
 20
-103.9929176000006
 30
0.0
 11
-364.7254329249954
 21
-215.7853040199989
 31
0.0
  0
LINE
  8
OUTLINE
  6
CONTINUOUS
 62
     3
 10
-335.82604449037899
 20
-218.5866959517152
 30
0.0
 11
-337.77828569970012
 21
-216.3090812083428
 31
0.0
  0
LINE
  8
OUTLINE
  6
CONTINUOUS
 62
     3
 10
-335.82604446737969
 20
-101.1915256407847
 30
0.0
 11
-337.7782856307058
 21
-103.469140331661
 31
0.0
  0
LINE
  8
OUTLINE
  6
CONTINUOUS
 62
     3
 10
304.7388732703771
 20
-89.9938710000024
 30
0.0
 11
254.63265833500191
 21
-89.9938710000024
 31
0.0
  0
LINE
  8
OUTLINE
  6
CONTINUOUS
 62
     3
 10
-304.43916610037172
 20
-89.9938710000024
 30
0.0
 11
-250.33295116499721
 21
-89.9938710000024
 31
0.0
  0
LINE
  8
OUTLINE
  6
CONTINUOUS
 62
     3
 10
-315.1289830197602
 20
-100.4931559500001
 30
0.0
 11
-334.30763467313233
 21
-100.4931559500001
 31
0.0
  0
LINE
  8
OUTLINE
  6
CONTINUOUS
 62
     3
 10
315.42869418599372
 20
-100.4931559500001
 30
0.0
 11
334.6073418431406
 21
-100.4931559500001
 31
0.0
  0
LINE
  8
OUTLINE
  6
CONTINUOUS
 62
     3
 10
-338.91709297664062
 20
-103.9929176000006
 30
0.0
 11
-364.7254329249954
 21
-103.9929176000006
 31
0.0
  0
LINE
  8
OUTLINE
  6
CONTINUOUS
 62
     3
 10
339.21680014615049
 20
-103.9929176000006
 30
0.0
 11
364.02514009500368
 21
-103.9929176000006
 31
0.0
  0
LINE
  8
OUTLINE
  6
CONTINUOUS
 62
     3
 10
-338.91709297664062
 20
-215.7853040199989
 30
0.0
 11
-364.7254329249954
 21
-215.7853040199989
 31
0.0
  0
LINE
  8
OUTLINE
  6
CONTINUOUS
 62
     3
 10
339.21680014615049
 20
-215.7853040199989
 30
0.0
 11
364.02514009500368
 21
-215.7853040199989
 31
0.0
  0
LINE
  8
OUTLINE
  6
CONTINUOUS
 62
     3
 10
-313.95546799857402
 20
-219.2850656699994
 30
0.0
 11
-334.30763467512952
 21
-219.2850656699994
 31
0.0
  0
LINE
  8
OUTLINE
  6
CONTINUOUS
 62
     3
 10
314.25517516808031
 20
-219.2850656699994
 30
0.0
 11
334.60734184514149
 21
-219.2850656699994
 31
0.0
  0
LINE
  8
OUTLINE
  6
CONTINUOUS
 62
     3
 10
307.106390074503
 20
-221.78489541999809
 30
0.0
 11
254.63265833500191
 21
-221.78489541999809
 31
0.0
  0
LINE
  8
OUTLINE
  6
CONTINUOUS
 62
     3
 10
-306.80668290449472
 20
-221.78489541999809
 30
0.0
 11
-250.33295116499721
 21
-221.78489541999809
 31
0.0
  0
LINE
  8
OUTLINE
  6
CONTINUOUS
 62
     3
 10
336.12575163689331
 20
-101.1915256407847
 30
0.0
 11
338.07799280121623
 21
-103.4691403321594
 31
0.0
  0
LINE
  8
OUTLINE
  6
CONTINUOUS
 62
     3
 10
336.12575166038732
 20
-218.5866959517152
 30
0.0
 11
338.07799286920999
 21
-216.3090812083428
 31
0.0
  0
LINE
  8
OUTLINE
  6
CONTINUOUS
 62
     3
 10
364.02514009500368
 20
-215.7853040199989
 30
0.0
 11
364.02514009500368
 21
-103.9929176000006
 31
0.0
  0
LINE
  8
OUTLINE
  6
CONTINUOUS
 62
     3
 10
364.5251060450064
 20
-201.43744490325119
 30
0.0
 11
364.5251060450064
 21
-104.4928835499996
 31
0.0
  0
LINE
  8
OUTLINE
  6
CONTINUOUS
 62
     3
 10
364.5251060450064
 20
-215.28533806999999
 30
0.0
 11
364.5251060450064
 21
-201.4862778499992
 31
0.0
  0
LINE
  8
OUTLINE
  6
CONTINUOUS
 62
     3
 10
307.106390074503
 20
-221.78489541999809
 30
0.0
 11
314.25517516808031
 21
-219.2850656699994
 31
0.0
  0
LINE
  8
OUTLINE
  6
CONTINUOUS
 62
     3
 10
315.42869418599372
 20
-100.4931559500001
 30
0.0
 11
304.7388732703771
 21
-89.9938710000024
 31
0.0
  0
LINE
  8
OUTLINE
  6
CONTINUOUS
 62
     3
 10
-304.43916610037172
 20
-89.9938710000024
 30
0.0
 11
-315.1289830197602
 21
-100.4931559500001
 31
0.0
  0
LINE
  8
OUTLINE
  6
CONTINUOUS
 62
     3
 10
-313.95546799857402
 20
-219.2850656699994
 30
0.0
 11
-306.80668290449472
 21
-221.78489541999809
 31
0.0
  0
LINE
  8
NOTE
  6
CONTINUOUS
 62
     4
 10
-269.98161629531569
 20
-27.697432630000659
 30
0.0
 11
-269.98161629531569
 21
-47.697432630000662
 31
0.0
  0
LINE
  8
NOTE
  6
CONTINUOUS
 62
     4
 10
-279.98161629531569
 20
-37.697432630000662
 30
0.0
 11
-259.98161629531569
 21
-37.697432630000662
 31
0.0
  0
CIRCLE
  8
FIX
  6
CONTINUOUS
 62
    11
 10
-269.98161629531569
 20
-37.697432630000662
 30
0.0
 40
5.0
  0
LINE
  8
NOTE
  6
CONTINUOUS
 62
     4
 10
269.98161800951488
 20
-27.697428709523589
 30
0.0
 11
269.98161800951488
 21
-47.697428709523592
 31
0.0
  0
LINE
  8
NOTE
  6
CONTINUOUS
 62
     4
 10
259.98161800951488
 20
-37.697428709523592
 30
0.0
 11
279.98161800951488
 21
-37.697428709523592
 31
0.0
  0
CIRCLE
  8
FIX
  6
CONTINUOUS
 62
    11
 10
269.98161800951488
 20
-37.697428709523592
 30
0.0
 40
5.0
  0
LINE
  8
SIZE
  6
CONTINUOUS
 62
    30
 10
-132.99094269999841
 20
57.356634522682612
 30
0.0
 11
-132.99094269999841
 21
169.38264610236911
 31
0.0
  0
LINE
  8
SIZE
  6
CONTINUOUS
 62
    30
 10
0.0
 20
76.702937508718605
 30
0.0
 11
0.0
 21
169.38264610236911
 31
0.0
  0
LINE
  8
SIZE
  6
CONTINUOUS
 62
    30
 10
-144.99094269999841
 20
149.38264610236911
 30
0.0
 11
-156.99094269999841
 21
149.38264610236911
 31
0.0
  0
LINE
  8
SIZE
  6
CONTINUOUS
 62
    30
 10
12.0
 20
149.38264610236911
 30
0.0
 11
24.0
 21
149.38264610236911
 31
0.0
  0
LINE
  8
SIZE
  6
CONTINUOUS
 62
    30
 10
-132.99094269999841
 20
149.38264610236911
 30
0.0
 11
0.0
 21
149.38264610236911
 31
0.0
  0
CIRCLE
  8
SIZE
  6
CONTINUOUS
 62
    30
 10
-132.99094269999841
 20
149.38264610236911
 30
0.0
 40
6.0
  0
LINE
  8
SIZE
  6
CONTINUOUS
 62
    30
 10
-132.99094269999841
 20
149.38264610236911
 30
0.0
 11
-144.99094269999841
 21
149.38264610236911
 31
0.0
  0
CIRCLE
  8
SIZE
  6
CONTINUOUS
 62
    30
 10
0.0
 20
149.38264610236911
 30
0.0
 40
6.0
  0
LINE
  8
SIZE
  6
CONTINUOUS
 62
    30
 10
0.0
 20
149.38264610236911
 30
0.0
 11
12.0
 21
149.38264610236911
 31
0.0
  0
TEXT
  8
SIZE
  6
CONTINUOUS
 62
    30
 10
-135.06689992142779
 20
174.38264610236911
 30
0.0
 40
64.0
  1
133
 41
0.9
 72
     1
 11
-66.495471349999207
 21
174.38264610236911
 31
0.0
  0
POINT
  8
DEFPOINTS
  6
CONTINUOUS
 62
    30
 10
-132.99094269999841
 20
37.356634522682612
 30
0.0
  0
POINT
  8
DEFPOINTS
  6
CONTINUOUS
 62
    30
 10
0.0
 20
56.702937508718612
 30
0.0
  0
POINT
  8
DEFPOINTS
  6
CONTINUOUS
 62
    30
 10
0.0
 20
149.38264610236911
 30
0.0
  0
LINE
  8
SIZE
  6
CONTINUOUS
 62
    30
 10
0.0
 20
76.702937508718605
 30
0.0
 11
0.0
 21
169.38264610236911
 31
0.0
  0
LINE
  8
SIZE
  6
CONTINUOUS
 62
    30
 10
159.18915847999961
 20
55.8835707161561
 30
0.0
 11
159.18915847999961
 21
169.38264610236911
 31
0.0
  0
LINE
  8
SIZE
  6
CONTINUOUS
 62
    30
 10
-12.0
 20
149.38264610236911
 30
0.0
 11
-24.0
 21
149.38264610236911
 31
0.0
  0
LINE
  8
SIZE
  6
CONTINUOUS
 62
    30
 10
171.18915847999961
 20
149.38264610236911
 30
0.0
 11
183.18915847999961
 21
149.38264610236911
 31
0.0
  0
LINE
  8
SIZE
  6
CONTINUOUS
 62
    30
 10
0.0
 20
149.38264610236911
 30
0.0
 11
159.18915847999961
 21
149.38264610236911
 31
0.0
  0
CIRCLE
  8
SIZE
  6
CONTINUOUS
 62
    30
 10
0.0
 20
149.38264610236911
 30
0.0
 40
6.0
  0
LINE
  8
SIZE
  6
CONTINUOUS
 62
    30
 10
0.0
 20
149.38264610236911
 30
0.0
 11
-12.0
 21
149.38264610236911
 31
0.0
  0
CIRCLE
  8
SIZE
  6
CONTINUOUS
 62
    30
 10
159.18915847999961
 20
149.38264610236911
 30
0.0
 40
6.0
  0
LINE
  8
SIZE
  6
CONTINUOUS
 62
    30
 10
159.18915847999961
 20
149.38264610236911
 30
0.0
 11
171.18915847999961
 21
149.38264610236911
 31
0.0
  0
TEXT
  8
SIZE
  6
CONTINUOUS
 62
    30
 10
12.39457923999981
 20
174.38264610236911
 30
0.0
 40
64.0
  1
159
 41
0.9
 72
     1
 11
79.594579239999803
 21
174.38264610236911
 31
0.0
  0
POINT
  8
DEFPOINTS
  6
CONTINUOUS
 62
    30
 10
0.0
 20
56.702937508718612
 30
0.0
  0
POINT
  8
DEFPOINTS
  6
CONTINUOUS
 62
    30
 10
159.18915847999961
 20
35.8835707161561
 30
0.0
  0
POINT
  8
DEFPOINTS
  6
CONTINUOUS
 62
    30
 10
159.18915847999961
 20
149.38264610236911
 30
0.0
  0
LINE
  8
SIZE
  6
CONTINUOUS
 62
    30
 10
-247.95239062348989
 20
-99.99319000000105
 30
0.0
 11
-597.43237368027985
 21
-99.99319000000105
 31
0.0
  0
LINE
  8
SIZE
  6
CONTINUOUS
 62
    30
 10
-268.48307715000192
 20
0.0
 30
0.0
 11
-597.43237368027985
 21
0.0000000000001137
 31
0.0
  0
LINE
  8
SIZE
  6
CONTINUOUS
 62
    30
 10
-577.43237368027985
 20
-87.99319000000105
 30
0.0
 11
-577.43237368027985
 21
-11.999999999999771
 31
0.0
  0
LINE
  8
SIZE
  6
CONTINUOUS
 62
    30
 10
-577.43237368027985
 20
0.0000000000001137
 30
0.0
 11
-577.43237368027985
 21
199.14285714285731
 31
0.0
  0
CIRCLE
  8
SIZE
  6
CONTINUOUS
 62
    30
 10
-577.43237368027985
 20
-99.99319000000105
 30
0.0
 40
6.0
  0
LINE
  8
SIZE
  6
CONTINUOUS
 62
    30
 10
-577.43237368027985
 20
-99.99319000000105
 30
0.0
 11
-577.43237368027985
 21
-87.99319000000105
 31
0.0
  0
CIRCLE
  8
SIZE
  6
CONTINUOUS
 62
    30
 10
-577.43237368027985
 20
0.0000000000001137
 30
0.0
 40
6.0
  0
LINE
  8
SIZE
  6
CONTINUOUS
 62
    30
 10
-577.43237368027985
 20
0.0000000000001137
 30
0.0
 11
-577.43237368027985
 21
-11.999999999999771
 31
0.0
  0
TEXT
  8
SIZE
  6
CONTINUOUS
 62
    30
 10
-602.43237368027985
 20
37.000000000000099
 30
0.0
 40
64.0
  1
100
 50
90.0
 41
0.9
 72
     1
 11
-602.43237368027985
 21
105.5714285714287
 31
0.0
  0
POINT
  8
DEFPOINTS
  6
CONTINUOUS
 62
    30
 10
-227.95239062348989
 20
-99.99319000000105
 30
0.0
  0
POINT
  8
DEFPOINTS
  6
CONTINUOUS
 62
    30
 10
-248.48307715000189
 20
0.0
 30
0.0
  0
POINT
  8
DEFPOINTS
  6
CONTINUOUS
 62
    30
 10
-577.43237368027985
 20
0.0000000000001137
 30
0.0
  0
LINE
  8
SIZE
  6
CONTINUOUS
 62
    30
 10
268.78305671999988
 20
0.0
 30
0.0
 11
907.72417413865514
 21
-0.0000000000002274
 31
0.0
  0
LINE
  8
SIZE
  6
CONTINUOUS
 62
    30
 10
265.47756445757108
 20
-89.155772388121932
 30
0.0
 11
907.72417413865514
 21
-89.155772388122159
 31
0.0
  0
LINE
  8
SIZE
  6
CONTINUOUS
 62
    30
 10
887.72417413865514
 20
-77.155772388122045
 30
0.0
 11
887.72417413865514
 21
-12.000000000000229
 31
0.0
  0
LINE
  8
SIZE
  6
CONTINUOUS
 62
    30
 10
887.72417413865514
 20
-0.0000000000002274
 30
0.0
 11
887.72417413865514
 21
152.51428571428551
 31
0.0
  0
CIRCLE
  8
SIZE
  6
CONTINUOUS
 62
    30
 10
887.72417413865514
 20
-89.155772388122159
 30
0.0
 40
6.0
  0
LINE
  8
SIZE
  6
CONTINUOUS
 62
    30
 10
887.72417413865514
 20
-89.155772388122159
 30
0.0
 11
887.72417413865514
 21
-77.155772388122045
 31
0.0
  0
CIRCLE
  8
SIZE
  6
CONTINUOUS
 62
    30
 10
887.72417413865514
 20
-0.0000000000002274
 30
0.0
 40
6.0
  0
LINE
  8
SIZE
  6
CONTINUOUS
 62
    30
 10
887.72417413865514
 20
-0.0000000000002274
 30
0.0
 11
887.72417413865514
 21
-12.000000000000229
 31
0.0
  0
TEXT
  8
SIZE
  6
CONTINUOUS
 62
    30
 10
862.72417413865514
 20
36.999999999999893
 30
0.0
 40
64.0
  1
89
 50
90.0
 41
0.9
 72
     1
 11
862.72417413865514
 21
82.257142857142753
 31
0.0
  0
POINT
  8
DEFPOINTS
  6
CONTINUOUS
 62
    30
 10
248.78305671999991
 20
0.0
 30
0.0
  0
POINT
  8
DEFPOINTS
  6
CONTINUOUS
 62
    30
 10
245.47756445757111
 20
-89.155772388121932
 30
0.0
  0
POINT
  8
DEFPOINTS
  6
CONTINUOUS
 62
    30
 10
887.72417413865514
 20
-89.155772388122159
 30
0.0
  0
LINE
  8
SIZE
  6
CONTINUOUS
 62
    30
 10
-249.98297499999899
 20
18.500102149999289
 30
0.0
 11
-249.98297499999899
 21
391.67382228518181
 31
0.0
  0
LINE
  8
SIZE
  6
CONTINUOUS
 62
    30
 10
249.98297499999899
 20
18.500102149999289
 30
0.0
 11
249.98297499999899
 21
391.67382228518181
 31
0.0
  0
LINE
  8
SIZE
  6
CONTINUOUS
 62
    30
 10
-237.98297499999899
 20
371.67382228518181
 30
0.0
 11
237.98297499999899
 21
371.67382228518181
 31
0.0
  0
CIRCLE
  8
SIZE
  6
CONTINUOUS
 62
    30
 10
-249.98297499999899
 20
371.67382228518181
 30
0.0
 40
6.0
  0
LINE
  8
SIZE
  6
CONTINUOUS
 62
    30
 10
-249.98297499999899
 20
371.67382228518181
 30
0.0
 11
-237.98297499999899
 21
371.67382228518181
 31
0.0
  0
CIRCLE
  8
SIZE
  6
CONTINUOUS
 62
    30
 10
249.98297499999899
 20
371.67382228518181
 30
0.0
 40
6.0
  0
LINE
  8
SIZE
  6
CONTINUOUS
 62
    30
 10
249.98297499999899
 20
371.67382228518181
 30
0.0
 11
237.98297499999899
 21
371.67382228518181
 31
0.0
  0
TEXT
  8
SIZE
  6
CONTINUOUS
 62
    30
 10
-74.05714285714285
 20
396.67382228518181
 30
0.0
 40
64.0
  1
500
 41
0.9
 72
     1
 11
0.0
 21
396.67382228518181
 31
0.0
  0
POINT
  8
DEFPOINTS
  6
CONTINUOUS
 62
    30
 10
-249.98297499999899
 20
-1.4998978500005931
 30
0.0
  0
POINT
  8
DEFPOINTS
  6
CONTINUOUS
 62
    30
 10
249.98297499999899
 20
-1.4998978500005931
 30
0.0
  0
POINT
  8
DEFPOINTS
  6
CONTINUOUS
 62
    30
 10
249.98297499999899
 20
371.67382228518181
 30
0.0
  0
LINE
  8
SIZE
  6
CONTINUOUS
 62
    30
 10
-269.98161629531569
 20
-7.6974326300006624
 30
0.0
 11
-269.98161629531569
 21
524.26284440527706
 31
0.0
  0
LINE
  8
SIZE
  6
CONTINUOUS
 62
    30
 10
269.98161800951488
 20
-7.6974287095237059
 30
0.0
 11
269.98161800951488
 21
524.26284440527706
 31
0.0
  0
LINE
  8
SIZE
  6
CONTINUOUS
 62
    30
 10
-257.98161629531569
 20
504.26284440527712
 30
0.0
 11
257.98161800951488
 21
504.26284440527712
 31
0.0
  0
CIRCLE
  8
SIZE
  6
CONTINUOUS
 62
    30
 10
-269.98161629531569
 20
504.26284440527712
 30
0.0
 40
6.0
  0
LINE
  8
SIZE
  6
CONTINUOUS
 62
    30
 10
-269.98161629531569
 20
504.26284440527712
 30
0.0
 11
-257.98161629531569
 21
504.26284440527712
 31
0.0
  0
CIRCLE
  8
SIZE
  6
CONTINUOUS
 62
    30
 10
269.98161800951488
 20
504.26284440527712
 30
0.0
 40
6.0
  0
LINE
  8
SIZE
  6
CONTINUOUS
 62
    30
 10
269.98161800951488
 20
504.26284440527712
 30
0.0
 11
257.98161800951488
 21
504.26284440527712
 31
0.0
  0
TEXT
  8
SIZE
  6
CONTINUOUS
 62
    30
 10
-266.60571342861459
 20
529.26284440527706
 30
0.0
 40
64.0
  1
540（天吊位置）
 41
0.9
 72
     1
 11
0.0000008570996215
 21
529.26284440527706
 31
0.0
  0
POINT
  8
DEFPOINTS
  6
CONTINUOUS
 62
    30
 10
-269.98161629531569
 20
-27.697432630000659
 30
0.0
  0
POINT
  8
DEFPOINTS
  6
CONTINUOUS
 62
    30
 10
269.98161800951488
 20
-27.697428709523589
 30
0.0
  0
POINT
  8
DEFPOINTS
  6
CONTINUOUS
 62
    30
 10
269.98161800951488
 20
504.26284440527712
 30
0.0
  0
LINE
  8
SIZE
  6
CONTINUOUS
 62
    30
 10
-289.98025100000092
 20
-9.9979569999995874
 30
0.0
 11
-289.98025100000092
 21
648.25417897371153
 31
0.0
  0
LINE
  8
SIZE
  6
CONTINUOUS
 62
    30
 10
289.98025100000092
 20
-9.9979569999995874
 30
0.0
 11
289.98025100000092
 21
648.25417897371153
 31
0.0
  0
LINE
  8
SIZE
  6
CONTINUOUS
 62
    30
 10
-277.98025100000092
 20
628.25417897371153
 30
0.0
 11
277.98025100000092
 21
628.25417897371153
 31
0.0
  0
CIRCLE
  8
SIZE
  6
CONTINUOUS
 62
    30
 10
-289.98025100000092
 20
628.25417897371153
 30
0.0
 40
6.0
  0
LINE
  8
SIZE
  6
CONTINUOUS
 62
    30
 10
-289.98025100000092
 20
628.25417897371153
 30
0.0
 11
-277.98025100000092
 21
628.25417897371153
 31
0.0
  0
CIRCLE
  8
SIZE
  6
CONTINUOUS
 62
    30
 10
289.98025100000092
 20
628.25417897371153
 30
0.0
 40
6.0
  0
LINE
  8
SIZE
  6
CONTINUOUS
 62
    30
 10
289.98025100000092
 20
628.25417897371153
 30
0.0
 11
277.98025100000092
 21
628.25417897371153
 31
0.0
  0
TEXT
  8
SIZE
  6
CONTINUOUS
 62
    30
 10
-74.057142857142836
 20
653.25417897371153
 30
0.0
 40
64.0
  1
580
 41
0.9
 72
     1
 11
0.0
 21
653.25417897371153
 31
0.0
  0
POINT
  8
DEFPOINTS
  6
CONTINUOUS
 62
    30
 10
-289.98025100000092
 20
-29.997956999999591
 30
0.0
  0
POINT
  8
DEFPOINTS
  6
CONTINUOUS
 62
    30
 10
289.98025100000092
 20
-29.997956999999591
 30
0.0
  0
POINT
  8
DEFPOINTS
  6
CONTINUOUS
 62
    30
 10
289.98025100000092
 20
628.25417897371153
 30
0.0
  0
LINE
  8
SIZE
  6
CONTINUOUS
 62
    30
 10
-287.18990254553501
 20
-301.7470663195636
 30
0.0
 11
-287.18990254553501
 21
-444.41346221707511
 31
0.0
  0
LINE
  8
SIZE
  6
CONTINUOUS
 62
    30
 10
287.18990254553501
 20
-301.7470663195636
 30
0.0
 11
287.18990254553501
 21
-444.41346221707511
 31
0.0
  0
LINE
  8
SIZE
  6
CONTINUOUS
 62
    30
 10
-275.18990254553501
 20
-424.41346221707511
 30
0.0
 11
275.18990254553501
 21
-424.41346221707511
 31
0.0
  0
CIRCLE
  8
SIZE
  6
CONTINUOUS
 62
    30
 10
-287.18990254553501
 20
-424.41346221707511
 30
0.0
 40
6.0
  0
LINE
  8
SIZE
  6
CONTINUOUS
 62
    30
 10
-287.18990254553501
 20
-424.41346221707511
 30
0.0
 11
-275.18990254553501
 21
-424.41346221707511
 31
0.0
  0
CIRCLE
  8
SIZE
  6
CONTINUOUS
 62
    30
 10
287.18990254553501
 20
-424.41346221707511
 30
0.0
 40
6.0
  0
LINE
  8
SIZE
  6
CONTINUOUS
 62
    30
 10
287.18990254553501
 20
-424.41346221707511
 30
0.0
 11
275.18990254553501
 21
-424.41346221707511
 31
0.0
  0
TEXT
  8
SIZE
  6
CONTINUOUS
 62
    30
 10
-75.428571428571416
 20
-399.41346221707511
 30
0.0
 40
64.0
  1
574
 41
0.9
 72
     1
 11
0.0
 21
-399.41346221707511
 31
0.0
  0
POINT
  8
DEFPOINTS
  6
CONTINUOUS
 62
    30
 10
-287.18990254553501
 20
-281.7470663195636
 30
0.0
  0
POINT
  8
DEFPOINTS
  6
CONTINUOUS
 62
    30
 10
287.18990254553501
 20
-281.7470663195636
 30
0.0
  0
POINT
  8
DEFPOINTS
  6
CONTINUOUS
 62
    30
 10
287.18990254553501
 20
-424.41346221707511
 30
0.0
  0
LINE
  8
SIZE
  6
CONTINUOUS
 62
    30
 10
-365.22539887499443
 20
-84.541716496751178
 30
0.0
 11
-365.22539887499443
 21
391.67382228518181
 31
0.0
  0
LINE
  8
SIZE
  6
CONTINUOUS
 62
    30
 10
-249.98297499999899
 20
18.800081720001
 30
0.0
 11
-249.98297499999899
 21
391.67382228518181
 31
0.0
  0
LINE
  8
SIZE
  6
CONTINUOUS
 62
    30
 10
-261.98297499999899
 20
371.67382228518181
 30
0.0
 11
-353.22539887499443
 21
371.67382228518181
 31
0.0
  0
LINE
  8
SIZE
  6
CONTINUOUS
 62
    30
 10
-365.22539887499443
 20
371.67382228518181
 30
0.0
 11
-553.396827446423
 21
371.67382228518181
 31
0.0
  0
CIRCLE
  8
SIZE
  6
CONTINUOUS
 62
    30
 10
-249.98297499999899
 20
371.67382228518181
 30
0.0
 40
6.0
  0
LINE
  8
SIZE
  6
CONTINUOUS
 62
    30
 10
-249.98297499999899
 20
371.67382228518181
 30
0.0
 11
-261.98297499999899
 21
371.67382228518181
 31
0.0
  0
CIRCLE
  8
SIZE
  6
CONTINUOUS
 62
    30
 10
-365.22539887499443
 20
371.67382228518181
 30
0.0
 40
6.0
  0
LINE
  8
SIZE
  6
CONTINUOUS
 62
    30
 10
-365.22539887499443
 20
371.67382228518181
 30
0.0
 11
-353.22539887499443
 21
371.67382228518181
 31
0.0
  0
TEXT
  8
SIZE
  6
CONTINUOUS
 62
    30
 10
-528.39682744642312
 20
396.67382228518181
 30
0.0
 40
64.0
  1
115
 41
0.9
 72
     1
 11
-465.31111316070883
 21
396.67382228518181
 31
0.0
  0
POINT
  8
DEFPOINTS
  6
CONTINUOUS
 62
    30
 10
-365.22539887499443
 20
-104.54171649675121
 30
0.0
  0
POINT
  8
DEFPOINTS
  6
CONTINUOUS
 62
    30
 10
-249.98297499999899
 20
-1.1999182799991099
 30
0.0
  0
POINT
  8
DEFPOINTS
  6
CONTINUOUS
 62
    30
 10
-249.98297499999899
 20
371.67382228518181
 30
0.0
  0
LINE
  8
SIZE
  6
CONTINUOUS
 62
    30
 10
364.5251060450064
 20
-84.492883549999533
 30
0.0
 11
364.5251060450064
 21
391.67382228518181
 31
0.0
  0
LINE
  8
SIZE
  6
CONTINUOUS
 62
    30
 10
249.98297499999899
 20
18.800081719997142
 30
0.0
 11
249.98297499999899
 21
391.67382228518181
 31
0.0
  0
LINE
  8
SIZE
  6
CONTINUOUS
 62
    30
 10
261.98297499999899
 20
371.67382228518181
 30
0.0
 11
352.5251060450064
 21
371.67382228518181
 31
0.0
  0
LINE
  8
SIZE
  6
CONTINUOUS
 62
    30
 10
364.5251060450064
 20
371.67382228518181
 30
0.0
 11
552.6965346164352
 21
371.67382228518181
 31
0.0
  0
CIRCLE
  8
SIZE
  6
CONTINUOUS
 62
    30
 10
249.98297499999899
 20
371.67382228518181
 30
0.0
 40
6.0
  0
LINE
  8
SIZE
  6
CONTINUOUS
 62
    30
 10
249.98297499999899
 20
371.67382228518181
 30
0.0
 11
261.98297499999899
 21
371.67382228518181
 31
0.0
  0
CIRCLE
  8
SIZE
  6
CONTINUOUS
 62
    30
 10
364.5251060450064
 20
371.67382228518181
 30
0.0
 40
6.0
  0
LINE
  8
SIZE
  6
CONTINUOUS
 62
    30
 10
364.5251060450064
 20
371.67382228518181
 30
0.0
 11
352.5251060450064
 21
371.67382228518181
 31
0.0
  0
TEXT
  8
SIZE
  6
CONTINUOUS
 62
    30
 10
401.52510604500651
 20
396.67382228518181
 30
0.0
 40
64.0
  1
115
 41
0.9
 72
     1
 11
464.6108203307208
 21
396.67382228518181
 31
0.0
  0
POINT
  8
DEFPOINTS
  6
CONTINUOUS
 62
    30
 10
364.5251060450064
 20
-104.4928835499996
 30
0.0
  0
POINT
  8
DEFPOINTS
  6
CONTINUOUS
 62
    30
 10
249.98297499999899
 20
-1.1999182800027479
 30
0.0
  0
POINT
  8
DEFPOINTS
  6
CONTINUOUS
 62
    30
 10
249.98297499999899
 20
371.67382228518181
 30
0.0
  0
LINE
  8
SIZE
  6
CONTINUOUS
 62
    30
 10
384.02514009352171
 20
-117.99230470000489
 30
0.0
 11
791.55256959508733
 21
-117.99230470000489
 31
0.0
  0
LINE
  8
SIZE
  6
CONTINUOUS
 62
    30
 10
384.02514009500368
 20
-215.7853040199989
 30
0.0
 11
791.55256959508733
 21
-215.78530401999899
 31
0.0
  0
LINE
  8
SIZE
  6
CONTINUOUS
 62
    30
 10
771.55256959508733
 20
-129.99230470000489
 30
0.0
 11
771.55256959508733
 21
-203.78530401999899
 31
0.0
  0
LINE
  8
SIZE
  6
CONTINUOUS
 62
    30
 10
771.55256959508733
 20
-215.78530401999899
 30
0.0
 11
771.55256959508733
 21
-431.38530401999918
 31
0.0
  0
CIRCLE
  8
SIZE
  6
CONTINUOUS
 62
    30
 10
771.55256959508733
 20
-117.99230470000489
 30
0.0
 40
6.0
  0
LINE
  8
SIZE
  6
CONTINUOUS
 62
    30
 10
771.55256959508733
 20
-117.99230470000489
 30
0.0
 11
771.55256959508733
 21
-129.99230470000489
 31
0.0
  0
CIRCLE
  8
SIZE
  6
CONTINUOUS
 62
    30
 10
771.55256959508733
 20
-215.78530401999899
 30
0.0
 40
6.0
  0
LINE
  8
SIZE
  6
CONTINUOUS
 62
    30
 10
771.55256959508733
 20
-215.78530401999899
 30
0.0
 11
771.55256959508733
 21
-203.78530401999899
 31
0.0
  0
TEXT
  8
SIZE
  6
CONTINUOUS
 62
    30
 10
735.88590292842036
 20
-416.53387544857031
 30
0.0
 40
64.0
  1
φ98
 50
90.0
 41
0.9
 72
     1
 11
735.88590292842036
 21
-329.58530401999877
 31
0.0
  0
POINT
  8
DEFPOINTS
  6
CONTINUOUS
 62
    30
 10
364.02514009352171
 20
-117.99230470000489
 30
0.0
  0
POINT
  8
DEFPOINTS
  6
CONTINUOUS
 62
    30
 10
364.02514009500368
 20
-215.7853040199989
 30
0.0
  0
POINT
  8
DEFPOINTS
  6
CONTINUOUS
 62
    30
 10
771.55256959508733
 20
-215.78530401999899
 30
0.0
  0
LINE
  8
SIZE
  6
CONTINUOUS
 62
    30
 10
-384.7254329249954
 20
-118.01375620000159
 30
0.0
 11
-628.54891882123047
 21
-118.01375620000159
 31
0.0
  0
LINE
  8
SIZE
  6
CONTINUOUS
 62
    30
 10
-378.91709297664062
 20
-215.7853040199989
 30
0.0
 11
-628.54891882123047
 21
-215.7853040199989
 31
0.0
  0
LINE
  8
SIZE
  6
CONTINUOUS
 62
    30
 10
-608.54891882123047
 20
-130.0137562000015
 30
0.0
 11
-608.54891882123047
 21
-203.7853040199989
 31
0.0
  0
LINE
  8
SIZE
  6
CONTINUOUS
 62
    30
 10
-608.54891882123047
 20
-215.7853040199989
 30
0.0
 11
-608.54891882123047
 21
-474.33303826120101
 31
0.0
  0
CIRCLE
  8
SIZE
  6
CONTINUOUS
 62
    30
 10
-608.54891882123047
 20
-118.01375620000159
 30
0.0
 40
6.0
  0
LINE
  8
SIZE
  6
CONTINUOUS
 62
    30
 10
-608.54891882123047
 20
-118.01375620000159
 30
0.0
 11
-608.54891882123047
 21
-130.0137562000015
 31
0.0
  0
CIRCLE
  8
SIZE
  6
CONTINUOUS
 62
    30
 10
-608.54891882123047
 20
-215.7853040199989
 30
0.0
 40
6.0
  0
LINE
  8
SIZE
  6
CONTINUOUS
 62
    30
 10
-608.54891882123047
 20
-215.7853040199989
 30
0.0
 11
-608.54891882123047
 21
-203.7853040199989
 31
0.0
  0
TEXT
  8
SIZE
  6
CONTINUOUS
 62
    30
 10
-644.21558548789699
 20
-459.48160968977248
 30
0.0
 40
64.0
  1
φ98
 50
90.0
 41
0.9
 72
     1
 11
-644.21558548789699
 21
-372.53303826120111
 31
0.0
  0
POINT
  8
DEFPOINTS
  6
CONTINUOUS
 62
    30
 10
-364.7254329249954
 20
-118.01375620000159
 30
0.0
  0
POINT
  8
DEFPOINTS
  6
CONTINUOUS
 62
    30
 10
-358.91709297664062
 20
-215.7853040199989
 30
0.0
  0
POINT
  8
DEFPOINTS
  6
CONTINUOUS
 62
    30
 10
-608.54891882123047
 20
-215.7853040199989
 30
0.0
  0
TEXT
  8
NOTE
  6
CONTINUOUS
 62
     4
 10
485.84588937255472
 20
-570.98239167513566
 30
0.0
 40
64.0
  1
外径φ18（呼び径13）
 41
0.9
  0
LINE
  8
BASIS
  6
DASHDOT
 62
     6
 10
-394.41699581211651
 20
-165.99999999999989
 30
0.0
 11
-214.46133638862739
 21
-165.99999999999989
 31
0.0
  0
LINE
  8
SIZE
  6
CONTINUOUS
 62
    30
 10
-268.78305671999988
 20
0.0
 30
0.0
 11
-739.88613678470574
 21
0.0000000000001137
 31
0.0
  0
LINE
  8
SIZE
  6
CONTINUOUS
 62
    30
 10
-414.41699581211651
 20
-165.99999999999989
 30
0.0
 11
-739.88613678470574
 21
-165.9999999999998
 31
0.0
  0
LINE
  8
SIZE
  6
CONTINUOUS
 62
    30
 10
-719.88613678470574
 20
-11.999999999999771
 30
0.0
 11
-719.88613678470574
 21
-153.9999999999998
 31
0.0
  0
CIRCLE
  8
SIZE
  6
CONTINUOUS
 62
    30
 10
-719.88613678470574
 20
0.0000000000001137
 30
0.0
 40
6.0
  0
LINE
  8
SIZE
  6
CONTINUOUS
 62
    30
 10
-719.88613678470574
 20
0.0000000000001137
 30
0.0
 11
-719.88613678470574
 21
-11.999999999999771
 31
0.0
  0
CIRCLE
  8
SIZE
  6
CONTINUOUS
 62
    30
 10
-719.88613678470574
 20
-165.9999999999998
 30
0.0
 40
6.0
  0
LINE
  8
SIZE
  6
CONTINUOUS
 62
    30
 10
-719.88613678470574
 20
-165.9999999999998
 30
0.0
 11
-719.88613678470574
 21
-153.9999999999998
 31
0.0
  0
TEXT
  8
SIZE
  6
CONTINUOUS
 62
    30
 10
-744.88613678470574
 20
-150.1999999999999
 30
0.0
 40
64.0
  1
166
 50
90.0
 41
0.9
 72
     1
 11
-744.88613678470574
 21
-82.999999999999886
 31
0.0
  0
POINT
  8
DEFPOINTS
  6
CONTINUOUS
 62
    30
 10
-248.78305671999991
 20
0.0
 30
0.0
  0
POINT
  8
DEFPOINTS
  6
CONTINUOUS
 62
    30
 10
-394.41699581211651
 20
-165.99999999999989
 30
0.0
  0
POINT
  8
DEFPOINTS
  6
CONTINUOUS
 62
    30
 10
-719.88613678470574
 20
-165.9999999999998
 30
0.0
  0
TEXT
  8
NOTE
  6
CONTINUOUS
 62
     4
 10
392.94191192754619
 20
-191.25020978906289
 30
0.0
 40
64.0
  1
RAb2
 41
0.9
  0
TEXT
  8
NOTE
  6
CONTINUOUS
 62
     4
 10
103.8097552600702
 20
-127.0148663793717
 30
0.0
 40
64.0
  1
OA
 41
0.9
  0
TEXT
  8
NOTE
  6
CONTINUOUS
 62
     4
 10
-187.33025889098829
 20
-131.02957734579471
 30
0.0
 40
64.0
  1
EA
 41
0.9
  0
TEXT
  8
NOTE
  6
CONTINUOUS
 62
     4
 10
-588.90271424033926
 20
-189.2428543058505
 30
0.0
 40
64.0
  1
RAb1
 41
0.9
  0
LINE
  8
SIZE
  6
CONTINUOUS
 62
    30
 10
736.07092320788524
 20
40.626344059220173
 30
0.0
 11
218.74423021422669
 21
-75.757561996626691
 31
0.0
  0
LINE
  8
SIZE
  6
CONTINUOUS
 62
    30
 10
99.634086745772493
 20
-102.5539827796172
 30
0.0
 11
87.926698918291777
 21
-105.1878146377571
 31
0.0
  0
TEXT
  8
SIZE
  6
CONTINUOUS
 62
    30
 10
550.45167441117269
 20
24.49209671487154
 30
0.0
 40
64.0
  1
φ98
 50
12.678844410525761
 41
0.9
 72
     1
 11
635.28006164114822
 21
43.576089835565767
 31
0.0
  0
LINE
  8
SIZE
  6
CONTINUOUS
 62
    30
 10
111.34147457325339
 20
-99.920150921477216
 30
0.0
 11
207.0368423867458
 21
-78.391393854766648
 31
0.0
  0
CIRCLE
  8
SIZE
  6
CONTINUOUS
 62
    30
 10
111.34147457325339
 20
-99.920150921477216
 30
0.0
 40
6.0
  0
LINE
  8
SIZE
  6
CONTINUOUS
 62
    30
 10
111.34147457325339
 20
-99.920150921477216
 30
0.0
 11
99.634086745772493
 21
-102.5539827796171
 31
0.0
  0
CIRCLE
  8
SIZE
  6
CONTINUOUS
 62
    30
 10
207.0368423867458
 20
-78.391393854766648
 30
0.0
 40
6.0
  0
LINE
  8
SIZE
  6
CONTINUOUS
 62
    30
 10
207.0368423867458
 20
-78.391393854766648
 30
0.0
 11
218.74423021422669
 21
-75.757561996626691
 31
0.0
  0
POINT
  8
DEFPOINTS
  6
CONTINUOUS
 62
    30
 10
207.0368423867458
 20
-78.391393854766648
 30
0.0
  0
POINT
  8
DEFPOINTS
  6
CONTINUOUS
 62
    30
 10
111.34147457325339
 20
-99.920150921477216
 30
0.0
  0
LINE
  8
SIZE
  6
CONTINUOUS
 62
    30
 10
670.14956161235614
 20
155.50709805499881
 30
0.0
 11
225.8248099124244
 21
-57.248662456784928
 31
0.0
  0
LINE
  8
SIZE
  6
CONTINUOUS
 62
    30
 10
92.55350704757484
 20
-121.06288231945879
 30
0.0
 11
81.730292669680694
 21
-126.2453557183434
 31
0.0
  0
TEXT
  8
SIZE
  6
CONTINUOUS
 62
    30
 10
450.76878532289328
 20
78.179327567868029
 30
0.0
 40
64.0
  1
φ124
 50
25.586470505988139
 41
0.9
 72
     1
 11
550.21866372091426
 21
125.798854570191
 31
0.0
  0
LINE
  8
SIZE
  6
CONTINUOUS
 62
    30
 10
103.3767214254688
 20
-115.880408920574
 30
0.0
 11
215.0015955345302
 21
-62.431135855669709
 31
0.0
  0
CIRCLE
  8
SIZE
  6
CONTINUOUS
 62
    30
 10
103.3767214254688
 20
-115.880408920574
 30
0.0
 40
6.0
  0
LINE
  8
SIZE
  6
CONTINUOUS
 62
    30
 10
103.3767214254688
 20
-115.880408920574
 30
0.0
 11
92.553507047574612
 21
-121.06288231945869
 31
0.0
  0
CIRCLE
  8
SIZE
  6
CONTINUOUS
 62
    30
 10
215.0015955345302
 20
-62.431135855669709
 30
0.0
 40
6.0
  0
LINE
  8
SIZE
  6
CONTINUOUS
 62
    30
 10
215.0015955345302
 20
-62.431135855669709
 30
0.0
 11
225.8248099124244
 21
-57.248662456784928
 31
0.0
  0
POINT
  8
DEFPOINTS
  6
CONTINUOUS
 62
    30
 10
215.0015955345302
 20
-62.431135855669709
 30
0.0
  0
POINT
  8
DEFPOINTS
  6
CONTINUOUS
 62
    30
 10
103.3767214254688
 20
-115.880408920574
 30
0.0
  0
LINE
  8
SIZE
  6
CONTINUOUS
 62
    30
 10
592.87239249495997
 20
298.15269045587769
 30
0.0
 11
222.58722930917841
 21
-32.537006813990502
 31
0.0
  0
LINE
  8
SIZE
  6
CONTINUOUS
 62
    30
 10
95.791087650820828
 20
-145.77453796225339
 30
0.0
 11
86.840771769054527
 21
-153.76777545507181
 31
0.0
  0
TEXT
  8
SIZE
  6
CONTINUOUS
 62
    30
 10
407.82175209707748
 20
166.40832160062749
 30
0.0
 40
64.0
  1
φ146
 50
41.767009835445492
 41
0.9
 72
     1
 11
488.0165823977045
 21
238.02772953628161
 31
0.0
  0
LINE
  8
SIZE
  6
CONTINUOUS
 62
    30
 10
104.7414035325874
 20
-137.7813004694348
 30
0.0
 11
213.63691342741191
 21
-40.530244306808981
 31
0.0
  0
CIRCLE
  8
SIZE
  6
CONTINUOUS
 62
    30
 10
104.7414035325874
 20
-137.7813004694348
 30
0.0
 40
6.0
  0
LINE
  8
SIZE
  6
CONTINUOUS
 62
    30
 10
104.7414035325874
 20
-137.7813004694348
 30
0.0
 11
95.791087650820828
 21
-145.77453796225339
 31
0.0
  0
CIRCLE
  8
SIZE
  6
CONTINUOUS
 62
    30
 10
213.63691342741191
 20
-40.530244306808981
 30
0.0
 40
6.0
  0
LINE
  8
SIZE
  6
CONTINUOUS
 62
    30
 10
213.63691342741191
 20
-40.530244306808981
 30
0.0
 11
222.58722930917841
 21
-32.537006813990502
 31
0.0
  0
POINT
  8
DEFPOINTS
  6
CONTINUOUS
 62
    30
 10
213.63691342741191
 20
-40.530244306808981
 30
0.0
  0
POINT
  8
DEFPOINTS
  6
CONTINUOUS
 62
    30
 10
104.7414035325874
 20
-137.7813004694348
 30
0.0
  0
LINE
  8
SIZE
  6
CONTINUOUS
 62
    30
 10
-268.78305671999988
 20
0.0
 30
0.0
 11
-891.05113398910373
 21
0.0000000000002274
 31
0.0
  0
LINE
  8
SIZE
  6
CONTINUOUS
 62
    30
 10
-270.38294776000112
 20
-270.48144274999868
 30
0.0
 11
-891.05113398910373
 21
-270.48144274999851
 31
0.0
  0
LINE
  8
SIZE
  6
CONTINUOUS
 62
    30
 10
-871.05113398910373
 20
-11.999999999999771
 30
0.0
 11
-871.05113398910373
 21
-258.48144274999851
 31
0.0
  0
CIRCLE
  8
SIZE
  6
CONTINUOUS
 62
    30
 10
-871.05113398910373
 20
0.0000000000002274
 30
0.0
 40
6.0
  0
LINE
  8
SIZE
  6
CONTINUOUS
 62
    30
 10
-871.05113398910373
 20
0.0000000000002274
 30
0.0
 11
-871.05113398910373
 21
-11.999999999999771
 31
0.0
  0
CIRCLE
  8
SIZE
  6
CONTINUOUS
 62
    30
 10
-871.05113398910373
 20
-270.48144274999851
 30
0.0
 40
6.0
  0
LINE
  8
SIZE
  6
CONTINUOUS
 62
    30
 10
-871.05113398910373
 20
-270.48144274999851
 30
0.0
 11
-871.05113398910373
 21
-258.48144274999851
 31
0.0
  0
TEXT
  8
SIZE
  6
CONTINUOUS
 62
    30
 10
-896.05113398910373
 20
-209.29786423214219
 30
0.0
 40
64.0
  1
270
 50
90.0
 41
0.9
 72
     1
 11
-896.05113398910373
 21
-135.24072137499931
 31
0.0
  0
POINT
  8
DEFPOINTS
  6
CONTINUOUS
 62
    30
 10
-248.78305671999991
 20
0.0
 30
0.0
  0
POINT
  8
DEFPOINTS
  6
CONTINUOUS
 62
    30
 10
-250.38294776000109
 20
-270.48144274999868
 30
0.0
  0
POINT
  8
DEFPOINTS
  6
CONTINUOUS
 62
    30
 10
-871.05113398910373
 20
-270.48144274999851
 30
0.0
  0
LINE
  8
SIZE
  6
CONTINUOUS
 62
    30
 10
-268.78305671999988
 20
0.0
 30
0.0
 11
-451.8777779667671
 21
0.0000000000001137
 31
0.0
  0
LINE
  8
SIZE
  6
CONTINUOUS
 62
    30
 10
-296.48117034999808
 20
-39.997276000001882
 30
0.0
 11
-451.8777779667671
 21
-39.997276000001882
 31
0.0
  0
LINE
  8
SIZE
  6
CONTINUOUS
 62
    30
 10
-431.8777779667671
 20
-51.997276000001882
 30
0.0
 11
-431.8777779667671
 21
-63.997276000001882
 31
0.0
  0
LINE
  8
SIZE
  6
CONTINUOUS
 62
    30
 10
-431.8777779667671
 20
12.000000000000229
 30
0.0
 11
-431.8777779667671
 21
167.25714285714301
 31
0.0
  0
LINE
  8
SIZE
  6
CONTINUOUS
 62
    30
 10
-431.8777779667671
 20
-39.997276000001882
 30
0.0
 11
-431.8777779667671
 21
0.0
 31
0.0
  0
CIRCLE
  8
SIZE
  6
CONTINUOUS
 62
    30
 10
-431.8777779667671
 20
-39.997276000001882
 30
0.0
 40
6.0
  0
LINE
  8
SIZE
  6
CONTINUOUS
 62
    30
 10
-431.8777779667671
 20
-39.997276000001882
 30
0.0
 11
-431.8777779667671
 21
-51.997276000001882
 31
0.0
  0
CIRCLE
  8
SIZE
  6
CONTINUOUS
 62
    30
 10
-431.8777779667671
 20
0.0
 30
0.0
 40
6.0
  0
LINE
  8
SIZE
  6
CONTINUOUS
 62
    30
 10
-431.8777779667671
 20
0.0
 30
0.0
 11
-431.8777779667671
 21
12.00000000000011
 31
0.0
  0
TEXT
  8
SIZE
  6
CONTINUOUS
 62
    30
 10
-456.8777779667671
 20
49.000000000000178
 30
0.0
 40
64.0
  1
40
 50
90.0
 41
0.9
 72
     1
 11
-456.8777779667671
 21
95.628571428571604
 31
0.0
  0
POINT
  8
DEFPOINTS
  6
CONTINUOUS
 62
    30
 10
-248.78305671999991
 20
0.0
 30
0.0
  0
POINT
  8
DEFPOINTS
  6
CONTINUOUS
 62
    30
 10
-276.48117034999808
 20
-39.997276000001882
 30
0.0
  0
POINT
  8
DEFPOINTS
  6
CONTINUOUS
 62
    30
 10
-431.8777779667671
 20
-39.997276000001882
 30
0.0
  0
TEXT
  8
NOTE
  6
CONTINUOUS
 62
     4
 10
-703.73654286875694
 20
-562.94829977321922
 30
0.0
 40
64.0
  1
AH 4
 41
0.9
 72
     2
 11
-507.34797144018557
 21
-562.94829977321922
 31
0.0
  0
TEXT
  8
NOTE
  6
CONTINUOUS
 62
     4
 10
500.6577327618088
 20
-422.17846674502817
 30
0.0
 40
64.0
  1
D
 41
0.9
  0
LINE
  8
DETAIL
  6
CONTINUOUS
 62
     4
 10
-273.54163062306469
 20
-42.787717226781297
 30
0.0
 11
-269.98161629531569
 21
-37.697432630000662
 31
0.0
  0
LINE
  8
DETAIL
  6
CONTINUOUS
 62
     4
 10
-269.98161629531569
 20
-37.697432630000662
 30
0.0
 11
-270.5195275171377
 21
-43.885756377788773
 31
0.0
  0
LINE
  8
DETAIL
  6
CONTINUOUS
 62
     4
 10
-269.98161629531569
 20
-37.697432630000662
 30
0.0
 11
-274.07954184488648
 21
-48.976040974569287
 31
0.0
  0
LINE
  8
NOTE
  6
CONTINUOUS
 62
     4
 10
-274.07954184488648
 20
-48.976040974569287
 30
0.0
 11
-470.34797144018557
 21
-589.16026858718965
 31
0.0
  0
LINE
  8
NOTE
  6
CONTINUOUS
 62
     4
 10
-470.34797144018557
 20
-589.16026858718965
 30
0.0
 11
-703.73654286875717
 21
-589.16026858718965
 31
0.0
  0
LINE
  8
DETAIL
  6
CONTINUOUS
 62
     4
 10
289.98974163141969
 20
-287.29162643398558
 30
0.0
 11
287.18993105059047
 21
-281.74674050175241
 31
0.0
  0
LINE
  8
DETAIL
  6
CONTINUOUS
 62
     4
 10
287.18993105059047
 20
-281.74674050175241
 30
0.0
 11
292.38708623226739
 21
-285.14883945792212
 31
0.0
  0
LINE
  8
DETAIL
  6
CONTINUOUS
 62
     4
 10
287.18993105059047
 20
-281.74674050175241
 30
0.0
 11
295.18689681309661
 21
-290.69372539015512
 31
0.0
  0
LINE
  8
NOTE
  6
CONTINUOUS
 62
     4
 10
295.18689681309661
 20
-290.69372539015512
 30
0.0
 11
463.6577327618088
 21
-479.17846674502817
 31
0.0
  0
LINE
  8
NOTE
  6
CONTINUOUS
 62
     4
 10
463.6577327618088
 20
-479.17846674502817
 30
0.0
 11
1180.4320076920869
 21
-479.17846674502817
 31
0.0
  0
LINE
  8
BASIS
  6
DASHDOT
 62
     6
 10
394.71670298212121
 20
-165.99999999999989
 30
0.0
 11
214.76104355863211
 21
-165.99999999999989
 31
0.0
  0
LINE
  8
SIZE
  6
CONTINUOUS
 62
    30
 10
268.78305671999988
 20
0.0
 30
0.0
 11
1046.980799146065
 21
-0.0000000000001137
 31
0.0
  0
LINE
  8
SIZE
  6
CONTINUOUS
 62
    30
 10
414.71670298212121
 20
-165.99999999999989
 30
0.0
 11
1046.980799146065
 21
-166.0000000000002
 31
0.0
  0
LINE
  8
SIZE
  6
CONTINUOUS
 62
    30
 10
1026.980799146065
 20
-154.0000000000002
 30
0.0
 11
1026.980799146065
 21
-12.000000000000229
 31
0.0
  0
LINE
  8
SIZE
  6
CONTINUOUS
 62
    30
 10
1026.980799146065
 20
-0.0000000000001137
 30
0.0
 11
1026.980799146065
 21
196.39999999999989
 31
0.0
  0
CIRCLE
  8
SIZE
  6
CONTINUOUS
 62
    30
 10
1026.980799146065
 20
-166.0000000000002
 30
0.0
 40
6.0
  0
LINE
  8
SIZE
  6
CONTINUOUS
 62
    30
 10
1026.980799146065
 20
-166.0000000000002
 30
0.0
 11
1026.980799146065
 21
-154.0000000000002
 31
0.0
  0
CIRCLE
  8
SIZE
  6
CONTINUOUS
 62
    30
 10
1026.980799146065
 20
-0.0000000000001137
 30
0.0
 40
6.0
  0
LINE
  8
SIZE
  6
CONTINUOUS
 62
    30
 10
1026.980799146065
 20
-0.0000000000001137
 30
0.0
 11
1026.980799146065
 21
-12.000000000000229
 31
0.0
  0
TEXT
  8
SIZE
  6
CONTINUOUS
 62
    30
 10
1001.980799146065
 20
37.000000000000043
 30
0.0
 40
64.0
  1
166
 50
90.0
 41
0.9
 72
     1
 11
1001.980799146065
 21
104.2
 31
0.0
  0
POINT
  8
DEFPOINTS
  6
CONTINUOUS
 62
    30
 10
248.78305671999991
 20
0.0
 30
0.0
  0
POINT
  8
DEFPOINTS
  6
CONTINUOUS
 62
    30
 10
394.71670298212121
 20
-165.99999999999989
 30
0.0
  0
POINT
  8
DEFPOINTS
  6
CONTINUOUS
 62
    30
 10
1026.980799146065
 20
-166.0000000000002
 30
0.0
  0
ENDSEC
  0
EOF
