  0
SECTION
  2
HEADER
  9
$ACADVER
  1
AC1009
  9
$INSBASE
 10
0.0
 20
0.0
 30
0.0
  9
$EXTMIN
 10
-664.17819299999985
 20
-849.084067
 30
0.0
  9
$EXTMAX
 10
1453.838544794899
 20
904.25705300000004
 30
50.0
  9
$LIMMIN
 10
-2970.0
 20
-2100.0
  9
$LIMMAX
 10
2970.0
 20
2100.0
  9
$ORTHOMODE
 70
     1
  9
$REGENMODE
 70
     1
  9
$FILLMODE
 70
     1
  9
$QTEXTMODE
 70
     0
  9
$MIRRTEXT
 70
     0
  9
$DRAGMODE
 70
     2
  9
$LTSCALE
 40
20.0
  9
$OSMODE
 70
   943
  9
$ATTMODE
 70
     1
  9
$TEXTSIZE
 40
64.0
  9
$TRACEWID
 40
0.05
  9
$TEXTSTYLE
  7
STANDARD
  9
$CLAYER
  8
ARRANGE
  9
$CELTYPE
  6
CONTINUOUS
  9
$CECOLOR
 62
     5
  9
$DIMSCALE
 40
1.0
  9
$DIMASZ
 40
12.0
  9
$DIMEXO
 40
20.0
  9
$DIMDLI
 40
200.0
  9
$DIMRND
 40
0.0
  9
$DIMDLE
 40
0.0
  9
$DIMEXE
 40
20.0
  9
$DIMTP
 40
0.0
  9
$DIMTM
 40
0.0
  9
$DIMTXT
 40
64.0
  9
$DIMCEN
 40
0.09
  9
$DIMTSZ
 40
0.0
  9
$DIMTOL
 70
     0
  9
$DIMLIM
 70
     0
  9
$DIMTIH
 70
     0
  9
$DIMTOH
 70
     0
  9
$DIMSE1
 70
     0
  9
$DIMSE2
 70
     0
  9
$DIMTAD
 70
     1
  9
$DIMZIN
 70
     8
  9
$DIMBLK
  1
DOT1
  9
$DIMASO
 70
     1
  9
$DIMSHO
 70
     0
  9
$DIMPOST
  1

  9
$DIMAPOST
  1

  9
$DIMALT
 70
     0
  9
$DIMALTD
 70
     2
  9
$DIMALTF
 40
25.399999999999999
  9
$DIMLFAC
 40
1.0
  9
$DIMTOFL
 70
     1
  9
$DIMTVP
 40
0.0
  9
$DIMTIX
 70
     1
  9
$DIMSOXD
 70
     0
  9
$DIMSAH
 70
     1
  9
$DIMBLK1
  1
ORIGIN
  9
$DIMBLK2
  1
ORIGIN
  9
$DIMSTYLE
  2
STANDARD
  9
$DIMCLRD
 70
     7
  9
$DIMCLRE
 70
     7
  9
$DIMCLRT
 70
     7
  9
$DIMTFAC
 40
1.0
  9
$DIMGAP
 40
25.0
  9
$LUNITS
 70
     2
  9
$LUPREC
 70
     4
  9
$SKETCHINC
 40
0.1
  9
$FILLETRAD
 40
3.0
  9
$AUNITS
 70
     1
  9
$AUPREC
 70
     3
  9
$MENU
  1
ACAD
  9
$ELEVATION
 40
0.0
  9
$PELEVATION
 40
0.0
  9
$THICKNESS
 40
50.0
  9
$LIMCHECK
 70
     0
  9
$BLIPMODE
 70
     0
  9
$CHAMFERA
 40
0.0
  9
$CHAMFERB
 40
0.0
  9
$SKPOLY
 70
     0
  9
$TDCREATE
 40
2453019.6230103709
  9
$TDUPDATE
 40
2456955.7458888311
  9
$TDINDWG
 40
1.7463114582999999
  9
$TDUSRTIMER
 40
1.7463106944
  9
$USRTIMER
 70
     1
  9
$ANGBASE
 50
0.0
  9
$ANGDIR
 70
     0
  9
$PDMODE
 70
     3
  9
$PDSIZE
 40
-2.0
  9
$PLINEWID
 40
0.0
  9
$COORDS
 70
     1
  9
$SPLFRAME
 70
     0
  9
$SPLINETYPE
 70
     6
  9
$SPLINESEGS
 70
     8
  9
$ATTDIA
 70
     1
  9
$ATTREQ
 70
     1
  9
$HANDLING
 70
     1
  9
$HANDSEED
  5
B93
  9
$SURFTAB1
 70
     6
  9
$SURFTAB2
 70
     6
  9
$SURFTYPE
 70
     6
  9
$SURFU
 70
     6
  9
$SURFV
 70
     6
  9
$UCSNAME
  2

  9
$UCSORG
 10
0.0
 20
0.0
 30
0.0
  9
$UCSXDIR
 10
1.0
 20
0.0
 30
0.0
  9
$UCSYDIR
 10
0.0
 20
1.0
 30
0.0
  9
$PUCSNAME
  2

  9
$PUCSORG
 10
0.0
 20
0.0
 30
0.0
  9
$PUCSXDIR
 10
1.0
 20
0.0
 30
0.0
  9
$PUCSYDIR
 10
0.0
 20
1.0
 30
0.0
  9
$USERI1
 70
     0
  9
$USERI2
 70
     0
  9
$USERI3
 70
     0
  9
$USERI4
 70
     0
  9
$USERI5
 70
     0
  9
$USERR1
 40
20.0
  9
$USERR2
 40
0.0
  9
$USERR3
 40
0.0
  9
$USERR4
 40
0.0
  9
$USERR5
 40
0.0
  9
$WORLDVIEW
 70
     1
  9
$SHADEDGE
 70
     3
  9
$SHADEDIF
 70
    70
  9
$TILEMODE
 70
     1
  9
$MAXACTVP
 70
    48
  9
$PLIMCHECK
 70
     0
  9
$PEXTMIN
 10
-1.0000000000000000E+020
 20
-1.0000000000000000E+020
 30
-1.0000000000000000E+020
  9
$PEXTMAX
 10
1.0000000000000000E+020
 20
1.0000000000000000E+020
 30
1.0000000000000000E+020
  9
$PLIMMIN
 10
0.0
 20
0.0
  9
$PLIMMAX
 10
12.0
 20
9.0
  9
$UNITMODE
 70
     0
  9
$VISRETAIN
 70
     0
  9
$PLINEGEN
 70
     0
  9
$PSLTSCALE
 70
     0
  0
ENDSEC
  0
SECTION
  2
TABLES
  0
TABLE
  2
VPORT
 70
     1
  0
VPORT
  2
*ACTIVE
 70
     0
 10
0.0
 20
0.0
 11
1.0
 21
1.0
 12
335.90719344889698
 22
87.513447879190707
 13
0.0
 23
0.0
 14
1.0
 24
1.0
 15
0.0
 25
0.0
 16
0.0
 26
0.0
 36
1.0
 17
0.0
 27
0.0
 37
0.0
 40
1931.4937782038401
 41
1.3299620733249049
 42
50.0
 43
0.0
 44
0.0
 50
0.0
 51
0.0
 71
     0
 72
  1000
 73
     1
 74
     0
 75
     0
 76
     0
 77
     0
 78
     0
  0
ENDTAB
  0
TABLE
  2
LTYPE
 70
     7
  0
LTYPE
  2
CONTINUOUS
 70
     0
  3
実線
 72
    65
 73
     0
 40
0.0
  0
LTYPE
  2
DASHDOT
 70
     0
  3
____ _ ____ _ ____ _ ____ _ ____ _ ____ _ ____
 72
    65
 73
     4
 40
5.5
 49
4.0
 49
-0.6
 49
0.3
 49
-0.6
  0
LTYPE
  2
DASHED
 70
     0
  3
-- -- -- -- -- -- -- -- -- -- -- -- -- -- --
 72
    65
 73
     2
 40
0.75
 49
0.5
 49
-0.25
  0
LTYPE
  2
CENTER
 70
     0
  3
Center ____ _ ____ _ ____ _ ____ _ ____ _ ____
 72
    65
 73
     4
 40
2.0
 49
1.25
 49
-0.25
 49
0.25
 49
-0.25
  0
LTYPE
  2
HIDDEN
 70
     0
  3
Hidden __ __ __ __ __ __ __ __ __ __ __ __ __ _
 72
    65
 73
     2
 40
0.375
 49
0.25
 49
-0.125
  0
LTYPE
  2
PHANTOM
 70
     0
  3
Phantom ______  __  __  ______  __  __  ______
 72
    65
 73
     6
 40
2.5
 49
1.25
 49
-0.25
 49
0.25
 49
-0.25
 49
0.25
 49
-0.25
  0
ENDTAB
  0
TABLE
  2
LAYER
 70
    12
  0
LAYER
  2
0
 70
     0
 62
     7
  6
CONTINUOUS
  0
LAYER
  2
DETAIL
 70
     0
 62
     5
  6
CONTINUOUS
  0
LAYER
  2
SIZE
 70
     0
 62
    30
  6
CONTINUOUS
  0
LAYER
  2
BASIS
 70
     0
 62
     6
  6
DASHDOT
  0
LAYER
  2
OUTLINE
 70
     0
 62
     3
  6
CONTINUOUS
  0
LAYER
  2
ARRANGE
 70
     0
 62
     1
  6
CONTINUOUS
  0
LAYER
  2
DEFPOINTS
 70
     0
 62
     7
  6
CONTINUOUS
  0
LAYER
  2
ETC
 70
     0
 62
    61
  6
CONTINUOUS
  0
LAYER
  2
NOTE
 70
     0
 62
     4
  6
CONTINUOUS
  0
LAYER
  2
FIX
 70
     0
 62
    11
  6
CONTINUOUS
  0
LAYER
  2
SERVICESPACE
 70
     0
 62
     2
  6
DASHDOT
  0
LAYER
  2
SYMBOLLINE
 70
     0
 62
    15
  6
CONTINUOUS
  0
ENDTAB
  0
TABLE
  2
STYLE
 70
     3
  0
STYLE
  2
STANDARD
 70
     0
 40
64.0
 41
0.9
 50
0.0
 71
     0
 42
64.0
  3
SIMPLEX.shx
  4
BIGFONT.shx
  0
STYLE
  2
ANNOTATIVE
 70
     0
 40
0.0
 41
1.0
 50
0.0
 71
     0
 42
0.2
  3
txt
  4

  0
STYLE
  2

 70
     1
 40
0.0
 41
1.0
 50
0.0
 71
     0
 42
64.0
  3
ltypeshp.shx
  4

  0
ENDTAB
  0
TABLE
  2
VIEW
 70
     1
  0
VIEW
  2
ALL
 70
     0
 40
4282.6198079999967
 10
0.0
 20
41.309903999999989
 41
5940.0
 11
0.0
 21
0.0
 31
1.0
 12
0.0
 22
0.0
 32
0.0
 42
50.0
 43
0.0
 44
0.0
 50
0.0
 71
     0
  0
ENDTAB
  0
TABLE
  2
UCS
 70
     0
  0
ENDTAB
  0
TABLE
  2
APPID
 70
    18
  0
APPID
  2
ACAD
 70
     0
  0
APPID
  2
ACADANNOTATIVE
 70
     0
  0
APPID
  2
ACAD_MLEADERVER
 70
     0
  0
APPID
  2
AUTOCAD_POSTSCRIPT_FIGURE
 70
     0
  0
APPID
  2
ACAD_EXEMPT_FROM_CAD_STANDARDS
 70
     0
  0
APPID
  2
ACAD_PSEXT
 70
     0
  0
APPID
  2
ACAUTHENVIRON
 70
     0
  0
APPID
  2
GENIUS_GENOENT_13
 70
     0
  0
APPID
  2
GENIUS_GENCFG_13
 70
     0
  0
APPID
  2
GENIUS_GENCFG0_13
 70
     0
  0
APPID
  2
GENIUS_GENCFG1_13
 70
     0
  0
APPID
  2
GENIUS_GENCFG2_13
 70
     0
  0
APPID
  2
GENIUS_GENCFG3_13
 70
     0
  0
APPID
  2
GENIUS_GENCFG4_13
 70
     0
  0
APPID
  2
GENIUS_GEVCFG0_13
 70
     0
  0
APPID
  2
CONTENTBLOCKICON
 70
     0
  0
APPID
  2
CONTENTBLOCKDESCRIPTION
 70
     0
  0
APPID
  2
ACAD_NAV_VCDISPLAY
 70
     0
  0
ENDTAB
  0
TABLE
  2
DIMSTYLE
 70
     2
  0
DIMSTYLE
  2
STANDARD
 70
     0
  3

  4

  5

  6

  7

 40
1.0
 41
0.18
 42
0.0625
 43
0.38
 44
0.18
 45
0.0
 46
0.0
 47
0.0
 48
0.0
140
0.18
141
0.09
142
0.0
143
25.399999999999999
144
1.0
145
0.0
146
1.0
147
0.09
 71
     0
 72
     0
 73
     1
 74
     1
 75
     0
 76
     0
 77
     0
 78
     0
170
     0
171
     2
172
     0
173
     0
174
     0
175
     0
176
     7
177
     7
178
     7
  0
DIMSTYLE
  2
ANNOTATIVE
 70
     0
  3

  4

  5

  6

  7

 40
1.0
 41
0.18
 42
0.0625
 43
0.38
 44
0.18
 45
0.0
 46
0.0
 47
0.0
 48
0.0
140
0.18
141
0.09
142
0.0
143
25.399999999999999
144
1.0
145
0.0
146
1.0
147
0.09
 71
     0
 72
     0
 73
     1
 74
     1
 75
     0
 76
     0
 77
     0
 78
     0
170
     0
171
     2
172
     0
173
     0
174
     0
175
     0
176
     0
177
     0
178
     0
  0
ENDTAB
  0
ENDSEC
  0
SECTION
  2
BLOCKS
  0
BLOCK
  8
0
  2
$MODEL_SPACE
 70
     0
 10
0.0
 20
0.0
 30
0.0
  3
$MODEL_SPACE
  1

  0
ENDBLK
  5
AFC
  8
0
  0
BLOCK
 67
     1
  8
0
  2
$PAPER_SPACE
 70
     0
 10
0.0
 20
0.0
 30
0.0
  3
$PAPER_SPACE
  1

  0
ENDBLK
  5
AF8
 67
     1
  8
0
  0
BLOCK
  8
0
  2
DOT1
 70
     0
 10
0.0
 20
0.0
 30
0.0
  3
DOT1
  1

  0
CIRCLE
  5
7B5
  8
SIZE
  6
CONTINUOUS
 62
     7
 10
0.0
 20
0.0
 30
0.0
 40
3.0
  0
ENDBLK
  5
7B6
  8
0
  0
BLOCK
  8
0
  2
_ORIGIN
 70
     0
 10
0.0
 20
0.0
 30
0.0
  3
_ORIGIN
  1

  0
CIRCLE
  5
7B9
  8
0
  6
CONTINUOUS
 62
     7
 10
0.0
 20
0.0
 30
0.0
 40
0.5
  0
LINE
  5
7BA
  8
0
  6
CONTINUOUS
 62
     7
 10
0.0
 20
0.0
 30
0.0
 11
-1.0
 21
0.0
 31
0.0
  0
ENDBLK
  5
7BB
  8
0
  0
ENDSEC
  0
SECTION
  2
ENTITIES
  0
CIRCLE
  5
7BC
  8
ARRANGE
  6
CONTINUOUS
 62
     1
 10
0.0
 20
0.0
 30
0.0
 40
40.0
  0
POINT
  5
7BD
  8
ARRANGE
  6
CONTINUOUS
 62
     1
 10
0.0
 20
0.0
 30
0.0
 39
50.0
  0
LINE
  5
7BE
  8
BASIS
  6
CENTER
 62
     6
 39
50.0
 10
0.0
 20
-326.77057100000002
 30
0.0
 11
0.0
 21
326.77057100000002
 31
0.0
  0
LINE
  5
7BF
  8
BASIS
  6
CENTER
 62
     6
 39
50.0
 10
337.13512799999972
 20
0.0
 30
0.0
 11
-321.05926699999998
 21
0.0
 31
0.0
  0
LINE
  5
7C0
  8
BASIS
  6
CENTER
 62
     6
 10
-202.49999999999989
 20
457.30592999999988
 30
0.0
 11
-202.49999999999989
 21
264.326438
 31
0.0
  0
LINE
  5
7C1
  8
DETAIL
  6
CONTINUOUS
 62
     5
 10
285.0
 20
339.15334999999982
 30
0.0
 11
285.0
 21
-340.24664999999999
 31
0.0
  0
LINE
  5
7C2
  8
DETAIL
  6
CONTINUOUS
 62
     5
 10
-287.61144999999988
 20
-75.307680000000005
 30
0.0
 11
-287.61209000000002
 21
-199.2466499999999
 31
0.0
  0
LINE
  5
7C3
  8
DETAIL
  6
CONTINUOUS
 62
     5
 10
-285.0
 20
-283.24664999999982
 30
0.0
 11
-285.0
 21
283.15334999999982
 31
0.0
  0
LINE
  5
7C4
  8
DETAIL
  6
CONTINUOUS
 62
     5
 10
-285.0
 20
339.15334999999982
 30
0.0
 11
-285.0
 21
-339.24664999999982
 31
0.0
  0
LINE
  5
7C5
  8
DETAIL
  6
CONTINUOUS
 62
     5
 10
288.61254000000002
 20
-199.2466499999999
 30
0.0
 11
288.61254000000002
 21
199.1533499999999
 31
0.0
  0
LINE
  5
7C6
  8
DETAIL
  6
CONTINUOUS
 62
     5
 10
-283.39999999999992
 20
284.75335000000001
 30
0.0
 11
283.39999999999992
 21
284.75335000000001
 31
0.0
  0
LINE
  5
7C7
  8
DETAIL
  6
CONTINUOUS
 62
     5
 10
-267.0
 20
287.55335000000002
 30
0.0
 11
-149.0
 21
287.55335000000002
 31
0.0
  0
LINE
  5
7C8
  8
DETAIL
  6
CONTINUOUS
 62
     5
 10
-264.5
 20
388.55335000000002
 30
0.0
 11
-140.5
 21
388.55335000000002
 31
0.0
  0
LINE
  5
7C9
  8
DETAIL
  6
CONTINUOUS
 62
     5
 10
-250.49999999999989
 20
435.55334999999991
 30
0.0
 11
-154.4999999999998
 21
435.55334999999991
 31
0.0
  0
LINE
  5
7CA
  8
DETAIL
  6
CONTINUOUS
 62
     5
 10
-264.5
 20
358.55335000000002
 30
0.0
 11
-140.5
 21
358.55335000000002
 31
0.0
  0
LINE
  5
7CB
  8
DETAIL
  6
CONTINUOUS
 62
     5
 10
-285.0
 20
328.55335000000002
 30
0.0
 11
-118.0
 21
328.55335000000002
 31
0.0
  0
LINE
  5
7CC
  8
DETAIL
  6
CONTINUOUS
 62
     5
 10
-331.0
 20
344.15334999999988
 30
0.0
 11
-331.0
 21
194.15334999999999
 31
0.0
  0
LINE
  5
7CD
  8
DETAIL
  6
CONTINUOUS
 62
     5
 10
-251.56982999999991
 20
434.55579000000012
 30
0.0
 11
-254.78999999999991
 21
388.55335000000002
 31
0.0
  0
LINE
  5
7CE
  8
DETAIL
  6
CONTINUOUS
 62
     5
 10
-251.56982999999991
 20
434.55579000000012
 30
0.0
 11
-250.49999999999989
 21
435.55334999999991
 31
0.0
  0
LINE
  5
7CF
  8
NOTE
  6
CONTINUOUS
 62
     4
 10
-324.03025000000002
 20
309.15334999999999
 30
0.0
 11
-292.5333399999999
 21
309.15334999999999
 31
0.0
  0
LINE
  5
7D0
  8
DETAIL
  6
CONTINUOUS
 62
     5
 10
-315.5
 20
344.15334999999988
 30
0.0
 11
-331.0
 21
344.15334999999988
 31
0.0
  0
LINE
  5
7D1
  8
DETAIL
  6
CONTINUOUS
 62
     5
 10
-331.0
 20
342.15334999999982
 30
0.0
 11
-315.5
 21
342.15334999999982
 31
0.0
  0
LINE
  5
7D2
  8
DETAIL
  6
CONTINUOUS
 62
     5
 10
-302.49999999999989
 20
344.15334999999988
 30
0.0
 11
-302.49999999999989
 21
309.15334999999999
 31
0.0
  0
LINE
  5
7D3
  8
DETAIL
  6
CONTINUOUS
 62
     5
 10
-315.5
 20
344.15334999999988
 30
0.0
 11
-315.5
 21
309.15334999999999
 31
0.0
  0
LINE
  5
7D4
  8
DETAIL
  6
CONTINUOUS
 62
     5
 10
-285.0
 20
339.15334999999982
 30
0.0
 11
-292.0
 21
339.15334999999982
 31
0.0
  0
LINE
  5
7D5
  8
DETAIL
  6
CONTINUOUS
 62
     5
 10
-302.49999999999989
 20
344.15334999999988
 30
0.0
 11
-292.0
 21
344.15334999999988
 31
0.0
  0
LINE
  5
7D6
  8
DETAIL
  6
CONTINUOUS
 62
     5
 10
-292.0
 20
344.15334999999988
 30
0.0
 11
-292.0
 21
339.15334999999982
 31
0.0
  0
LINE
  5
7D7
  8
DETAIL
  6
CONTINUOUS
 62
     5
 10
-285.0
 20
287.55335000000002
 30
0.0
 11
-285.0
 21
328.55335000000002
 31
0.0
  0
LINE
  5
7D8
  8
NOTE
  6
CONTINUOUS
 62
     4
 10
-309.0
 20
324.47264999999999
 30
0.0
 11
-309.0
 21
293.36236000000002
 31
0.0
  0
ARC
  5
7D9
  8
DETAIL
  6
CONTINUOUS
 62
     5
 10
-309.0
 20
309.15334999999999
 30
0.0
 40
6.5
 50
180.0
 51
0.0
  0
ARC
  5
7DA
  8
DETAIL
  6
CONTINUOUS
 62
     5
 10
-283.39999999999992
 20
283.15334999999982
 30
0.0
 40
1.6000000000000001
 50
90.0
 51
180.0
  0
LINE
  5
7DB
  8
DETAIL
  6
CONTINUOUS
 62
     5
 10
-285.0
 20
287.55335000000002
 30
0.0
 11
-267.0
 21
287.55335000000002
 31
0.0
  0
LINE
  5
7DC
  8
DETAIL
  6
CONTINUOUS
 62
     5
 10
-287.61234000000002
 20
199.1533499999999
 30
0.0
 11
-287.61207000000002
 21
75.488579999999999
 31
0.0
  0
LINE
  5
7DD
  8
NOTE
  6
CONTINUOUS
 62
     4
 10
-323.51476000000002
 20
229.1533499999999
 30
0.0
 11
-292.66221000000002
 21
229.1533499999999
 31
0.0
  0
LINE
  5
7DE
  8
DETAIL
  6
CONTINUOUS
 62
     5
 10
-315.5
 20
196.1533499999999
 30
0.0
 11
-331.0
 21
196.1533499999999
 31
0.0
  0
LINE
  5
7DF
  8
DETAIL
  6
CONTINUOUS
 62
     5
 10
-315.5
 20
194.15334999999999
 30
0.0
 11
-331.0
 21
194.15334999999999
 31
0.0
  0
LINE
  5
7E0
  8
DETAIL
  6
CONTINUOUS
 62
     5
 10
-302.49999999999989
 20
229.1533499999999
 30
0.0
 11
-302.49999999999989
 21
194.15334999999999
 31
0.0
  0
LINE
  5
7E1
  8
DETAIL
  6
CONTINUOUS
 62
     5
 10
-315.5
 20
229.1533499999999
 30
0.0
 11
-315.5
 21
194.15334999999999
 31
0.0
  0
LINE
  5
7E2
  8
NOTE
  6
CONTINUOUS
 62
     4
 10
-309.0
 20
244.82952
 30
0.0
 11
-309.0
 21
210.7551599999999
 31
0.0
  0
ARC
  5
7E3
  8
DETAIL
  6
CONTINUOUS
 62
     5
 10
-309.0
 20
229.1533499999999
 30
0.0
 40
6.5
 50
0.0
 51
180.0
  0
LINE
  5
7E4
  8
DETAIL
  6
CONTINUOUS
 62
     5
 10
-285.0
 20
199.1533499999999
 30
0.0
 11
-292.0
 21
199.1533499999999
 31
0.0
  0
LINE
  5
7E5
  8
DETAIL
  6
CONTINUOUS
 62
     5
 10
-292.0
 20
194.15334999999999
 30
0.0
 11
-302.49999999999989
 21
194.15334999999999
 31
0.0
  0
LINE
  5
7E6
  8
DETAIL
  6
CONTINUOUS
 62
     5
 10
-292.0
 20
194.15334999999999
 30
0.0
 11
-292.0
 21
199.1533499999999
 31
0.0
  0
LINE
  5
7E7
  8
DETAIL
  6
CONTINUOUS
 62
     5
 10
-287.31292000000002
 20
73.087549999999965
 30
0.0
 11
-287.25704999999999
 21
73.031680000000023
 31
0.0
  0
LINE
  5
7E8
  8
DETAIL
  6
CONTINUOUS
 62
     5
 10
-287.25765999999999
 20
73.032290000000003
 30
0.0
 11
-287.24885
 21
73.023589999999999
 31
0.0
  0
LINE
  5
7E9
  8
DETAIL
  6
CONTINUOUS
 62
     5
 10
-286.64851999999991
 20
72.761519999999976
 30
0.0
 11
-286.61266000000001
 21
72.760219999999975
 31
0.0
  0
LINE
  5
7EA
  8
DETAIL
  6
CONTINUOUS
 62
     5
 10
-286.68853999999999
 20
72.764510000000001
 30
0.0
 11
-286.64851999999991
 21
72.761519999999976
 31
0.0
  0
LINE
  5
7EB
  8
DETAIL
  6
CONTINUOUS
 62
     5
 10
-286.73259999999982
 20
72.769730000000024
 30
0.0
 11
-286.68853999999999
 21
72.764510000000001
 31
0.0
  0
LINE
  5
7EC
  8
DETAIL
  6
CONTINUOUS
 62
     5
 10
-286.78057000000001
 20
72.777810000000002
 30
0.0
 11
-286.73259999999982
 21
72.769730000000024
 31
0.0
  0
LINE
  5
7ED
  8
DETAIL
  6
CONTINUOUS
 62
     5
 10
-286.83276000000001
 20
72.78955999999998
 30
0.0
 11
-286.78057000000001
 21
72.777810000000002
 31
0.0
  0
LINE
  5
7EE
  8
DETAIL
  6
CONTINUOUS
 62
     5
 10
-286.88736
 20
72.80531999999998
 30
0.0
 11
-286.83276000000001
 21
72.78955999999998
 31
0.0
  0
LINE
  5
7EF
  8
DETAIL
  6
CONTINUOUS
 62
     5
 10
-286.94294999999983
 20
72.825230000000005
 30
0.0
 11
-286.88736
 21
72.80531999999998
 31
0.0
  0
LINE
  5
7F0
  8
DETAIL
  6
CONTINUOUS
 62
     5
 10
-286.99860999999993
 20
72.849360000000004
 30
0.0
 11
-286.94294999999983
 21
72.825230000000005
 31
0.0
  0
LINE
  5
7F1
  8
DETAIL
  6
CONTINUOUS
 62
     5
 10
-287.05327999999992
 20
72.877510000000001
 30
0.0
 11
-286.99860999999993
 21
72.849360000000004
 31
0.0
  0
LINE
  5
7F2
  8
DETAIL
  6
CONTINUOUS
 62
     5
 10
-287.10626999999988
 20
72.909469999999999
 30
0.0
 11
-287.05327999999992
 21
72.877510000000001
 31
0.0
  0
LINE
  5
7F3
  8
DETAIL
  6
CONTINUOUS
 62
     5
 10
-287.15692999999982
 20
72.944850000000002
 30
0.0
 11
-287.10626999999988
 21
72.909469999999999
 31
0.0
  0
LINE
  5
7F4
  8
DETAIL
  6
CONTINUOUS
 62
     5
 10
-287.20461999999992
 20
72.983109999999982
 30
0.0
 11
-287.15692999999982
 21
72.944850000000002
 31
0.0
  0
LINE
  5
7F5
  8
DETAIL
  6
CONTINUOUS
 62
     5
 10
-287.24885
 20
73.023589999999999
 30
0.0
 11
-287.20461999999992
 21
72.983109999999982
 31
0.0
  0
LINE
  5
7F6
  8
DETAIL
  6
CONTINUOUS
 62
     5
 10
-286.61266000000001
 20
72.760219999999975
 30
0.0
 11
-286.4420199999999
 21
72.757419999999982
 31
0.0
  0
LINE
  5
7F7
  8
DETAIL
  6
CONTINUOUS
 62
     5
 10
-286.4420199999999
 20
72.757419999999982
 30
0.0
 11
-286.21539999999982
 21
72.754559999999998
 31
0.0
  0
LINE
  5
7F8
  8
DETAIL
  6
CONTINUOUS
 62
     5
 10
-286.21539999999982
 20
72.754559999999998
 30
0.0
 11
-286.09019999999992
 21
72.753489999999999
 31
0.0
  0
LINE
  5
7F9
  8
DETAIL
  6
CONTINUOUS
 62
     5
 10
-286.09019999999992
 20
72.753489999999999
 30
0.0
 11
-286.07501999999999
 21
72.753410000000002
 31
0.0
  0
LINE
  5
7FA
  8
DETAIL
  6
CONTINUOUS
 62
     5
 10
-286.07501999999999
 20
72.753410000000002
 30
0.0
 11
-285.0
 21
72.753349999999998
 31
0.0
  0
LINE
  5
7FB
  8
DETAIL
  6
CONTINUOUS
 62
     5
 10
-287.61207000000002
 20
75.488579999999999
 30
0.0
 11
-287.60942999999992
 21
74.974919999999983
 31
0.0
  0
LINE
  5
7FC
  8
DETAIL
  6
CONTINUOUS
 62
     5
 10
-287.60942999999992
 20
74.974919999999983
 30
0.0
 11
-287.60570999999999
 21
74.597290000000001
 31
0.0
  0
LINE
  5
7FD
  8
DETAIL
  6
CONTINUOUS
 62
     5
 10
-287.60570999999999
 20
74.597290000000001
 30
0.0
 11
-287.60176000000001
 21
74.328630000000004
 31
0.0
  0
LINE
  5
7FE
  8
DETAIL
  6
CONTINUOUS
 62
     5
 10
-287.60176000000001
 20
74.328630000000004
 30
0.0
 11
-287.59807999999992
 21
74.142560000000003
 31
0.0
  0
LINE
  5
7FF
  8
DETAIL
  6
CONTINUOUS
 62
     5
 10
-287.59807999999992
 20
74.142560000000003
 30
0.0
 11
-287.59496000000001
 21
74.017750000000007
 31
0.0
  0
LINE
  5
800
  8
DETAIL
  6
CONTINUOUS
 62
     5
 10
-287.59496000000001
 20
74.017750000000007
 30
0.0
 11
-287.59252000000009
 21
73.93741
 31
0.0
  0
LINE
  5
801
  8
DETAIL
  6
CONTINUOUS
 62
     5
 10
-287.59252000000009
 20
73.93741
 30
0.0
 11
-287.58999999999992
 21
73.867540000000005
 31
0.0
  0
LINE
  5
802
  8
DETAIL
  6
CONTINUOUS
 62
     5
 10
-287.58999999999992
 20
73.867540000000005
 30
0.0
 11
-287.58827000000002
 21
73.826189999999983
 31
0.0
  0
LINE
  5
803
  8
DETAIL
  6
CONTINUOUS
 62
     5
 10
-287.58827000000002
 20
73.826189999999983
 30
0.0
 11
-287.58645999999982
 21
73.788530000000023
 31
0.0
  0
LINE
  5
804
  8
DETAIL
  6
CONTINUOUS
 62
     5
 10
-287.58645999999982
 20
73.788530000000023
 30
0.0
 11
-287.58454999999998
 21
73.754050000000007
 31
0.0
  0
LINE
  5
805
  8
DETAIL
  6
CONTINUOUS
 62
     5
 10
-287.33694999999989
 20
73.112530000000007
 30
0.0
 11
-287.31331
 21
73.087950000000006
 31
0.0
  0
LINE
  5
806
  8
DETAIL
  6
CONTINUOUS
 62
     5
 10
-287.36559
 20
73.144990000000007
 30
0.0
 11
-287.33694999999989
 21
73.112530000000007
 31
0.0
  0
LINE
  5
807
  8
DETAIL
  6
CONTINUOUS
 62
     5
 10
-287.39226000000002
 20
73.178290000000004
 30
0.0
 11
-287.36559
 21
73.144990000000007
 31
0.0
  0
LINE
  5
808
  8
DETAIL
  6
CONTINUOUS
 62
     5
 10
-287.41687999999982
 20
73.21214999999998
 30
0.0
 11
-287.39226000000002
 21
73.178290000000004
 31
0.0
  0
LINE
  5
809
  8
DETAIL
  6
CONTINUOUS
 62
     5
 10
-287.43939999999992
 20
73.24633
 30
0.0
 11
-287.41687999999982
 21
73.21214999999998
 31
0.0
  0
LINE
  5
80A
  8
DETAIL
  6
CONTINUOUS
 62
     5
 10
-287.45985999999999
 20
73.280619999999999
 30
0.0
 11
-287.43939999999992
 21
73.24633
 31
0.0
  0
LINE
  5
80B
  8
DETAIL
  6
CONTINUOUS
 62
     5
 10
-287.4782899999999
 20
73.314800000000005
 30
0.0
 11
-287.45985999999999
 21
73.280619999999999
 31
0.0
  0
LINE
  5
80C
  8
DETAIL
  6
CONTINUOUS
 62
     5
 10
-287.49475999999999
 20
73.348690000000005
 30
0.0
 11
-287.4782899999999
 21
73.314800000000005
 31
0.0
  0
LINE
  5
80D
  8
DETAIL
  6
CONTINUOUS
 62
     5
 10
-287.50936999999982
 20
73.382170000000002
 30
0.0
 11
-287.49475999999999
 21
73.348690000000005
 31
0.0
  0
LINE
  5
80E
  8
DETAIL
  6
CONTINUOUS
 62
     5
 10
-287.52215999999981
 20
73.414950000000005
 30
0.0
 11
-287.50936999999982
 21
73.382170000000002
 31
0.0
  0
LINE
  5
80F
  8
DETAIL
  6
CONTINUOUS
 62
     5
 10
-287.53325000000001
 20
73.446869999999976
 30
0.0
 11
-287.52215999999981
 21
73.414950000000005
 31
0.0
  0
LINE
  5
810
  8
DETAIL
  6
CONTINUOUS
 62
     5
 10
-287.54270000000002
 20
73.477549999999979
 30
0.0
 11
-287.53325000000001
 21
73.446869999999976
 31
0.0
  0
LINE
  5
811
  8
DETAIL
  6
CONTINUOUS
 62
     5
 10
-287.55058999999972
 20
73.506619999999984
 30
0.0
 11
-287.54270000000002
 21
73.477549999999979
 31
0.0
  0
LINE
  5
812
  8
DETAIL
  6
CONTINUOUS
 62
     5
 10
-287.55711000000002
 20
73.533909999999977
 30
0.0
 11
-287.55058999999972
 21
73.506619999999984
 31
0.0
  0
LINE
  5
813
  8
DETAIL
  6
CONTINUOUS
 62
     5
 10
-287.56240000000008
 20
73.559159999999963
 30
0.0
 11
-287.55711000000002
 21
73.533909999999977
 31
0.0
  0
LINE
  5
814
  8
DETAIL
  6
CONTINUOUS
 62
     5
 10
-287.56666999999999
 20
73.582459999999998
 30
0.0
 11
-287.56240000000008
 21
73.559159999999963
 31
0.0
  0
LINE
  5
815
  8
DETAIL
  6
CONTINUOUS
 62
     5
 10
-287.57010000000002
 20
73.603830000000002
 30
0.0
 11
-287.56666999999999
 21
73.582459999999998
 31
0.0
  0
LINE
  5
816
  8
DETAIL
  6
CONTINUOUS
 62
     5
 10
-287.57288
 20
73.623509999999982
 30
0.0
 11
-287.57010000000002
 21
73.603830000000002
 31
0.0
  0
LINE
  5
817
  8
DETAIL
  6
CONTINUOUS
 62
     5
 10
-287.57515000000001
 20
73.641649999999984
 30
0.0
 11
-287.57288
 21
73.623509999999982
 31
0.0
  0
LINE
  5
818
  8
DETAIL
  6
CONTINUOUS
 62
     5
 10
-287.57702999999992
 20
73.658670000000001
 30
0.0
 11
-287.57515000000001
 21
73.641649999999984
 31
0.0
  0
LINE
  5
819
  8
DETAIL
  6
CONTINUOUS
 62
     5
 10
-287.57864999999993
 20
73.674949999999981
 30
0.0
 11
-287.57702999999992
 21
73.658670000000001
 31
0.0
  0
LINE
  5
81A
  8
DETAIL
  6
CONTINUOUS
 62
     5
 10
-287.58005000000009
 20
73.69074999999998
 30
0.0
 11
-287.57864999999993
 21
73.674949999999981
 31
0.0
  0
LINE
  5
81B
  8
DETAIL
  6
CONTINUOUS
 62
     5
 10
-287.58130999999992
 20
73.706310000000002
 30
0.0
 11
-287.58005000000009
 21
73.69074999999998
 31
0.0
  0
LINE
  5
81C
  8
DETAIL
  6
CONTINUOUS
 62
     5
 10
-287.58246000000008
 20
73.721890000000002
 30
0.0
 11
-287.58130999999992
 21
73.706310000000002
 31
0.0
  0
LINE
  5
81D
  8
DETAIL
  6
CONTINUOUS
 62
     5
 10
-287.58352999999983
 20
73.73775999999998
 30
0.0
 11
-287.58246000000008
 21
73.721890000000002
 31
0.0
  0
LINE
  5
81E
  8
DETAIL
  6
CONTINUOUS
 62
     5
 10
-287.58454999999998
 20
73.754050000000007
 30
0.0
 11
-287.58352999999983
 21
73.73775999999998
 31
0.0
  0
LINE
  5
81F
  8
DETAIL
  6
CONTINUOUS
 62
     5
 10
-285.0
 20
-72.746650000000002
 30
0.0
 11
-286.07530000000008
 21
-72.746709999999965
 31
0.0
  0
LINE
  5
820
  8
DETAIL
  6
CONTINUOUS
 62
     5
 10
-286.07530000000008
 20
-72.746709999999965
 30
0.0
 11
-286.16417000000001
 21
-72.74736
 31
0.0
  0
LINE
  5
821
  8
DETAIL
  6
CONTINUOUS
 62
     5
 10
-286.16417000000001
 20
-72.74736
 30
0.0
 11
-286.38211000000001
 21
-72.749870000000001
 31
0.0
  0
LINE
  5
822
  8
DETAIL
  6
CONTINUOUS
 62
     5
 10
-286.38211000000001
 20
-72.749870000000001
 30
0.0
 11
-286.61266000000001
 21
-72.753529999999984
 31
0.0
  0
LINE
  5
823
  8
DETAIL
  6
CONTINUOUS
 62
     5
 10
-287.24628999999999
 20
-73.014399999999981
 30
0.0
 11
-287.25763000000001
 21
-73.025559999999999
 31
0.0
  0
LINE
  5
824
  8
DETAIL
  6
CONTINUOUS
 62
     5
 10
-287.20163000000002
 20
-72.973849999999999
 30
0.0
 11
-287.24628999999999
 21
-73.014399999999981
 31
0.0
  0
LINE
  5
825
  8
DETAIL
  6
CONTINUOUS
 62
     5
 10
-287.15352999999999
 20
-72.93562
 30
0.0
 11
-287.20163000000002
 21
-72.973849999999999
 31
0.0
  0
LINE
  5
826
  8
DETAIL
  6
CONTINUOUS
 62
     5
 10
-287.10257999999982
 20
-72.900379999999998
 30
0.0
 11
-287.15352999999999
 21
-72.93562
 31
0.0
  0
LINE
  5
827
  8
DETAIL
  6
CONTINUOUS
 62
     5
 10
-287.04944999999992
 20
-72.868690000000001
 30
0.0
 11
-287.10257999999982
 21
-72.900379999999998
 31
0.0
  0
LINE
  5
828
  8
DETAIL
  6
CONTINUOUS
 62
     5
 10
-286.99481999999989
 20
-72.840879999999999
 30
0.0
 11
-287.04944999999992
 21
-72.868690000000001
 31
0.0
  0
LINE
  5
829
  8
DETAIL
  6
CONTINUOUS
 62
     5
 10
-286.93939
 20
-72.817139999999981
 30
0.0
 11
-286.99481999999989
 21
-72.840879999999999
 31
0.0
  0
LINE
  5
82A
  8
DETAIL
  6
CONTINUOUS
 62
     5
 10
-286.88413999999989
 20
-72.79759
 30
0.0
 11
-286.93939
 21
-72.817139999999981
 31
0.0
  0
LINE
  5
82B
  8
DETAIL
  6
CONTINUOUS
 62
     5
 10
-286.82981000000001
 20
-72.782119999999978
 30
0.0
 11
-286.88413999999989
 21
-72.79759
 31
0.0
  0
LINE
  5
82C
  8
DETAIL
  6
CONTINUOUS
 62
     5
 10
-286.77787999999993
 20
-72.770600000000002
 30
0.0
 11
-286.82981000000001
 21
-72.782119999999978
 31
0.0
  0
LINE
  5
82D
  8
DETAIL
  6
CONTINUOUS
 62
     5
 10
-286.73000000000002
 20
-72.762659999999983
 30
0.0
 11
-286.77787999999993
 21
-72.770600000000002
 31
0.0
  0
LINE
  5
82E
  8
DETAIL
  6
CONTINUOUS
 62
     5
 10
-286.68626
 20
-72.757589999999979
 30
0.0
 11
-286.73000000000002
 21
-72.762659999999983
 31
0.0
  0
LINE
  5
82F
  8
DETAIL
  6
CONTINUOUS
 62
     5
 10
-286.64713999999998
 20
-72.754750000000001
 30
0.0
 11
-286.68626
 21
-72.757589999999979
 31
0.0
  0
LINE
  5
830
  8
DETAIL
  6
CONTINUOUS
 62
     5
 10
-286.61266000000001
 20
-72.753529999999984
 30
0.0
 11
-286.64713999999998
 21
-72.754750000000001
 31
0.0
  0
LINE
  5
831
  8
DETAIL
  6
CONTINUOUS
 62
     5
 10
-287.25704000000002
 20
-73.024979999999985
 30
0.0
 11
-287.31292000000002
 21
-73.080849999999998
 31
0.0
  0
LINE
  5
832
  8
DETAIL
  6
CONTINUOUS
 62
     5
 10
-287.35302000000001
 20
-73.123660000000001
 30
0.0
 11
-287.38179999999988
 21
-73.158140000000003
 31
0.0
  0
LINE
  5
833
  8
DETAIL
  6
CONTINUOUS
 62
     5
 10
-287.32206000000002
 20
-73.090130000000002
 30
0.0
 11
-287.35302000000001
 21
-73.123660000000001
 31
0.0
  0
LINE
  5
834
  8
DETAIL
  6
CONTINUOUS
 62
     5
 10
-287.31333999999998
 20
-73.081289999999981
 30
0.0
 11
-287.32206000000002
 21
-73.090130000000002
 31
0.0
  0
LINE
  5
835
  8
DETAIL
  6
CONTINUOUS
 62
     5
 10
-287.58555000000001
 20
-73.764790000000005
 30
0.0
 11
-287.58753999999982
 21
-73.803849999999983
 31
0.0
  0
LINE
  5
836
  8
DETAIL
  6
CONTINUOUS
 62
     5
 10
-287.58449999999982
 20
-73.746600000000001
 30
0.0
 11
-287.58555000000001
 21
-73.764790000000005
 31
0.0
  0
LINE
  5
837
  8
DETAIL
  6
CONTINUOUS
 62
     5
 10
-287.58339999999993
 20
-73.729080000000025
 30
0.0
 11
-287.58449999999982
 21
-73.746600000000001
 31
0.0
  0
LINE
  5
838
  8
DETAIL
  6
CONTINUOUS
 62
     5
 10
-287.58224000000001
 20
-73.712100000000007
 30
0.0
 11
-287.58339999999993
 21
-73.729080000000025
 31
0.0
  0
LINE
  5
839
  8
DETAIL
  6
CONTINUOUS
 62
     5
 10
-287.58097999999973
 20
-73.695369999999983
 30
0.0
 11
-287.58224000000001
 21
-73.712100000000007
 31
0.0
  0
LINE
  5
83A
  8
DETAIL
  6
CONTINUOUS
 62
     5
 10
-287.57958999999988
 20
-73.67868
 30
0.0
 11
-287.58097999999973
 21
-73.695369999999983
 31
0.0
  0
LINE
  5
83B
  8
DETAIL
  6
CONTINUOUS
 62
     5
 10
-287.57799999999992
 20
-73.661550000000005
 30
0.0
 11
-287.57958999999988
 21
-73.67868
 31
0.0
  0
LINE
  5
83C
  8
DETAIL
  6
CONTINUOUS
 62
     5
 10
-287.57612999999992
 20
-73.643540000000002
 30
0.0
 11
-287.57799999999992
 21
-73.661550000000005
 31
0.0
  0
LINE
  5
83D
  8
DETAIL
  6
CONTINUOUS
 62
     5
 10
-287.57384999999999
 20
-73.624300000000005
 30
0.0
 11
-287.57612999999992
 21
-73.643540000000002
 31
0.0
  0
LINE
  5
83E
  8
DETAIL
  6
CONTINUOUS
 62
     5
 10
-287.57101
 20
-73.60324
 30
0.0
 11
-287.57384999999999
 21
-73.624300000000005
 31
0.0
  0
LINE
  5
83F
  8
DETAIL
  6
CONTINUOUS
 62
     5
 10
-287.56745000000001
 20
-73.580349999999981
 30
0.0
 11
-287.57101
 21
-73.60324
 31
0.0
  0
LINE
  5
840
  8
DETAIL
  6
CONTINUOUS
 62
     5
 10
-287.56295
 20
-73.55531999999998
 30
0.0
 11
-287.56745000000001
 21
-73.580349999999981
 31
0.0
  0
LINE
  5
841
  8
DETAIL
  6
CONTINUOUS
 62
     5
 10
-287.55736999999982
 20
-73.528359999999978
 30
0.0
 11
-287.56295
 21
-73.55531999999998
 31
0.0
  0
LINE
  5
842
  8
DETAIL
  6
CONTINUOUS
 62
     5
 10
-287.55052000000001
 20
-73.499639999999985
 30
0.0
 11
-287.55736999999982
 21
-73.528359999999978
 31
0.0
  0
LINE
  5
843
  8
DETAIL
  6
CONTINUOUS
 62
     5
 10
-287.54225000000002
 20
-73.469290000000001
 30
0.0
 11
-287.55052000000001
 21
-73.499639999999985
 31
0.0
  0
LINE
  5
844
  8
DETAIL
  6
CONTINUOUS
 62
     5
 10
-287.53239000000002
 20
-73.437550000000002
 30
0.0
 11
-287.54225000000002
 21
-73.469290000000001
 31
0.0
  0
LINE
  5
845
  8
DETAIL
  6
CONTINUOUS
 62
     5
 10
-287.52078999999992
 20
-73.40455
 30
0.0
 11
-287.53239000000002
 21
-73.437550000000002
 31
0.0
  0
LINE
  5
846
  8
DETAIL
  6
CONTINUOUS
 62
     5
 10
-287.50729000000001
 20
-73.370480000000001
 30
0.0
 11
-287.52078999999992
 21
-73.40455
 31
0.0
  0
LINE
  5
847
  8
DETAIL
  6
CONTINUOUS
 62
     5
 10
-287.49178999999992
 20
-73.335619999999963
 30
0.0
 11
-287.50729000000001
 21
-73.370480000000001
 31
0.0
  0
LINE
  5
848
  8
DETAIL
  6
CONTINUOUS
 62
     5
 10
-287.47422999999992
 20
-73.300269999999998
 30
0.0
 11
-287.49178999999992
 21
-73.335619999999963
 31
0.0
  0
LINE
  5
849
  8
DETAIL
  6
CONTINUOUS
 62
     5
 10
-287.45451000000008
 20
-73.264610000000005
 30
0.0
 11
-287.47422999999992
 21
-73.300269999999998
 31
0.0
  0
LINE
  5
84A
  8
DETAIL
  6
CONTINUOUS
 62
     5
 10
-287.43254999999988
 20
-73.228880000000004
 30
0.0
 11
-287.45451000000008
 21
-73.264610000000005
 31
0.0
  0
LINE
  5
84B
  8
DETAIL
  6
CONTINUOUS
 62
     5
 10
-287.40832999999992
 20
-73.193309999999983
 30
0.0
 11
-287.43254999999988
 21
-73.228880000000004
 31
0.0
  0
LINE
  5
84C
  8
DETAIL
  6
CONTINUOUS
 62
     5
 10
-287.38179999999988
 20
-73.158140000000003
 30
0.0
 11
-287.40832999999992
 21
-73.193309999999983
 31
0.0
  0
LINE
  5
84D
  8
DETAIL
  6
CONTINUOUS
 62
     5
 10
-287.58753999999982
 20
-73.803849999999983
 30
0.0
 11
-287.58945
 21
-73.847049999999982
 31
0.0
  0
LINE
  5
84E
  8
DETAIL
  6
CONTINUOUS
 62
     5
 10
-287.58945
 20
-73.847049999999982
 30
0.0
 11
-287.59129999999999
 21
-73.895240000000001
 31
0.0
  0
LINE
  5
84F
  8
DETAIL
  6
CONTINUOUS
 62
     5
 10
-287.59129999999999
 20
-73.895240000000001
 30
0.0
 11
-287.59402999999992
 21
-73.978729999999999
 31
0.0
  0
LINE
  5
850
  8
DETAIL
  6
CONTINUOUS
 62
     5
 10
-287.59402999999992
 20
-73.978729999999999
 30
0.0
 11
-287.59672
 21
-74.078009999999978
 31
0.0
  0
LINE
  5
851
  8
DETAIL
  6
CONTINUOUS
 62
     5
 10
-287.59672
 20
-74.078009999999978
 30
0.0
 11
-287.60023000000001
 21
-74.238659999999982
 31
0.0
  0
LINE
  5
852
  8
DETAIL
  6
CONTINUOUS
 62
     5
 10
-287.60023000000001
 20
-74.238659999999982
 30
0.0
 11
-287.60435000000001
 21
-74.48784999999998
 31
0.0
  0
LINE
  5
853
  8
DETAIL
  6
CONTINUOUS
 62
     5
 10
-287.60435000000001
 20
-74.48784999999998
 30
0.0
 11
-287.60854
 21
-74.859659999999977
 31
0.0
  0
LINE
  5
854
  8
DETAIL
  6
CONTINUOUS
 62
     5
 10
-287.60854
 20
-74.859659999999977
 30
0.0
 11
-287.61144999999988
 21
-75.307680000000005
 31
0.0
  0
LINE
  5
855
  8
BASIS
  6
CENTER
 62
     6
 10
270.01781999999992
 20
199.75335000000001
 30
0.0
 11
450.54742999999991
 21
199.75335000000001
 31
0.0
  0
LINE
  5
856
  8
NOTE
  6
CONTINUOUS
 62
     4
 10
294.40431999999993
 20
309.15334999999999
 30
0.0
 11
322.61076000000008
 21
309.15334999999999
 31
0.0
  0
LINE
  5
857
  8
NOTE
  6
CONTINUOUS
 62
     4
 10
293.64926000000008
 20
228.15334999999999
 30
0.0
 11
322.15771999999998
 21
228.15334999999999
 31
0.0
  0
ARC
  5
858
  8
DETAIL
  6
CONTINUOUS
 62
     5
 10
309.0
 20
228.15334999999999
 30
0.0
 40
6.5
 50
0.0
 51
180.0
  0
ARC
  5
859
  8
DETAIL
  6
CONTINUOUS
 62
     5
 10
309.0
 20
309.15334999999999
 30
0.0
 40
6.5
 50
180.0
 51
0.0
  0
LINE
  5
85A
  8
DETAIL
  6
PHANTOM
 62
     5
 10
285.0
 20
115.25335
 30
0.0
 11
328.0
 21
115.25335
 31
0.0
  0
LINE
  5
85B
  8
DETAIL
  6
CONTINUOUS
 62
     5
 10
53.5
 20
287.55335000000002
 30
0.0
 11
84.500000000000014
 21
287.55335000000002
 31
0.0
  0
LINE
  5
85C
  8
DETAIL
  6
CONTINUOUS
 62
     5
 10
-153.43017
 20
434.55579000000012
 30
0.0
 11
-150.21000000000001
 21
388.55335000000002
 31
0.0
  0
LINE
  5
85D
  8
DETAIL
  6
CONTINUOUS
 62
     5
 10
-153.43017
 20
434.55579000000012
 30
0.0
 11
-154.4999999999998
 21
435.55334999999991
 31
0.0
  0
LINE
  5
85E
  8
DETAIL
  6
CONTINUOUS
 62
     5
 10
-84.500000000000014
 20
287.55335000000002
 30
0.0
 11
-64.5
 21
287.55335000000002
 31
0.0
  0
LINE
  5
85F
  8
DETAIL
  6
CONTINUOUS
 62
     5
 10
-149.0
 20
287.55335000000002
 30
0.0
 11
-118.0
 21
287.55335000000002
 31
0.0
  0
LINE
  5
860
  8
DETAIL
  6
CONTINUOUS
 62
     5
 10
-118.0
 20
287.55335000000002
 30
0.0
 11
-118.0
 21
328.55335000000002
 31
0.0
  0
LINE
  5
861
  8
DETAIL
  6
CONTINUOUS
 62
     5
 10
-84.500000000000014
 20
287.84222999999997
 30
0.0
 11
-118.0
 21
287.84222999999997
 31
0.0
  0
LINE
  5
862
  8
DETAIL
  6
CONTINUOUS
 62
     5
 10
-64.5
 20
287.55335000000002
 30
0.0
 11
53.5
 21
287.55335000000002
 31
0.0
  0
LINE
  5
863
  8
DETAIL
  6
CONTINUOUS
 62
     5
 10
-56.743470000000002
 20
285.55799000000002
 30
0.0
 11
-56.740499999999997
 21
285.55335000000002
 31
0.0
  0
LINE
  5
864
  8
DETAIL
  6
CONTINUOUS
 62
     5
 10
-56.74044
 20
285.55335000000002
 30
0.0
 11
-56.743470000000002
 21
285.55799000000002
 31
0.0
  0
LINE
  5
865
  8
DETAIL
  6
CONTINUOUS
 62
     5
 10
-56.73690999999998
 20
285.55158
 30
0.0
 11
-56.74044
 21
285.55335000000002
 31
0.0
  0
LINE
  5
866
  8
DETAIL
  6
CONTINUOUS
 62
     5
 10
56.74044
 20
285.55335000000002
 30
0.0
 11
56.743470000000002
 21
285.55799000000002
 31
0.0
  0
LINE
  5
867
  8
DETAIL
  6
CONTINUOUS
 62
     5
 10
56.743470000000002
 20
285.55799000000002
 30
0.0
 11
56.74051
 21
285.55335000000002
 31
0.0
  0
LINE
  5
868
  8
BASIS
  6
CENTER
 62
     6
 10
202.49999999999989
 20
451.62465999999989
 30
0.0
 11
202.49999999999989
 21
269.73613999999992
 31
0.0
  0
LINE
  5
869
  8
DETAIL
  6
CONTINUOUS
 62
     5
 10
153.43017
 20
434.55579000000012
 30
0.0
 11
150.21000000000001
 21
388.55335000000002
 31
0.0
  0
LINE
  5
86A
  8
DETAIL
  6
CONTINUOUS
 62
     5
 10
251.56982999999991
 20
434.55579000000012
 30
0.0
 11
254.78999999999991
 21
388.55335000000002
 31
0.0
  0
LINE
  5
86B
  8
DETAIL
  6
CONTINUOUS
 62
     5
 10
250.49999999999989
 20
435.55334999999991
 30
0.0
 11
154.4999999999998
 21
435.55334999999991
 31
0.0
  0
LINE
  5
86C
  8
DETAIL
  6
CONTINUOUS
 62
     5
 10
153.43017
 20
434.55579000000012
 30
0.0
 11
154.4999999999998
 21
435.55334999999991
 31
0.0
  0
LINE
  5
86D
  8
DETAIL
  6
CONTINUOUS
 62
     5
 10
251.56982999999991
 20
434.55579000000012
 30
0.0
 11
250.49999999999989
 21
435.55334999999991
 31
0.0
  0
LINE
  5
86E
  8
DETAIL
  6
CONTINUOUS
 62
     5
 10
264.5
 20
358.55335000000002
 30
0.0
 11
140.5
 21
358.55335000000002
 31
0.0
  0
LINE
  5
86F
  8
DETAIL
  6
CONTINUOUS
 62
     5
 10
264.5
 20
388.55335000000002
 30
0.0
 11
140.5
 21
388.55335000000002
 31
0.0
  0
LINE
  5
870
  8
DETAIL
  6
CONTINUOUS
 62
     5
 10
267.0
 20
287.55335000000002
 30
0.0
 11
149.0
 21
287.55335000000002
 31
0.0
  0
LINE
  5
871
  8
DETAIL
  6
CONTINUOUS
 62
     5
 10
285.0
 20
328.55335000000002
 30
0.0
 11
118.0
 21
328.55335000000002
 31
0.0
  0
LINE
  5
872
  8
DETAIL
  6
CONTINUOUS
 62
     5
 10
149.0
 20
287.55335000000002
 30
0.0
 11
118.0
 21
287.55335000000002
 31
0.0
  0
LINE
  5
873
  8
DETAIL
  6
CONTINUOUS
 62
     5
 10
118.0
 20
287.55335000000002
 30
0.0
 11
118.0
 21
328.55335000000002
 31
0.0
  0
LINE
  5
874
  8
DETAIL
  6
CONTINUOUS
 62
     5
 10
118.0
 20
287.84222999999997
 30
0.0
 11
84.500000000000014
 21
287.84222999999997
 31
0.0
  0
LINE
  5
875
  8
DETAIL
  6
CONTINUOUS
 62
     5
 10
302.49999999999989
 20
344.15334999999988
 30
0.0
 11
302.49999999999989
 21
309.15334999999999
 31
0.0
  0
LINE
  5
876
  8
DETAIL
  6
CONTINUOUS
 62
     5
 10
292.0
 20
344.15334999999988
 30
0.0
 11
292.0
 21
339.15334999999982
 31
0.0
  0
LINE
  5
877
  8
DETAIL
  6
CONTINUOUS
 62
     5
 10
285.0
 20
339.15334999999982
 30
0.0
 11
292.0
 21
339.15334999999982
 31
0.0
  0
LINE
  5
878
  8
DETAIL
  6
CONTINUOUS
 62
     5
 10
302.49999999999989
 20
344.15334999999988
 30
0.0
 11
292.0
 21
344.15334999999988
 31
0.0
  0
LINE
  5
879
  8
NOTE
  6
CONTINUOUS
 62
     4
 10
309.0
 20
318.41154999999992
 30
0.0
 11
309.0
 21
296.09464000000008
 31
0.0
  0
LINE
  5
87A
  8
DETAIL
  6
CONTINUOUS
 62
     5
 10
285.0
 20
287.55335000000002
 30
0.0
 11
267.0
 21
287.55335000000002
 31
0.0
  0
ARC
  5
87B
  8
DETAIL
  6
CONTINUOUS
 62
     5
 10
283.39999999999992
 20
283.15334999999982
 30
0.0
 40
1.6000000000000001
 50
0.0
 51
90.0
  0
LINE
  5
87C
  8
DETAIL
  6
CONTINUOUS
 62
     5
 10
302.49999999999989
 20
228.15334999999999
 30
0.0
 11
302.49999999999989
 21
193.15334999999999
 31
0.0
  0
LINE
  5
87D
  8
NOTE
  6
CONTINUOUS
 62
     4
 10
309.0
 20
239.34017999999989
 30
0.0
 11
309.0
 21
217.57989000000001
 31
0.0
  0
LINE
  5
87E
  8
DETAIL
  6
CONTINUOUS
 62
     5
 10
292.0
 20
193.15334999999999
 30
0.0
 11
292.0
 21
198.1533499999999
 31
0.0
  0
LINE
  5
87F
  8
DETAIL
  6
CONTINUOUS
 62
     5
 10
292.0
 20
193.15334999999999
 30
0.0
 11
302.49999999999989
 21
193.15334999999999
 31
0.0
  0
LINE
  5
880
  8
DETAIL
  6
CONTINUOUS
 62
     5
 10
285.0
 20
198.1533499999999
 30
0.0
 11
292.0
 21
198.1533499999999
 31
0.0
  0
LINE
  5
881
  8
DETAIL
  6
PHANTOM
 62
     5
 10
435.0
 20
247.75327999999999
 30
0.0
 11
435.0
 21
151.75342000000001
 31
0.0
  0
LINE
  5
882
  8
DETAIL
  6
CONTINUOUS
 62
     5
 10
331.0
 20
344.15334999999988
 30
0.0
 11
331.0
 21
193.15334999999999
 31
0.0
  0
LINE
  5
883
  8
DETAIL
  6
PHANTOM
 62
     5
 10
328.0
 20
193.15334999999999
 30
0.0
 11
328.0
 21
115.25335
 31
0.0
  0
LINE
  5
884
  8
DETAIL
  6
PHANTOM
 62
     5
 10
388.0
 20
261.7533499999999
 30
0.0
 11
388.0
 21
137.75335000000001
 31
0.0
  0
LINE
  5
885
  8
DETAIL
  6
PHANTOM
 62
     5
 10
358.0
 20
261.7533499999999
 30
0.0
 11
358.0
 21
137.75335000000001
 31
0.0
  0
LINE
  5
886
  8
DETAIL
  6
PHANTOM
 62
     5
 10
434.00243999999992
 20
248.82318000000001
 30
0.0
 11
435.0
 21
247.75335000000001
 31
0.0
  0
LINE
  5
887
  8
DETAIL
  6
CONTINUOUS
 62
     5
 10
315.5
 20
344.15334999999988
 30
0.0
 11
315.5
 21
309.15334999999999
 31
0.0
  0
LINE
  5
888
  8
DETAIL
  6
CONTINUOUS
 62
     5
 10
331.0
 20
342.15334999999982
 30
0.0
 11
315.5
 21
342.15334999999982
 31
0.0
  0
LINE
  5
889
  8
DETAIL
  6
CONTINUOUS
 62
     5
 10
315.5
 20
344.15334999999988
 30
0.0
 11
331.0
 21
344.15334999999988
 31
0.0
  0
LINE
  5
88A
  8
DETAIL
  6
PHANTOM
 62
     5
 10
434.0024419999998
 20
248.82317800000001
 30
0.0
 11
428.69326699999988
 21
249.37620499999991
 31
0.0
  0
LINE
  5
88B
  8
DETAIL
  6
PHANTOM
 62
     5
 10
428.69326699999988
 20
249.37620499999991
 30
0.0
 11
423.22626699999989
 21
249.9176069999998
 31
0.0
  0
LINE
  5
88C
  8
DETAIL
  6
PHANTOM
 62
     5
 10
423.22626699999989
 20
249.9176069999998
 30
0.0
 11
417.44361699999979
 21
250.43575899999999
 31
0.0
  0
LINE
  5
88D
  8
DETAIL
  6
PHANTOM
 62
     5
 10
417.44361699999979
 20
250.43575899999999
 30
0.0
 11
411.18749000000003
 21
250.9190339999999
 31
0.0
  0
LINE
  5
88E
  8
DETAIL
  6
PHANTOM
 62
     5
 10
411.18749000000003
 20
250.9190339999999
 30
0.0
 11
404.30006199999991
 21
251.35580699999991
 31
0.0
  0
LINE
  5
88F
  8
DETAIL
  6
PHANTOM
 62
     5
 10
404.30006199999991
 20
251.35580699999991
 30
0.0
 11
396.62350700000002
 21
251.7344539999998
 31
0.0
  0
LINE
  5
890
  8
DETAIL
  6
PHANTOM
 62
     5
 10
396.62350700000002
 20
251.7344539999998
 30
0.0
 11
388.000001
 21
252.04334900000001
 31
0.0
  0
LINE
  5
891
  8
DETAIL
  6
PHANTOM
 62
     5
 10
434.00243999999992
 20
150.6835199999999
 30
0.0
 11
435.0
 21
151.75335000000001
 31
0.0
  0
LINE
  5
892
  8
DETAIL
  6
CONTINUOUS
 62
     5
 10
315.5
 20
228.15334999999999
 30
0.0
 11
315.5
 21
193.15334999999999
 31
0.0
  0
LINE
  5
893
  8
DETAIL
  6
CONTINUOUS
 62
     5
 10
315.5
 20
193.15334999999999
 30
0.0
 11
331.0
 21
193.15334999999999
 31
0.0
  0
LINE
  5
894
  8
DETAIL
  6
CONTINUOUS
 62
     5
 10
315.5
 20
195.15334999999999
 30
0.0
 11
331.0
 21
195.15334999999999
 31
0.0
  0
LINE
  5
895
  8
DETAIL
  6
PHANTOM
 62
     5
 10
434.0024419999998
 20
150.6835199999999
 30
0.0
 11
428.69326699999988
 21
150.130492
 31
0.0
  0
LINE
  5
896
  8
DETAIL
  6
PHANTOM
 62
     5
 10
428.69326699999988
 20
150.130492
 30
0.0
 11
423.22626699999989
 21
149.58909
 31
0.0
  0
LINE
  5
897
  8
DETAIL
  6
PHANTOM
 62
     5
 10
423.22626699999989
 20
149.58909
 30
0.0
 11
417.44361699999979
 21
149.07093900000001
 31
0.0
  0
LINE
  5
898
  8
DETAIL
  6
PHANTOM
 62
     5
 10
417.44361699999979
 20
149.07093900000001
 30
0.0
 11
411.18749000000003
 21
148.58766399999979
 31
0.0
  0
LINE
  5
899
  8
DETAIL
  6
PHANTOM
 62
     5
 10
411.18749000000003
 20
148.58766399999979
 30
0.0
 11
404.30006199999991
 21
148.15089
 31
0.0
  0
LINE
  5
89A
  8
DETAIL
  6
PHANTOM
 62
     5
 10
404.30006199999991
 20
148.15089
 30
0.0
 11
396.62350700000002
 21
147.772243
 31
0.0
  0
LINE
  5
89B
  8
DETAIL
  6
PHANTOM
 62
     5
 10
396.62350700000002
 20
147.772243
 30
0.0
 11
388.000001
 21
147.46334899999991
 31
0.0
  0
LINE
  5
89C
  8
DETAIL
  6
CONTINUOUS
 62
     5
 10
-120.0
 20
-287.64665000000002
 30
0.0
 11
-267.0
 21
-287.64665000000002
 31
0.0
  0
LINE
  5
89D
  8
DETAIL
  6
CONTINUOUS
 62
     5
 10
-283.39999999999992
 20
-284.84665000000001
 30
0.0
 11
283.39999999999992
 21
-284.84665000000001
 31
0.0
  0
LINE
  5
89E
  8
DETAIL
  6
CONTINUOUS
 62
     5
 10
-285.0
 20
-328.55335999999988
 30
0.0
 11
-118.0
 21
-328.55335999999988
 31
0.0
  0
LINE
  5
89F
  8
DETAIL
  6
CONTINUOUS
 62
     5
 10
-264.5
 20
-358.55243442377127
 30
0.0
 11
-140.5
 21
-358.55446894861092
 31
0.0
  0
LINE
  5
8A0
  8
DETAIL
  6
CONTINUOUS
 62
     5
 10
-264.5
 20
-388.55336
 30
0.0
 11
-140.5
 21
-388.55336
 31
0.0
  0
LINE
  5
8A1
  8
DETAIL
  6
CONTINUOUS
 62
     5
 10
-250.49999999999989
 20
-435.55335999999988
 30
0.0
 11
-154.4999999999998
 21
-435.55335999999988
 31
0.0
  0
LINE
  5
8A2
  8
DETAIL
  6
CONTINUOUS
 62
     5
 10
-267.0
 20
-287.55336
 30
0.0
 11
-149.0
 21
-287.55336
 31
0.0
  0
LINE
  5
8A3
  8
DETAIL
  6
CONTINUOUS
 62
     5
 10
-251.56982999999991
 20
-434.55579999999992
 30
0.0
 11
-254.78999999999991
 21
-388.55336
 31
0.0
  0
LINE
  5
8A4
  8
DETAIL
  6
CONTINUOUS
 62
     5
 10
-331.0
 20
-194.2466499999999
 30
0.0
 11
-331.0
 21
-344.24664999999999
 31
0.0
  0
LINE
  5
8A5
  8
NOTE
  6
CONTINUOUS
 62
     4
 10
-323.58010000000002
 20
-229.2466499999999
 30
0.0
 11
-292.61705999999992
 21
-229.2466499999999
 31
0.0
  0
LINE
  5
8A6
  8
DETAIL
  6
CONTINUOUS
 62
     5
 10
-315.5
 20
-194.2466499999999
 30
0.0
 11
-331.0
 21
-194.2466499999999
 31
0.0
  0
LINE
  5
8A7
  8
DETAIL
  6
CONTINUOUS
 62
     5
 10
-331.0
 20
-196.2466499999999
 30
0.0
 11
-315.5
 21
-196.2466499999999
 31
0.0
  0
LINE
  5
8A8
  8
NOTE
  6
CONTINUOUS
 62
     4
 10
-309.0
 20
-216.6428699999999
 30
0.0
 11
-309.0
 21
-246.1852299999999
 31
0.0
  0
LINE
  5
8A9
  8
DETAIL
  6
CONTINUOUS
 62
     5
 10
-302.49999999999989
 20
-194.2466499999999
 30
0.0
 11
-302.49999999999989
 21
-229.2466499999999
 31
0.0
  0
LINE
  5
8AA
  8
DETAIL
  6
CONTINUOUS
 62
     5
 10
-315.5
 20
-194.2466499999999
 30
0.0
 11
-315.5
 21
-229.2466499999999
 31
0.0
  0
LINE
  5
8AB
  8
DETAIL
  6
CONTINUOUS
 62
     5
 10
-285.0
 20
-199.2466499999999
 30
0.0
 11
-292.0
 21
-199.2466499999999
 31
0.0
  0
LINE
  5
8AC
  8
DETAIL
  6
CONTINUOUS
 62
     5
 10
-292.0
 20
-194.2466499999999
 30
0.0
 11
-292.0
 21
-199.2466499999999
 31
0.0
  0
LINE
  5
8AD
  8
DETAIL
  6
CONTINUOUS
 62
     5
 10
-302.49999999999989
 20
-194.2466499999999
 30
0.0
 11
-292.0
 21
-194.2466499999999
 31
0.0
  0
ARC
  5
8AE
  8
DETAIL
  6
CONTINUOUS
 62
     5
 10
-309.0
 20
-229.2466499999999
 30
0.0
 40
6.5
 50
180.0
 51
0.0
  0
LINE
  5
8AF
  8
NOTE
  6
CONTINUOUS
 62
     4
 10
-322.39620000000002
 20
-309.24664999999999
 30
0.0
 11
-292.97223000000002
 21
-309.24664999999999
 31
0.0
  0
LINE
  5
8B0
  8
DETAIL
  6
CONTINUOUS
 62
     5
 10
-315.5
 20
-342.24664999999999
 30
0.0
 11
-331.0
 21
-342.24664999999999
 31
0.0
  0
LINE
  5
8B1
  8
DETAIL
  6
CONTINUOUS
 62
     5
 10
-315.5
 20
-344.24664999999999
 30
0.0
 11
-331.0
 21
-344.24664999999999
 31
0.0
  0
LINE
  5
8B2
  8
DETAIL
  6
CONTINUOUS
 62
     5
 10
-292.0
 20
-344.24664999999999
 30
0.0
 11
-292.0
 21
-339.24664999999982
 31
0.0
  0
LINE
  5
8B3
  8
DETAIL
  6
CONTINUOUS
 62
     5
 10
-302.49999999999989
 20
-309.24664999999999
 30
0.0
 11
-302.49999999999989
 21
-344.24664999999999
 31
0.0
  0
LINE
  5
8B4
  8
DETAIL
  6
CONTINUOUS
 62
     5
 10
-315.5
 20
-309.24664999999999
 30
0.0
 11
-315.5
 21
-344.24664999999999
 31
0.0
  0
LINE
  5
8B5
  8
NOTE
  6
CONTINUOUS
 62
     4
 10
-309.0
 20
-291.58393000000001
 30
0.0
 11
-309.0
 21
-324.08605
 31
0.0
  0
ARC
  5
8B6
  8
DETAIL
  6
CONTINUOUS
 62
     5
 10
-283.39999999999992
 20
-283.24664999999982
 30
0.0
 40
1.6000000000000001
 50
180.0
 51
270.0
  0
LINE
  5
8B7
  8
DETAIL
  6
CONTINUOUS
 62
     5
 10
-284.99993999999992
 20
-287.64665000000002
 30
0.0
 11
-267.0
 21
-287.64665000000002
 31
0.0
  0
LINE
  5
8B8
  8
DETAIL
  6
CONTINUOUS
 62
     5
 10
-285.0
 20
-287.55336
 30
0.0
 11
-267.0
 21
-287.55336
 31
0.0
  0
LINE
  5
8B9
  8
DETAIL
  6
CONTINUOUS
 62
     5
 10
-285.0
 20
-339.24664999999982
 30
0.0
 11
-292.0
 21
-339.24664999999982
 31
0.0
  0
ARC
  5
8BA
  8
DETAIL
  6
CONTINUOUS
 62
     5
 10
-309.0
 20
-309.24664999999999
 30
0.0
 40
6.5
 50
0.0
 51
180.0
  0
LINE
  5
8BB
  8
DETAIL
  6
CONTINUOUS
 62
     5
 10
-202.4761
 20
-266.58737000000002
 30
0.0
 11
-202.4761
 21
-268.63364000000001
 31
0.0
  0
LINE
  5
8BC
  8
DETAIL
  6
CONTINUOUS
 62
     5
 10
-292.0
 20
-344.24664999999999
 30
0.0
 11
-302.49999999999989
 21
-344.24664999999999
 31
0.0
  0
LINE
  5
8BD
  8
DETAIL
  6
CONTINUOUS
 62
     5
 10
-251.56982999999991
 20
-434.55579999999992
 30
0.0
 11
-250.49999999999989
 21
-435.55335999999988
 31
0.0
  0
LINE
  5
8BE
  8
BASIS
  6
CENTER
 62
     6
 10
278.04169000000002
 20
-199.84665000000001
 30
0.0
 11
452.14445999999992
 21
-199.84665000000001
 31
0.0
  0
LINE
  5
8BF
  8
NOTE
  6
CONTINUOUS
 62
     4
 10
296.14796999999982
 20
-228.2466499999999
 30
0.0
 11
321.78255999999982
 21
-228.2466499999999
 31
0.0
  0
LINE
  5
8C0
  8
NOTE
  6
CONTINUOUS
 62
     4
 10
294.15244000000001
 20
-309.24664999999999
 30
0.0
 11
322.9228700000001
 21
-309.24664999999999
 31
0.0
  0
ARC
  5
8C1
  8
DETAIL
  6
CONTINUOUS
 62
     5
 10
309.0
 20
-309.24664999999999
 30
0.0
 40
6.5
 50
0.0
 51
180.0
  0
ARC
  5
8C2
  8
DETAIL
  6
CONTINUOUS
 62
     5
 10
309.0
 20
-228.2466499999999
 30
0.0
 40
6.5
 50
180.0
 51
0.0
  0
LINE
  5
8C3
  8
DETAIL
  6
PHANTOM
 62
     5
 10
288.61254000000002
 20
-115.3466499999999
 30
0.0
 11
328.0
 21
-115.3466499999999
 31
0.0
  0
LINE
  5
8C4
  8
BASIS
  6
CENTER
 62
     6
 10
202.49999999999989
 20
-268.43013000000002
 30
0.0
 11
202.49999999999989
 21
-453.78870999999981
 31
0.0
  0
LINE
  5
8C5
  8
DETAIL
  6
CONTINUOUS
 62
     5
 10
251.56982999999991
 20
-434.55579999999992
 30
0.0
 11
254.78999999999991
 21
-388.55336
 31
0.0
  0
LINE
  5
8C6
  8
DETAIL
  6
CONTINUOUS
 62
     5
 10
153.43017
 20
-434.55579999999992
 30
0.0
 11
150.21000000000001
 21
-388.55336
 31
0.0
  0
LINE
  5
8C7
  8
DETAIL
  6
CONTINUOUS
 62
     5
 10
-153.43017
 20
-434.55579999999992
 30
0.0
 11
-150.21000000000001
 21
-388.55336
 31
0.0
  0
LINE
  5
8C8
  8
DETAIL
  6
CONTINUOUS
 62
     5
 10
-120.0
 20
-287.93553000000009
 30
0.0
 11
120.0
 21
-287.93553000000009
 31
0.0
  0
LINE
  5
8C9
  8
DETAIL
  6
CONTINUOUS
 62
     5
 10
-149.0
 20
-287.55336
 30
0.0
 11
-118.0
 21
-287.55336
 31
0.0
  0
LINE
  5
8CA
  8
DETAIL
  6
CONTINUOUS
 62
     5
 10
-118.0
 20
-287.55336
 30
0.0
 11
-118.0
 21
-328.55335999999988
 31
0.0
  0
LINE
  5
8CB
  8
DETAIL
  6
CONTINUOUS
 62
     5
 10
285.00465000000008
 20
-144.10318000000001
 30
0.0
 11
285.0
 21
-144.10615000000001
 31
0.0
  0
LINE
  5
8CC
  8
DETAIL
  6
CONTINUOUS
 62
     5
 10
285.0
 20
-144.10621
 30
0.0
 11
285.00465000000008
 21
-144.10318000000001
 31
0.0
  0
LINE
  5
8CD
  8
DETAIL
  6
CONTINUOUS
 62
     5
 10
302.49999999999989
 20
-193.2466499999999
 30
0.0
 11
302.49999999999989
 21
-228.2466499999999
 31
0.0
  0
LINE
  5
8CE
  8
DETAIL
  6
CONTINUOUS
 62
     5
 10
292.0
 20
-194.2466499999999
 30
0.0
 11
292.0
 21
-199.2466499999999
 31
0.0
  0
LINE
  5
8CF
  8
DETAIL
  6
CONTINUOUS
 62
     5
 10
302.49999999999989
 20
-193.2466499999999
 30
0.0
 11
292.0
 21
-193.2466499999999
 31
0.0
  0
LINE
  5
8D0
  8
DETAIL
  6
CONTINUOUS
 62
     5
 10
285.0
 20
-199.2466499999999
 30
0.0
 11
292.0
 21
-199.2466499999999
 31
0.0
  0
LINE
  5
8D1
  8
NOTE
  6
CONTINUOUS
 62
     4
 10
309.0
 20
-217.92245999999989
 30
0.0
 11
309.0
 21
-245.69512
 31
0.0
  0
LINE
  5
8D2
  8
DETAIL
  6
CONTINUOUS
 62
     5
 10
267.0
 20
-287.64665000000002
 30
0.0
 11
149.0
 21
-287.64665000000002
 31
0.0
  0
LINE
  5
8D3
  8
DETAIL
  6
CONTINUOUS
 62
     5
 10
285.0
 20
-328.55335999999988
 30
0.0
 11
118.0
 21
-328.55335999999988
 31
0.0
  0
LINE
  5
8D4
  8
DETAIL
  6
CONTINUOUS
 62
     5
 10
264.5
 20
-358.55336
 30
0.0
 11
140.5
 21
-358.55336
 31
0.0
  0
LINE
  5
8D5
  8
DETAIL
  6
CONTINUOUS
 62
     5
 10
264.5
 20
-388.55336
 30
0.0
 11
140.5
 21
-388.55336
 31
0.0
  0
LINE
  5
8D6
  8
DETAIL
  6
CONTINUOUS
 62
     5
 10
267.0
 20
-287.55336
 30
0.0
 11
149.0
 21
-287.55336
 31
0.0
  0
LINE
  5
8D7
  8
DETAIL
  6
CONTINUOUS
 62
     5
 10
120.00006
 20
-287.64665000000002
 30
0.0
 11
149.0
 21
-287.64665000000002
 31
0.0
  0
LINE
  5
8D8
  8
DETAIL
  6
CONTINUOUS
 62
     5
 10
149.0
 20
-287.55336
 30
0.0
 11
118.0
 21
-287.55336
 31
0.0
  0
LINE
  5
8D9
  8
DETAIL
  6
CONTINUOUS
 62
     5
 10
118.0
 20
-287.55336
 30
0.0
 11
118.0
 21
-328.55335999999988
 31
0.0
  0
LINE
  5
8DA
  8
DETAIL
  6
CONTINUOUS
 62
     5
 10
302.49999999999989
 20
-309.24664999999999
 30
0.0
 11
302.49999999999989
 21
-344.24664999999999
 31
0.0
  0
LINE
  5
8DB
  8
DETAIL
  6
CONTINUOUS
 62
     5
 10
292.0
 20
-344.24664999999999
 30
0.0
 11
292.0
 21
-340.24664999999999
 31
0.0
  0
LINE
  5
8DC
  8
NOTE
  6
CONTINUOUS
 62
     4
 10
309.0
 20
-295.89316999999988
 30
0.0
 11
309.0
 21
-319.10460999999992
 31
0.0
  0
LINE
  5
8DD
  8
DETAIL
  6
CONTINUOUS
 62
     5
 10
267.0
 20
-287.64665000000002
 30
0.0
 11
284.99993999999992
 21
-287.64665000000002
 31
0.0
  0
LINE
  5
8DE
  8
DETAIL
  6
CONTINUOUS
 62
     5
 10
285.0
 20
-287.55336
 30
0.0
 11
267.0
 21
-287.55336
 31
0.0
  0
ARC
  5
8DF
  8
DETAIL
  6
CONTINUOUS
 62
     5
 10
283.39999999999992
 20
-283.24664999999982
 30
0.0
 40
1.6000000000000001
 50
270.0
 51
0.0
  0
LINE
  5
8E0
  8
DETAIL
  6
CONTINUOUS
 62
     5
 10
282.63999999999982
 20
-284.84172000000001
 30
0.0
 11
282.60000000000002
 21
-284.84665000000001
 31
0.0
  0
LINE
  5
8E1
  8
DETAIL
  6
CONTINUOUS
 62
     5
 10
285.0
 20
-340.24664999999999
 30
0.0
 11
292.0
 21
-340.24664999999999
 31
0.0
  0
LINE
  5
8E2
  8
DETAIL
  6
CONTINUOUS
 62
     5
 10
292.0
 20
-344.24664999999999
 30
0.0
 11
302.49999999999989
 21
-344.24664999999999
 31
0.0
  0
LINE
  5
8E3
  8
DETAIL
  6
CONTINUOUS
 62
     5
 10
-153.43017
 20
-434.55579999999992
 30
0.0
 11
-154.4999999999998
 21
-435.55335999999988
 31
0.0
  0
LINE
  5
8E4
  8
DETAIL
  6
CONTINUOUS
 62
     5
 10
250.49999999999989
 20
-435.55335999999988
 30
0.0
 11
154.4999999999998
 21
-435.55335999999988
 31
0.0
  0
LINE
  5
8E5
  8
DETAIL
  6
CONTINUOUS
 62
     5
 10
153.43017
 20
-434.55579999999992
 30
0.0
 11
154.4999999999998
 21
-435.55335999999988
 31
0.0
  0
LINE
  5
8E6
  8
DETAIL
  6
CONTINUOUS
 62
     5
 10
251.56982999999991
 20
-434.55579999999992
 30
0.0
 11
250.49999999999989
 21
-435.55335999999988
 31
0.0
  0
LINE
  5
8E7
  8
DETAIL
  6
CONTINUOUS
 62
     5
 10
331.0
 20
-193.2466499999999
 30
0.0
 11
331.0
 21
-344.24664999999999
 31
0.0
  0
LINE
  5
8E8
  8
DETAIL
  6
PHANTOM
 62
     5
 10
388.0
 20
-137.84665000000001
 30
0.0
 11
388.0
 21
-261.84665000000001
 31
0.0
  0
LINE
  5
8E9
  8
DETAIL
  6
PHANTOM
 62
     5
 10
328.0
 20
-115.3466499999999
 30
0.0
 11
328.0
 21
-193.2466499999999
 31
0.0
  0
LINE
  5
8EA
  8
DETAIL
  6
PHANTOM
 62
     5
 10
358.0
 20
-137.84665000000001
 30
0.0
 11
358.0
 21
-261.84665000000001
 31
0.0
  0
LINE
  5
8EB
  8
DETAIL
  6
PHANTOM
 62
     5
 10
434.00243999999992
 20
-150.7768199999999
 30
0.0
 11
435.0
 21
-151.84665000000001
 31
0.0
  0
LINE
  5
8EC
  8
DETAIL
  6
PHANTOM
 62
     5
 10
434.00243999999992
 20
-248.91648000000001
 30
0.0
 11
435.0
 21
-247.84665000000001
 31
0.0
  0
LINE
  5
8ED
  8
DETAIL
  6
PHANTOM
 62
     5
 10
434.0024419999998
 20
-150.77682200000001
 30
0.0
 11
428.69326699999988
 21
-150.223795
 31
0.0
  0
LINE
  5
8EE
  8
DETAIL
  6
PHANTOM
 62
     5
 10
428.69326699999988
 20
-150.223795
 30
0.0
 11
423.22626699999989
 21
-149.68239299999979
 31
0.0
  0
LINE
  5
8EF
  8
DETAIL
  6
PHANTOM
 62
     5
 10
423.22626699999989
 20
-149.68239299999979
 30
0.0
 11
417.44361699999979
 21
-149.164241
 31
0.0
  0
LINE
  5
8F0
  8
DETAIL
  6
PHANTOM
 62
     5
 10
417.44361699999979
 20
-149.164241
 30
0.0
 11
411.18749000000003
 21
-148.68096600000001
 31
0.0
  0
LINE
  5
8F1
  8
DETAIL
  6
PHANTOM
 62
     5
 10
411.18749000000003
 20
-148.68096600000001
 30
0.0
 11
404.30006199999991
 21
-148.244193
 31
0.0
  0
LINE
  5
8F2
  8
DETAIL
  6
PHANTOM
 62
     5
 10
404.30006199999991
 20
-148.244193
 30
0.0
 11
396.62350700000002
 21
-147.8655459999998
 31
0.0
  0
LINE
  5
8F3
  8
DETAIL
  6
PHANTOM
 62
     5
 10
396.62350700000002
 20
-147.8655459999998
 30
0.0
 11
388.000001
 21
-147.5566509999999
 31
0.0
  0
LINE
  5
8F4
  8
DETAIL
  6
CONTINUOUS
 62
     5
 10
315.5
 20
-193.2466499999999
 30
0.0
 11
315.5
 21
-228.2466499999999
 31
0.0
  0
LINE
  5
8F5
  8
DETAIL
  6
CONTINUOUS
 62
     5
 10
315.5
 20
-193.2466499999999
 30
0.0
 11
331.0
 21
-193.2466499999999
 31
0.0
  0
LINE
  5
8F6
  8
DETAIL
  6
CONTINUOUS
 62
     5
 10
331.0
 20
-195.2466499999999
 30
0.0
 11
315.5
 21
-195.2466499999999
 31
0.0
  0
LINE
  5
8F7
  8
DETAIL
  6
PHANTOM
 62
     5
 10
434.0024419999998
 20
-248.91648000000001
 30
0.0
 11
428.69326699999988
 21
-249.46950799999999
 31
0.0
  0
LINE
  5
8F8
  8
DETAIL
  6
PHANTOM
 62
     5
 10
428.69326699999988
 20
-249.46950799999999
 30
0.0
 11
423.22626699999989
 21
-250.01090999999991
 31
0.0
  0
LINE
  5
8F9
  8
DETAIL
  6
PHANTOM
 62
     5
 10
423.22626699999989
 20
-250.01090999999991
 30
0.0
 11
417.44361699999979
 21
-250.52906100000001
 31
0.0
  0
LINE
  5
8FA
  8
DETAIL
  6
PHANTOM
 62
     5
 10
417.44361699999979
 20
-250.52906100000001
 30
0.0
 11
411.18749000000003
 21
-251.01233599999981
 31
0.0
  0
LINE
  5
8FB
  8
DETAIL
  6
PHANTOM
 62
     5
 10
411.18749000000003
 20
-251.01233599999981
 30
0.0
 11
404.30006199999991
 21
-251.44910999999991
 31
0.0
  0
LINE
  5
8FC
  8
DETAIL
  6
PHANTOM
 62
     5
 10
404.30006199999991
 20
-251.44910999999991
 30
0.0
 11
396.62350700000002
 21
-251.82775699999991
 31
0.0
  0
LINE
  5
8FD
  8
DETAIL
  6
PHANTOM
 62
     5
 10
396.62350700000002
 20
-251.82775699999991
 30
0.0
 11
388.000001
 21
-252.13665099999989
 31
0.0
  0
LINE
  5
8FE
  8
DETAIL
  6
PHANTOM
 62
     5
 10
435.0
 20
-151.84672
 30
0.0
 11
435.0
 21
-247.8465799999999
 31
0.0
  0
LINE
  5
8FF
  8
DETAIL
  6
CONTINUOUS
 62
     5
 10
315.5
 20
-309.24664999999999
 30
0.0
 11
315.5
 21
-344.24664999999999
 31
0.0
  0
LINE
  5
900
  8
DETAIL
  6
CONTINUOUS
 62
     5
 10
315.5
 20
-342.24664999999999
 30
0.0
 11
331.0
 21
-342.24664999999999
 31
0.0
  0
LINE
  5
901
  8
DETAIL
  6
CONTINUOUS
 62
     5
 10
315.5
 20
-344.24664999999999
 30
0.0
 11
331.0
 21
-344.24664999999999
 31
0.0
  0
LINE
  5
902
  8
OUTLINE
  6
CONTINUOUS
 62
     3
 10
-285.0
 20
-284.84665000000001
 30
0.0
 11
-285.0
 21
284.75335000000001
 31
0.0
  0
LINE
  5
903
  8
OUTLINE
  6
CONTINUOUS
 62
     3
 10
285.0
 20
-284.84665000000001
 30
0.0
 11
285.0
 21
284.75335000000001
 31
0.0
  0
LINE
  5
904
  8
OUTLINE
  6
CONTINUOUS
 62
     3
 10
-285.0
 20
284.75335000000001
 30
0.0
 11
285.0
 21
284.75335000000001
 31
0.0
  0
LINE
  5
905
  8
OUTLINE
  6
CONTINUOUS
 62
     3
 10
-285.0
 20
-284.84665000000001
 30
0.0
 11
285.0
 21
-284.84665000000001
 31
0.0
  0
LINE
  5
906
  8
BASIS
  6
CENTER
 62
     6
 10
-202.4761
 20
-266.58737000000002
 30
0.0
 11
-202.49999999999989
 21
-460.82609999999988
 31
0.0
  0
LINE
  5
907
  8
SIZE
  6
CONTINUOUS
 62
    30
 10
-202.49999999999989
 20
-480.82609999999988
 30
0.0
 11
-202.49999999999989
 21
-610.084067
 31
0.0
  0
LINE
  5
908
  8
SIZE
  6
CONTINUOUS
 62
    30
 10
202.49999999999989
 20
-480.82609999999988
 30
0.0
 11
202.49999999999989
 21
-610.084067
 31
0.0
  0
LINE
  5
909
  8
SIZE
  6
CONTINUOUS
 62
    30
 10
-190.5
 20
-590.084067
 30
0.0
 11
190.5
 21
-590.084067
 31
0.0
  0
CIRCLE
  5
90A
  8
SIZE
  6
CONTINUOUS
 62
    30
 10
-202.49999999999989
 20
-590.084067
 30
0.0
 40
6.0
  0
LINE
  5
90B
  8
SIZE
  6
CONTINUOUS
 62
    30
 10
-202.49999999999989
 20
-590.084067
 30
0.0
 11
-190.5
 21
-590.084067
 31
0.0
  0
CIRCLE
  5
90C
  8
SIZE
  6
CONTINUOUS
 62
    30
 10
202.49999999999989
 20
-590.084067
 30
0.0
 40
6.0
  0
LINE
  5
90D
  8
SIZE
  6
CONTINUOUS
 62
    30
 10
202.49999999999989
 20
-590.084067
 30
0.0
 11
190.5
 21
-590.084067
 31
0.0
  0
TEXT
  5
90E
  8
SIZE
  6
CONTINUOUS
 62
    30
 10
-74.05714285714285
 20
-565.084067
 30
0.0
 40
64.0
  1
405
 41
0.9
 72
     1
 11
0.0
 21
-565.084067
 31
0.0
  0
LINE
  5
90F
  8
SIZE
  6
CONTINUOUS
 62
    30
 10
-285.0
 20
-303.24664999999982
 30
0.0
 11
-285.0
 21
-730.084067
 31
0.0
  0
LINE
  5
910
  8
SIZE
  6
CONTINUOUS
 62
    30
 10
285.0
 20
-360.24664999999987
 30
0.0
 11
285.0
 21
-730.084067
 31
0.0
  0
LINE
  5
911
  8
SIZE
  6
CONTINUOUS
 62
    30
 10
-273.0
 20
-710.084067
 30
0.0
 11
273.0
 21
-710.084067
 31
0.0
  0
CIRCLE
  5
912
  8
SIZE
  6
CONTINUOUS
 62
    30
 10
-285.0
 20
-710.084067
 30
0.0
 40
6.0
  0
LINE
  5
913
  8
SIZE
  6
CONTINUOUS
 62
    30
 10
-285.0
 20
-710.084067
 30
0.0
 11
-273.0
 21
-710.084067
 31
0.0
  0
CIRCLE
  5
914
  8
SIZE
  6
CONTINUOUS
 62
    30
 10
285.0
 20
-710.084067
 30
0.0
 40
6.0
  0
LINE
  5
915
  8
SIZE
  6
CONTINUOUS
 62
    30
 10
285.0
 20
-710.084067
 30
0.0
 11
273.0
 21
-710.084067
 31
0.0
  0
TEXT
  5
916
  8
SIZE
  6
CONTINUOUS
 62
    30
 10
-74.05714285714285
 20
-685.084067
 30
0.0
 40
64.0
  1
570
 41
0.9
 72
     1
 11
0.0
 21
-685.084067
 31
0.0
  0
LINE
  5
917
  8
SIZE
  6
CONTINUOUS
 62
    30
 10
-309.0
 20
-343.08605
 30
0.0
 11
-309.0
 21
-849.084067
 31
0.0
  0
LINE
  5
918
  8
SIZE
  6
CONTINUOUS
 62
    30
 10
309.0
 20
-344.08604999999977
 30
0.0
 11
309.0
 21
-849.084067
 31
0.0
  0
LINE
  5
919
  8
SIZE
  6
CONTINUOUS
 62
    30
 10
-297.0
 20
-829.08406699999989
 30
0.0
 11
297.0
 21
-829.08406699999989
 31
0.0
  0
CIRCLE
  5
91A
  8
SIZE
  6
CONTINUOUS
 62
    30
 10
-309.0
 20
-829.08406699999989
 30
0.0
 40
6.0
  0
LINE
  5
91B
  8
SIZE
  6
CONTINUOUS
 62
    30
 10
-309.0
 20
-829.08406699999989
 30
0.0
 11
-297.0
 21
-829.08406699999989
 31
0.0
  0
CIRCLE
  5
91C
  8
SIZE
  6
CONTINUOUS
 62
    30
 10
309.0
 20
-829.08406699999989
 30
0.0
 40
6.0
  0
LINE
  5
91D
  8
SIZE
  6
CONTINUOUS
 62
    30
 10
309.0
 20
-829.08406699999989
 30
0.0
 11
297.0
 21
-829.08406699999989
 31
0.0
  0
TEXT
  5
91E
  8
SIZE
  6
CONTINUOUS
 62
    30
 10
-261.12
 20
-804.08406699999989
 30
0.0
 40
64.0
  1
618（天吊位置）
 41
0.9
 72
     1
 11
0.0
 21
-804.08406699999989
 31
0.0
  0
LINE
  5
91F
  8
SIZE
  6
CONTINUOUS
 62
    30
 10
-305.0
 20
284.75335000000001
 30
0.0
 11
-475.17819299999991
 21
284.75335000000001
 31
0.0
  0
LINE
  5
920
  8
SIZE
  6
CONTINUOUS
 62
    30
 10
-305.0
 20
-284.84665000000001
 30
0.0
 11
-475.17819299999991
 21
-284.84665000000001
 31
0.0
  0
LINE
  5
921
  8
SIZE
  6
CONTINUOUS
 62
    30
 10
-455.17819299999968
 20
272.75335000000001
 30
0.0
 11
-455.17819299999968
 21
-272.84665000000001
 31
0.0
  0
CIRCLE
  5
922
  8
SIZE
  6
CONTINUOUS
 62
    30
 10
-455.17819299999968
 20
284.75335000000001
 30
0.0
 40
6.0
  0
LINE
  5
923
  8
SIZE
  6
CONTINUOUS
 62
    30
 10
-455.17819299999968
 20
284.75335000000001
 30
0.0
 11
-455.17819299999968
 21
272.75335000000001
 31
0.0
  0
CIRCLE
  5
924
  8
SIZE
  6
CONTINUOUS
 62
    30
 10
-455.17819299999968
 20
-284.84665000000001
 30
0.0
 40
6.0
  0
LINE
  5
925
  8
SIZE
  6
CONTINUOUS
 62
    30
 10
-455.17819299999968
 20
-284.84665000000001
 30
0.0
 11
-455.17819299999968
 21
-272.84665000000001
 31
0.0
  0
TEXT
  5
926
  8
SIZE
  6
CONTINUOUS
 62
    30
 10
-480.17819299999968
 20
-74.103792857142835
 30
0.0
 40
64.0
  1
570
 50
90.0
 41
0.9
 72
     1
 11
-480.17819299999968
 21
-0.04665
 31
0.0
  0
LINE
  5
927
  8
SIZE
  6
CONTINUOUS
 62
    30
 10
-344.03025000000002
 20
309.15334999999999
 30
0.0
 11
-595.17819299999996
 21
309.15334999999999
 31
0.0
  0
LINE
  5
928
  8
SIZE
  6
CONTINUOUS
 62
    30
 10
-344.03025000000002
 20
-309.24664999999999
 30
0.0
 11
-595.17819299999996
 21
-309.24664999999999
 31
0.0
  0
LINE
  5
929
  8
SIZE
  6
CONTINUOUS
 62
    30
 10
-575.17819299999985
 20
297.15334999999982
 30
0.0
 11
-575.17819299999985
 21
-297.24664999999987
 31
0.0
  0
CIRCLE
  5
92A
  8
SIZE
  6
CONTINUOUS
 62
    30
 10
-575.17819299999985
 20
309.15334999999999
 30
0.0
 40
6.0
  0
LINE
  5
92B
  8
SIZE
  6
CONTINUOUS
 62
    30
 10
-575.17819299999985
 20
309.15334999999999
 30
0.0
 11
-575.17819299999985
 21
297.15334999999982
 31
0.0
  0
CIRCLE
  5
92C
  8
SIZE
  6
CONTINUOUS
 62
    30
 10
-575.17819299999985
 20
-309.24664999999999
 30
0.0
 40
6.0
  0
LINE
  5
92D
  8
SIZE
  6
CONTINUOUS
 62
    30
 10
-575.17819299999985
 20
-309.24664999999999
 30
0.0
 11
-575.17819299999985
 21
-297.24664999999987
 31
0.0
  0
TEXT
  5
92E
  8
SIZE
  6
CONTINUOUS
 62
    30
 10
-600.17819299999985
 20
-261.16665
 30
0.0
 40
64.0
  1
618（天吊位置）
 50
90.0
 41
0.9
 72
     1
 11
-600.17819299999985
 21
-0.04665
 31
0.0
  0
LINE
  5
92F
  8
SIZE
  6
CONTINUOUS
 62
    30
 10
-286.67055499999992
 20
435.55334999999991
 30
0.0
 11
-475.17819299999991
 21
435.55334999999991
 31
0.0
  0
LINE
  5
930
  8
SIZE
  6
CONTINUOUS
 62
    30
 10
-410.08909599999998
 20
284.75335000000001
 30
0.0
 11
-475.17819299999991
 21
284.75335000000001
 31
0.0
  0
LINE
  5
931
  8
SIZE
  6
CONTINUOUS
 62
    30
 10
-455.17819299999968
 20
296.75335000000001
 30
0.0
 11
-455.17819299999968
 21
423.55335000000002
 31
0.0
  0
LINE
  5
932
  8
SIZE
  6
CONTINUOUS
 62
    30
 10
-455.17819299999968
 20
435.55334999999991
 30
0.0
 11
-455.17819299999968
 21
610.010493
 31
0.0
  0
CIRCLE
  5
933
  8
SIZE
  6
CONTINUOUS
 62
    30
 10
-455.17819299999968
 20
284.75335000000001
 30
0.0
 40
6.0
  0
LINE
  5
934
  8
SIZE
  6
CONTINUOUS
 62
    30
 10
-455.17819299999968
 20
284.75335000000001
 30
0.0
 11
-455.17819299999968
 21
296.75335000000001
 31
0.0
  0
CIRCLE
  5
935
  8
SIZE
  6
CONTINUOUS
 62
    30
 10
-455.17819299999968
 20
435.55334999999991
 30
0.0
 40
6.0
  0
LINE
  5
936
  8
SIZE
  6
CONTINUOUS
 62
    30
 10
-455.17819299999968
 20
435.55334999999991
 30
0.0
 11
-455.17819299999968
 21
423.55335000000002
 31
0.0
  0
TEXT
  5
937
  8
SIZE
  6
CONTINUOUS
 62
    30
 10
-480.17819299999968
 20
472.55334957142861
 30
0.0
 40
64.0
  1
151
 50
90.0
 41
0.9
 72
     1
 11
-480.17819299999968
 21
528.78192100000001
 31
0.0
  0
LINE
  5
938
  8
SIZE
  6
CONTINUOUS
 62
    30
 10
-283.45037899999988
 20
-435.55335999999988
 30
0.0
 11
-475.17819299999991
 21
-435.55335999999988
 31
0.0
  0
LINE
  5
939
  8
SIZE
  6
CONTINUOUS
 62
    30
 10
-391.84481899999992
 20
-284.84665000000001
 30
0.0
 11
-475.17819299999991
 21
-284.84665000000001
 31
0.0
  0
LINE
  5
93A
  8
SIZE
  6
CONTINUOUS
 62
    30
 10
-455.17819299999968
 20
-296.84665000000001
 30
0.0
 11
-455.17819299999968
 21
-423.55335999999988
 31
0.0
  0
LINE
  5
93B
  8
SIZE
  6
CONTINUOUS
 62
    30
 10
-455.17819299999968
 20
-435.55335999999988
 30
0.0
 11
-455.17819299999968
 21
-610.01050299999986
 31
0.0
  0
CIRCLE
  5
93C
  8
SIZE
  6
CONTINUOUS
 62
    30
 10
-455.17819299999968
 20
-284.84665000000001
 30
0.0
 40
6.0
  0
LINE
  5
93D
  8
SIZE
  6
CONTINUOUS
 62
    30
 10
-455.17819299999968
 20
-284.84665000000001
 30
0.0
 11
-455.17819299999968
 21
-296.84665000000001
 31
0.0
  0
CIRCLE
  5
93E
  8
SIZE
  6
CONTINUOUS
 62
    30
 10
-455.17819299999968
 20
-435.55335999999988
 30
0.0
 40
6.0
  0
LINE
  5
93F
  8
SIZE
  6
CONTINUOUS
 62
    30
 10
-455.17819299999968
 20
-435.55335999999988
 30
0.0
 11
-455.17819299999968
 21
-423.55335999999988
 31
0.0
  0
TEXT
  5
940
  8
SIZE
  6
CONTINUOUS
 62
    30
 10
-480.17819299999968
 20
-585.01050242857104
 30
0.0
 40
64.0
  1
151
 50
90.0
 41
0.9
 72
     1
 11
-480.17819299999968
 21
-528.78193099999964
 31
0.0
  0
LINE
  5
941
  8
SIZE
  6
CONTINUOUS
 62
    30
 10
470.54742999999968
 20
199.75335000000001
 30
0.0
 11
602.60921600000006
 21
199.75335000000001
 31
0.0
  0
LINE
  5
942
  8
SIZE
  6
CONTINUOUS
 62
    30
 10
472.14445999999981
 20
-199.84665000000001
 30
0.0
 11
602.60921600000006
 21
-199.84665000000001
 31
0.0
  0
LINE
  5
943
  8
SIZE
  6
CONTINUOUS
 62
    30
 10
582.60921599999995
 20
187.75335000000001
 30
0.0
 11
582.60921599999995
 21
-187.84665000000001
 31
0.0
  0
CIRCLE
  5
944
  8
SIZE
  6
CONTINUOUS
 62
    30
 10
582.60921599999995
 20
199.75335000000001
 30
0.0
 40
6.0
  0
LINE
  5
945
  8
SIZE
  6
CONTINUOUS
 62
    30
 10
582.60921599999995
 20
199.75335000000001
 30
0.0
 11
582.60921599999995
 21
187.75335000000001
 31
0.0
  0
CIRCLE
  5
946
  8
SIZE
  6
CONTINUOUS
 62
    30
 10
582.60921599999995
 20
-199.84665000000001
 30
0.0
 40
6.0
  0
LINE
  5
947
  8
SIZE
  6
CONTINUOUS
 62
    30
 10
582.60921599999995
 20
-199.84665000000001
 30
0.0
 11
582.60921599999995
 21
-187.84665000000001
 31
0.0
  0
TEXT
  5
948
  8
SIZE
  6
CONTINUOUS
 62
    30
 10
557.60921599999995
 20
-74.103792857142835
 30
0.0
 40
64.0
  1
400
 50
90.0
 41
0.9
 72
     1
 11
557.60921599999995
 21
-0.04665
 31
0.0
  0
TEXT
  5
949
  8
NOTE
  6
CONTINUOUS
 62
     4
 10
-231.93180499999991
 20
469.440744
 30
0.0
 40
40.0
  1
EA
 41
0.9
  0
TEXT
  5
94A
  8
NOTE
  6
CONTINUOUS
 62
     4
 10
173.99453199999991
 20
469.440744
 30
0.0
 40
40.0
  1
OA1
 41
0.9
  0
TEXT
  5
94B
  8
NOTE
  6
CONTINUOUS
 62
     4
 10
-231.93180499999991
 20
-499.50676499999997
 30
0.0
 40
40.0
  1
SA
 41
0.9
  0
TEXT
  5
94C
  8
NOTE
  6
CONTINUOUS
 62
     4
 10
173.99453199999991
 20
-499.50676499999997
 30
0.0
 40
40.0
  1
RA1
 41
0.9
  0
TEXT
  5
94D
  8
NOTE
  6
CONTINUOUS
 62
     4
 10
498.73560800000001
 20
-256.07660199999992
 30
0.0
 40
40.0
  1
RA2
 50
90.0
 41
0.9
  0
TEXT
  5
94E
  8
NOTE
  6
CONTINUOUS
 62
     4
 10
498.73560800000001
 20
149.6403309999998
 30
0.0
 40
40.0
  1
OA2
 50
90.0
 41
0.9
  0
LINE
  5
94F
  8
SIZE
  6
CONTINUOUS
 62
    30
 10
-251.5
 20
455.55335000000002
 30
0.0
 11
-251.5
 21
595.25705300000004
 31
0.0
  0
LINE
  5
950
  8
SIZE
  6
CONTINUOUS
 62
    30
 10
-153.5
 20
455.55335000000002
 30
0.0
 11
-153.5
 21
595.25705300000004
 31
0.0
  0
LINE
  5
951
  8
SIZE
  6
CONTINUOUS
 62
    30
 10
-239.5
 20
575.25705300000004
 30
0.0
 11
-165.5
 21
575.25705300000004
 31
0.0
  0
LINE
  5
952
  8
SIZE
  6
CONTINUOUS
 62
    30
 10
-153.5
 20
575.25705300000004
 30
0.0
 11
59.357143000000001
 21
575.25705300000004
 31
0.0
  0
CIRCLE
  5
953
  8
SIZE
  6
CONTINUOUS
 62
    30
 10
-251.5
 20
575.25705300000004
 30
0.0
 40
6.0
  0
LINE
  5
954
  8
SIZE
  6
CONTINUOUS
 62
    30
 10
-251.5
 20
575.25705300000004
 30
0.0
 11
-239.5
 21
575.25705300000004
 31
0.0
  0
CIRCLE
  5
955
  8
SIZE
  6
CONTINUOUS
 62
    30
 10
-153.5
 20
575.25705300000004
 30
0.0
 40
6.0
  0
LINE
  5
956
  8
SIZE
  6
CONTINUOUS
 62
    30
 10
-153.5
 20
575.25705300000004
 30
0.0
 11
-165.5
 21
575.25705300000004
 31
0.0
  0
TEXT
  5
957
  8
SIZE
  6
CONTINUOUS
 62
    30
 10
-128.02000042857139
 20
600.25705300000004
 30
0.0
 40
64.0
  1
φ98
 41
0.9
 72
     1
 11
-41.071428999999981
 21
600.25705300000004
 31
0.0
  0
LINE
  5
958
  8
SIZE
  6
CONTINUOUS
 62
    30
 10
-264.5
 20
401.77279800000002
 30
0.0
 11
-264.5
 21
715.25705300000004
 31
0.0
  0
LINE
  5
959
  8
SIZE
  6
CONTINUOUS
 62
    30
 10
-140.5
 20
401.77279800000002
 30
0.0
 11
-140.5
 21
715.25705300000004
 31
0.0
  0
LINE
  5
95A
  8
SIZE
  6
CONTINUOUS
 62
    30
 10
-252.49999999999989
 20
695.25705300000004
 30
0.0
 11
-152.5
 21
695.25705300000004
 31
0.0
  0
LINE
  5
95B
  8
SIZE
  6
CONTINUOUS
 62
    30
 10
-140.5
 20
695.25705300000004
 30
0.0
 11
118.9857139999999
 21
695.25705300000004
 31
0.0
  0
CIRCLE
  5
95C
  8
SIZE
  6
CONTINUOUS
 62
    30
 10
-264.5
 20
695.25705300000004
 30
0.0
 40
6.0
  0
LINE
  5
95D
  8
SIZE
  6
CONTINUOUS
 62
    30
 10
-264.5
 20
695.25705300000004
 30
0.0
 11
-252.49999999999989
 21
695.25705300000004
 31
0.0
  0
CIRCLE
  5
95E
  8
SIZE
  6
CONTINUOUS
 62
    30
 10
-140.5
 20
695.25705300000004
 30
0.0
 40
6.0
  0
LINE
  5
95F
  8
SIZE
  6
CONTINUOUS
 62
    30
 10
-140.5
 20
695.25705300000004
 30
0.0
 11
-152.5
 21
695.25705300000004
 31
0.0
  0
TEXT
  5
960
  8
SIZE
  6
CONTINUOUS
 62
    30
 10
-115.0200001428571
 20
720.25705300000004
 30
0.0
 40
64.0
  1
φ124
 41
0.9
 72
     1
 11
-4.7571430000000001
 21
720.25705300000004
 31
0.0
  0
LINE
  5
961
  8
SIZE
  6
CONTINUOUS
 62
    30
 10
-275.49999999999989
 20
366.5028787048139
 30
0.0
 11
-275.49999999999989
 21
835.25705300000016
 31
0.0
  0
LINE
  5
962
  8
SIZE
  6
CONTINUOUS
 62
    30
 10
-129.4999999999998
 20
365.88019673130378
 30
0.0
 11
-129.4999999999998
 21
835.25705300000016
 31
0.0
  0
LINE
  5
963
  8
SIZE
  6
CONTINUOUS
 62
    30
 10
-263.5
 20
815.25705300000004
 30
0.0
 11
-141.5
 21
815.25705300000004
 31
0.0
  0
LINE
  5
964
  8
SIZE
  6
CONTINUOUS
 62
    30
 10
-129.4999999999998
 20
815.25705300000004
 30
0.0
 11
124.5
 21
815.25705300000004
 31
0.0
  0
CIRCLE
  5
965
  8
SIZE
  6
CONTINUOUS
 62
    30
 10
-275.49999999999989
 20
815.25705300000004
 30
0.0
 40
6.0
  0
LINE
  5
966
  8
SIZE
  6
CONTINUOUS
 62
    30
 10
-275.49999999999989
 20
815.25705300000004
 30
0.0
 11
-263.5
 21
815.25705300000004
 31
0.0
  0
CIRCLE
  5
967
  8
SIZE
  6
CONTINUOUS
 62
    30
 10
-129.4999999999998
 20
815.25705300000004
 30
0.0
 40
6.0
  0
LINE
  5
968
  8
SIZE
  6
CONTINUOUS
 62
    30
 10
-129.4999999999998
 20
815.25705300000004
 30
0.0
 11
-141.5
 21
815.25705300000004
 31
0.0
  0
TEXT
  5
969
  8
SIZE
  6
CONTINUOUS
 62
    30
 10
-104.02
 20
840.25705300000004
 30
0.0
 40
64.0
  1
φ146
 41
0.9
 72
     1
 11
3.5
 21
840.25705300000004
 31
0.0
  0
TEXT
  5
96A
  8
ETC
  6
CONTINUOUS
 62
    61
 10
529.49568765204219
 20
831.33089357112669
 30
0.0
 40
64.0
  1
VL-20ZMH3-R-HM_1
 41
0.9
  0
TEXT
  5
96B
  8
ETC
  6
CONTINUOUS
 62
    61
 10
525.30969365204203
 20
731.3820626893239
 30
0.0
 40
64.0
  1
換気扇
 41
0.9
  0
TEXT
  5
96C
  8
ETC
  6
CONTINUOUS
 62
    61
 10
661.79098827110136
 20
665.35419009280736
 30
0.0
 40
50.0
  1
VL-20ZMH3-R-HM
 41
0.9
  0
CIRCLE
  5
96D
  8
FIX
  6
CONTINUOUS
 62
    11
 39
50.0
 10
309.0
 20
-228.2466499999999
 30
0.0
 40
6.5
  0
CIRCLE
  5
96E
  8
FIX
  6
CONTINUOUS
 62
    11
 39
50.0
 10
309.0
 20
-309.24664999999999
 30
0.0
 40
6.5
  0
CIRCLE
  5
96F
  8
FIX
  6
CONTINUOUS
 62
    11
 39
50.0
 10
-309.0
 20
-229.2466499999999
 30
0.0
 40
6.5
  0
CIRCLE
  5
970
  8
FIX
  6
CONTINUOUS
 62
    11
 39
50.0
 10
-309.0
 20
-309.24664999999999
 30
0.0
 40
6.5
  0
CIRCLE
  5
971
  8
FIX
  6
CONTINUOUS
 62
    11
 39
50.0
 10
-309.0
 20
229.1533499999999
 30
0.0
 40
6.5
  0
CIRCLE
  5
972
  8
FIX
  6
CONTINUOUS
 62
    11
 39
50.0
 10
-309.0
 20
309.15334999999999
 30
0.0
 40
6.5
  0
CIRCLE
  5
973
  8
FIX
  6
CONTINUOUS
 62
    11
 39
50.0
 10
309.0
 20
228.15334999999999
 30
0.0
 40
6.5
  0
CIRCLE
  5
974
  8
FIX
  6
CONTINUOUS
 62
    11
 39
50.0
 10
309.0
 20
309.15334999999999
 30
0.0
 40
6.5
  0
LINE
  5
975
  8
DETAIL
  6
CONTINUOUS
 62
     5
 10
-264.5
 20
328.55335000000002
 30
0.0
 11
-264.5
 21
388.55335000000002
 31
0.0
  0
LINE
  5
976
  8
DETAIL
  6
CONTINUOUS
 62
     5
 10
-140.5
 20
328.55335000000002
 30
0.0
 11
-140.5
 21
388.55335000000002
 31
0.0
  0
LINE
  5
977
  8
DETAIL
  6
CONTINUOUS
 62
     5
 10
140.5
 20
328.55335000000002
 30
0.0
 11
140.5
 21
388.55335000000002
 31
0.0
  0
LINE
  5
978
  8
DETAIL
  6
CONTINUOUS
 62
     5
 10
264.5
 20
328.55335000000002
 30
0.0
 11
264.5
 21
388.55335000000002
 31
0.0
  0
LINE
  5
979
  8
DETAIL
  6
PHANTOM
 62
     5
 10
328.0
 20
137.75335000000001
 30
0.0
 11
388.0
 21
137.75335000000001
 31
0.0
  0
LINE
  5
97A
  8
DETAIL
  6
PHANTOM
 62
     5
 10
331.0
 20
261.7533499999999
 30
0.0
 11
388.0
 21
261.7533499999999
 31
0.0
  0
LINE
  5
97B
  8
DETAIL
  6
PHANTOM
 62
     5
 10
331.0
 20
-261.84665000000001
 30
0.0
 11
388.0
 21
-261.84665000000001
 31
0.0
  0
LINE
  5
97C
  8
DETAIL
  6
PHANTOM
 62
     5
 10
328.0
 20
-137.84665000000001
 30
0.0
 11
388.0
 21
-137.84665000000001
 31
0.0
  0
LINE
  5
97D
  8
DETAIL
  6
CONTINUOUS
 62
     5
 10
140.5
 20
-328.55335999999988
 30
0.0
 11
140.5
 21
-388.55336
 31
0.0
  0
LINE
  5
97E
  8
DETAIL
  6
CONTINUOUS
 62
     5
 10
264.5
 20
-328.55335999999988
 30
0.0
 11
264.5
 21
-388.55336
 31
0.0
  0
LINE
  5
97F
  8
DETAIL
  6
CONTINUOUS
 62
     5
 10
-140.5
 20
-328.55335999999988
 30
0.0
 11
-140.5
 21
-388.55336
 31
0.0
  0
LINE
  5
980
  8
DETAIL
  6
CONTINUOUS
 62
     5
 10
-264.5
 20
-328.55335999999988
 30
0.0
 11
-264.5
 21
-388.55336
 31
0.0
  0
ENDSEC
  0
EOF
