  0
SECTION
  2
HEADER
  9
$ACADVER
  1
AC1009
  9
$INSBASE
 10
0.0
 20
0.0
 30
0.0
  9
$EXTMIN
 10
-811.16980240689645
 20
-496.64207299999998
 30
0.0
  9
$EXTMAX
 10
1480.3132765494181
 20
584.00852968236507
 30
50.0
  9
$LIMMIN
 10
-2970.0
 20
-2100.0
  9
$LIMMAX
 10
2970.0
 20
2100.0
  9
$ORTHOMODE
 70
     1
  9
$REGENMODE
 70
     1
  9
$FILLMODE
 70
     1
  9
$QTEXTMODE
 70
     0
  9
$MIRRTEXT
 70
     0
  9
$DRAGMODE
 70
     2
  9
$LTSCALE
 40
20.0
  9
$OSMODE
 70
   943
  9
$ATTMODE
 70
     1
  9
$TEXTSIZE
 40
64.0
  9
$TRACEWID
 40
0.05
  9
$TEXTSTYLE
  7
STANDARD
  9
$CLAYER
  8
ETC
  9
$CELTYPE
  6
CONTINUOUS
  9
$CECOLOR
 62
     4
  9
$DIMSCALE
 40
1.0
  9
$DIMASZ
 40
40.0
  9
$DIMEXO
 40
20.0
  9
$DIMDLI
 40
200.0
  9
$DIMRND
 40
0.0
  9
$DIMDLE
 40
0.0
  9
$DIMEXE
 40
20.0
  9
$DIMTP
 40
0.0
  9
$DIMTM
 40
0.0
  9
$DIMTXT
 40
64.0
  9
$DIMCEN
 40
0.09
  9
$DIMTSZ
 40
0.0
  9
$DIMTOL
 70
     0
  9
$DIMLIM
 70
     0
  9
$DIMTIH
 70
     0
  9
$DIMTOH
 70
     0
  9
$DIMSE1
 70
     0
  9
$DIMSE2
 70
     0
  9
$DIMTAD
 70
     1
  9
$DIMZIN
 70
     8
  9
$DIMBLK
  1
NONE
  9
$DIMASO
 70
     1
  9
$DIMSHO
 70
     0
  9
$DIMPOST
  1

  9
$DIMAPOST
  1

  9
$DIMALT
 70
     0
  9
$DIMALTD
 70
     2
  9
$DIMALTF
 40
25.399999999999999
  9
$DIMLFAC
 40
1.0
  9
$DIMTOFL
 70
     1
  9
$DIMTVP
 40
0.0
  9
$DIMTIX
 70
     1
  9
$DIMSOXD
 70
     0
  9
$DIMSAH
 70
     0
  9
$DIMBLK1
  1
NONE
  9
$DIMBLK2
  1
ORIGIN
  9
$DIMSTYLE
  2
STANDARD
  9
$DIMCLRD
 70
   256
  9
$DIMCLRE
 70
   256
  9
$DIMCLRT
 70
   256
  9
$DIMTFAC
 40
1.0
  9
$DIMGAP
 40
25.0
  9
$LUNITS
 70
     2
  9
$LUPREC
 70
     4
  9
$SKETCHINC
 40
0.1
  9
$FILLETRAD
 40
5.0
  9
$AUNITS
 70
     1
  9
$AUPREC
 70
     3
  9
$MENU
  1
ACAD
  9
$ELEVATION
 40
0.0
  9
$PELEVATION
 40
0.0
  9
$THICKNESS
 40
50.0
  9
$LIMCHECK
 70
     0
  9
$BLIPMODE
 70
     0
  9
$CHAMFERA
 40
0.0
  9
$CHAMFERB
 40
0.0
  9
$SKPOLY
 70
     0
  9
$TDCREATE
 40
2453019.6230103709
  9
$TDUPDATE
 40
2456955.748532766
  9
$TDINDWG
 40
1.6800835417
  9
$TDUSRTIMER
 40
1.6800831366
  9
$USRTIMER
 70
     1
  9
$ANGBASE
 50
0.0
  9
$ANGDIR
 70
     0
  9
$PDMODE
 70
     3
  9
$PDSIZE
 40
-2.0
  9
$PLINEWID
 40
0.0
  9
$COORDS
 70
     1
  9
$SPLFRAME
 70
     0
  9
$SPLINETYPE
 70
     6
  9
$SPLINESEGS
 70
     8
  9
$ATTDIA
 70
     1
  9
$ATTREQ
 70
     1
  9
$HANDLING
 70
     1
  9
$HANDSEED
  5
1103
  9
$SURFTAB1
 70
     6
  9
$SURFTAB2
 70
     6
  9
$SURFTYPE
 70
     6
  9
$SURFU
 70
     6
  9
$SURFV
 70
     6
  9
$UCSNAME
  2

  9
$UCSORG
 10
0.0
 20
0.0
 30
0.0
  9
$UCSXDIR
 10
1.0
 20
0.0
 30
0.0
  9
$UCSYDIR
 10
0.0
 20
1.0
 30
0.0
  9
$PUCSNAME
  2

  9
$PUCSORG
 10
0.0
 20
0.0
 30
0.0
  9
$PUCSXDIR
 10
1.0
 20
0.0
 30
0.0
  9
$PUCSYDIR
 10
0.0
 20
1.0
 30
0.0
  9
$USERI1
 70
     0
  9
$USERI2
 70
     0
  9
$USERI3
 70
     0
  9
$USERI4
 70
     0
  9
$USERI5
 70
     0
  9
$USERR1
 40
20.0
  9
$USERR2
 40
0.0
  9
$USERR3
 40
0.0
  9
$USERR4
 40
0.0
  9
$USERR5
 40
0.0
  9
$WORLDVIEW
 70
     1
  9
$SHADEDGE
 70
     3
  9
$SHADEDIF
 70
    70
  9
$TILEMODE
 70
     1
  9
$MAXACTVP
 70
    48
  9
$PLIMCHECK
 70
     0
  9
$PEXTMIN
 10
-1.0000000000000000E+020
 20
-1.0000000000000000E+020
 30
-1.0000000000000000E+020
  9
$PEXTMAX
 10
1.0000000000000000E+020
 20
1.0000000000000000E+020
 30
1.0000000000000000E+020
  9
$PLIMMIN
 10
0.0
 20
0.0
  9
$PLIMMAX
 10
12.0
 20
9.0
  9
$UNITMODE
 70
     0
  9
$VISRETAIN
 70
     0
  9
$PLINEGEN
 70
     0
  9
$PSLTSCALE
 70
     0
  0
ENDSEC
  0
SECTION
  2
TABLES
  0
TABLE
  2
VPORT
 70
     1
  0
VPORT
  2
*ACTIVE
 70
     0
 10
0.0
 20
0.0
 11
1.0
 21
1.0
 12
289.75984771818747
 22
90.124206876681228
 13
0.0
 23
0.0
 14
1.0
 24
1.0
 15
0.0
 25
0.0
 16
0.0
 26
0.0
 36
1.0
 17
0.0
 27
0.0
 37
0.0
 40
1744.2793231311009
 41
1.3299620733249049
 42
50.0
 43
0.0
 44
0.0
 50
0.0
 51
0.0
 71
     0
 72
  1000
 73
     1
 74
     0
 75
     0
 76
     0
 77
     0
 78
     0
  0
ENDTAB
  0
TABLE
  2
LTYPE
 70
     7
  0
LTYPE
  2
CONTINUOUS
 70
     0
  3
実線
 72
    65
 73
     0
 40
0.0
  0
LTYPE
  2
DASHDOT
 70
     0
  3
____ _ ____ _ ____ _ ____ _ ____ _ ____ _ ____
 72
    65
 73
     4
 40
5.5
 49
4.0
 49
-0.6
 49
0.3
 49
-0.6
  0
LTYPE
  2
DASHED
 70
     0
  3
-- -- -- -- -- -- -- -- -- -- -- -- -- -- --
 72
    65
 73
     2
 40
0.75
 49
0.5
 49
-0.25
  0
LTYPE
  2
CENTER
 70
     0
  3
Center ____ _ ____ _ ____ _ ____ _ ____ _ ____
 72
    65
 73
     4
 40
2.0
 49
1.25
 49
-0.25
 49
0.25
 49
-0.25
  0
LTYPE
  2
HIDDEN
 70
     0
  3
Hidden __ __ __ __ __ __ __ __ __ __ __ __ __ _
 72
    65
 73
     2
 40
0.375
 49
0.25
 49
-0.125
  0
LTYPE
  2
PHANTOM
 70
     0
  3
Phantom ______  __  __  ______  __  __  ______
 72
    65
 73
     6
 40
2.5
 49
1.25
 49
-0.25
 49
0.25
 49
-0.25
 49
0.25
 49
-0.25
  0
ENDTAB
  0
TABLE
  2
LAYER
 70
    12
  0
LAYER
  2
0
 70
     0
 62
     7
  6
CONTINUOUS
  0
LAYER
  2
NOTE
 70
     0
 62
     4
  6
CONTINUOUS
  0
LAYER
  2
DETAIL
 70
     0
 62
     5
  6
CONTINUOUS
  0
LAYER
  2
SIZE
 70
     0
 62
    30
  6
CONTINUOUS
  0
LAYER
  2
BASIS
 70
     0
 62
     6
  6
DASHDOT
  0
LAYER
  2
OUTLINE
 70
     0
 62
     3
  6
CONTINUOUS
  0
LAYER
  2
ARRANGE
 70
     0
 62
     1
  6
CONTINUOUS
  0
LAYER
  2
DEFPOINTS
 70
     0
 62
     7
  6
CONTINUOUS
  0
LAYER
  2
ETC
 70
     0
 62
    61
  6
CONTINUOUS
  0
LAYER
  2
FIX
 70
     0
 62
    11
  6
CONTINUOUS
  0
LAYER
  2
SERVICESPACE
 70
     0
 62
     2
  6
DASHDOT
  0
LAYER
  2
SYMBOLLINE
 70
     0
 62
    15
  6
CONTINUOUS
  0
ENDTAB
  0
TABLE
  2
STYLE
 70
     3
  0
STYLE
  2
STANDARD
 70
     0
 40
64.0
 41
0.9
 50
0.0
 71
     0
 42
64.0
  3
SIMPLEX.shx
  4
BIGFONT.shx
  0
STYLE
  2
ANNOTATIVE
 70
     0
 40
0.0
 41
1.0
 50
0.0
 71
     0
 42
0.2
  3
txt
  4

  0
STYLE
  2

 70
     1
 40
0.0
 41
1.0
 50
0.0
 71
     0
 42
64.0
  3
ltypeshp.shx
  4

  0
ENDTAB
  0
TABLE
  2
VIEW
 70
     1
  0
VIEW
  2
ALL
 70
     0
 40
4282.6198079999967
 10
0.0
 20
41.309903999999989
 41
5940.0
 11
0.0
 21
0.0
 31
1.0
 12
0.0
 22
0.0
 32
0.0
 42
50.0
 43
0.0
 44
0.0
 50
0.0
 71
     0
  0
ENDTAB
  0
TABLE
  2
UCS
 70
     0
  0
ENDTAB
  0
TABLE
  2
APPID
 70
    18
  0
APPID
  2
ACAD
 70
     0
  0
APPID
  2
ACADANNOTATIVE
 70
     0
  0
APPID
  2
ACAD_MLEADERVER
 70
     0
  0
APPID
  2
AUTOCAD_POSTSCRIPT_FIGURE
 70
     0
  0
APPID
  2
ACAD_EXEMPT_FROM_CAD_STANDARDS
 70
     0
  0
APPID
  2
ACAD_PSEXT
 70
     0
  0
APPID
  2
ACAUTHENVIRON
 70
     0
  0
APPID
  2
GENIUS_GENOENT_13
 70
     0
  0
APPID
  2
GENIUS_GENCFG_13
 70
     0
  0
APPID
  2
GENIUS_GENCFG0_13
 70
     0
  0
APPID
  2
GENIUS_GENCFG1_13
 70
     0
  0
APPID
  2
GENIUS_GENCFG2_13
 70
     0
  0
APPID
  2
GENIUS_GENCFG3_13
 70
     0
  0
APPID
  2
GENIUS_GENCFG4_13
 70
     0
  0
APPID
  2
GENIUS_GEVCFG0_13
 70
     0
  0
APPID
  2
CONTENTBLOCKICON
 70
     0
  0
APPID
  2
CONTENTBLOCKDESCRIPTION
 70
     0
  0
APPID
  2
ACAD_NAV_VCDISPLAY
 70
     0
  0
ENDTAB
  0
TABLE
  2
DIMSTYLE
 70
     2
  0
DIMSTYLE
  2
STANDARD
 70
     0
  3

  4

  5

  6

  7

 40
1.0
 41
0.18
 42
0.0625
 43
0.38
 44
0.18
 45
0.0
 46
0.0
 47
0.0
 48
0.0
140
0.18
141
0.09
142
0.0
143
25.399999999999999
144
1.0
145
0.0
146
1.0
147
0.09
 71
     0
 72
     0
 73
     1
 74
     1
 75
     0
 76
     0
 77
     0
 78
     0
170
     0
171
     2
172
     0
173
     0
174
     0
175
     0
176
     7
177
     7
178
     7
  0
DIMSTYLE
  2
ANNOTATIVE
 70
     0
  3

  4

  5

  6

  7

 40
1.0
 41
0.18
 42
0.0625
 43
0.38
 44
0.18
 45
0.0
 46
0.0
 47
0.0
 48
0.0
140
0.18
141
0.09
142
0.0
143
25.399999999999999
144
1.0
145
0.0
146
1.0
147
0.09
 71
     0
 72
     0
 73
     1
 74
     1
 75
     0
 76
     0
 77
     0
 78
     0
170
     0
171
     2
172
     0
173
     0
174
     0
175
     0
176
     0
177
     0
178
     0
  0
ENDTAB
  0
ENDSEC
  0
SECTION
  2
BLOCKS
  0
BLOCK
  8
0
  2
$MODEL_SPACE
 70
     0
 10
0.0
 20
0.0
 30
0.0
  3
$MODEL_SPACE
  1

  0
ENDBLK
  5
1068
  8
0
  0
BLOCK
 67
     1
  8
0
  2
$PAPER_SPACE
 70
     0
 10
0.0
 20
0.0
 30
0.0
  3
$PAPER_SPACE
  1

  0
ENDBLK
  5
1064
 67
     1
  8
0
  0
BLOCK
  8
0
  2
DOT1
 70
     0
 10
0.0
 20
0.0
 30
0.0
  3
DOT1
  1

  0
CIRCLE
  5
D4B
  8
SIZE
  6
CONTINUOUS
 62
     7
 10
0.0
 20
0.0
 30
0.0
 40
3.0
  0
ENDBLK
  5
D4C
  8
0
  0
BLOCK
  8
0
  2
_ORIGIN
 70
     0
 10
0.0
 20
0.0
 30
0.0
  3
_ORIGIN
  1

  0
CIRCLE
  5
D4F
  8
0
  6
CONTINUOUS
 62
     7
 10
0.0
 20
0.0
 30
0.0
 40
0.5
  0
LINE
  5
D50
  8
0
  6
CONTINUOUS
 62
     7
 10
0.0
 20
0.0
 30
0.0
 11
-1.0
 21
0.0
 31
0.0
  0
ENDBLK
  5
D51
  8
0
  0
BLOCK
  8
0
 62
     4
  2
_NONE
 70
     0
 10
0.0
 20
0.0
 30
0.0
  3
_NONE
  1

  0
ENDBLK
  5
D54
  8
0
 62
     4
  0
BLOCK
  8
0
 62
     4
  2
_OPEN30
 70
     0
 10
0.0
 20
0.0
 30
0.0
  3
_OPEN30
  1

  0
LINE
  5
D57
  8
0
  6
BYBLOCK
 62
     0
 10
-1.0
 20
0.26794919
 30
0.0
 11
0.0
 21
0.0
 31
0.0
  0
LINE
  5
D58
  8
0
  6
BYBLOCK
 62
     0
 10
0.0
 20
0.0
 30
0.0
 11
-1.0
 21
-0.26794919
 31
0.0
  0
LINE
  5
D59
  8
0
  6
BYBLOCK
 62
     0
 10
0.0
 20
0.0
 30
0.0
 11
-1.0
 21
0.0
 31
0.0
  0
ENDBLK
  5
D5A
  8
0
 62
     4
  0
ENDSEC
  0
SECTION
  2
ENTITIES
  0
LINE
  5
D65
  8
BASIS
  6
DASHDOT
 62
     6
 39
50.0
 10
0.0
 20
-240.753567
 30
0.0
 11
0.0
 21
50.629446000000002
 31
0.0
  0
TEXT
  5
D66
  8
NOTE
  6
CONTINUOUS
 62
     4
 10
176.68751700000001
 20
-139.72279199999991
 30
0.0
 40
40.0
  1
RA1
 41
0.9
  0
CIRCLE
  5
D67
  8
DETAIL
  6
CONTINUOUS
 62
     5
 10
-202.49999999999989
 20
-114.0
 30
0.0
 40
84.500000000000014
  0
LINE
  5
D68
  8
DETAIL
  6
CONTINUOUS
 62
     5
 10
-265.93311
 20
-222.80000000000001
 30
0.0
 11
269.83418999999992
 21
-222.80000000000001
 31
0.0
  0
LINE
  5
D69
  8
DETAIL
  6
CONTINUOUS
 62
     5
 10
-271.19999999999987
 20
-13.0
 30
0.0
 11
271.19999999999987
 21
-13.0
 31
0.0
  0
LINE
  5
D6A
  8
DETAIL
  6
CONTINUOUS
 62
     5
 10
-283.39999999999992
 20
0.0
 30
0.0
 11
283.39999999999992
 21
0.0
 31
0.0
  0
ARC
  5
D6B
  8
DETAIL
  6
CONTINUOUS
 62
     5
 10
-291.71253000000002
 20
-186.20000999999991
 30
0.0
 40
0.9
 50
90.000003000000007
 51
180.99984599999999
  0
ARC
  5
D6C
  8
DETAIL
  6
CONTINUOUS
 62
     5
 10
-291.71253000000002
 20
-186.20000999999991
 30
0.0
 40
0.9
 50
90.000003000000007
 51
180.99984599999999
  0
LINE
  5
D6D
  8
DETAIL
  6
CONTINUOUS
 62
     5
 10
-231.68493000000001
 20
-193.30000000000001
 30
0.0
 11
-289.59050087784323
 21
-193.30000000000001
 31
0.0
  0
LINE
  5
D6E
  8
DETAIL
  6
CONTINUOUS
 62
     5
 10
-285.0
 20
-199.2868999999998
 30
0.0
 11
-285.0
 21
-239.0
 31
0.0
  0
LINE
  5
D6F
  8
DETAIL
  6
CONTINUOUS
 62
     5
 10
-292.61239999999992
 20
-186.21571
 30
0.0
 11
-292.57449000000008
 21
-188.38726
 31
0.0
  0
LINE
  5
D70
  8
DETAIL
  6
CONTINUOUS
 62
     5
 10
-292.61239999999992
 20
-186.21571
 30
0.0
 11
-292.59045792451309
 21
-190.31605360193311
 31
0.0
  0
LINE
  5
D71
  8
DETAIL
  6
CONTINUOUS
 62
     5
 10
-286.55943999999982
 20
-197.0597799999999
 30
0.0
 11
-270.0288700000001
 21
-220.66787999999991
 31
0.0
  0
ARC
  5
D72
  8
DETAIL
  6
CONTINUOUS
 62
     5
 10
-265.93311
 20
-217.80000000000001
 30
0.0
 40
5.0
 50
214.99999999999989
 51
270.0
  0
LINE
  5
D73
  8
DETAIL
  6
CONTINUOUS
 62
     5
 10
-287.47165000000001
 20
-194.27931000000001
 30
0.0
 11
-287.48874000000001
 21
-193.30000000000001
 31
0.0
  0
ARC
  5
D74
  8
DETAIL
  6
CONTINUOUS
 62
     5
 10
-282.46368000000001
 20
-194.1919
 30
0.0
 40
5.0
 50
181.0
 51
214.99999999999989
  0
LINE
  5
D75
  8
DETAIL
  6
CONTINUOUS
 62
     5
 10
-239.1999999999999
 20
-222.80000000000001
 30
0.0
 11
-239.1999999999999
 21
-239.0
 31
0.0
  0
LINE
  5
D76
  8
DETAIL
  6
CONTINUOUS
 62
     5
 10
-272.0
 20
-43.0
 30
0.0
 11
-272.0
 21
-13.800000000000001
 31
0.0
  0
LINE
  5
D77
  8
DETAIL
  6
CONTINUOUS
 62
     5
 10
-287.0
 20
0.0
 30
0.0
 11
-287.0
 21
-30.0
 31
0.0
  0
LINE
  5
D78
  8
DETAIL
  6
CONTINUOUS
 62
     5
 10
-285.0
 20
0.0
 30
0.0
 11
-285.0
 21
-95.724339999999984
 31
0.0
  0
LINE
  5
D79
  8
DETAIL
  6
CONTINUOUS
 62
     5
 10
-289.0
 20
-34.0
 30
0.0
 11
-331.0
 21
-34.0
 31
0.0
  0
LINE
  5
D7A
  8
DETAIL
  6
CONTINUOUS
 62
     5
 10
-302.49999999999989
 20
-32.0
 30
0.0
 11
-331.0
 21
-32.0
 31
0.0
  0
LINE
  5
D7B
  8
DETAIL
  6
CONTINUOUS
 62
     5
 10
-331.0
 20
-32.0
 30
0.0
 11
-331.0
 21
-34.0
 31
0.0
  0
LINE
  5
D7C
  8
DETAIL
  6
CONTINUOUS
 62
     5
 10
-264.49999833598628
 20
-152.535700413223
 30
0.0
 11
-264.5000017933595
 21
-75.464305149337164
 31
0.0
  0
LINE
  5
D7D
  8
DETAIL
  6
CONTINUOUS
 62
     5
 10
-247.84931
 20
-185.30000000000001
 30
0.0
 11
-291.71253000000002
 21
-185.30000000000001
 31
0.0
  0
LINE
  5
D7E
  8
DETAIL
  6
CONTINUOUS
 62
     5
 10
-277.0
 20
-185.0
 30
0.0
 11
-248.3175699999999
 21
-185.0
 31
0.0
  0
LINE
  5
D7F
  8
DETAIL
  6
CONTINUOUS
 62
     5
 10
-285.0
 20
-132.27566999999999
 30
0.0
 11
-285.0
 21
-185.30000000000001
 31
0.0
  0
LINE
  5
D80
  8
DETAIL
  6
CONTINUOUS
 62
     5
 10
-279.0
 20
-149.88872000000001
 30
0.0
 11
-279.0
 21
-183.0
 31
0.0
  0
ARC
  5
D81
  8
DETAIL
  6
CONTINUOUS
 62
     5
 10
-277.0
 20
-183.0
 30
0.0
 40
2.0
 50
180.0
 51
270.0
  0
CIRCLE
  5
D82
  8
DETAIL
  6
CONTINUOUS
 62
     5
 10
-269.49999999999972
 20
-176.0
 30
0.0
 40
2.5
  0
LINE
  5
D83
  8
DETAIL
  6
CONTINUOUS
 62
     5
 10
-272.0
 20
-185.30000000000001
 30
0.0
 11
-272.0
 21
-185.0
 31
0.0
  0
LINE
  5
D84
  8
DETAIL
  6
CONTINUOUS
 62
     5
 10
-277.0
 20
-43.0
 30
0.0
 11
-248.3175699999999
 21
-43.0
 31
0.0
  0
LINE
  5
D85
  8
DETAIL
  6
CONTINUOUS
 62
     5
 10
-279.0
 20
-45.0
 30
0.0
 11
-279.0
 21
-78.111289999999983
 31
0.0
  0
ARC
  5
D86
  8
DETAIL
  6
CONTINUOUS
 62
     5
 10
-289.0
 20
-30.0
 30
0.0
 40
2.0
 50
270.0
 51
0.0
  0
ARC
  5
D87
  8
DETAIL
  6
CONTINUOUS
 62
     5
 10
-289.0
 20
-30.0
 30
0.0
 40
4.0
 50
270.0
 51
0.0
  0
LINE
  5
D88
  8
DETAIL
  6
CONTINUOUS
 62
     5
 10
-302.49999999999989
 20
-32.0
 30
0.0
 11
-292.0
 21
-32.0
 31
0.0
  0
ARC
  5
D89
  8
DETAIL
  6
CONTINUOUS
 62
     5
 10
-299.5
 20
-27.0
 30
0.0
 40
3.0
 50
90.0
 51
180.0
  0
ARC
  5
D8A
  8
DETAIL
  6
CONTINUOUS
 62
     5
 10
-295.0
 20
-27.0
 30
0.0
 40
3.0
 50
0.0
 51
90.0
  0
LINE
  5
D8B
  8
DETAIL
  6
CONTINUOUS
 62
     5
 10
-302.49999999999989
 20
-27.0
 30
0.0
 11
-302.49999999999989
 21
-34.0
 31
0.0
  0
LINE
  5
D8C
  8
DETAIL
  6
CONTINUOUS
 62
     5
 10
-292.0
 20
-27.0
 30
0.0
 11
-292.0
 21
-34.0
 31
0.0
  0
LINE
  5
D8D
  8
DETAIL
  6
CONTINUOUS
 62
     5
 10
-289.0
 20
-32.0
 30
0.0
 11
-292.0
 21
-32.0
 31
0.0
  0
LINE
  5
D8E
  8
DETAIL
  6
CONTINUOUS
 62
     5
 10
-299.5
 20
-24.0
 30
0.0
 11
-295.0
 21
-24.0
 31
0.0
  0
LINE
  5
D8F
  8
DETAIL
  6
CONTINUOUS
 62
     5
 10
-315.5
 20
-32.0
 30
0.0
 11
-315.5
 21
-34.0
 31
0.0
  0
ARC
  5
D90
  8
DETAIL
  6
CONTINUOUS
 62
     5
 10
-277.0
 20
-45.0
 30
0.0
 40
2.0
 50
90.0
 51
180.0
  0
CIRCLE
  5
D91
  8
DETAIL
  6
CONTINUOUS
 62
     5
 10
-269.49999999999972
 20
-52.0
 30
0.0
 40
2.5
  0
LINE
  5
D92
  8
DETAIL
  6
CONTINUOUS
 62
     5
 10
-285.0
 20
0.0
 30
0.0
 11
-287.0
 21
0.0
 31
0.0
  0
LINE
  5
D93
  8
DETAIL
  6
CONTINUOUS
 62
     5
 10
-283.39999999999992
 20
-0.8
 30
0.0
 11
-283.39999999999992
 21
0.0
 31
0.0
  0
LINE
  5
D94
  8
DETAIL
  6
CONTINUOUS
 62
     5
 10
-283.39999999999992
 20
-2.399999999999999
 30
0.0
 11
-272.0
 21
-13.800000000000001
 31
0.0
  0
LINE
  5
D95
  8
DETAIL
  6
CONTINUOUS
 62
     5
 10
-282.60000000000002
 20
-1.6000000000000001
 30
0.0
 11
-271.19999999999987
 21
-13.0
 31
0.0
  0
LINE
  5
D96
  8
DETAIL
  6
CONTINUOUS
 62
     5
 10
-283.39999999999992
 20
-2.399999999999999
 30
0.0
 11
-283.47840999999983
 21
-2.3500000000000001
 31
0.0
  0
LINE
  5
D97
  8
DETAIL
  6
CONTINUOUS
 62
     5
 10
-283.47840999999983
 20
-2.3500000000000001
 30
0.0
 11
-283.55606999999992
 21
-2.299999999999998
 31
0.0
  0
LINE
  5
D98
  8
DETAIL
  6
CONTINUOUS
 62
     5
 10
-283.55606999999992
 20
-2.299999999999998
 30
0.0
 11
-283.63222999999982
 21
-2.25
 31
0.0
  0
LINE
  5
D99
  8
DETAIL
  6
CONTINUOUS
 62
     5
 10
-283.63222999999982
 20
-2.25
 30
0.0
 11
-283.70614999999992
 21
-2.2000000000000002
 31
0.0
  0
LINE
  5
D9A
  8
DETAIL
  6
CONTINUOUS
 62
     5
 10
-283.70614999999992
 20
-2.2000000000000002
 30
0.0
 11
-283.77712000000002
 21
-2.149999999999999
 31
0.0
  0
LINE
  5
D9B
  8
DETAIL
  6
CONTINUOUS
 62
     5
 10
-283.77712000000002
 20
-2.149999999999999
 30
0.0
 11
-283.84446000000008
 21
-2.1000000000000001
 31
0.0
  0
LINE
  5
D9C
  8
DETAIL
  6
CONTINUOUS
 62
     5
 10
-283.84446000000008
 20
-2.1000000000000001
 30
0.0
 11
-283.90751
 21
-2.049999999999998
 31
0.0
  0
LINE
  5
D9D
  8
DETAIL
  6
CONTINUOUS
 62
     5
 10
-283.90751
 20
-2.049999999999998
 30
0.0
 11
-283.96568000000002
 21
-2.0
 31
0.0
  0
LINE
  5
D9E
  8
DETAIL
  6
CONTINUOUS
 62
     5
 10
-283.96568000000002
 20
-2.0
 30
0.0
 11
-284.01841000000002
 21
-1.95
 31
0.0
  0
LINE
  5
D9F
  8
DETAIL
  6
CONTINUOUS
 62
     5
 10
-284.01841000000002
 20
-1.95
 30
0.0
 11
-284.06517999999983
 21
-1.8999999999999999
 31
0.0
  0
LINE
  5
DA0
  8
DETAIL
  6
CONTINUOUS
 62
     5
 10
-284.06517999999983
 20
-1.8999999999999999
 30
0.0
 11
-284.10554000000002
 21
-1.8500000000000001
 31
0.0
  0
LINE
  5
DA1
  8
DETAIL
  6
CONTINUOUS
 62
     5
 10
-284.10554000000002
 20
-1.8500000000000001
 30
0.0
 11
-284.13909999999993
 21
-1.8
 31
0.0
  0
LINE
  5
DA2
  8
DETAIL
  6
CONTINUOUS
 62
     5
 10
-284.13909999999993
 20
-1.8
 30
0.0
 11
-284.16554999999988
 21
-1.75
 31
0.0
  0
LINE
  5
DA3
  8
DETAIL
  6
CONTINUOUS
 62
     5
 10
-284.16554999999988
 20
-1.75
 30
0.0
 11
-284.18463000000008
 21
-1.7
 31
0.0
  0
LINE
  5
DA4
  8
DETAIL
  6
CONTINUOUS
 62
     5
 10
-284.18463000000008
 20
-1.7
 30
0.0
 11
-284.19614999999999
 21
-1.649999999999999
 31
0.0
  0
LINE
  5
DA5
  8
DETAIL
  6
CONTINUOUS
 62
     5
 10
-284.19614999999999
 20
-1.649999999999999
 30
0.0
 11
-284.19999999999999
 21
-1.6000000000000001
 31
0.0
  0
LINE
  5
DA6
  8
DETAIL
  6
CONTINUOUS
 62
     5
 10
-283.77350999999982
 20
-2.279999999999998
 30
0.0
 11
-283.89442999999972
 21
-2.2400000000000002
 31
0.0
  0
LINE
  5
DA7
  8
DETAIL
  6
CONTINUOUS
 62
     5
 10
-283.89442999999972
 20
-2.2400000000000002
 30
0.0
 11
-284.01229000000001
 21
-2.2000000000000002
 31
0.0
  0
LINE
  5
DA8
  8
DETAIL
  6
CONTINUOUS
 62
     5
 10
-284.01229000000001
 20
-2.2000000000000002
 30
0.0
 11
-284.12637999999993
 21
-2.1600000000000001
 31
0.0
  0
LINE
  5
DA9
  8
DETAIL
  6
CONTINUOUS
 62
     5
 10
-284.12637999999993
 20
-2.1600000000000001
 30
0.0
 11
-284.23599999999982
 21
-2.1200000000000001
 31
0.0
  0
LINE
  5
DAA
  8
DETAIL
  6
CONTINUOUS
 62
     5
 10
-284.23599999999982
 20
-2.1200000000000001
 30
0.0
 11
-284.34045999999989
 21
-2.0800000000000001
 31
0.0
  0
LINE
  5
DAB
  8
DETAIL
  6
CONTINUOUS
 62
     5
 10
-284.34045999999989
 20
-2.0800000000000001
 30
0.0
 11
-284.43912
 21
-2.04
 31
0.0
  0
LINE
  5
DAC
  8
DETAIL
  6
CONTINUOUS
 62
     5
 10
-284.43912
 20
-2.04
 30
0.0
 11
-284.53137000000009
 21
-2.0
 31
0.0
  0
LINE
  5
DAD
  8
DETAIL
  6
CONTINUOUS
 62
     5
 10
-284.53137000000009
 20
-2.0
 30
0.0
 11
-284.61664999999982
 21
-1.9599999999999991
 31
0.0
  0
LINE
  5
DAE
  8
DETAIL
  6
CONTINUOUS
 62
     5
 10
-284.61664999999982
 20
-1.9599999999999991
 30
0.0
 11
-284.69443000000001
 21
-1.919999999999999
 31
0.0
  0
LINE
  5
DAF
  8
DETAIL
  6
CONTINUOUS
 62
     5
 10
-284.69443000000001
 20
-1.919999999999999
 30
0.0
 11
-284.76422000000002
 21
-1.879999999999999
 31
0.0
  0
LINE
  5
DB0
  8
DETAIL
  6
CONTINUOUS
 62
     5
 10
-284.76422000000002
 20
-1.879999999999999
 30
0.0
 11
-284.82560999999998
 21
-1.8400000000000001
 31
0.0
  0
LINE
  5
DB1
  8
DETAIL
  6
CONTINUOUS
 62
     5
 10
-284.82560999999998
 20
-1.8400000000000001
 30
0.0
 11
-284.87821000000002
 21
-1.8
 31
0.0
  0
LINE
  5
DB2
  8
DETAIL
  6
CONTINUOUS
 62
     5
 10
-284.87821000000002
 20
-1.8
 30
0.0
 11
-284.92169000000001
 21
-1.759999999999998
 31
0.0
  0
LINE
  5
DB3
  8
DETAIL
  6
CONTINUOUS
 62
     5
 10
-284.92169000000001
 20
-1.759999999999998
 30
0.0
 11
-284.95578999999992
 21
-1.7199999999999991
 31
0.0
  0
LINE
  5
DB4
  8
DETAIL
  6
CONTINUOUS
 62
     5
 10
-284.95578999999992
 20
-1.7199999999999991
 30
0.0
 11
-284.98029999999972
 21
-1.679999999999999
 31
0.0
  0
LINE
  5
DB5
  8
DETAIL
  6
CONTINUOUS
 62
     5
 10
-284.98029999999972
 20
-1.679999999999999
 30
0.0
 11
-284.99506999999988
 21
-1.639999999999995
 31
0.0
  0
LINE
  5
DB6
  8
DETAIL
  6
CONTINUOUS
 62
     5
 10
-284.99506999999988
 20
-1.639999999999995
 30
0.0
 11
-285.0
 21
-1.6000000000000001
 31
0.0
  0
LINE
  5
DB7
  8
DETAIL
  6
CONTINUOUS
 62
     5
 10
-283.39999999999992
 20
-2.399999999999999
 30
0.0
 11
-283.52553
 21
-2.3599999999999981
 31
0.0
  0
LINE
  5
DB8
  8
DETAIL
  6
CONTINUOUS
 62
     5
 10
-283.52553
 20
-2.3599999999999981
 30
0.0
 11
-283.77350999999982
 21
-2.279999999999998
 31
0.0
  0
LINE
  5
DB9
  8
DETAIL
  6
CONTINUOUS
 62
     5
 10
-283.39999999999992
 20
0.0
 30
0.0
 11
-283.36000000000001
 21
-0.00493
 31
0.0
  0
LINE
  5
DBA
  8
DETAIL
  6
CONTINUOUS
 62
     5
 10
-283.36000000000001
 20
-0.00493
 30
0.0
 11
-283.31999999999999
 21
-0.0197
 31
0.0
  0
LINE
  5
DBB
  8
DETAIL
  6
CONTINUOUS
 62
     5
 10
-283.31999999999999
 20
-0.0197
 30
0.0
 11
-283.27999999999992
 21
-0.04421
 31
0.0
  0
LINE
  5
DBC
  8
DETAIL
  6
CONTINUOUS
 62
     5
 10
-283.27999999999992
 20
-0.04421
 30
0.0
 11
-283.24000000000001
 21
-0.07831
 31
0.0
  0
LINE
  5
DBD
  8
DETAIL
  6
CONTINUOUS
 62
     5
 10
-283.24000000000001
 20
-0.07831
 30
0.0
 11
-283.19999999999982
 21
-0.1218
 31
0.0
  0
LINE
  5
DBE
  8
DETAIL
  6
CONTINUOUS
 62
     5
 10
-283.19999999999982
 20
-0.1218
 30
0.0
 11
-283.16000000000008
 21
-0.17439
 31
0.0
  0
LINE
  5
DBF
  8
DETAIL
  6
CONTINUOUS
 62
     5
 10
-283.16000000000008
 20
-0.17439
 30
0.0
 11
-283.11999999999989
 21
-0.23578
 31
0.0
  0
LINE
  5
DC0
  8
DETAIL
  6
CONTINUOUS
 62
     5
 10
-283.11999999999989
 20
-0.23578
 30
0.0
 11
-283.07999999999993
 21
-0.30558
 31
0.0
  0
LINE
  5
DC1
  8
DETAIL
  6
CONTINUOUS
 62
     5
 10
-283.07999999999993
 20
-0.30558
 30
0.0
 11
-283.04000000000002
 21
-0.38335
 31
0.0
  0
LINE
  5
DC2
  8
DETAIL
  6
CONTINUOUS
 62
     5
 10
-283.04000000000002
 20
-0.38335
 30
0.0
 11
-283.0
 21
-0.4686300000000001
 31
0.0
  0
LINE
  5
DC3
  8
DETAIL
  6
CONTINUOUS
 62
     5
 10
-283.0
 20
-0.4686300000000001
 30
0.0
 11
-282.95999999999992
 21
-0.5608900000000001
 31
0.0
  0
LINE
  5
DC4
  8
DETAIL
  6
CONTINUOUS
 62
     5
 10
-282.95999999999992
 20
-0.5608900000000001
 30
0.0
 11
-282.92000000000002
 21
-0.65955
 31
0.0
  0
LINE
  5
DC5
  8
DETAIL
  6
CONTINUOUS
 62
     5
 10
-282.92000000000002
 20
-0.65955
 30
0.0
 11
-282.88
 21
-0.7640000000000004
 31
0.0
  0
LINE
  5
DC6
  8
DETAIL
  6
CONTINUOUS
 62
     5
 10
-282.88
 20
-0.7640000000000004
 30
0.0
 11
-282.83999999999992
 21
-0.87362
 31
0.0
  0
LINE
  5
DC7
  8
DETAIL
  6
CONTINUOUS
 62
     5
 10
-282.83999999999992
 20
-0.87362
 30
0.0
 11
-282.80000000000001
 21
-0.98771
 31
0.0
  0
LINE
  5
DC8
  8
DETAIL
  6
CONTINUOUS
 62
     5
 10
-282.80000000000001
 20
-0.98771
 30
0.0
 11
-282.75999999999982
 21
-1.10558
 31
0.0
  0
LINE
  5
DC9
  8
DETAIL
  6
CONTINUOUS
 62
     5
 10
-282.75999999999982
 20
-1.10558
 30
0.0
 11
-282.72000000000008
 21
-1.2264899999999981
 31
0.0
  0
LINE
  5
DCA
  8
DETAIL
  6
CONTINUOUS
 62
     5
 10
-282.72000000000008
 20
-1.2264899999999981
 30
0.0
 11
-282.68000000000001
 21
-1.3497099999999991
 31
0.0
  0
LINE
  5
DCB
  8
DETAIL
  6
CONTINUOUS
 62
     5
 10
-282.68000000000001
 20
-1.3497099999999991
 30
0.0
 11
-282.60000000000002
 21
-1.6000000000000001
 31
0.0
  0
LINE
  5
DCC
  8
DETAIL
  6
CONTINUOUS
 62
     5
 10
-283.39999999999992
 20
-0.8
 30
0.0
 11
-283.35000000000002
 21
-0.80385
 31
0.0
  0
LINE
  5
DCD
  8
DETAIL
  6
CONTINUOUS
 62
     5
 10
-283.35000000000002
 20
-0.80385
 30
0.0
 11
-283.30000000000001
 21
-0.8153699999999998
 31
0.0
  0
LINE
  5
DCE
  8
DETAIL
  6
CONTINUOUS
 62
     5
 10
-283.30000000000001
 20
-0.8153699999999998
 30
0.0
 11
-283.24999999999989
 21
-0.83445
 31
0.0
  0
LINE
  5
DCF
  8
DETAIL
  6
CONTINUOUS
 62
     5
 10
-283.24999999999989
 20
-0.83445
 30
0.0
 11
-283.19999999999982
 21
-0.8608999999999998
 31
0.0
  0
LINE
  5
DD0
  8
DETAIL
  6
CONTINUOUS
 62
     5
 10
-283.19999999999982
 20
-0.8608999999999998
 30
0.0
 11
-283.14999999999992
 21
-0.89447
 31
0.0
  0
LINE
  5
DD1
  8
DETAIL
  6
CONTINUOUS
 62
     5
 10
-283.14999999999992
 20
-0.89447
 30
0.0
 11
-283.10000000000002
 21
-0.9348300000000001
 31
0.0
  0
LINE
  5
DD2
  8
DETAIL
  6
CONTINUOUS
 62
     5
 10
-283.10000000000002
 20
-0.9348300000000001
 30
0.0
 11
-283.05000000000001
 21
-0.9815899999999999
 31
0.0
  0
LINE
  5
DD3
  8
DETAIL
  6
CONTINUOUS
 62
     5
 10
-283.05000000000001
 20
-0.9815899999999999
 30
0.0
 11
-283.0
 21
-1.034319999999999
 31
0.0
  0
LINE
  5
DD4
  8
DETAIL
  6
CONTINUOUS
 62
     5
 10
-283.0
 20
-1.034319999999999
 30
0.0
 11
-282.94999999999987
 21
-1.0924899999999991
 31
0.0
  0
LINE
  5
DD5
  8
DETAIL
  6
CONTINUOUS
 62
     5
 10
-282.94999999999987
 20
-1.0924899999999991
 30
0.0
 11
-282.89999999999992
 21
-1.1555500000000001
 31
0.0
  0
LINE
  5
DD6
  8
DETAIL
  6
CONTINUOUS
 62
     5
 10
-282.89999999999992
 20
-1.1555500000000001
 30
0.0
 11
-282.85000000000002
 21
-1.22289
 31
0.0
  0
LINE
  5
DD7
  8
DETAIL
  6
CONTINUOUS
 62
     5
 10
-282.85000000000002
 20
-1.22289
 30
0.0
 11
-282.80000000000001
 21
-1.29386
 31
0.0
  0
LINE
  5
DD8
  8
DETAIL
  6
CONTINUOUS
 62
     5
 10
-282.80000000000001
 20
-1.29386
 30
0.0
 11
-282.75
 21
-1.3677799999999991
 31
0.0
  0
LINE
  5
DD9
  8
DETAIL
  6
CONTINUOUS
 62
     5
 10
-282.75
 20
-1.3677799999999991
 30
0.0
 11
-282.69999999999982
 21
-1.443929999999999
 31
0.0
  0
LINE
  5
DDA
  8
DETAIL
  6
CONTINUOUS
 62
     5
 10
-282.69999999999982
 20
-1.443929999999999
 30
0.0
 11
-282.64999999999992
 21
-1.5215899999999991
 31
0.0
  0
LINE
  5
DDB
  8
DETAIL
  6
CONTINUOUS
 62
     5
 10
-282.64999999999992
 20
-1.5215899999999991
 30
0.0
 11
-282.60000000000002
 21
-1.6000000000000001
 31
0.0
  0
LINE
  5
DDC
  8
DETAIL
  6
CONTINUOUS
 62
     5
 10
-284.19999999999999
 20
-1.6000000000000001
 30
0.0
 11
-285.0
 21
-1.6000000000000001
 31
0.0
  0
ARC
  5
DDD
  8
DETAIL
  6
CONTINUOUS
 62
     5
 10
-283.39999999999992
 20
-1.6000000000000001
 30
0.0
 40
1.6000000000000001
 50
90.0
 51
180.0
  0
ARC
  5
DDE
  8
DETAIL
  6
CONTINUOUS
 62
     5
 10
-283.39999999999992
 20
-1.6000000000000001
 30
0.0
 40
0.8
 50
90.0
 51
180.0
  0
LINE
  5
DDF
  8
DETAIL
  6
PHANTOM
 62
     5
 10
286.75056000000001
 20
-198.5
 30
0.0
 11
328.0
 21
-198.5
 31
0.0
  0
LINE
  5
DE0
  8
DETAIL
  6
PHANTOM
 62
     5
 10
285.0
 20
-29.5
 30
0.0
 11
328.0
 21
-29.5
 31
0.0
  0
LINE
  5
DE1
  8
DETAIL
  6
CONTINUOUS
 62
     5
 10
302.49999999999989
 20
-32.0
 30
0.0
 11
331.0
 21
-32.0
 31
0.0
  0
LINE
  5
DE2
  8
DETAIL
  6
CONTINUOUS
 62
     5
 10
289.0
 20
-34.0
 30
0.0
 11
331.0
 21
-34.0
 31
0.0
  0
CIRCLE
  5
DE3
  8
DETAIL
  6
CONTINUOUS
 62
     5
 10
202.49999999999989
 20
-114.0
 30
0.0
 40
84.500000000000014
  0
LINE
  5
DE4
  8
DETAIL
  6
CONTINUOUS
 62
     5
 10
287.0
 20
-198.5
 30
0.0
 11
287.0
 21
-185.30000000000001
 31
0.0
  0
LINE
  5
DE5
  8
DETAIL
  6
CONTINUOUS
 62
     5
 10
173.31506999999991
 20
-193.30000000000001
 30
0.0
 11
-173.31506999999991
 21
-193.30000000000001
 31
0.0
  0
LINE
  5
DE6
  8
DETAIL
  6
CONTINUOUS
 62
     5
 10
117.18828000000001
 20
-226.80000000000001
 30
0.0
 11
265.77839999999992
 21
-226.80000000000001
 31
0.0
  0
LINE
  5
DE7
  8
DETAIL
  6
CONTINUOUS
 62
     5
 10
93.814980000000006
 20
-246.7999999999999
 30
0.0
 11
218.52393000000001
 21
-246.7999999999999
 31
0.0
  0
LINE
  5
DE8
  8
DETAIL
  6
CONTINUOUS
 62
     5
 10
76.191349999999986
 20
-230.30000000000001
 30
0.0
 11
266.20864999999998
 21
-230.30000000000001
 31
0.0
  0
LINE
  5
DE9
  8
DETAIL
  6
CONTINUOUS
 62
     5
 10
75.778700000000001
 20
-234.80872999999991
 30
0.0
 11
75.586849999999998
 21
-223.81746000000001
 31
0.0
  0
ARC
  5
DEA
  8
DETAIL
  6
CONTINUOUS
 62
     5
 10
93.814980000000006
 20
-236.80000000000001
 30
0.0
 40
10.0
 50
181.0
 51
270.0
  0
LINE
  5
DEB
  8
DETAIL
  6
CONTINUOUS
 62
     5
 10
83.295929999999998
 20
-235.30000000000001
 30
0.0
 11
76.278620000000004
 21
-235.30000000000001
 31
0.0
  0
LINE
  5
DEC
  8
DETAIL
  6
CONTINUOUS
 62
     5
 10
83.708579999999998
 20
-230.79127999999989
 30
0.0
 11
83.816500000000005
 21
-236.9745299999999
 31
0.0
  0
ARC
  5
DED
  8
DETAIL
  6
CONTINUOUS
 62
     5
 10
76.278620000000004
 20
-234.80000000000001
 30
0.0
 40
0.5
 50
181.0
 51
270.0
  0
ARC
  5
DEE
  8
DETAIL
  6
CONTINUOUS
 62
     5
 10
83.295929999999998
 20
-235.80000000000001
 30
0.0
 40
0.5
 50
1.0000189999999991
 51
90.0
  0
ARC
  5
DEF
  8
DETAIL
  6
CONTINUOUS
 62
     5
 10
83.208650000000006
 20
-230.80000000000001
 30
0.0
 40
0.5
 50
1.0
 51
90.000207000000003
  0
ARC
  5
DF0
  8
DETAIL
  6
CONTINUOUS
 62
     5
 10
76.191349999999986
 20
-229.80000000000001
 30
0.0
 40
0.5
 50
180.99999699999981
 51
269.99984999999992
  0
LINE
  5
DF1
  8
DETAIL
  6
CONTINUOUS
 62
     5
 10
76.621610000000004
 20
-226.80000000000001
 30
0.0
 11
117.18828000000001
 21
-226.80000000000001
 31
0.0
  0
ARC
  5
DF2
  8
DETAIL
  6
CONTINUOUS
 62
     5
 10
76.621610000000004
 20
-225.80000000000001
 30
0.0
 40
1.0
 50
180.99999899999969
 51
269.99992700000001
  0
ARC
  5
DF3
  8
DETAIL
  6
CONTINUOUS
 62
     5
 10
76.586699999999979
 20
-223.7999999999999
 30
0.0
 40
1.0
 50
90.000116000000006
 51
180.99999799999981
  0
LINE
  5
DF4
  8
DETAIL
  6
CONTINUOUS
 62
     5
 10
289.49999999999989
 20
-193.30000000000001
 30
0.0
 11
231.68493000000001
 21
-193.30000000000001
 31
0.0
  0
ARC
  5
DF5
  8
DETAIL
  6
CONTINUOUS
 62
     5
 10
218.52393000000001
 20
-236.80000000000001
 30
0.0
 40
10.0
 50
270.0
 51
359.0
  0
LINE
  5
DF6
  8
DETAIL
  6
CONTINUOUS
 62
     5
 10
228.52239999999989
 20
-236.9745299999999
 30
0.0
 11
228.63867999999991
 21
-230.31304999999989
 31
0.0
  0
LINE
  5
DF7
  8
DETAIL
  6
CONTINUOUS
 62
     5
 10
266.70857999999998
 20
-229.80872999999991
 30
0.0
 11
266.81315000000001
 21
-223.81746000000001
 31
0.0
  0
ARC
  5
DF8
  8
DETAIL
  6
CONTINUOUS
 62
     5
 10
266.20864999999998
 20
-229.80000000000001
 30
0.0
 40
0.5
 50
270.0
 51
359.0
  0
LINE
  5
DF9
  8
DETAIL
  6
CONTINUOUS
 62
     5
 10
288.44033999999999
 20
-195.57321999999991
 30
0.0
 11
274.16431999999992
 21
-220.30000000000001
 31
0.0
  0
ARC
  5
DFA
  8
DETAIL
  6
CONTINUOUS
 62
     5
 10
265.81330000000003
 20
-223.7999999999999
 30
0.0
 40
1.0
 50
359.00000199999999
 51
89.999883999999966
  0
ARC
  5
DFB
  8
DETAIL
  6
CONTINUOUS
 62
     5
 10
265.77839999999992
 20
-225.80000000000001
 30
0.0
 40
1.0
 50
270.0
 51
359.0
  0
ARC
  5
DFC
  8
DETAIL
  6
CONTINUOUS
 62
     5
 10
269.83418999999992
 20
-217.80000000000001
 30
0.0
 40
5.0
 50
270.0
 51
329.99975799999982
  0
LINE
  5
DFD
  8
DETAIL
  6
CONTINUOUS
 62
     5
 10
285.0
 20
-198.5
 30
0.0
 11
286.75056000000001
 21
-198.5
 31
0.0
  0
LINE
  5
DFE
  8
DETAIL
  6
CONTINUOUS
 62
     5
 10
288.44905999999992
 20
-195.57337000000001
 30
0.0
 11
288.48874000000001
 21
-193.30000000000001
 31
0.0
  0
LINE
  5
DFF
  8
DETAIL
  6
CONTINUOUS
 62
     5
 10
157.15068999999991
 20
-185.30000000000001
 30
0.0
 11
-157.15068999999991
 21
-185.30000000000001
 31
0.0
  0
LINE
  5
E00
  8
DETAIL
  6
CONTINUOUS
 62
     5
 10
-140.50000171547759
 20
-152.53570049602371
 30
0.0
 11
-140.4999981511755
 21
-75.464305238574269
 31
0.0
  0
LINE
  5
E01
  8
DETAIL
  6
CONTINUOUS
 62
     5
 10
-156.68243000000001
 20
-185.0
 30
0.0
 11
-128.0
 21
-185.0
 31
0.0
  0
CIRCLE
  5
E02
  8
DETAIL
  6
CONTINUOUS
 62
     5
 10
-135.4999999999996
 20
-176.0
 30
0.0
 40
2.5
  0
LINE
  5
E03
  8
DETAIL
  6
CONTINUOUS
 62
     5
 10
-126.0
 20
-183.0
 30
0.0
 11
-126.0
 21
-149.88872000000001
 31
0.0
  0
ARC
  5
E04
  8
DETAIL
  6
CONTINUOUS
 62
     5
 10
-128.0
 20
-183.0
 30
0.0
 40
2.0
 50
270.0
 51
0.0
  0
LINE
  5
E05
  8
DETAIL
  6
CONTINUOUS
 62
     5
 10
-156.68243000000001
 20
-43.0
 30
0.0
 11
-128.0
 21
-43.0
 31
0.0
  0
CIRCLE
  5
E06
  8
DETAIL
  6
CONTINUOUS
 62
     5
 10
-135.4999999999996
 20
-52.0
 30
0.0
 40
2.5
  0
LINE
  5
E07
  8
DETAIL
  6
CONTINUOUS
 62
     5
 10
-126.0
 20
-78.111289999999983
 30
0.0
 11
-126.0
 21
-45.0
 31
0.0
  0
ARC
  5
E08
  8
DETAIL
  6
CONTINUOUS
 62
     5
 10
-128.0
 20
-45.0
 30
0.0
 40
2.0
 50
0.0
 51
90.0
  0
LINE
  5
E09
  8
DETAIL
  6
CONTINUOUS
 62
     5
 10
272.0
 20
-43.0
 30
0.0
 11
272.0
 21
-13.800000000000001
 31
0.0
  0
LINE
  5
E0A
  8
DETAIL
  6
CONTINUOUS
 62
     5
 10
285.0
 20
0.0
 30
0.0
 11
285.0
 21
-95.724339999999984
 31
0.0
  0
LINE
  5
E0B
  8
DETAIL
  6
CONTINUOUS
 62
     5
 10
287.0
 20
0.0
 30
0.0
 11
287.0
 21
-30.0
 31
0.0
  0
LINE
  5
E0C
  8
DETAIL
  6
CONTINUOUS
 62
     5
 10
140.5000016123133
 20
-152.5357003300426
 30
0.0
 11
140.49999808438139
 21
-75.464305346038813
 31
0.0
  0
LINE
  5
E0D
  8
DETAIL
  6
CONTINUOUS
 62
     5
 10
128.0
 20
-185.0
 30
0.0
 11
156.68243000000001
 21
-185.0
 31
0.0
  0
LINE
  5
E0E
  8
DETAIL
  6
CONTINUOUS
 62
     5
 10
126.0
 20
-149.88872000000001
 30
0.0
 11
126.0
 21
-183.0
 31
0.0
  0
ARC
  5
E0F
  8
DETAIL
  6
CONTINUOUS
 62
     5
 10
128.0
 20
-183.0
 30
0.0
 40
2.0
 50
180.0
 51
270.0
  0
CIRCLE
  5
E10
  8
DETAIL
  6
CONTINUOUS
 62
     5
 10
135.4999999999996
 20
-176.0
 30
0.0
 40
2.5
  0
LINE
  5
E11
  8
DETAIL
  6
CONTINUOUS
 62
     5
 10
126.0
 20
-45.0
 30
0.0
 11
126.0
 21
-78.111289999999983
 31
0.0
  0
LINE
  5
E12
  8
DETAIL
  6
CONTINUOUS
 62
     5
 10
128.0
 20
-43.0
 30
0.0
 11
156.68243000000001
 21
-43.0
 31
0.0
  0
CIRCLE
  5
E13
  8
DETAIL
  6
CONTINUOUS
 62
     5
 10
135.4999999999996
 20
-52.0
 30
0.0
 40
2.5
  0
ARC
  5
E14
  8
DETAIL
  6
CONTINUOUS
 62
     5
 10
128.0
 20
-45.0
 30
0.0
 40
2.0
 50
90.0
 51
180.0
  0
LINE
  5
E15
  8
DETAIL
  6
CONTINUOUS
 62
     5
 10
287.0
 20
-185.30000000000001
 30
0.0
 11
287.0
 21
-29.5
 31
0.0
  0
LINE
  5
E16
  8
DETAIL
  6
CONTINUOUS
 62
     5
 10
264.49999817215593
 20
-152.53570067680931
 30
0.0
 11
264.5000016821794
 21
-75.464304970459807
 31
0.0
  0
LINE
  5
E17
  8
DETAIL
  6
CONTINUOUS
 62
     5
 10
285.0
 20
-132.27566999999999
 30
0.0
 11
285.0
 21
-185.30000000000001
 31
0.0
  0
ARC
  5
E18
  8
DETAIL
  6
CONTINUOUS
 62
     5
 10
277.0
 20
-183.0
 30
0.0
 40
2.0
 50
270.0
 51
0.0
  0
LINE
  5
E19
  8
DETAIL
  6
CONTINUOUS
 62
     5
 10
291.60000000000002
 20
-185.2999999999999
 30
0.0
 11
247.84931
 21
-185.30000000000001
 31
0.0
  0
LINE
  5
E1A
  8
DETAIL
  6
CONTINUOUS
 62
     5
 10
248.3175699999999
 20
-185.0
 30
0.0
 11
277.0
 21
-185.0
 31
0.0
  0
CIRCLE
  5
E1B
  8
DETAIL
  6
CONTINUOUS
 62
     5
 10
269.49999999999972
 20
-176.0
 30
0.0
 40
2.5
  0
LINE
  5
E1C
  8
DETAIL
  6
CONTINUOUS
 62
     5
 10
272.0
 20
-185.30000000000001
 30
0.0
 11
272.0
 21
-185.0
 31
0.0
  0
LINE
  5
E1D
  8
DETAIL
  6
CONTINUOUS
 62
     5
 10
279.0
 20
-183.0
 30
0.0
 11
279.0
 21
-149.88872000000001
 31
0.0
  0
LINE
  5
E1E
  8
DETAIL
  6
CONTINUOUS
 62
     5
 10
285.0
 20
-166.04043999999999
 30
0.0
 11
285.00465000000008
 21
-166.04347000000001
 31
0.0
  0
LINE
  5
E1F
  8
DETAIL
  6
CONTINUOUS
 62
     5
 10
285.00465000000008
 20
-166.04347000000001
 30
0.0
 11
285.0
 21
-166.04051000000001
 31
0.0
  0
LINE
  5
E20
  8
DETAIL
  6
CONTINUOUS
 62
     5
 10
279.0
 20
-78.111289999999983
 30
0.0
 11
279.0
 21
-45.0
 31
0.0
  0
ARC
  5
E21
  8
DETAIL
  6
CONTINUOUS
 62
     5
 10
277.0
 20
-45.0
 30
0.0
 40
2.0
 50
0.0
 51
90.0
  0
CIRCLE
  5
E22
  8
DETAIL
  6
CONTINUOUS
 62
     5
 10
269.49999999999972
 20
-52.0
 30
0.0
 40
2.5
  0
LINE
  5
E23
  8
DETAIL
  6
CONTINUOUS
 62
     5
 10
248.3175699999999
 20
-43.0
 30
0.0
 11
277.0
 21
-43.0
 31
0.0
  0
LINE
  5
E24
  8
DETAIL
  6
CONTINUOUS
 62
     5
 10
285.00465000000008
 20
-52.556530000000002
 30
0.0
 11
285.0
 21
-52.5595
 31
0.0
  0
LINE
  5
E25
  8
DETAIL
  6
CONTINUOUS
 62
     5
 10
285.0
 20
-52.559559999999998
 30
0.0
 11
285.00465000000008
 21
-52.556530000000002
 31
0.0
  0
LINE
  5
E26
  8
DETAIL
  6
CONTINUOUS
 62
     5
 10
292.0
 20
-32.0
 30
0.0
 11
302.49999999999989
 21
-32.0
 31
0.0
  0
LINE
  5
E27
  8
DETAIL
  6
CONTINUOUS
 62
     5
 10
299.5
 20
-24.0
 30
0.0
 11
295.0
 21
-24.0
 31
0.0
  0
LINE
  5
E28
  8
DETAIL
  6
CONTINUOUS
 62
     5
 10
289.0
 20
-32.0
 30
0.0
 11
292.0
 21
-32.0
 31
0.0
  0
LINE
  5
E29
  8
DETAIL
  6
CONTINUOUS
 62
     5
 10
292.0
 20
-27.0
 30
0.0
 11
292.0
 21
-34.0
 31
0.0
  0
LINE
  5
E2A
  8
DETAIL
  6
CONTINUOUS
 62
     5
 10
294.49999999999972
 20
-35.33138000000001
 30
0.0
 11
294.49999999999972
 21
-35.29999999999999
 31
0.0
  0
LINE
  5
E2B
  8
DETAIL
  6
CONTINUOUS
 62
     5
 10
295.0
 20
-35.306429999999992
 30
0.0
 11
295.0
 21
-35.29999999999999
 31
0.0
  0
LINE
  5
E2C
  8
DETAIL
  6
CONTINUOUS
 62
     5
 10
302.49999999999989
 20
-27.0
 30
0.0
 11
302.49999999999989
 21
-34.0
 31
0.0
  0
ARC
  5
E2D
  8
DETAIL
  6
CONTINUOUS
 62
     5
 10
295.0
 20
-27.0
 30
0.0
 40
3.0
 50
90.0
 51
180.0
  0
ARC
  5
E2E
  8
DETAIL
  6
CONTINUOUS
 62
     5
 10
299.5
 20
-27.0
 30
0.0
 40
3.0
 50
0.0
 51
90.0
  0
ARC
  5
E2F
  8
DETAIL
  6
CONTINUOUS
 62
     5
 10
289.0
 20
-30.0
 30
0.0
 40
4.0
 50
180.0
 51
270.0
  0
ARC
  5
E30
  8
DETAIL
  6
CONTINUOUS
 62
     5
 10
289.0
 20
-30.0
 30
0.0
 40
2.0
 50
180.0
 51
270.0
  0
LINE
  5
E31
  8
DETAIL
  6
CONTINUOUS
 62
     5
 10
283.39999999999992
 20
-2.399999999999999
 30
0.0
 11
272.0
 21
-13.800000000000001
 31
0.0
  0
LINE
  5
E32
  8
DETAIL
  6
CONTINUOUS
 62
     5
 10
282.60000000000002
 20
-1.6000000000000001
 30
0.0
 11
271.19999999999987
 21
-13.0
 31
0.0
  0
LINE
  5
E33
  8
DETAIL
  6
CONTINUOUS
 62
     5
 10
282.72000000000008
 20
-1.2264899999999981
 30
0.0
 11
282.63999999999982
 21
-1.4744699999999991
 31
0.0
  0
LINE
  5
E34
  8
DETAIL
  6
CONTINUOUS
 62
     5
 10
282.63999999999982
 20
-1.4744699999999991
 30
0.0
 11
282.60000000000002
 21
-1.6000000000000001
 31
0.0
  0
LINE
  5
E35
  8
DETAIL
  6
CONTINUOUS
 62
     5
 10
285.0
 20
0.0
 30
0.0
 11
287.0
 21
0.0
 31
0.0
  0
LINE
  5
E36
  8
DETAIL
  6
CONTINUOUS
 62
     5
 10
283.39999999999992
 20
-0.8
 30
0.0
 11
283.35000000000002
 21
-0.80385
 31
0.0
  0
LINE
  5
E37
  8
DETAIL
  6
CONTINUOUS
 62
     5
 10
283.35000000000002
 20
-0.80385
 30
0.0
 11
283.30000000000001
 21
-0.8153699999999998
 31
0.0
  0
LINE
  5
E38
  8
DETAIL
  6
CONTINUOUS
 62
     5
 10
283.30000000000001
 20
-0.8153699999999998
 30
0.0
 11
283.24999999999989
 21
-0.83445
 31
0.0
  0
LINE
  5
E39
  8
DETAIL
  6
CONTINUOUS
 62
     5
 10
283.24999999999989
 20
-0.83445
 30
0.0
 11
283.19999999999982
 21
-0.8608999999999998
 31
0.0
  0
LINE
  5
E3A
  8
DETAIL
  6
CONTINUOUS
 62
     5
 10
283.19999999999982
 20
-0.8608999999999998
 30
0.0
 11
283.14999999999992
 21
-0.89447
 31
0.0
  0
LINE
  5
E3B
  8
DETAIL
  6
CONTINUOUS
 62
     5
 10
283.14999999999992
 20
-0.89447
 30
0.0
 11
283.10000000000002
 21
-0.9348300000000001
 31
0.0
  0
LINE
  5
E3C
  8
DETAIL
  6
CONTINUOUS
 62
     5
 10
283.10000000000002
 20
-0.9348300000000001
 30
0.0
 11
283.05000000000001
 21
-0.9815899999999999
 31
0.0
  0
LINE
  5
E3D
  8
DETAIL
  6
CONTINUOUS
 62
     5
 10
283.05000000000001
 20
-0.9815899999999999
 30
0.0
 11
283.0
 21
-1.034319999999999
 31
0.0
  0
LINE
  5
E3E
  8
DETAIL
  6
CONTINUOUS
 62
     5
 10
283.0
 20
-1.034319999999999
 30
0.0
 11
282.94999999999987
 21
-1.0924899999999991
 31
0.0
  0
LINE
  5
E3F
  8
DETAIL
  6
CONTINUOUS
 62
     5
 10
282.94999999999987
 20
-1.0924899999999991
 30
0.0
 11
282.89999999999992
 21
-1.1555500000000001
 31
0.0
  0
LINE
  5
E40
  8
DETAIL
  6
CONTINUOUS
 62
     5
 10
282.89999999999992
 20
-1.1555500000000001
 30
0.0
 11
282.85000000000002
 21
-1.22289
 31
0.0
  0
LINE
  5
E41
  8
DETAIL
  6
CONTINUOUS
 62
     5
 10
282.85000000000002
 20
-1.22289
 30
0.0
 11
282.80000000000001
 21
-1.29386
 31
0.0
  0
LINE
  5
E42
  8
DETAIL
  6
CONTINUOUS
 62
     5
 10
282.80000000000001
 20
-1.29386
 30
0.0
 11
282.75
 21
-1.3677799999999991
 31
0.0
  0
LINE
  5
E43
  8
DETAIL
  6
CONTINUOUS
 62
     5
 10
282.75
 20
-1.3677799999999991
 30
0.0
 11
282.69999999999982
 21
-1.443929999999999
 31
0.0
  0
LINE
  5
E44
  8
DETAIL
  6
CONTINUOUS
 62
     5
 10
282.69999999999982
 20
-1.443929999999999
 30
0.0
 11
282.64999999999992
 21
-1.5215899999999991
 31
0.0
  0
LINE
  5
E45
  8
DETAIL
  6
CONTINUOUS
 62
     5
 10
282.64999999999992
 20
-1.5215899999999991
 30
0.0
 11
282.60000000000002
 21
-1.6000000000000001
 31
0.0
  0
LINE
  5
E46
  8
DETAIL
  6
CONTINUOUS
 62
     5
 10
283.39999999999992
 20
0.0
 30
0.0
 11
283.36000000000001
 21
-0.00493
 31
0.0
  0
LINE
  5
E47
  8
DETAIL
  6
CONTINUOUS
 62
     5
 10
283.36000000000001
 20
-0.00493
 30
0.0
 11
283.31999999999999
 21
-0.0197
 31
0.0
  0
LINE
  5
E48
  8
DETAIL
  6
CONTINUOUS
 62
     5
 10
283.31999999999999
 20
-0.0197
 30
0.0
 11
283.27999999999992
 21
-0.04421
 31
0.0
  0
LINE
  5
E49
  8
DETAIL
  6
CONTINUOUS
 62
     5
 10
283.27999999999992
 20
-0.04421
 30
0.0
 11
283.24000000000001
 21
-0.07831
 31
0.0
  0
LINE
  5
E4A
  8
DETAIL
  6
CONTINUOUS
 62
     5
 10
283.24000000000001
 20
-0.07831
 30
0.0
 11
283.19999999999982
 21
-0.1218
 31
0.0
  0
LINE
  5
E4B
  8
DETAIL
  6
CONTINUOUS
 62
     5
 10
283.19999999999982
 20
-0.1218
 30
0.0
 11
283.16000000000008
 21
-0.17439
 31
0.0
  0
LINE
  5
E4C
  8
DETAIL
  6
CONTINUOUS
 62
     5
 10
283.16000000000008
 20
-0.17439
 30
0.0
 11
283.11999999999989
 21
-0.23578
 31
0.0
  0
LINE
  5
E4D
  8
DETAIL
  6
CONTINUOUS
 62
     5
 10
283.11999999999989
 20
-0.23578
 30
0.0
 11
283.07999999999993
 21
-0.30558
 31
0.0
  0
LINE
  5
E4E
  8
DETAIL
  6
CONTINUOUS
 62
     5
 10
283.07999999999993
 20
-0.30558
 30
0.0
 11
283.04000000000002
 21
-0.38335
 31
0.0
  0
LINE
  5
E4F
  8
DETAIL
  6
CONTINUOUS
 62
     5
 10
283.04000000000002
 20
-0.38335
 30
0.0
 11
283.0
 21
-0.4686300000000001
 31
0.0
  0
LINE
  5
E50
  8
DETAIL
  6
CONTINUOUS
 62
     5
 10
283.0
 20
-0.4686300000000001
 30
0.0
 11
282.95999999999992
 21
-0.5608900000000001
 31
0.0
  0
LINE
  5
E51
  8
DETAIL
  6
CONTINUOUS
 62
     5
 10
282.95999999999992
 20
-0.5608900000000001
 30
0.0
 11
282.92000000000002
 21
-0.65955
 31
0.0
  0
LINE
  5
E52
  8
DETAIL
  6
CONTINUOUS
 62
     5
 10
282.92000000000002
 20
-0.65955
 30
0.0
 11
282.88
 21
-0.7640000000000004
 31
0.0
  0
LINE
  5
E53
  8
DETAIL
  6
CONTINUOUS
 62
     5
 10
282.88
 20
-0.7640000000000004
 30
0.0
 11
282.83999999999992
 21
-0.87362
 31
0.0
  0
LINE
  5
E54
  8
DETAIL
  6
CONTINUOUS
 62
     5
 10
282.83999999999992
 20
-0.87362
 30
0.0
 11
282.80000000000001
 21
-0.98771
 31
0.0
  0
LINE
  5
E55
  8
DETAIL
  6
CONTINUOUS
 62
     5
 10
282.80000000000001
 20
-0.98771
 30
0.0
 11
282.75999999999982
 21
-1.10558
 31
0.0
  0
LINE
  5
E56
  8
DETAIL
  6
CONTINUOUS
 62
     5
 10
282.75999999999982
 20
-1.10558
 30
0.0
 11
282.72000000000008
 21
-1.2264899999999981
 31
0.0
  0
LINE
  5
E57
  8
DETAIL
  6
CONTINUOUS
 62
     5
 10
284.19999999999999
 20
-1.6000000000000001
 30
0.0
 11
285.0
 21
-1.6000000000000001
 31
0.0
  0
LINE
  5
E58
  8
DETAIL
  6
CONTINUOUS
 62
     5
 10
285.0
 20
-1.6000000000000001
 30
0.0
 11
284.99506999999988
 21
-1.639999999999995
 31
0.0
  0
LINE
  5
E59
  8
DETAIL
  6
CONTINUOUS
 62
     5
 10
284.99506999999988
 20
-1.639999999999995
 30
0.0
 11
284.98029999999972
 21
-1.679999999999999
 31
0.0
  0
LINE
  5
E5A
  8
DETAIL
  6
CONTINUOUS
 62
     5
 10
284.98029999999972
 20
-1.679999999999999
 30
0.0
 11
284.95578999999992
 21
-1.7199999999999991
 31
0.0
  0
LINE
  5
E5B
  8
DETAIL
  6
CONTINUOUS
 62
     5
 10
284.95578999999992
 20
-1.7199999999999991
 30
0.0
 11
284.92169000000001
 21
-1.759999999999998
 31
0.0
  0
LINE
  5
E5C
  8
DETAIL
  6
CONTINUOUS
 62
     5
 10
284.92169000000001
 20
-1.759999999999998
 30
0.0
 11
284.87821000000002
 21
-1.8
 31
0.0
  0
LINE
  5
E5D
  8
DETAIL
  6
CONTINUOUS
 62
     5
 10
284.87821000000002
 20
-1.8
 30
0.0
 11
284.82560999999998
 21
-1.8400000000000001
 31
0.0
  0
LINE
  5
E5E
  8
DETAIL
  6
CONTINUOUS
 62
     5
 10
284.82560999999998
 20
-1.8400000000000001
 30
0.0
 11
284.76422000000002
 21
-1.879999999999999
 31
0.0
  0
LINE
  5
E5F
  8
DETAIL
  6
CONTINUOUS
 62
     5
 10
284.76422000000002
 20
-1.879999999999999
 30
0.0
 11
284.69443000000001
 21
-1.919999999999999
 31
0.0
  0
LINE
  5
E60
  8
DETAIL
  6
CONTINUOUS
 62
     5
 10
284.69443000000001
 20
-1.919999999999999
 30
0.0
 11
284.61664999999982
 21
-1.9599999999999991
 31
0.0
  0
LINE
  5
E61
  8
DETAIL
  6
CONTINUOUS
 62
     5
 10
284.61664999999982
 20
-1.9599999999999991
 30
0.0
 11
284.53137000000009
 21
-2.0
 31
0.0
  0
LINE
  5
E62
  8
DETAIL
  6
CONTINUOUS
 62
     5
 10
284.53137000000009
 20
-2.0
 30
0.0
 11
284.43912
 21
-2.04
 31
0.0
  0
LINE
  5
E63
  8
DETAIL
  6
CONTINUOUS
 62
     5
 10
284.43912
 20
-2.04
 30
0.0
 11
284.34045999999989
 21
-2.0800000000000001
 31
0.0
  0
LINE
  5
E64
  8
DETAIL
  6
CONTINUOUS
 62
     5
 10
284.34045999999989
 20
-2.0800000000000001
 30
0.0
 11
284.23599999999982
 21
-2.1200000000000001
 31
0.0
  0
LINE
  5
E65
  8
DETAIL
  6
CONTINUOUS
 62
     5
 10
284.23599999999982
 20
-2.1200000000000001
 30
0.0
 11
284.12639000000001
 21
-2.1600000000000001
 31
0.0
  0
LINE
  5
E66
  8
DETAIL
  6
CONTINUOUS
 62
     5
 10
284.12639000000001
 20
-2.1600000000000001
 30
0.0
 11
284.01229000000001
 21
-2.2000000000000002
 31
0.0
  0
LINE
  5
E67
  8
DETAIL
  6
CONTINUOUS
 62
     5
 10
284.01229000000001
 20
-2.2000000000000002
 30
0.0
 11
283.89442999999972
 21
-2.2400000000000002
 31
0.0
  0
LINE
  5
E68
  8
DETAIL
  6
CONTINUOUS
 62
     5
 10
283.89442999999972
 20
-2.2400000000000002
 30
0.0
 11
283.77350999999982
 21
-2.279999999999998
 31
0.0
  0
LINE
  5
E69
  8
DETAIL
  6
CONTINUOUS
 62
     5
 10
283.77350999999982
 20
-2.279999999999998
 30
0.0
 11
283.65030000000002
 21
-2.3199999999999981
 31
0.0
  0
LINE
  5
E6A
  8
DETAIL
  6
CONTINUOUS
 62
     5
 10
283.65030000000002
 20
-2.3199999999999981
 30
0.0
 11
283.39999999999992
 21
-2.399999999999999
 31
0.0
  0
LINE
  5
E6B
  8
DETAIL
  6
CONTINUOUS
 62
     5
 10
284.19999999999999
 20
-1.6000000000000001
 30
0.0
 11
284.19614999999999
 21
-1.649999999999999
 31
0.0
  0
LINE
  5
E6C
  8
DETAIL
  6
CONTINUOUS
 62
     5
 10
284.19614999999999
 20
-1.649999999999999
 30
0.0
 11
284.18463000000008
 21
-1.7
 31
0.0
  0
LINE
  5
E6D
  8
DETAIL
  6
CONTINUOUS
 62
     5
 10
284.18463000000008
 20
-1.7
 30
0.0
 11
284.16554999999988
 21
-1.75
 31
0.0
  0
LINE
  5
E6E
  8
DETAIL
  6
CONTINUOUS
 62
     5
 10
284.16554999999988
 20
-1.75
 30
0.0
 11
284.13909999999993
 21
-1.8
 31
0.0
  0
LINE
  5
E6F
  8
DETAIL
  6
CONTINUOUS
 62
     5
 10
284.13909999999993
 20
-1.8
 30
0.0
 11
284.10554000000002
 21
-1.8500000000000001
 31
0.0
  0
LINE
  5
E70
  8
DETAIL
  6
CONTINUOUS
 62
     5
 10
284.10554000000002
 20
-1.8500000000000001
 30
0.0
 11
284.06517999999983
 21
-1.8999999999999999
 31
0.0
  0
LINE
  5
E71
  8
DETAIL
  6
CONTINUOUS
 62
     5
 10
284.06517999999983
 20
-1.8999999999999999
 30
0.0
 11
284.01841000000002
 21
-1.95
 31
0.0
  0
LINE
  5
E72
  8
DETAIL
  6
CONTINUOUS
 62
     5
 10
284.01841000000002
 20
-1.95
 30
0.0
 11
283.96568999999982
 21
-2.0
 31
0.0
  0
LINE
  5
E73
  8
DETAIL
  6
CONTINUOUS
 62
     5
 10
283.96568999999982
 20
-2.0
 30
0.0
 11
283.90751999999992
 21
-2.049999999999998
 31
0.0
  0
LINE
  5
E74
  8
DETAIL
  6
CONTINUOUS
 62
     5
 10
283.90751999999992
 20
-2.049999999999998
 30
0.0
 11
283.84446000000008
 21
-2.1000000000000001
 31
0.0
  0
LINE
  5
E75
  8
DETAIL
  6
CONTINUOUS
 62
     5
 10
283.84446000000008
 20
-2.1000000000000001
 30
0.0
 11
283.77712000000002
 21
-2.149999999999999
 31
0.0
  0
LINE
  5
E76
  8
DETAIL
  6
CONTINUOUS
 62
     5
 10
283.77712000000002
 20
-2.149999999999999
 30
0.0
 11
283.70614999999992
 21
-2.2000000000000002
 31
0.0
  0
LINE
  5
E77
  8
DETAIL
  6
CONTINUOUS
 62
     5
 10
283.70614999999992
 20
-2.2000000000000002
 30
0.0
 11
283.63222999999982
 21
-2.25
 31
0.0
  0
LINE
  5
E78
  8
DETAIL
  6
CONTINUOUS
 62
     5
 10
283.63222999999982
 20
-2.25
 30
0.0
 11
283.55606999999992
 21
-2.299999999999998
 31
0.0
  0
LINE
  5
E79
  8
DETAIL
  6
CONTINUOUS
 62
     5
 10
283.55606999999992
 20
-2.299999999999998
 30
0.0
 11
283.47840999999983
 21
-2.3500000000000001
 31
0.0
  0
LINE
  5
E7A
  8
DETAIL
  6
CONTINUOUS
 62
     5
 10
283.47840999999983
 20
-2.3500000000000001
 30
0.0
 11
283.39999999999992
 21
-2.399999999999999
 31
0.0
  0
LINE
  5
E7B
  8
DETAIL
  6
CONTINUOUS
 62
     5
 10
283.39999999999992
 20
-0.8
 30
0.0
 11
283.39999999999992
 21
0.0
 31
0.0
  0
ARC
  5
E7C
  8
DETAIL
  6
CONTINUOUS
 62
     5
 10
283.39999999999992
 20
-1.6000000000000001
 30
0.0
 40
1.6000000000000001
 50
0.0
 51
90.0
  0
ARC
  5
E7D
  8
DETAIL
  6
CONTINUOUS
 62
     5
 10
283.39999999999992
 20
-1.6000000000000001
 30
0.0
 40
0.8
 50
0.0
 51
90.0
  0
LINE
  5
E7E
  8
DETAIL
  6
PHANTOM
 62
     5
 10
328.0
 20
-198.5
 30
0.0
 11
328.0
 21
-29.5
 31
0.0
  0
LINE
  5
E7F
  8
DETAIL
  6
PHANTOM
 62
     5
 10
358.0
 20
-187.0
 30
0.0
 11
358.0
 21
-41.0
 31
0.0
  0
LINE
  5
E80
  8
DETAIL
  6
PHANTOM
 62
     5
 10
328.0
 20
-187.0
 30
0.0
 11
358.0
 21
-187.0
 31
0.0
  0
LINE
  5
E81
  8
DETAIL
  6
PHANTOM
 62
     5
 10
434.00243999999992
 20
-163.06982999999991
 30
0.0
 11
435.0
 21
-162.0
 31
0.0
  0
LINE
  5
E82
  8
DETAIL
  6
PHANTOM
 62
     5
 10
434.00243999999992
 20
-64.93016999999999
 30
0.0
 11
435.0
 21
-66.0
 31
0.0
  0
LINE
  5
E83
  8
DETAIL
  6
PHANTOM
 62
     5
 10
388.0
 20
-176.0
 30
0.0
 11
388.0
 21
-52.0
 31
0.0
  0
LINE
  5
E84
  8
DETAIL
  6
PHANTOM
 62
     5
 10
358.0
 20
-176.0
 30
0.0
 11
388.0
 21
-176.0
 31
0.0
  0
LINE
  5
E85
  8
DETAIL
  6
PHANTOM
 62
     5
 10
434.0024419999998
 20
-163.06983199999999
 30
0.0
 11
428.69326699999988
 21
-163.62285899999981
 31
0.0
  0
LINE
  5
E86
  8
DETAIL
  6
PHANTOM
 62
     5
 10
428.69326699999988
 20
-163.62285899999981
 30
0.0
 11
423.22626699999989
 21
-164.16426100000001
 31
0.0
  0
LINE
  5
E87
  8
DETAIL
  6
PHANTOM
 62
     5
 10
423.22626699999989
 20
-164.16426100000001
 30
0.0
 11
417.44361699999979
 21
-164.68241199999991
 31
0.0
  0
LINE
  5
E88
  8
DETAIL
  6
PHANTOM
 62
     5
 10
417.44361699999979
 20
-164.68241199999991
 30
0.0
 11
411.18749000000003
 21
-165.1656879999999
 31
0.0
  0
LINE
  5
E89
  8
DETAIL
  6
PHANTOM
 62
     5
 10
411.18749000000003
 20
-165.1656879999999
 30
0.0
 11
404.30006199999991
 21
-165.60246100000001
 31
0.0
  0
LINE
  5
E8A
  8
DETAIL
  6
PHANTOM
 62
     5
 10
404.30006199999991
 20
-165.60246100000001
 30
0.0
 11
396.62350700000002
 21
-165.98110800000001
 31
0.0
  0
LINE
  5
E8B
  8
DETAIL
  6
PHANTOM
 62
     5
 10
396.62350700000002
 20
-165.98110800000001
 30
0.0
 11
388.000001
 21
-166.29000300000001
 31
0.0
  0
LINE
  5
E8C
  8
DETAIL
  6
PHANTOM
 62
     5
 10
358.0
 20
-52.0
 30
0.0
 11
388.0
 21
-52.0
 31
0.0
  0
LINE
  5
E8D
  8
DETAIL
  6
PHANTOM
 62
     5
 10
328.0
 20
-41.0
 30
0.0
 11
358.0
 21
-41.0
 31
0.0
  0
LINE
  5
E8E
  8
DETAIL
  6
CONTINUOUS
 62
     5
 10
315.5
 20
-32.0
 30
0.0
 11
315.5
 21
-34.0
 31
0.0
  0
LINE
  5
E8F
  8
DETAIL
  6
CONTINUOUS
 62
     5
 10
331.0
 20
-32.0
 30
0.0
 11
331.0
 21
-34.0
 31
0.0
  0
LINE
  5
E90
  8
DETAIL
  6
PHANTOM
 62
     5
 10
434.0024419999998
 20
-64.930172999999996
 30
0.0
 11
428.69326699999988
 21
-64.377145999999996
 31
0.0
  0
LINE
  5
E91
  8
DETAIL
  6
PHANTOM
 62
     5
 10
428.69326699999988
 20
-64.377145999999996
 30
0.0
 11
423.22626699999989
 21
-63.835743999999991
 31
0.0
  0
LINE
  5
E92
  8
DETAIL
  6
PHANTOM
 62
     5
 10
423.22626699999989
 20
-63.835743999999991
 30
0.0
 11
417.44361699999979
 21
-63.317593000000002
 31
0.0
  0
LINE
  5
E93
  8
DETAIL
  6
PHANTOM
 62
     5
 10
417.44361699999979
 20
-63.317593000000002
 30
0.0
 11
411.18749000000003
 21
-62.834318000000003
 31
0.0
  0
LINE
  5
E94
  8
DETAIL
  6
PHANTOM
 62
     5
 10
411.18749000000003
 20
-62.834318000000003
 30
0.0
 11
404.30006199999991
 21
-62.397543999999982
 31
0.0
  0
LINE
  5
E95
  8
DETAIL
  6
PHANTOM
 62
     5
 10
404.30006199999991
 20
-62.397543999999982
 30
0.0
 11
396.62350700000002
 21
-62.018896999999981
 31
0.0
  0
LINE
  5
E96
  8
DETAIL
  6
PHANTOM
 62
     5
 10
396.62350700000002
 20
-62.018896999999981
 30
0.0
 11
388.000001
 21
-61.710003
 31
0.0
  0
LINE
  5
E97
  8
DETAIL
  6
PHANTOM
 62
     5
 10
435.0
 20
-161.99993000000001
 30
0.0
 11
435.0
 21
-66.000080000000011
 31
0.0
  0
LINE
  5
E98
  8
BASIS
  6
DASHDOT
 62
     6
 10
98.953261999999995
 20
-114.0
 30
0.0
 11
481.84510999999981
 21
-114.0
 31
0.0
  0
LINE
  5
E99
  8
NOTE
  6
CONTINUOUS
 62
     4
 39
50.0
 10
-309.0
 20
-53.429660999999989
 30
0.0
 11
-309.0
 21
-13.55458
 31
0.0
  0
LINE
  5
E9A
  8
NOTE
  6
CONTINUOUS
 62
     4
 39
50.0
 10
309.0
 20
-53.429660999999989
 30
0.0
 11
309.0
 21
-13.55458
 31
0.0
  0
LINE
  5
E9B
  8
SIZE
  6
CONTINUOUS
 62
    30
 10
285.0
 20
-191.87780697688041
 30
0.0
 11
285.0
 21
-373.00228299999992
 31
0.0
  0
LINE
  5
E9C
  8
SIZE
  6
CONTINUOUS
 62
    30
 10
-285.0
 20
-246.72514995338759
 30
0.0
 11
-285.0
 21
-373.00228299999992
 31
0.0
  0
LINE
  5
E9D
  8
SIZE
  6
CONTINUOUS
 62
    30
 10
273.0
 20
-353.00228299999998
 30
0.0
 11
-273.0
 21
-353.00228299999998
 31
0.0
  0
CIRCLE
  5
E9E
  8
SIZE
  6
CONTINUOUS
 62
    30
 10
285.0
 20
-353.00228299999998
 30
0.0
 40
6.0
  0
LINE
  5
E9F
  8
SIZE
  6
CONTINUOUS
 62
    30
 10
285.0
 20
-353.00228299999998
 30
0.0
 11
273.0
 21
-353.00228299999998
 31
0.0
  0
CIRCLE
  5
EA0
  8
SIZE
  6
CONTINUOUS
 62
    30
 10
-285.0
 20
-353.00228299999998
 30
0.0
 40
6.0
  0
LINE
  5
EA1
  8
SIZE
  6
CONTINUOUS
 62
    30
 10
-285.0
 20
-353.00228299999998
 30
0.0
 11
-273.0
 21
-353.00228299999998
 31
0.0
  0
TEXT
  5
EA2
  8
SIZE
  6
CONTINUOUS
 62
    30
 10
-74.05714285714285
 20
-328.00228299999998
 30
0.0
 40
64.0
  1
570
 41
0.9
 72
     1
 11
0.0
 21
-328.00228299999998
 31
0.0
  0
LINE
  5
EA3
  8
SIZE
  6
CONTINUOUS
 62
    30
 10
202.49999999999989
 20
-5.9475100000000003
 30
0.0
 11
202.49999999999989
 21
98.608546000000004
 31
0.0
  0
LINE
  5
EA4
  8
SIZE
  6
CONTINUOUS
 62
    30
 10
-202.49999999999989
 20
-5.9475100000000003
 30
0.0
 11
-202.49999999999989
 21
98.608546000000004
 31
0.0
  0
LINE
  5
EA5
  8
SIZE
  6
CONTINUOUS
 62
    30
 10
190.5
 20
78.608545999999976
 30
0.0
 11
-190.5
 21
78.608545999999976
 31
0.0
  0
CIRCLE
  5
EA6
  8
SIZE
  6
CONTINUOUS
 62
    30
 10
202.49999999999989
 20
78.608545999999976
 30
0.0
 40
6.0
  0
LINE
  5
EA7
  8
SIZE
  6
CONTINUOUS
 62
    30
 10
202.49999999999989
 20
78.608545999999976
 30
0.0
 11
190.5
 21
78.608545999999976
 31
0.0
  0
CIRCLE
  5
EA8
  8
SIZE
  6
CONTINUOUS
 62
    30
 10
-202.49999999999989
 20
78.608545999999976
 30
0.0
 40
6.0
  0
LINE
  5
EA9
  8
SIZE
  6
CONTINUOUS
 62
    30
 10
-202.49999999999989
 20
78.608545999999976
 30
0.0
 11
-190.5
 21
78.608545999999976
 31
0.0
  0
TEXT
  5
EAA
  8
SIZE
  6
CONTINUOUS
 62
    30
 10
-74.05714285714285
 20
103.608546
 30
0.0
 40
64.0
  1
405
 41
0.9
 72
     1
 11
0.0
 21
103.608546
 31
0.0
  0
LINE
  5
EAB
  8
SIZE
  6
CONTINUOUS
 62
    30
 10
-309.0
 20
6.4454199999999986
 30
0.0
 11
-309.0
 21
218.60854599999999
 31
0.0
  0
LINE
  5
EAC
  8
SIZE
  6
CONTINUOUS
 62
    30
 10
309.0
 20
6.4454199999999986
 30
0.0
 11
309.0
 21
218.60854599999999
 31
0.0
  0
LINE
  5
EAD
  8
SIZE
  6
CONTINUOUS
 62
    30
 10
-297.0
 20
198.6085459999999
 30
0.0
 11
297.0
 21
198.6085459999999
 31
0.0
  0
CIRCLE
  5
EAE
  8
SIZE
  6
CONTINUOUS
 62
    30
 10
-309.0
 20
198.6085459999999
 30
0.0
 40
6.0
  0
LINE
  5
EAF
  8
SIZE
  6
CONTINUOUS
 62
    30
 10
-309.0
 20
198.6085459999999
 30
0.0
 11
-297.0
 21
198.6085459999999
 31
0.0
  0
CIRCLE
  5
EB0
  8
SIZE
  6
CONTINUOUS
 62
    30
 10
309.0
 20
198.6085459999999
 30
0.0
 40
6.0
  0
LINE
  5
EB1
  8
SIZE
  6
CONTINUOUS
 62
    30
 10
309.0
 20
198.6085459999999
 30
0.0
 11
297.0
 21
198.6085459999999
 31
0.0
  0
TEXT
  5
EB2
  8
SIZE
  6
CONTINUOUS
 62
    30
 10
-261.12
 20
223.6085459999999
 30
0.0
 40
64.0
  1
618（天吊位置）
 41
0.9
 72
     1
 11
0.0
 21
223.6085459999999
 31
0.0
  0
LINE
  5
EB3
  8
SIZE
  6
CONTINUOUS
 62
    30
 10
-292.5
 20
-195.3865349508728
 30
0.0
 11
-292.5
 21
-493.00228299999992
 31
0.0
  0
LINE
  5
EB4
  8
SIZE
  6
CONTINUOUS
 62
    30
 10
292.5
 20
-196.55610979631001
 30
0.0
 11
292.5
 21
-493.00228299999992
 31
0.0
  0
LINE
  5
EB5
  8
SIZE
  6
CONTINUOUS
 62
    30
 10
-280.5
 20
-473.00228299999998
 30
0.0
 11
280.5
 21
-473.00228299999998
 31
0.0
  0
CIRCLE
  5
EB6
  8
SIZE
  6
CONTINUOUS
 62
    30
 10
-292.5
 20
-473.00228299999998
 30
0.0
 40
6.0
  0
LINE
  5
EB7
  8
SIZE
  6
CONTINUOUS
 62
    30
 10
-292.5
 20
-473.00228299999998
 30
0.0
 11
-280.5
 21
-473.00228299999998
 31
0.0
  0
CIRCLE
  5
EB8
  8
SIZE
  6
CONTINUOUS
 62
    30
 10
292.5
 20
-473.00228299999998
 30
0.0
 40
6.0
  0
LINE
  5
EB9
  8
SIZE
  6
CONTINUOUS
 62
    30
 10
292.5
 20
-473.00228299999998
 30
0.0
 11
280.5
 21
-473.00228299999998
 31
0.0
  0
TEXT
  5
EBA
  8
SIZE
  6
CONTINUOUS
 62
    30
 10
-110.5371428571428
 20
-448.00228299999998
 30
0.0
 40
64.0
  1
□585
 41
0.9
 72
     1
 11
0.0
 21
-448.00228299999998
 31
0.0
  0
CIRCLE
  5
EBB
  8
FIX
  6
CONTINUOUS
 62
    11
 39
50.0
 10
309.0
 20
-32.0
 30
0.0
 40
2.0
  0
CIRCLE
  5
EBC
  8
FIX
  6
CONTINUOUS
 62
    11
 39
50.0
 10
-309.0
 20
-32.0
 30
0.0
 40
2.0
  0
LINE
  5
EBD
  8
SIZE
  6
CONTINUOUS
 62
    30
 10
-322.95857699999988
 20
-114.0
 30
0.0
 11
-500.19679699999989
 21
-114.0
 31
0.0
  0
LINE
  5
EBE
  8
SIZE
  6
CONTINUOUS
 62
    30
 10
-311.49069800000001
 20
0.0
 30
0.0
 11
-500.19679699999989
 21
0.0
 31
0.0
  0
LINE
  5
EBF
  8
SIZE
  6
CONTINUOUS
 62
    30
 10
-480.19679699999989
 20
-102.0
 30
0.0
 11
-480.19679699999989
 21
-12.0
 31
0.0
  0
LINE
  5
EC0
  8
SIZE
  6
CONTINUOUS
 62
    30
 10
-480.19679699999989
 20
0.0
 30
0.0
 11
-480.19679699999989
 21
190.914286
 31
0.0
  0
CIRCLE
  5
EC1
  8
SIZE
  6
CONTINUOUS
 62
    30
 10
-480.19679699999989
 20
-114.0
 30
0.0
 40
6.0
  0
LINE
  5
EC2
  8
SIZE
  6
CONTINUOUS
 62
    30
 10
-480.19679699999989
 20
-114.0
 30
0.0
 11
-480.19679699999989
 21
-102.0
 31
0.0
  0
CIRCLE
  5
EC3
  8
SIZE
  6
CONTINUOUS
 62
    30
 10
-480.19679699999989
 20
0.0
 30
0.0
 40
6.0
  0
LINE
  5
EC4
  8
SIZE
  6
CONTINUOUS
 62
    30
 10
-480.19679699999989
 20
0.0
 30
0.0
 11
-480.19679699999989
 21
-12.0
 31
0.0
  0
TEXT
  5
EC5
  8
SIZE
  6
CONTINUOUS
 62
    30
 10
-505.19679699999989
 20
37.000000142857047
 30
0.0
 40
64.0
  1
114
 50
90.0
 41
0.9
 72
     1
 11
-505.19679699999989
 21
101.4571429999999
 31
0.0
  0
LINE
  5
EC6
  8
SIZE
  6
CONTINUOUS
 62
    30
 10
-311.49069800000001
 20
0.0
 30
0.0
 11
-620.19679699999995
 21
0.0
 31
0.0
  0
LINE
  5
EC7
  8
SIZE
  6
CONTINUOUS
 62
    30
 10
-274.51367753520748
 20
-222.80000000000001
 30
0.0
 11
-620.19679699999995
 21
-222.80000000000001
 31
0.0
  0
LINE
  5
EC8
  8
SIZE
  6
CONTINUOUS
 62
    30
 10
-600.19679699999995
 20
-12.0
 30
0.0
 11
-600.19679699999995
 21
-210.80000000000001
 31
0.0
  0
CIRCLE
  5
EC9
  8
SIZE
  6
CONTINUOUS
 62
    30
 10
-600.19679699999995
 20
0.0
 30
0.0
 40
6.0
  0
LINE
  5
ECA
  8
SIZE
  6
CONTINUOUS
 62
    30
 10
-600.19679699999995
 20
0.0
 30
0.0
 11
-600.19679699999995
 21
-12.0
 31
0.0
  0
CIRCLE
  5
ECB
  8
SIZE
  6
CONTINUOUS
 62
    30
 10
-600.19679699999995
 20
-222.80000000000001
 30
0.0
 40
6.0
  0
LINE
  5
ECC
  8
SIZE
  6
CONTINUOUS
 62
    30
 10
-600.19679699999995
 20
-222.80000000000001
 30
0.0
 11
-600.19679699999995
 21
-210.80000000000001
 31
0.0
  0
TEXT
  5
ECD
  8
SIZE
  6
CONTINUOUS
 62
    30
 10
-625.19679699999995
 20
-185.11428585714279
 30
0.0
 40
64.0
  1
223
 50
90.0
 41
0.9
 72
     1
 11
-625.19679699999995
 21
-111.057143
 31
0.0
  0
LINE
  5
ECE
  8
SIZE
  6
CONTINUOUS
 62
    30
 10
329.0
 20
0.0
 30
0.0
 11
1021.388041
 21
0.0
 31
0.0
  0
LINE
  5
ECF
  8
SIZE
  6
CONTINUOUS
 62
    30
 10
240.1399984723011
 20
-246.7999999999999
 30
0.0
 11
1021.388041
 21
-246.7999999999999
 31
0.0
  0
LINE
  5
ED0
  8
SIZE
  6
CONTINUOUS
 62
    30
 10
1001.388041
 20
-12.0
 30
0.0
 11
1001.388041
 21
-234.80000000000001
 31
0.0
  0
CIRCLE
  5
ED1
  8
SIZE
  6
CONTINUOUS
 62
    30
 10
1001.388041
 20
0.0
 30
0.0
 40
6.0
  0
LINE
  5
ED2
  8
SIZE
  6
CONTINUOUS
 62
    30
 10
1001.388041
 20
0.0
 30
0.0
 11
1001.388041
 21
-12.0
 31
0.0
  0
CIRCLE
  5
ED3
  8
SIZE
  6
CONTINUOUS
 62
    30
 10
1001.388041
 20
-246.7999999999999
 30
0.0
 40
6.0
  0
LINE
  5
ED4
  8
SIZE
  6
CONTINUOUS
 62
    30
 10
1001.388041
 20
-246.7999999999999
 30
0.0
 11
1001.388041
 21
-234.80000000000001
 31
0.0
  0
TEXT
  5
ED5
  8
SIZE
  6
CONTINUOUS
 62
    30
 10
976.38804100000004
 20
-197.4571428571428
 30
0.0
 40
64.0
  1
247
 50
90.0
 41
0.9
 72
     1
 11
976.38804100000004
 21
-123.39999999999991
 31
0.0
  0
TEXT
  5
ED6
  8
NOTE
  6
CONTINUOUS
 62
     4
 10
-233.91086899999991
 20
-139.72279199999991
 30
0.0
 40
40.0
  1
SA
 41
0.9
  0
TEXT
  5
ED7
  8
NOTE
  6
CONTINUOUS
 62
     4
 10
497.17119000000002
 20
-228.59232399999991
 30
0.0
 40
40.0
  1
OA2 RA2
 50
90.0
 41
0.9
  0
LINE
  5
ED8
  8
SIZE
  6
CONTINUOUS
 62
    30
 10
641.38804100000004
 20
-77.465085000000002
 30
0.0
 11
641.38804100000004
 21
-151.06983199999991
 31
0.0
  0
LINE
  5
ED9
  8
SIZE
  6
CONTINUOUS
 62
    30
 10
641.38804100000004
 20
-163.06983199999999
 30
0.0
 11
641.38804100000004
 21
-454.65292399999993
 31
0.0
  0
CIRCLE
  5
EDA
  8
SIZE
  6
CONTINUOUS
 62
    30
 10
641.38804100000004
 20
-65.465085000000002
 30
0.0
 40
6.0
  0
LINE
  5
EDB
  8
SIZE
  6
CONTINUOUS
 62
    30
 10
641.38804100000004
 20
-65.465085000000002
 30
0.0
 11
641.38804100000004
 21
-77.465085000000002
 31
0.0
  0
CIRCLE
  5
EDC
  8
SIZE
  6
CONTINUOUS
 62
    30
 10
641.38804100000004
 20
-163.06983199999999
 30
0.0
 40
6.0
  0
LINE
  5
EDD
  8
SIZE
  6
CONTINUOUS
 62
    30
 10
641.38804100000004
 20
-163.06983199999999
 30
0.0
 11
641.38804100000004
 21
-151.06983199999991
 31
0.0
  0
TEXT
  5
EDE
  8
SIZE
  6
CONTINUOUS
 62
    30
 10
616.38804100000004
 20
-441.17292442857138
 30
0.0
 40
64.0
  1
φ98
 50
90.0
 41
0.9
 72
     1
 11
616.38804100000004
 21
-354.22435300000001
 31
0.0
  0
LINE
  5
EDF
  8
SIZE
  6
CONTINUOUS
 62
    30
 10
402.32891899999981
 20
-52.0
 30
0.0
 11
781.38804100000004
 21
-52.0
 31
0.0
  0
LINE
  5
EE0
  8
SIZE
  6
CONTINUOUS
 62
    30
 10
402.32891899999981
 20
-176.0
 30
0.0
 11
781.38804100000004
 21
-176.0
 31
0.0
  0
LINE
  5
EE1
  8
SIZE
  6
CONTINUOUS
 62
    30
 10
761.38804100000004
 20
-64.0
 30
0.0
 11
761.38804100000004
 21
-164.0
 31
0.0
  0
LINE
  5
EE2
  8
SIZE
  6
CONTINUOUS
 62
    30
 10
761.38804100000004
 20
-176.0
 30
0.0
 11
761.38804100000004
 21
-496.64207299999998
 31
0.0
  0
CIRCLE
  5
EE3
  8
SIZE
  6
CONTINUOUS
 62
    30
 10
761.38804100000004
 20
-52.0
 30
0.0
 40
6.0
  0
LINE
  5
EE4
  8
SIZE
  6
CONTINUOUS
 62
    30
 10
761.38804100000004
 20
-52.0
 30
0.0
 11
761.38804100000004
 21
-64.0
 31
0.0
  0
CIRCLE
  5
EE5
  8
SIZE
  6
CONTINUOUS
 62
    30
 10
761.38804100000004
 20
-176.0
 30
0.0
 40
6.0
  0
LINE
  5
EE6
  8
SIZE
  6
CONTINUOUS
 62
    30
 10
761.38804100000004
 20
-176.0
 30
0.0
 11
761.38804100000004
 21
-164.0
 31
0.0
  0
TEXT
  5
EE7
  8
SIZE
  6
CONTINUOUS
 62
    30
 10
736.38804100000004
 20
-483.16207314285708
 30
0.0
 40
64.0
  1
φ124
 50
90.0
 41
0.9
 72
     1
 11
736.38804100000004
 21
-372.89921600000002
 31
0.0
  0
LINE
  5
EE8
  8
SIZE
  6
CONTINUOUS
 62
    30
 10
369.40860600000002
 20
-41.0
 30
0.0
 11
901.38804100000004
 21
-41.0
 31
0.0
  0
LINE
  5
EE9
  8
SIZE
  6
CONTINUOUS
 62
    30
 10
369.40860600000002
 20
-187.0
 30
0.0
 11
901.38804100000004
 21
-187.0
 31
0.0
  0
LINE
  5
EEA
  8
SIZE
  6
CONTINUOUS
 62
    30
 10
881.38804100000004
 20
-53.25
 30
0.0
 11
881.38804100000004
 21
-174.75
 31
0.0
  0
LINE
  5
EEB
  8
SIZE
  6
CONTINUOUS
 62
    30
 10
881.38804100000004
 20
-186.7499999999994
 30
0.0
 11
881.38804100000004
 21
-489.4528199999998
 31
0.0
  0
CIRCLE
  5
EEC
  8
SIZE
  6
CONTINUOUS
 62
    30
 10
881.38804100000004
 20
-41.25
 30
0.0
 40
6.0
  0
LINE
  5
EED
  8
SIZE
  6
CONTINUOUS
 62
    30
 10
881.38804100000004
 20
-41.25
 30
0.0
 11
881.38804100000004
 21
-53.25
 31
0.0
  0
CIRCLE
  5
EEE
  8
SIZE
  6
CONTINUOUS
 62
    30
 10
881.38804100000004
 20
-186.7499999999994
 30
0.0
 40
6.0
  0
LINE
  5
EEF
  8
SIZE
  6
CONTINUOUS
 62
    30
 10
881.38804100000004
 20
-186.7499999999994
 30
0.0
 11
881.38804100000004
 21
-174.75
 31
0.0
  0
TEXT
  5
EF0
  8
SIZE
  6
CONTINUOUS
 62
    30
 10
856.38804100000004
 20
-475.97281999999979
 30
0.0
 40
64.0
  1
φ146
 50
90.0
 41
0.9
 72
     1
 11
856.38804100000004
 21
-368.45281999999992
 31
0.0
  0
TEXT
  5
EF1
  8
ETC
  6
CONTINUOUS
 62
    61
 10
531.28470512084675
 20
520.00852968236472
 30
0.0
 40
64.0
  1
VL-20ZMH3-R-HM_2
 41
0.9
  0
TEXT
  5
EF2
  8
ETC
  6
CONTINUOUS
 62
    61
 10
663.58000573990603
 20
354.03182620404527
 30
0.0
 40
50.0
  1
VL-20ZMH3-R-HM
 41
0.9
  0
TEXT
  5
EF3
  8
ETC
  6
CONTINUOUS
 62
    61
 10
527.0987111208467
 20
420.05969880056148
 30
0.0
 40
64.0
  1
換気扇
 41
0.9
  0
CIRCLE
  5
EF4
  8
ARRANGE
  6
CONTINUOUS
 62
     1
 10
0.0
 20
0.0
 30
0.0
 40
40.0
  0
POINT
  5
EF5
  8
ARRANGE
  6
CONTINUOUS
 62
     1
 10
0.0
 20
0.0
 30
0.0
 39
50.0
  0
LINE
  5
EF6
  8
OUTLINE
  6
CONTINUOUS
 62
     3
 10
269.83418980006161
 20
-222.80000000000001
 30
0.0
 11
0.0
 21
-222.80000000000001
 31
0.0
  0
LINE
  5
EF7
  8
OUTLINE
  6
CONTINUOUS
 62
     3
 10
285.0
 20
0.0
 30
0.0
 11
0.0
 21
0.0
 31
0.0
  0
LINE
  5
EF8
  8
BASIS
  6
DASHDOT
 62
     6
 10
-202.49999999999989
 20
-207.02256299999991
 30
0.0
 11
-202.49999999999989
 21
-25.947510000000001
 31
0.0
  0
LINE
  5
EF9
  8
OUTLINE
  6
CONTINUOUS
 62
     3
 10
-285.0
 20
0.0
 30
0.0
 11
-285.0
 21
-185.30000000000001
 31
0.0
  0
LINE
  5
EFA
  8
OUTLINE
  6
CONTINUOUS
 62
     3
 10
-265.93311
 20
-222.80000000000001
 30
0.0
 11
0.0
 21
-222.80000000000001
 31
0.0
  0
LINE
  5
EFB
  8
OUTLINE
  6
CONTINUOUS
 62
     3
 10
-285.0
 20
-185.30000000000001
 30
0.0
 11
-291.60000000000002
 21
-185.30000000000001
 31
0.0
  0
LINE
  5
EFC
  8
OUTLINE
  6
CONTINUOUS
 62
     3
 10
-287.48019500000009
 20
-193.7896549999999
 30
0.0
 11
-287.57524999999993
 21
-193.30000000000001
 31
0.0
  0
LINE
  5
EFD
  8
OUTLINE
  6
CONTINUOUS
 62
     3
 10
-286.55943999999982
 20
-197.0597799999999
 30
0.0
 11
-270.0288700000001
 21
-220.66787999999991
 31
0.0
  0
ARC
  5
EFE
  8
OUTLINE
  6
CONTINUOUS
 62
     3
 10
-265.93311
 20
-217.80000000000001
 30
0.0
 40
5.0
 50
214.99999999999989
 51
270.0
  0
LINE
  5
EFF
  8
OUTLINE
  6
CONTINUOUS
 62
     3
 10
-287.47165000000001
 20
-194.27931000000001
 30
0.0
 11
-287.48874000000001
 21
-193.30000000000001
 31
0.0
  0
ARC
  5
F00
  8
OUTLINE
  6
CONTINUOUS
 62
     3
 10
-282.46368000000001
 20
-194.1919
 30
0.0
 40
5.0
 50
181.0
 51
214.99999999999989
  0
LINE
  5
F01
  8
BASIS
  6
DASHDOT
 62
     6
 10
-302.95857699999999
 20
-114.0
 30
0.0
 11
-105.69669500000001
 21
-114.0
 31
0.0
  0
LINE
  5
F02
  8
OUTLINE
  6
CONTINUOUS
 62
     3
 10
-285.0
 20
0.0
 30
0.0
 11
0.0
 21
0.0
 31
0.0
  0
LINE
  5
F03
  8
OUTLINE
  6
CONTINUOUS
 62
     3
 10
285.0
 20
0.0
 30
0.0
 11
285.0
 21
-185.30000000000001
 31
0.0
  0
LINE
  5
F04
  8
BASIS
  6
DASHDOT
 62
     6
 10
202.49999999999989
 20
-204.807278
 30
0.0
 11
202.49999999999989
 21
-25.947510000000001
 31
0.0
  0
LINE
  5
F05
  8
OUTLINE
  6
CONTINUOUS
 62
     3
 10
285.0
 20
-185.30000000000001
 30
0.0
 11
291.60000000000002
 21
-185.30000000000001
 31
0.0
  0
ARC
  5
F06
  8
DETAIL
  6
CONTINUOUS
 62
     5
 10
-289.59050087784323
 20
-190.30000000000001
 30
0.0
 40
3.0
 50
180.30660267554151
 51
270.0
  0
LINE
  5
F07
  8
DETAIL
  6
CONTINUOUS
 62
     5
 39
50.0
 10
292.5
 20
-190.30000000000001
 30
0.0
 11
292.5
 21
-186.1999999999999
 31
0.0
  0
ARC
  5
F08
  8
DETAIL
  6
CONTINUOUS
 62
     5
 10
289.49999999999989
 20
-190.30000000000001
 30
0.0
 40
3.0
 50
270.0
 51
0.0
  0
ARC
  5
F09
  8
DETAIL
  6
CONTINUOUS
 62
     5
 39
50.0
 10
291.60000000000002
 20
-186.1999999999999
 30
0.0
 40
0.9
 50
0.0
 51
90.0
  0
LINE
  5
F0A
  8
OUTLINE
  6
CONTINUOUS
 62
     3
 39
50.0
 10
292.5
 20
-190.30000000000001
 30
0.0
 11
292.5
 21
-186.1999999999999
 31
0.0
  0
LINE
  5
F0B
  8
OUTLINE
  6
CONTINUOUS
 62
     3
 39
50.0
 10
-292.5
 20
-190.2999999999999
 30
0.0
 11
-292.49999999999972
 21
-186.1999999999999
 31
0.0
  0
LINE
  5
F0C
  8
OUTLINE
  6
CONTINUOUS
 62
     3
 39
50.0
 10
-287.57524999999993
 20
-193.30000000000001
 30
0.0
 11
-289.49999999999989
 21
-193.30000000000001
 31
0.0
  0
ARC
  5
F0D
  8
OUTLINE
  6
CONTINUOUS
 62
     3
 10
-291.60000000000002
 20
-186.1999999999999
 30
0.0
 40
0.9
 50
90.0
 51
180.0
  0
ARC
  5
F0E
  8
OUTLINE
  6
CONTINUOUS
 62
     3
 39
50.0
 10
-289.49999999999989
 20
-190.30000000000001
 30
0.0
 40
3.0
 50
179.9999999999994
 51
270.00000000000028
  0
ARC
  5
F0F
  8
OUTLINE
  6
CONTINUOUS
 62
     3
 39
50.0
 10
291.60000000000002
 20
-186.1999999999999
 30
0.0
 40
0.9
 50
0.0
 51
90.0
  0
ARC
  5
F10
  8
OUTLINE
  6
CONTINUOUS
 62
     3
 39
50.0
 10
289.49999999999989
 20
-190.30000000000001
 30
0.0
 40
3.0
 50
270.0
 51
0.0
  0
LINE
  5
F11
  8
OUTLINE
  6
CONTINUOUS
 62
     3
 39
50.0
 10
289.49999999999989
 20
-193.30000000000001
 30
0.0
 11
288.48904798787459
 21
-193.28235457675561
 31
0.0
  0
LINE
  5
F12
  8
OUTLINE
  6
CONTINUOUS
 62
     3
 39
50.0
 10
288.48874000000001
 20
-193.30000000000001
 30
0.0
 11
288.44905999999992
 21
-195.57337000000001
 31
0.0
  0
LINE
  5
F13
  8
OUTLINE
  6
CONTINUOUS
 62
     3
 39
50.0
 10
288.44905999999992
 20
-195.57337000000001
 30
0.0
 11
274.16364822040509
 21
-220.30115768925481
 31
0.0
  0
ARC
  5
F14
  8
OUTLINE
  6
CONTINUOUS
 62
     3
 10
269.83418980006161
 20
-217.80000000000001
 30
0.0
 40
5.0
 50
270.0
 51
329.9846803964565
  0
CIRCLE
  5
F15
  8
DETAIL
  6
CONTINUOUS
 62
     5
 39
50.0
 10
-202.49999999999989
 20
-114.0
 30
0.0
 40
49.0
  0
CIRCLE
  5
F16
  8
DETAIL
  6
CONTINUOUS
 62
     5
 39
50.0
 10
-202.49999999999989
 20
-114.0
 30
0.0
 40
62.0
  0
ARC
  5
F17
  8
DETAIL
  6
CONTINUOUS
 62
     5
 39
50.0
 10
-202.49999999999989
 20
-114.0
 30
0.0
 40
73.0
 50
31.86274681979738
 51
148.13725309773631
  0
CIRCLE
  5
F18
  8
DETAIL
  6
CONTINUOUS
 62
     5
 39
50.0
 10
202.49999999999989
 20
-114.0
 30
0.0
 40
49.0
  0
CIRCLE
  5
F19
  8
DETAIL
  6
CONTINUOUS
 62
     5
 39
50.0
 10
202.49999999999989
 20
-114.0
 30
0.0
 40
62.0
  0
ARC
  5
F1A
  8
DETAIL
  6
CONTINUOUS
 62
     5
 39
50.0
 10
202.49999999999989
 20
-113.9999999999999
 30
0.0
 40
73.000000000000028
 50
211.8627519658981
 51
328.13724771364571
  0
ARC
  5
F1B
  8
DETAIL
  6
CONTINUOUS
 62
     5
 39
50.0
 10
202.49999999999989
 20
-114.0
 30
0.0
 40
73.0
 50
31.862747067568851
 51
148.1372532795134
  0
ARC
  5
F1C
  8
DETAIL
  6
CONTINUOUS
 62
     5
 39
50.0
 10
-202.49999999999989
 20
-114.0
 30
0.0
 40
73.0
 50
211.8627520427672
 51
328.13724788071448
  0
LINE
  5
F1D
  8
SIZE
  6
CONTINUOUS
 62
    30
 39
50.0
 10
448.87982574574892
 20
-65.0
 30
0.0
 11
662.29992011582544
 21
-65.0
 31
0.0
  0
LINE
  5
F1E
  8
SIZE
  6
CONTINUOUS
 62
    30
 39
50.0
 10
448.87982574574892
 20
-163.0
 30
0.0
 11
661.83189135227894
 21
-163.0
 31
0.0
  0
CIRCLE
  5
F1F
  8
DETAIL
  6
CONTINUOUS
 62
     5
 39
50.0
 10
202.49999999999989
 20
-114.0
 30
0.0
 40
47.0
  0
CIRCLE
  5
F20
  8
DETAIL
  6
CONTINUOUS
 62
     5
 39
50.0
 10
-202.49999999999989
 20
-114.0
 30
0.0
 40
47.0
  0
LINE
  5
F21
  8
DETAIL
  6
CONTINUOUS
 62
     5
 39
50.0
 10
-285.0
 20
-239.0
 30
0.0
 11
-239.1999999999999
 21
-239.0
 31
0.0
  0
CIRCLE
  5
F22
  8
SIZE
  6
CONTINUOUS
 62
    30
 39
50.0
 10
-722.16980240689634
 20
0.0000000000000289
 30
0.0
 40
6.0
  0
CIRCLE
  5
F23
  8
SIZE
  6
CONTINUOUS
 62
    30
 39
50.0
 10
-722.16980240689634
 20
-238.99999999999969
 30
0.0
 40
6.0
  0
LINE
  5
F24
  8
SIZE
  6
CONTINUOUS
 10
-620.19679699999995
 20
0.0
 30
0.0
 11
-742.16980240689634
 21
0.0000000000000346
 31
0.0
  0
LINE
  5
F25
  8
SIZE
  6
CONTINUOUS
 10
-305.0
 20
-239.0
 30
0.0
 11
-742.16980240689634
 21
-238.99999999999969
 31
0.0
  0
LINE
  5
F26
  8
SIZE
  6
CONTINUOUS
 10
-722.16980240689634
 20
0.0000000000000289
 30
0.0
 11
-722.16980240689634
 21
-238.99999999999969
 31
0.0
  0
TEXT
  5
F27
  8
NOTE
  6
CONTINUOUS
 10
-524.66260555812642
 20
-412.63229952544458
 30
0.0
 40
64.0
  1
EL
 41
0.9
  0
LINE
  5
F28
  8
NOTE
  6
CONTINUOUS
 62
     4
 10
-309.479600467034
 20
-261.63461965907572
 30
0.0
 11
-435.73756794883042
 21
-424.79589288301429
 31
0.0
1001
ACAD
1000
DSTYLE
1002
{
1070
    41
1040
40.0
1070
    42
1040
20.0
1070
    43
1040
200.0
1070
    44
1040
20.0
1070
    73
1070
     0
1070
    74
1070
     0
1070
    77
1070
     0
1070
    78
1070
     8
1070
   140
1040
64.0
1070
   147
1040
25.0
1070
   172
1070
     1
1070
   174
1070
     1
1070
   176
1070
   256
1070
   177
1070
   256
1070
   178
1070
   256
1070
   275
1070
     0
1070
   279
1070
     0
1070
   284
1070
     0
1070
   285
1070
     0
1070
   286
1070
     0
1070
   341
1005
A0F
1070
   342
1005
A0C
1070
   343
1005
A0C
1070
   344
1005
844
1002
}
  0
LINE
  5
F29
  8
NOTE
  6
CONTINUOUS
 62
     4
 10
-435.73756794883042
 20
-424.79589288301429
 30
0.0
 11
-530.27892529036205
 21
-424.79589288301429
 31
0.0
1001
ACAD
1000
DSTYLE
1002
{
1070
    41
1040
40.0
1070
    42
1040
20.0
1070
    43
1040
200.0
1070
    44
1040
20.0
1070
    73
1070
     0
1070
    74
1070
     0
1070
    77
1070
     0
1070
    78
1070
     8
1070
   140
1040
64.0
1070
   147
1040
25.0
1070
   172
1070
     1
1070
   174
1070
     1
1070
   176
1070
   256
1070
   177
1070
   256
1070
   178
1070
   256
1070
   275
1070
     0
1070
   279
1070
     0
1070
   284
1070
     0
1070
   285
1070
     0
1070
   286
1070
     0
1070
   341
1005
A0F
1070
   342
1005
A0C
1070
   343
1005
A0C
1070
   344
1005
844
1002
}
  0
TEXT
  5
F2A
  8
SIZE
  6
CONTINUOUS
 62
    30
 10
-747.16980240689634
 20
-192.18571428571431
 30
0.0
 40
64.0
  1
239
 50
90.0
 41
0.9
  0
LINE
  5
F2B
  8
NOTE
  6
CONTINUOUS
 62
     4
 10
-317.95607118064152
 20
-255.0753305424104
 30
0.0
 11
-285.0
 21
-230.0
 31
0.0
  0
LINE
  5
F2C
  8
NOTE
  6
CONTINUOUS
 62
     4
 10
-285.0
 20
-230.0
 30
0.0
 11
-301.00312975342661
 21
-268.19390877574108
 31
0.0
  0
LINE
  5
F2D
  8
NOTE
  6
CONTINUOUS
 62
     4
 10
-285.0
 20
-230.0
 30
0.0
 11
-309.479600467034
 21
-261.63461965907572
 31
0.0
  0
LINE
  5
F2E
  8
NOTE
  6
CONTINUOUS
 62
     4
 39
50.0
 10
-300.0
 20
-230.0
 30
0.0
 11
-270.0
 21
-230.0
 31
0.0
  0
LINE
  5
F2F
  8
NOTE
  6
CONTINUOUS
 62
     4
 39
50.0
 10
-285.0
 20
-245.0
 30
0.0
 11
-285.0
 21
-215.0
 31
0.0
  0
ENDSEC
  0
EOF
