  0
SECTION
  2
HEADER
  9
$ACADVER
  1
AC1009
  9
$INSBASE
 10
0.0
 20
0.0
 30
0.0
  9
$EXTMIN
 10
-1390.910145566964
 20
-618.15479707399106
 30
0.0
  9
$EXTMAX
 10
1210.5958878269109
 20
768.81009985961191
 30
0.0
  9
$LIMMIN
 10
-2970.0
 20
-2100.0
  9
$LIMMAX
 10
2970.0
 20
2100.0
  9
$ORTHOMODE
 70
     1
  9
$REGENMODE
 70
     0
  9
$FILLMODE
 70
     1
  9
$QTEXTMODE
 70
     0
  9
$MIRRTEXT
 70
     0
  9
$DRAGMODE
 70
     2
  9
$LTSCALE
 40
20.0
  9
$OSMODE
 70
   169
  9
$ATTMODE
 70
     1
  9
$TEXTSIZE
 40
64.0
  9
$TRACEWID
 40
0.05
  9
$TEXTSTYLE
  7
STANDARD
  9
$CLAYER
  8
0
  9
$CELTYPE
  6
CONTINUOUS
  9
$CECOLOR
 62
   256
  9
$DIMSCALE
 40
1.0
  9
$DIMASZ
 40
2.0
  9
$DIMEXO
 40
20.0
  9
$DIMDLI
 40
200.0
  9
$DIMRND
 40
0.0
  9
$DIMDLE
 40
0.0
  9
$DIMEXE
 40
30.0
  9
$DIMTP
 40
0.0
  9
$DIMTM
 40
0.0
  9
$DIMTXT
 40
64.0
  9
$DIMCEN
 40
0.09
  9
$DIMTSZ
 40
0.0
  9
$DIMTOL
 70
     0
  9
$DIMLIM
 70
     0
  9
$DIMTIH
 70
     0
  9
$DIMTOH
 70
     0
  9
$DIMSE1
 70
     0
  9
$DIMSE2
 70
     0
  9
$DIMTAD
 70
     1
  9
$DIMZIN
 70
     8
  9
$DIMBLK
  1
DOT1
  9
$DIMASO
 70
     1
  9
$DIMSHO
 70
     0
  9
$DIMPOST
  1

  9
$DIMAPOST
  1

  9
$DIMALT
 70
     0
  9
$DIMALTD
 70
     2
  9
$DIMALTF
 40
25.399999999999999
  9
$DIMLFAC
 40
1.0
  9
$DIMTOFL
 70
     1
  9
$DIMTVP
 40
0.0
  9
$DIMTIX
 70
     1
  9
$DIMSOXD
 70
     0
  9
$DIMSAH
 70
     0
  9
$DIMBLK1
  1

  9
$DIMBLK2
  1

  9
$DIMSTYLE
  2
STANDARD
  9
$DIMCLRD
 70
     0
  9
$DIMCLRE
 70
     0
  9
$DIMCLRT
 70
     0
  9
$DIMTFAC
 40
1.0
  9
$DIMGAP
 40
0.09
  9
$LUNITS
 70
     2
  9
$LUPREC
 70
     4
  9
$SKETCHINC
 40
0.1
  9
$FILLETRAD
 40
0.0
  9
$AUNITS
 70
     1
  9
$AUPREC
 70
     3
  9
$MENU
  1
ACAD
  9
$ELEVATION
 40
0.0
  9
$PELEVATION
 40
0.0
  9
$THICKNESS
 40
0.0
  9
$LIMCHECK
 70
     1
  9
$BLIPMODE
 70
     0
  9
$CHAMFERA
 40
0.0
  9
$CHAMFERB
 40
0.0
  9
$SKPOLY
 70
     0
  9
$TDCREATE
 40
2449594.5391899999
  9
$TDUPDATE
 40
2453767.8029354741
  9
$TDINDWG
 40
0.0198354051
  9
$TDUSRTIMER
 40
0.0198352315
  9
$USRTIMER
 70
     1
  9
$ANGBASE
 50
0.0
  9
$ANGDIR
 70
     0
  9
$PDMODE
 70
     3
  9
$PDSIZE
 40
-2.0
  9
$PLINEWID
 40
0.0
  9
$COORDS
 70
     2
  9
$SPLFRAME
 70
     0
  9
$SPLINETYPE
 70
     6
  9
$SPLINESEGS
 70
     8
  9
$ATTDIA
 70
     0
  9
$ATTREQ
 70
     1
  9
$HANDLING
 70
 22529
  9
$HANDSEED
  5
59F
  9
$SURFTAB1
 70
     6
  9
$SURFTAB2
 70
     6
  9
$SURFTYPE
 70
     6
  9
$SURFU
 70
     6
  9
$SURFV
 70
     6
  9
$UCSNAME
  2

  9
$UCSORG
 10
0.0
 20
0.0
 30
0.0
  9
$UCSXDIR
 10
1.0
 20
0.0
 30
0.0
  9
$UCSYDIR
 10
0.0
 20
1.0
 30
0.0
  9
$PUCSNAME
  2

  9
$PUCSORG
 10
0.0
 20
0.0
 30
0.0
  9
$PUCSXDIR
 10
1.0
 20
0.0
 30
0.0
  9
$PUCSYDIR
 10
0.0
 20
1.0
 30
0.0
  9
$USERI1
 70
     0
  9
$USERI2
 70
     0
  9
$USERI3
 70
     0
  9
$USERI4
 70
     0
  9
$USERI5
 70
     0
  9
$USERR1
 40
20.0
  9
$USERR2
 40
0.0
  9
$USERR3
 40
0.0
  9
$USERR4
 40
0.0
  9
$USERR5
 40
0.0
  9
$WORLDVIEW
 70
     1
  9
$SHADEDGE
 70
     3
  9
$SHADEDIF
 70
    70
  9
$TILEMODE
 70
     1
  9
$MAXACTVP
 70
    64
  9
$PLIMCHECK
 70
     0
  9
$PEXTMIN
 10
1.0000000000000000E+020
 20
1.0000000000000000E+020
 30
1.0000000000000000E+020
  9
$PEXTMAX
 10
-1.0000000000000000E+020
 20
-1.0000000000000000E+020
 30
-1.0000000000000000E+020
  9
$PLIMMIN
 10
0.0
 20
0.0
  9
$PLIMMAX
 10
12.0
 20
9.0
  9
$UNITMODE
 70
     0
  9
$VISRETAIN
 70
     1
  9
$PLINEGEN
 70
     0
  9
$PSLTSCALE
 70
     1
  0
ENDSEC
  0
SECTION
  2
TABLES
  0
TABLE
  2
VPORT
 70
     5
  0
VPORT
  2
*ACTIVE
 70
     0
 10
0.0
 20
0.0
 11
1.0
 21
1.0
 12
12.488488781569909
 22
-30.269594066158099
 13
0.0
 23
0.0
 14
400.0
 24
400.0
 15
400.0
 25
400.0
 16
0.0
 26
0.0
 36
1.0
 17
0.0
 27
0.0
 37
0.0
 40
2364.4430030267731
 41
1.447268106734434
 42
50.0
 43
0.0
 44
0.0
 50
0.0
 51
0.0
 71
     0
 72
   500
 73
     1
 74
     0
 75
     0
 76
     0
 77
     0
 78
     0
  0
ENDTAB
  0
TABLE
  2
LTYPE
 70
     3
  0
LTYPE
  2
CONTINUOUS
 70
     0
  3
実線
 72
    65
 73
     0
 40
0.0
  0
LTYPE
  2
DASHED
 70
     0
  3
_ _ _ _ _ _ _ _ _ _ _ _ _ _ _ _ _ _ _ _ _ _ _
 72
    65
 73
     2
 40
2.0
 49
1.1999999999999991
 49
-0.8
  0
LTYPE
  2
DASHDOT
 70
     0
  3
____ _ ____ _ ____ _ ____ _ ____ _ ____ _ ____
 72
    65
 73
     4
 40
5.5
 49
4.0
 49
-0.6
 49
0.3
 49
-0.6
  0
ENDTAB
  0
TABLE
  2
LAYER
 70
    12
  0
LAYER
  2
0
 70
     0
 62
     7
  6
CONTINUOUS
  0
LAYER
  2
OUTLINE
 70
     0
 62
     3
  6
CONTINUOUS
  0
LAYER
  2
SIZE
 70
     0
 62
    30
  6
CONTINUOUS
  0
LAYER
  2
DETAIL
 70
     0
 62
     5
  6
CONTINUOUS
  0
LAYER
  2
BASIS
 70
     0
 62
     6
  6
DASHDOT
  0
LAYER
  2
NOTE
 70
     0
 62
     4
  6
CONTINUOUS
  0
LAYER
  2
DEFPOINTS
 70
     0
 62
     7
  6
CONTINUOUS
  0
LAYER
  2
ARRANGE
 70
     0
 62
     1
  6
CONTINUOUS
  0
LAYER
  2
ETC
 70
     0
 62
    61
  6
CONTINUOUS
  0
LAYER
  2
FIX
 70
     0
 62
    11
  6
CONTINUOUS
  0
LAYER
  2
SERVICESPACE
 70
     0
 62
     2
  6
DASHDOT
  0
LAYER
  2
SYMBOLLINE
 70
     0
 62
    15
  6
CONTINUOUS
  0
ENDTAB
  0
TABLE
  2
STYLE
 70
     1
  0
STYLE
  2
STANDARD
 70
     0
 40
0.0
 41
0.9
 50
0.0
 71
     0
 42
64.0
  3
SIMPLEX
  4
BIGFONT
  0
ENDTAB
  0
TABLE
  2
VIEW
 70
     1
  0
VIEW
  2
ALL
 70
     0
 40
4508.0208510000002
 10
0.0
 20
41.309903999999989
 41
6252.631578999999
 11
0.0
 21
0.0
 31
1.0
 12
0.0
 22
0.0
 32
0.0
 42
50.0
 43
0.0
 44
0.0
 50
0.0
 71
     0
  0
ENDTAB
  0
TABLE
  2
UCS
 70
     0
  0
ENDTAB
  0
TABLE
  2
APPID
 70
     1
  0
APPID
  2
ACAD
 70
     0
  0
ENDTAB
  0
TABLE
  2
DIMSTYLE
 70
     1
  0
DIMSTYLE
  2
STANDARD
 70
     0
  3

  4

  5

  6

  7

 40
1.0
 41
0.18
 42
0.0625
 43
0.38
 44
0.18
 45
0.0
 46
0.0
 47
0.0
 48
0.0
140
0.18
141
0.09
142
0.0
143
25.399999999999999
144
1.0
145
0.0
146
1.0
147
0.09
 71
     0
 72
     0
 73
     1
 74
     1
 75
     0
 76
     0
 77
     0
 78
     0
170
     0
171
     2
172
     0
173
     0
174
     0
175
     0
176
     0
177
     0
178
     0
  0
ENDTAB
  0
ENDSEC
  0
SECTION
  2
BLOCKS
  0
BLOCK
  8
0
  2
$MODEL_SPACE
 70
     0
 10
0.0
 20
0.0
 30
0.0
  3
$MODEL_SPACE
  1

  0
ENDBLK
  5
412
  8
0
  0
BLOCK
 67
     1
  8
0
  2
$PAPER_SPACE
 70
     0
 10
0.0
 20
0.0
 30
0.0
  3
$PAPER_SPACE
  1

  0
ENDBLK
  5
40E
 67
     1
  8
0
  0
BLOCK
  8
OUTLINE
  2
DOT1
 70
     0
 10
0.0
 20
0.0
 30
0.0
  3
DOT1
  1

  0
CIRCLE
  5
42E
  8
SIZE
  6
CONTINUOUS
 62
     7
 10
0.0
 20
0.0
 30
0.0
 40
3.0
  0
ENDBLK
  5
42F
  8
OUTLINE
  0
ENDSEC
  0
SECTION
  2
ENTITIES
  0
LINE
  5
430
  8
NOTE
  6
CONTINUOUS
 62
     4
 10
222.0
 20
20.0
 30
0.0
 11
222.0
 21
-20.0
 31
0.0
  0
LINE
  5
431
  8
NOTE
  6
CONTINUOUS
 62
     4
 10
202.0
 20
0.0
 30
0.0
 11
242.0
 21
0.0
 31
0.0
  0
LINE
  5
432
  8
NOTE
  6
CONTINUOUS
 62
     4
 10
140.0
 20
20.0
 30
0.0
 11
140.0
 21
-20.0
 31
0.0
  0
LINE
  5
433
  8
NOTE
  6
CONTINUOUS
 62
     4
 10
120.0
 20
0.0
 30
0.0
 11
160.0
 21
0.0
 31
0.0
  0
LINE
  5
434
  8
NOTE
  6
CONTINUOUS
 62
     4
 10
-140.0
 20
20.0
 30
0.0
 11
-140.0
 21
-20.0
 31
0.0
  0
LINE
  5
435
  8
NOTE
  6
CONTINUOUS
 62
     4
 10
-160.0
 20
0.0
 30
0.0
 11
-120.0
 21
0.0
 31
0.0
  0
LINE
  5
436
  8
NOTE
  6
CONTINUOUS
 62
     4
 10
-222.0
 20
20.0
 30
0.0
 11
-222.0
 21
-20.0
 31
0.0
  0
LINE
  5
437
  8
NOTE
  6
CONTINUOUS
 62
     4
 10
-242.0
 20
0.0
 30
0.0
 11
-202.0
 21
0.0
 31
0.0
  0
LINE
  5
438
  8
NOTE
  6
CONTINUOUS
 62
     4
 10
-236.0
 20
80.0
 30
0.0
 11
-236.0
 21
40.0
 31
0.0
  0
LINE
  5
439
  8
NOTE
  6
CONTINUOUS
 62
     4
 10
-256.0
 20
60.0
 30
0.0
 11
-216.0
 21
60.0
 31
0.0
  0
LINE
  5
43A
  8
NOTE
  6
CONTINUOUS
 62
     4
 10
-141.0
 20
220.0
 30
0.0
 11
-141.0
 21
180.0
 31
0.0
  0
LINE
  5
43B
  8
NOTE
  6
CONTINUOUS
 62
     4
 10
-161.0
 20
200.0
 30
0.0
 11
-121.0
 21
200.0
 31
0.0
  0
LINE
  5
43C
  8
DETAIL
  6
CONTINUOUS
 62
     5
 10
-270.0
 20
83.0
 30
0.0
 11
-245.0
 21
78.0
 31
0.0
  0
LINE
  5
43D
  8
DETAIL
  6
DASHED
 62
     5
 10
-270.0
 20
183.0
 30
0.0
 11
-275.0
 21
182.0
 31
0.0
  0
LINE
  5
43E
  8
DETAIL
  6
CONTINUOUS
 62
     5
 10
-245.0
 20
188.0
 30
0.0
 11
-270.0
 21
183.0
 31
0.0
  0
LINE
  5
43F
  8
DETAIL
  6
DASHED
 62
     5
 10
-275.0
 20
84.0
 30
0.0
 11
-270.0
 21
83.0
 31
0.0
  0
LINE
  5
440
  8
DETAIL
  6
CONTINUOUS
 62
     5
 10
-245.0
 20
78.0
 30
0.0
 11
-245.0
 21
188.0
 31
0.0
  0
LINE
  5
441
  8
BASIS
  6
DASHDOT
 62
     6
 10
0.0
 20
-63.910982999999987
 30
0.0
 11
0.0
 21
281.48842100000002
 31
0.0
  0
LINE
  5
442
  8
BASIS
  6
DASHDOT
 62
     6
 10
-323.150488
 20
133.0
 30
0.0
 11
-178.29826299999999
 21
133.0
 31
0.0
  0
LINE
  5
445
  8
DETAIL
  6
CONTINUOUS
 62
     5
 10
-210.0
 20
200.0
 30
0.0
 11
210.0
 21
200.0
 31
0.0
  0
LINE
  5
446
  8
DETAIL
  6
CONTINUOUS
 62
     5
 10
210.0
 20
0.0
 30
0.0
 11
210.0
 21
200.0
 31
0.0
  0
LINE
  5
447
  8
DETAIL
  6
CONTINUOUS
 62
     5
 10
-210.0
 20
0.0
 30
0.0
 11
-210.0
 21
200.0
 31
0.0
  0
LINE
  5
44A
  8
DETAIL
  6
CONTINUOUS
 62
     5
 10
-245.0
 20
78.0
 30
0.0
 11
-210.0
 21
78.0
 31
0.0
  0
LINE
  5
44B
  8
DETAIL
  6
CONTINUOUS
 62
     5
 10
-245.0
 20
188.0
 30
0.0
 11
-210.0
 21
188.0
 31
0.0
  0
LINE
  5
44C
  8
DETAIL
  6
CONTINUOUS
 62
     5
 10
-300.0
 20
84.0
 30
0.0
 11
-275.0
 21
84.0
 31
0.0
  0
LINE
  5
44D
  8
DETAIL
  6
CONTINUOUS
 62
     5
 10
-300.0
 20
182.0
 30
0.0
 11
-275.0
 21
182.0
 31
0.0
  0
LINE
  5
44E
  8
DETAIL
  6
CONTINUOUS
 62
     5
 10
-300.0
 20
84.0
 30
0.0
 11
-300.0
 21
182.0
 31
0.0
  0
LINE
  5
44F
  8
DETAIL
  6
CONTINUOUS
 62
     5
 10
-275.0
 20
84.0
 30
0.0
 11
-275.0
 21
182.0
 31
0.0
  0
LINE
  5
450
  8
DETAIL
  6
CONTINUOUS
 62
     5
 10
-236.0
 20
53.5
 30
0.0
 11
-236.0
 21
66.5
 31
0.0
  0
LINE
  5
45B
  8
SIZE
  6
CONTINUOUS
 62
    30
 10
-320.0
 20
182.0
 30
0.0
 11
-636.88334499999985
 21
182.0
 31
0.0
  0
LINE
  5
45C
  8
SIZE
  6
CONTINUOUS
 62
    30
 10
-320.0
 20
84.0
 30
0.0
 11
-636.88334499999985
 21
84.0
 31
0.0
  0
LINE
  5
45D
  8
SIZE
  6
CONTINUOUS
 62
    30
 10
-606.88334499999985
 20
82.0
 30
0.0
 11
-606.88334499999985
 21
80.0
 31
0.0
  0
LINE
  5
45E
  8
SIZE
  6
CONTINUOUS
 62
    30
 10
-606.88334499999985
 20
184.0
 30
0.0
 11
-606.88334499999985
 21
186.0
 31
0.0
  0
CIRCLE
  5
45F
  8
SIZE
  6
CONTINUOUS
 62
    30
 10
-606.88334499999985
 20
84.0
 30
0.0
 40
6.0
  0
CIRCLE
  5
460
  8
SIZE
  6
CONTINUOUS
 62
    30
 10
-606.88334499999985
 20
182.0
 30
0.0
 40
6.0
  0
LINE
  5
461
  8
SIZE
  6
CONTINUOUS
 62
    30
 10
-606.88334499999985
 20
84.0
 30
0.0
 11
-606.88334499999985
 21
182.0
 31
0.0
  0
TEXT
  5
462
  8
SIZE
  6
CONTINUOUS
 62
    30
 10
-638.88334499999985
 20
59.571429000000002
 30
0.0
 40
64.0
  1
φ98
 50
90.0
 41
0.9
  0
LINE
  5
466
  8
SIZE
  6
CONTINUOUS
 62
    30
 10
-265.0
 20
78.0
 30
0.0
 11
-753.87339499999985
 21
78.0
 31
0.0
  0
LINE
  5
467
  8
SIZE
  6
CONTINUOUS
 62
    30
 10
-265.0
 20
188.0
 30
0.0
 11
-753.87339499999985
 21
188.0
 31
0.0
  0
LINE
  5
468
  8
SIZE
  6
CONTINUOUS
 62
    30
 10
-723.87339499999985
 20
190.0
 30
0.0
 11
-723.87339499999985
 21
192.0
 31
0.0
  0
LINE
  5
469
  8
SIZE
  6
CONTINUOUS
 62
    30
 10
-723.87339499999985
 20
76.0
 30
0.0
 11
-723.87339499999985
 21
74.0
 31
0.0
  0
CIRCLE
  5
46A
  8
SIZE
  6
CONTINUOUS
 62
    30
 10
-723.87339499999985
 20
188.0
 30
0.0
 40
6.0
  0
CIRCLE
  5
46B
  8
SIZE
  6
CONTINUOUS
 62
    30
 10
-723.87339499999985
 20
78.0
 30
0.0
 40
6.0
  0
LINE
  5
46C
  8
SIZE
  6
CONTINUOUS
 62
    30
 10
-723.87339499999985
 20
188.0
 30
0.0
 11
-723.87339499999985
 21
78.0
 31
0.0
  0
TEXT
  5
46D
  8
SIZE
  6
CONTINUOUS
 62
    30
 10
-755.87339499999985
 20
43.114286
 30
0.0
 40
64.0
  1
φ110
 50
90.0
 41
0.9
  0
LINE
  5
471
  8
SIZE
  6
CONTINUOUS
 62
    30
 10
-257.5
 20
0.0
 30
0.0
 11
-401.27766000000003
 21
0.0
 31
0.0
  0
LINE
  5
472
  8
SIZE
  6
CONTINUOUS
 62
    30
 10
-276.0
 20
60.0
 30
0.0
 11
-401.27766000000003
 21
60.0
 31
0.0
  0
LINE
  5
473
  8
SIZE
  6
CONTINUOUS
 62
    30
 10
-371.27766000000003
 20
62.0
 30
0.0
 11
-371.27766000000003
 21
64.0
 31
0.0
  0
LINE
  5
474
  8
SIZE
  6
CONTINUOUS
 62
    30
 10
-371.27766000000003
 20
-2.0
 30
0.0
 11
-371.27766000000003
 21
-4.0
 31
0.0
  0
CIRCLE
  5
475
  8
SIZE
  6
CONTINUOUS
 62
    30
 10
-371.27766000000003
 20
60.0
 30
0.0
 40
6.0
  0
CIRCLE
  5
476
  8
SIZE
  6
CONTINUOUS
 62
    30
 10
-371.27766000000003
 20
0.0
 30
0.0
 40
6.0
  0
LINE
  5
477
  8
SIZE
  6
CONTINUOUS
 62
    30
 10
-371.27766000000003
 20
60.0
 30
0.0
 11
-371.27766000000003
 21
0.0
 31
0.0
  0
TEXT
  5
478
  8
SIZE
  6
CONTINUOUS
 62
    30
 10
-397.101293
 20
-104.63893299999999
 30
0.0
 40
64.0
  1
60
 50
90.0
 41
0.9
  0
LINE
  5
47C
  8
SIZE
  6
CONTINUOUS
 62
    30
 10
-371.27766000000003
 20
0.0
 30
0.0
 11
-371.27766000000003
 21
-126.222959
 31
0.0
  0
LINE
  5
47D
  8
SIZE
  6
CONTINUOUS
 62
    30
 10
-140.0
 20
-40.0
 30
0.0
 11
-140.0
 21
-259.67373500000002
 31
0.0
  0
LINE
  5
47E
  8
SIZE
  6
CONTINUOUS
 62
    30
 10
140.0
 20
-40.0
 30
0.0
 11
140.0
 21
-259.67373500000002
 31
0.0
  0
LINE
  5
47F
  8
SIZE
  6
CONTINUOUS
 62
    30
 10
-138.0
 20
-229.67373499999991
 30
0.0
 11
138.0
 21
-229.67373499999991
 31
0.0
  0
CIRCLE
  5
480
  8
SIZE
  6
CONTINUOUS
 62
    30
 10
-140.0
 20
-229.67373499999991
 30
0.0
 40
6.0
  0
CIRCLE
  5
481
  8
SIZE
  6
CONTINUOUS
 62
    30
 10
140.0
 20
-229.67373499999991
 30
0.0
 40
6.0
  0
TEXT
  5
482
  8
SIZE
  6
CONTINUOUS
 62
    30
 10
-74.057143000000025
 20
-197.67373499999999
 30
0.0
 40
64.0
  1
280
 41
0.9
  0
LINE
  5
486
  8
SIZE
  6
CONTINUOUS
 62
    30
 10
-222.0
 20
-40.0
 30
0.0
 11
-222.0
 21
-398.63746400000002
 31
0.0
  0
LINE
  5
487
  8
SIZE
  6
CONTINUOUS
 62
    30
 10
222.0
 20
-40.0
 30
0.0
 11
222.0
 21
-398.63746400000002
 31
0.0
  0
LINE
  5
488
  8
SIZE
  6
CONTINUOUS
 62
    30
 10
-220.0
 20
-368.63746400000002
 30
0.0
 11
220.0
 21
-368.63746400000002
 31
0.0
  0
CIRCLE
  5
489
  8
SIZE
  6
CONTINUOUS
 62
    30
 10
-222.0
 20
-368.63746400000002
 30
0.0
 40
6.0
  0
CIRCLE
  5
48A
  8
SIZE
  6
CONTINUOUS
 62
    30
 10
222.0
 20
-368.63746400000002
 30
0.0
 40
6.0
  0
TEXT
  5
48B
  8
SIZE
  6
CONTINUOUS
 62
    30
 10
-75.428570999999977
 20
-336.63746400000002
 30
0.0
 40
64.0
  1
444
 41
0.9
  0
LINE
  5
48F
  8
SIZE
  6
CONTINUOUS
 62
    30
 10
0.0
 20
301.48842100000002
 30
0.0
 11
0.0
 21
357.72522299999991
 31
0.0
  0
LINE
  5
490
  8
SIZE
  6
CONTINUOUS
 62
    30
 10
-141.0
 20
240.0
 30
0.0
 11
-141.0
 21
357.72522299999991
 31
0.0
  0
LINE
  5
491
  8
SIZE
  6
CONTINUOUS
 62
    30
 10
-2.0
 20
327.72522299999991
 30
0.0
 11
-139.0
 21
327.72522299999991
 31
0.0
  0
CIRCLE
  5
492
  8
SIZE
  6
CONTINUOUS
 62
    30
 10
0.0
 20
327.72522299999991
 30
0.0
 40
6.0
  0
CIRCLE
  5
493
  8
SIZE
  6
CONTINUOUS
 62
    30
 10
-141.0
 20
327.72522299999991
 30
0.0
 40
6.0
  0
TEXT
  5
494
  8
SIZE
  6
CONTINUOUS
 62
    30
 10
-126.728571
 20
359.72522299999991
 30
0.0
 40
64.0
  1
141
 41
0.9
  0
POINT
  5
495
  8
DEFPOINTS
  6
CONTINUOUS
 62
    30
 10
0.0
 20
281.48842100000002
 30
0.0
  0
LINE
  5
498
  8
SIZE
  6
CONTINUOUS
 62
    30
 10
210.0
 20
220.0
 30
0.0
 11
210.0
 21
479.70449699999989
 31
0.0
  0
LINE
  5
499
  8
SIZE
  6
CONTINUOUS
 62
    30
 10
-210.0
 20
220.0
 30
0.0
 11
-210.0
 21
479.70449699999989
 31
0.0
  0
LINE
  5
49A
  8
SIZE
  6
CONTINUOUS
 62
    30
 10
208.0
 20
449.70449699999989
 30
0.0
 11
-208.0
 21
449.70449699999989
 31
0.0
  0
CIRCLE
  5
49B
  8
SIZE
  6
CONTINUOUS
 62
    30
 10
210.0
 20
449.70449699999989
 30
0.0
 40
6.0
  0
CIRCLE
  5
49C
  8
SIZE
  6
CONTINUOUS
 62
    30
 10
-210.0
 20
449.70449699999989
 30
0.0
 40
6.0
  0
TEXT
  5
49D
  8
SIZE
  6
CONTINUOUS
 62
    30
 10
-74.057143000000025
 20
481.70449699999989
 30
0.0
 40
64.0
  1
420
 41
0.9
  0
LINE
  5
4A1
  8
SIZE
  6
CONTINUOUS
 62
    30
 10
237.5
 20
-40.0
 30
0.0
 11
237.5
 21
-548.48978499999998
 31
0.0
  0
LINE
  5
4A2
  8
SIZE
  6
CONTINUOUS
 62
    30
 10
-237.5
 20
-40.0
 30
0.0
 11
-237.5
 21
-548.48978499999998
 31
0.0
  0
LINE
  5
4A3
  8
SIZE
  6
CONTINUOUS
 62
    30
 10
235.49999999999989
 20
-518.48978499999976
 30
0.0
 11
-235.49999999999989
 21
-518.48978499999976
 31
0.0
  0
CIRCLE
  5
4A4
  8
SIZE
  6
CONTINUOUS
 62
    30
 10
237.5
 20
-518.48978499999976
 30
0.0
 40
6.0
  0
CIRCLE
  5
4A5
  8
SIZE
  6
CONTINUOUS
 62
    30
 10
-237.5
 20
-518.48978499999976
 30
0.0
 40
6.0
  0
TEXT
  5
4A6
  8
SIZE
  6
CONTINUOUS
 62
    30
 10
-106.6971429999999
 20
-486.48978499999998
 30
0.0
 40
64.0
  1
□475
 41
0.9
  0
LINE
  5
4AA
  8
SIZE
  6
CONTINUOUS
 62
    30
 10
257.5
 20
-20.0
 30
0.0
 11
521.92532599999993
 21
-20.0
 31
0.0
  0
LINE
  5
4AB
  8
SIZE
  6
CONTINUOUS
 62
    30
 10
257.5
 20
0.0
 30
0.0
 11
521.92532599999993
 21
0.0
 31
0.0
  0
LINE
  5
4AC
  8
SIZE
  6
CONTINUOUS
 62
    30
 10
491.92532599999993
 20
2.0
 30
0.0
 11
491.92532599999993
 21
4.0
 31
0.0
  0
LINE
  5
4AD
  8
SIZE
  6
CONTINUOUS
 62
    30
 10
491.92532599999993
 20
-22.0
 30
0.0
 11
491.92532599999993
 21
-24.0
 31
0.0
  0
CIRCLE
  5
4AE
  8
SIZE
  6
CONTINUOUS
 62
    30
 10
491.92532599999993
 20
0.0
 30
0.0
 40
6.0
  0
CIRCLE
  5
4AF
  8
SIZE
  6
CONTINUOUS
 62
    30
 10
491.92532599999993
 20
-20.0
 30
0.0
 40
6.0
  0
LINE
  5
4B0
  8
SIZE
  6
CONTINUOUS
 62
    30
 10
491.92532599999993
 20
0.0
 30
0.0
 11
491.92532599999993
 21
-20.0
 31
0.0
  0
TEXT
  5
4B1
  8
SIZE
  6
CONTINUOUS
 62
    30
 10
459.92532599999998
 20
-137.87670800000001
 30
0.0
 40
64.0
  1
20
 50
90.0
 41
0.9
  0
LINE
  5
4B5
  8
SIZE
  6
CONTINUOUS
 62
    30
 10
257.5
 20
0.0
 30
0.0
 11
521.92532599999993
 21
0.0
 31
0.0
  0
LINE
  5
4B6
  8
SIZE
  6
CONTINUOUS
 62
    30
 10
230.0
 20
200.0
 30
0.0
 11
521.92532599999993
 21
200.0
 31
0.0
  0
LINE
  5
4B7
  8
SIZE
  6
CONTINUOUS
 62
    30
 10
491.92532599999993
 20
2.0
 30
0.0
 11
491.92532599999993
 21
198.0
 31
0.0
  0
CIRCLE
  5
4B8
  8
SIZE
  6
CONTINUOUS
 62
    30
 10
491.92532599999993
 20
0.0
 30
0.0
 40
6.0
  0
CIRCLE
  5
4B9
  8
SIZE
  6
CONTINUOUS
 62
    30
 10
491.92532599999993
 20
200.0
 30
0.0
 40
6.0
  0
TEXT
  5
4BA
  8
SIZE
  6
CONTINUOUS
 62
    30
 10
459.92532599999998
 20
25.942857
 30
0.0
 40
64.0
  1
200
 50
90.0
 41
0.9
  0
LINE
  5
4BE
  8
SIZE
  6
CONTINUOUS
 62
    30
 10
491.92532599999993
 20
-20.0
 30
0.0
 11
491.92532599999993
 21
-158.38128499999991
 31
0.0
  0
LINE
  5
4BF
  8
SIZE
  6
CONTINUOUS
 62
    30
 10
-257.5
 20
0.0
 30
0.0
 11
-500.39847499999979
 21
0.0
 31
0.0
  0
LINE
  5
4C0
  8
SIZE
  6
CONTINUOUS
 62
    30
 10
-343.15048799999983
 20
133.0
 30
0.0
 11
-500.39847499999979
 21
133.0
 31
0.0
  0
LINE
  5
4C1
  8
SIZE
  6
CONTINUOUS
 62
    30
 10
-470.39847500000002
 20
135.0
 30
0.0
 11
-470.39847500000002
 21
137.0
 31
0.0
  0
LINE
  5
4C2
  8
SIZE
  6
CONTINUOUS
 62
    30
 10
-470.39847500000002
 20
-2.0
 30
0.0
 11
-470.39847500000002
 21
-4.0
 31
0.0
  0
CIRCLE
  5
4C3
  8
SIZE
  6
CONTINUOUS
 62
    30
 10
-470.39847500000002
 20
133.0
 30
0.0
 40
6.0
  0
CIRCLE
  5
4C4
  8
SIZE
  6
CONTINUOUS
 62
    30
 10
-470.39847500000002
 20
0.0
 30
0.0
 40
6.0
  0
LINE
  5
4C5
  8
SIZE
  6
CONTINUOUS
 62
    30
 10
-470.39847500000002
 20
133.0
 30
0.0
 11
-470.39847500000002
 21
0.0
 31
0.0
  0
TEXT
  5
4C6
  8
SIZE
  6
CONTINUOUS
 62
    30
 10
-502.39847500000002
 20
-2.0714290000000002
 30
0.0
 40
64.0
  1
133
 50
90.0
 41
0.9
  0
POINT
  5
4C8
  8
DEFPOINTS
  6
CONTINUOUS
 62
    30
 10
-323.150488
 20
133.0
 30
0.0
  0
LINE
  5
4CA
  8
SIZE
  6
CONTINUOUS
 62
    30
 10
-210.0
 20
220.0
 30
0.0
 11
-210.0
 21
355.32463300000001
 31
0.0
  0
LINE
  5
4CB
  8
SIZE
  6
CONTINUOUS
 62
    30
 10
-236.0
 20
100.0
 30
0.0
 11
-236.0
 21
355.32463300000001
 31
0.0
  0
LINE
  5
4CC
  8
SIZE
  6
CONTINUOUS
 62
    30
 10
-238.0
 20
325.32463300000001
 30
0.0
 11
-240.0
 21
325.32463300000001
 31
0.0
  0
LINE
  5
4CD
  8
SIZE
  6
CONTINUOUS
 62
    30
 10
-208.0
 20
325.32463300000001
 30
0.0
 11
-206.0
 21
325.32463300000001
 31
0.0
  0
CIRCLE
  5
4CE
  8
SIZE
  6
CONTINUOUS
 62
    30
 10
-236.0
 20
325.32463300000001
 30
0.0
 40
6.0
  0
CIRCLE
  5
4CF
  8
SIZE
  6
CONTINUOUS
 62
    30
 10
-210.0
 20
325.32463300000001
 30
0.0
 40
6.0
  0
LINE
  5
4D0
  8
SIZE
  6
CONTINUOUS
 62
    30
 10
-236.0
 20
325.32463300000001
 30
0.0
 11
-210.0
 21
325.32463300000001
 31
0.0
  0
TEXT
  5
4D1
  8
SIZE
  6
CONTINUOUS
 62
    30
 10
-425.51307400000002
 20
357.32463299999972
 30
0.0
 40
64.0
  1
26
 41
0.9
  0
LINE
  5
4D5
  8
SIZE
  6
CONTINUOUS
 62
    30
 10
-210.0
 20
220.0
 30
0.0
 11
-210.0
 21
479.70449699999989
 31
0.0
  0
LINE
  5
4D6
  8
SIZE
  6
CONTINUOUS
 62
    30
 10
-300.0
 20
202.0
 30
0.0
 11
-300.0
 21
479.70449699999989
 31
0.0
  0
LINE
  5
4D7
  8
SIZE
  6
CONTINUOUS
 62
    30
 10
-302.0
 20
449.70449699999989
 30
0.0
 11
-304.0
 21
449.70449699999989
 31
0.0
  0
LINE
  5
4D8
  8
SIZE
  6
CONTINUOUS
 62
    30
 10
-208.0
 20
449.70449699999989
 30
0.0
 11
-206.0
 21
449.70449699999989
 31
0.0
  0
CIRCLE
  5
4D9
  8
SIZE
  6
CONTINUOUS
 62
    30
 10
-300.0
 20
449.70449699999989
 30
0.0
 40
6.0
  0
CIRCLE
  5
4DA
  8
SIZE
  6
CONTINUOUS
 62
    30
 10
-210.0
 20
449.70449699999989
 30
0.0
 40
6.0
  0
LINE
  5
4DB
  8
SIZE
  6
CONTINUOUS
 62
    30
 10
-300.0
 20
449.70449699999989
 30
0.0
 11
-210.0
 21
449.70449699999989
 31
0.0
  0
TEXT
  5
4DC
  8
SIZE
  6
CONTINUOUS
 62
    30
 10
-299.62857100000002
 20
481.70449699999989
 30
0.0
 40
64.0
  1
90
 41
0.9
  0
LINE
  5
4E0
  8
SIZE
  6
CONTINUOUS
 62
    30
 10
-236.0
 20
325.32463300000001
 30
0.0
 11
-436.95074099999988
 21
325.32463300000001
 31
0.0
  0
LINE
  5
4E1
  8
NOTE
  6
CONTINUOUS
 62
     4
 10
222.0
 20
0.0
 30
0.0
 11
435.42087400000003
 21
-386.368019
 31
0.0
  0
LINE
  5
4E2
  8
NOTE
  6
CONTINUOUS
 62
     4
 10
435.42087400000003
 20
-386.368019
 30
0.0
 11
729.36428899999999
 21
-386.368019
 31
0.0
  0
LINE
  5
4E3
  8
NOTE
  6
CONTINUOUS
 62
     4
 10
250.48344499999999
 20
-28.083684999999999
 30
0.0
 11
222.0
 21
0.0
 31
0.0
  0
LINE
  5
4E4
  8
NOTE
  6
CONTINUOUS
 62
     4
 10
222.0
 20
0.0
 30
0.0
 11
232.62554499999999
 21
-38.562907000000003
 31
0.0
  0
LINE
  5
4E5
  8
NOTE
  6
CONTINUOUS
 62
     4
 10
-141.0
 20
200.0
 30
0.0
 11
309.33291700000001
 21
379.01867399999992
 31
0.0
  0
LINE
  5
4E6
  8
NOTE
  6
CONTINUOUS
 62
     4
 10
309.33291700000001
 20
379.01867399999992
 30
0.0
 11
485.18745199999989
 21
379.01867399999992
 31
0.0
  0
LINE
  5
4E7
  8
NOTE
  6
CONTINUOUS
 62
     4
 10
-109.31790700000001
 20
224.4181279999998
 30
0.0
 11
-141.0
 21
200.0
 31
0.0
  0
LINE
  5
4E8
  8
NOTE
  6
CONTINUOUS
 62
     4
 10
-141.0
 20
200.0
 30
0.0
 11
-101.35343899999999
 21
205.3056729999999
 31
0.0
  0
LINE
  5
4E9
  8
NOTE
  6
CONTINUOUS
 62
     4
 10
-236.0
 20
60.0
 30
0.0
 11
-422.07580000000002
 21
-296.60708599999992
 31
0.0
  0
LINE
  5
4EA
  8
NOTE
  6
CONTINUOUS
 62
     4
 10
-422.07580000000002
 20
-296.60708599999992
 30
0.0
 11
-669.61679800000002
 21
-296.60708599999992
 31
0.0
  0
LINE
  5
4EB
  8
NOTE
  6
CONTINUOUS
 62
     4
 10
-243.359218
 20
20.682804000000001
 30
0.0
 11
-236.0
 21
60.0
 31
0.0
  0
LINE
  5
4EC
  8
NOTE
  6
CONTINUOUS
 62
     4
 10
-236.0
 20
60.0
 30
0.0
 11
-262.03186799999997
 21
29.629918
 31
0.0
  0
TEXT
  5
4ED
  8
NOTE
  6
CONTINUOUS
 62
     4
 10
-657.22138700000005
 20
-272.89534300000003
 30
0.0
 40
64.0
  1
D φ13
 41
0.9
  0
TEXT
  5
4EE
  8
NOTE
  6
CONTINUOUS
 62
     4
 10
461.80760999999973
 20
-364.86386099999987
 30
0.0
 40
64.0
  1
8-φ6
 41
0.9
  0
TEXT
  5
4EF
  8
NOTE
  6
CONTINUOUS
 62
     4
 10
371.88529799999992
 20
404.00622399999997
 30
0.0
 40
64.0
  1
EL
 41
0.9
  0
LINE
  5
4F0
  8
DETAIL
  6
CONTINUOUS
 62
     5
 10
-236.0
 20
66.5
 30
0.0
 11
-210.0
 21
66.5
 31
0.0
  0
LINE
  5
4F1
  8
DETAIL
  6
CONTINUOUS
 62
     5
 10
-236.0
 20
53.5
 30
0.0
 11
-210.0
 21
53.5
 31
0.0
  0
CIRCLE
  5
4F2
  8
DETAIL
  6
CONTINUOUS
 62
     5
 10
-236.0
 20
60.0
 30
0.0
 40
6.5
  0
LINE
  5
4F9
  8
DETAIL
  6
CONTINUOUS
 62
     5
 10
-130.15625000021069
 20
-20.0
 30
0.0
 11
130.15625000016129
 21
-20.0
 31
0.0
  0
LINE
  5
4FA
  8
DETAIL
  6
CONTINUOUS
 62
     5
 10
-237.5000000000247
 20
0.0
 30
0.0
 11
237.49999999997451
 21
0.0
 31
0.0
  0
ARC
  5
4FC
  8
DETAIL
  6
CONTINUOUS
 62
     5
 10
-130.0781250000247
 20
372.14843749999972
 30
0.0
 40
392.14844528214951
 50
254.10164174015509
 51
270.01141463866742
  0
LINE
  5
4FE
  8
DETAIL
  6
CONTINUOUS
 62
     5
 10
-237.5000000000247
 20
-5.0
 30
0.0
 11
-237.5000000000247
 21
0.0
 31
0.0
  0
ARC
  5
501
  8
DETAIL
  6
CONTINUOUS
 62
     5
 10
130.07812499997519
 20
372.14843749999972
 30
0.0
 40
392.14844528214951
 50
269.98858536133241
 51
285.89835825984483
  0
LINE
  5
503
  8
DETAIL
  6
CONTINUOUS
 62
     5
 10
237.49999999997451
 20
-5.0
 30
0.0
 11
237.49999999997451
 21
0.0
 31
0.0
  0
TEXT
  5
50D
  8
ETC
  6
CONTINUOUS
 62
    61
 10
653.79588782691133
 20
604.13127319803812
 30
0.0
 40
64.0
  1
VL-70BZ2_4
 41
0.9
  0
TEXT
  5
50E
  8
ETC
  6
CONTINUOUS
 62
    61
 10
801.724508439582
 20
293.54632680012048
 30
0.0
 40
50.0
  1
VL-70BZA2
 41
0.9
  0
TEXT
  5
50F
  8
ETC
  6
CONTINUOUS
 62
    61
 10
796.11747709940971
 20
381.69498236965791
 30
0.0
 40
50.0
  1
VL-70BZ2
 41
0.9
  0
TEXT
  5
510
  8
ETC
  6
CONTINUOUS
 62
    61
 10
656.50058882691133
 20
471.5916581980382
 30
0.0
 40
64.0
  1
換気扇
 41
0.9
  0
POINT
  5
514
  8
ARRANGE
  6
CONTINUOUS
 62
     1
 10
0.0
 20
0.0
 30
0.0
  0
CIRCLE
  5
515
  8
ARRANGE
  6
CONTINUOUS
 62
     1
 10
0.0
 20
0.0
 30
0.0
 40
40.0
  0
LINE
  5
516
  8
OUTLINE
  6
CONTINUOUS
 62
     3
 10
-210.0
 20
200.0
 30
0.0
 11
210.0
 21
200.0
 31
0.0
  0
LINE
  5
517
  8
SERVICESPACE
  6
CONTINUOUS
 62
     3
 10
-237.5000000000247
 20
0.0
 30
0.0
 11
237.49999999997451
 21
0.0
 31
0.0
  0
LINE
  5
518
  8
SERVICESPACE
  6
CONTINUOUS
 62
     3
 10
-130.15625000021069
 20
-20.0
 30
0.0
 11
130.15625000016129
 21
-20.0
 31
0.0
  0
ARC
  5
519
  8
SERVICESPACE
  6
CONTINUOUS
 62
     3
 10
-130.0781250000247
 20
372.14843749999977
 30
0.0
 40
392.14844528214951
 50
254.10164174015509
 51
270.01141463866742
  0
LINE
  5
51A
  8
SERVICESPACE
  6
CONTINUOUS
 62
     3
 10
-237.5000000000247
 20
-5.0
 30
0.0
 11
-237.5000000000247
 21
0.0
 31
0.0
  0
LINE
  5
51B
  8
OUTLINE
  6
CONTINUOUS
 62
     3
 10
-210.0
 20
0.0
 30
0.0
 11
-210.0
 21
200.0
 31
0.0
  0
ARC
  5
51C
  8
SERVICESPACE
  6
CONTINUOUS
 62
     3
 10
130.07812499997519
 20
372.14843749999977
 30
0.0
 40
392.14844528214951
 50
269.98858536133241
 51
285.89835825984483
  0
LINE
  5
51D
  8
OUTLINE
  6
CONTINUOUS
 62
     3
 10
210.0
 20
0.0
 30
0.0
 11
210.0
 21
200.0
 31
0.0
  0
LINE
  5
51E
  8
SERVICESPACE
  6
CONTINUOUS
 62
     3
 10
237.49999999997451
 20
-5.0
 30
0.0
 11
237.49999999997451
 21
0.0
 31
0.0
  0
ENDSEC
  0
EOF
