  0
SECTION
  2
HEADER
  9
$ACADVER
  1
AC1015
  9
$ACADMAINTVER
 70
    20
  9
$DWGCODEPAGE
  3
ANSI_932
  9
$INSBASE
 10
0.0
 20
0.0
 30
0.0
  9
$EXTMIN
 10
-774.0417316603034
 20
-411.7584111073047
 30
-0.0022882129575947
  9
$EXTMAX
 10
792.1692007479359
 20
596.9696125213158
 30
50.00228914432991
  9
$LIMMIN
 10
-2970.0
 20
-2100.0
  9
$LIMMAX
 10
2970.0
 20
2100.0
  9
$ORTHOMODE
 70
     1
  9
$REGENMODE
 70
     0
  9
$FILLMODE
 70
     1
  9
$QTEXTMODE
 70
     0
  9
$MIRRTEXT
 70
     0
  9
$LTSCALE
 40
20.0
  9
$ATTMODE
 70
     1
  9
$TEXTSIZE
 40
64.0
  9
$TRACEWID
 40
0.05
  9
$TEXTSTYLE
  7
STANDARD
  9
$CLAYER
  8
0
  9
$CELTYPE
  6
ByLayer
  9
$CECOLOR
 62
   256
  9
$CELTSCALE
 40
1.0
  9
$DISPSILH
 70
     0
  9
$DIMSCALE
 40
1.0
  9
$DIMASZ
 40
0.12
  9
$DIMEXO
 40
0.05
  9
$DIMDLI
 40
0.5
  9
$DIMRND
 40
0.0
  9
$DIMDLE
 40
0.0
  9
$DIMEXE
 40
0.1
  9
$DIMTP
 40
0.1
  9
$DIMTM
 40
0.1
  9
$DIMTXT
 40
0.12
  9
$DIMCEN
 40
0.0
  9
$DIMTSZ
 40
0.0
  9
$DIMTOL
 70
     0
  9
$DIMLIM
 70
     0
  9
$DIMTIH
 70
     1
  9
$DIMTOH
 70
     1
  9
$DIMSE1
 70
     0
  9
$DIMSE2
 70
     0
  9
$DIMTAD
 70
     0
  9
$DIMZIN
 70
     7
  9
$DIMBLK
  1

  9
$DIMASO
 70
     1
  9
$DIMSHO
 70
     0
  9
$DIMPOST
  1

  9
$DIMAPOST
  1
mm
  9
$DIMALT
 70
     0
  9
$DIMALTD
 70
     2
  9
$DIMALTF
 40
25.4
  9
$DIMLFAC
 40
1.0
  9
$DIMTOFL
 70
     0
  9
$DIMTVP
 40
0.0
  9
$DIMTIX
 70
     0
  9
$DIMSOXD
 70
     0
  9
$DIMSAH
 70
     0
  9
$DIMBLK1
  1

  9
$DIMBLK2
  1

  9
$DIMSTYLE
  2
AM_ANSI
  9
$DIMCLRD
 70
   256
  9
$DIMCLRE
 70
   256
  9
$DIMCLRT
 70
     2
  9
$DIMTFAC
 40
0.71
  9
$DIMGAP
 40
0.06
  9
$DIMJUST
 70
     0
  9
$DIMSD1
 70
     0
  9
$DIMSD2
 70
     0
  9
$DIMTOLJ
 70
     1
  9
$DIMTZIN
 70
     7
  9
$DIMALTZ
 70
     0
  9
$DIMALTTZ
 70
     0
  9
$DIMUPT
 70
     0
  9
$DIMDEC
 70
     4
  9
$DIMTDEC
 70
     4
  9
$DIMALTU
 70
     2
  9
$DIMALTTD
 70
     4
  9
$DIMTXSTY
  7
STANDARD
  9
$DIMAUNIT
 70
     0
  9
$DIMADEC
 70
     0
  9
$DIMALTRND
 40
0.0
  9
$DIMAZIN
 70
     2
  9
$DIMDSEP
 70
    46
  9
$DIMATFIT
 70
     3
  9
$DIMFRAC
 70
     0
  9
$DIMLDRBLK
  1

  9
$DIMLUNIT
 70
     2
  9
$DIMLWD
 70
    -1
  9
$DIMLWE
 70
    -1
  9
$DIMTMOVE
 70
     0
  9
$LUNITS
 70
     2
  9
$LUPREC
 70
     4
  9
$SKETCHINC
 40
0.1
  9
$FILLETRAD
 40
4.0
  9
$AUNITS
 70
     1
  9
$AUPREC
 70
     3
  9
$MENU
  1
ACAD
  9
$ELEVATION
 40
0.0
  9
$PELEVATION
 40
0.0
  9
$THICKNESS
 40
50.0
  9
$LIMCHECK
 70
     0
  9
$CHAMFERA
 40
0.0
  9
$CHAMFERB
 40
0.0
  9
$CHAMFERC
 40
0.0
  9
$CHAMFERD
 40
0.0
  9
$SKPOLY
 70
     0
  9
$TDCREATE
 40
2452321.396199653
  9
$TDUCREATE
 40
2452321.021199653
  9
$TDUPDATE
 40
2456210.455080660
  9
$TDUUPDATE
 40
2456210.080080660
  9
$TDINDWG
 40
1.0416983102
  9
$TDUSRTIMER
 40
1.0416927315
  9
$USRTIMER
 70
     1
  9
$ANGBASE
 50
0.0
  9
$ANGDIR
 70
     0
  9
$PDMODE
 70
     3
  9
$PDSIZE
 40
-2.0
  9
$PLINEWID
 40
0.0
  9
$SPLFRAME
 70
     0
  9
$SPLINETYPE
 70
     6
  9
$SPLINESEGS
 70
     8
  9
$HANDSEED
  5
2C2F
  9
$SURFTAB1
 70
     6
  9
$SURFTAB2
 70
     6
  9
$SURFTYPE
 70
     6
  9
$SURFU
 70
     6
  9
$SURFV
 70
     6
  9
$UCSBASE
  2

  9
$UCSNAME
  2

  9
$UCSORG
 10
0.0
 20
0.0
 30
0.0
  9
$UCSXDIR
 10
1.0
 20
0.0
 30
0.0
  9
$UCSYDIR
 10
0.0
 20
1.0
 30
0.0
  9
$UCSORTHOREF
  2

  9
$UCSORTHOVIEW
 70
     0
  9
$UCSORGTOP
 10
0.0
 20
0.0
 30
0.0
  9
$UCSORGBOTTOM
 10
0.0
 20
0.0
 30
0.0
  9
$UCSORGLEFT
 10
0.0
 20
0.0
 30
0.0
  9
$UCSORGRIGHT
 10
0.0
 20
0.0
 30
0.0
  9
$UCSORGFRONT
 10
0.0
 20
0.0
 30
0.0
  9
$UCSORGBACK
 10
0.0
 20
0.0
 30
0.0
  9
$PUCSBASE
  2

  9
$PUCSNAME
  2

  9
$PUCSORG
 10
0.0
 20
0.0
 30
0.0
  9
$PUCSXDIR
 10
1.0
 20
0.0
 30
0.0
  9
$PUCSYDIR
 10
0.0
 20
1.0
 30
0.0
  9
$PUCSORTHOREF
  2

  9
$PUCSORTHOVIEW
 70
     0
  9
$PUCSORGTOP
 10
0.0
 20
0.0
 30
0.0
  9
$PUCSORGBOTTOM
 10
0.0
 20
0.0
 30
0.0
  9
$PUCSORGLEFT
 10
0.0
 20
0.0
 30
0.0
  9
$PUCSORGRIGHT
 10
0.0
 20
0.0
 30
0.0
  9
$PUCSORGFRONT
 10
0.0
 20
0.0
 30
0.0
  9
$PUCSORGBACK
 10
0.0
 20
0.0
 30
0.0
  9
$USERI1
 70
     0
  9
$USERI2
 70
     0
  9
$USERI3
 70
     0
  9
$USERI4
 70
     0
  9
$USERI5
 70
     0
  9
$USERR1
 40
20.0
  9
$USERR2
 40
0.0
  9
$USERR3
 40
0.0
  9
$USERR4
 40
0.0
  9
$USERR5
 40
0.0
  9
$WORLDVIEW
 70
     1
  9
$SHADEDGE
 70
     3
  9
$SHADEDIF
 70
    70
  9
$TILEMODE
 70
     1
  9
$MAXACTVP
 70
    64
  9
$PINSBASE
 10
0.0
 20
0.0
 30
0.0
  9
$PLIMCHECK
 70
     0
  9
$PEXTMIN
 10
1.000000000000000E+20
 20
1.000000000000000E+20
 30
1.000000000000000E+20
  9
$PEXTMAX
 10
-1.000000000000000E+20
 20
-1.000000000000000E+20
 30
-1.000000000000000E+20
  9
$PLIMMIN
 10
0.0
 20
0.0
  9
$PLIMMAX
 10
12.0
 20
9.0
  9
$UNITMODE
 70
     0
  9
$VISRETAIN
 70
     1
  9
$PLINEGEN
 70
     0
  9
$PSLTSCALE
 70
     1
  9
$TREEDEPTH
 70
  3020
  9
$CMLSTYLE
  2
Standard
  9
$CMLJUST
 70
     0
  9
$CMLSCALE
 40
1.0
  9
$PROXYGRAPHICS
 70
     1
  9
$MEASUREMENT
 70
     0
  9
$CELWEIGHT
370
    -1
  9
$ENDCAPS
280
     0
  9
$JOINSTYLE
280
     0
  9
$LWDISPLAY
290
     0
  9
$INSUNITS
 70
     0
  9
$HYPERLINKBASE
  1

  9
$STYLESHEET
  1

  9
$XEDIT
290
     1
  9
$CEPSNTYPE
380
     0
  9
$PSTYLEMODE
290
     1
  9
$FINGERPRINTGUID
  2
{0AAB53AA-ED36-49F0-AC9D-914336235765}
  9
$VERSIONGUID
  2
{1D8231E3-1091-464E-A32F-6B57B15525F1}
  9
$EXTNAMES
290
     1
  9
$PSVPSCALE
 40
0.0
  9
$OLESTARTUP
290
     0
  0
ENDSEC
  0
SECTION
  2
CLASSES
  0
CLASS
  1
ACDBDICTIONARYWDFLT
  2
AcDbDictionaryWithDefault
  3
ObjectDBX Classes
 90
        0
280
     0
281
     0
  0
CLASS
  1
MATERIAL
  2
AcDbMaterial
  3
ObjectDBX Classes
 90
     1153
280
     0
281
     0
  0
CLASS
  1
VISUALSTYLE
  2
AcDbVisualStyle
  3
ObjectDBX Classes
 90
     4095
280
     0
281
     0
  0
CLASS
  1
SCALE
  2
AcDbScale
  3
ObjectDBX Classes
 90
     1153
280
     0
281
     0
  0
CLASS
  1
TABLESTYLE
  2
AcDbTableStyle
  3
ObjectDBX Classes
 90
     4095
280
     0
281
     0
  0
CLASS
  1
MLEADERSTYLE
  2
AcDbMLeaderStyle
  3
ACDB_MLEADERSTYLE_CLASS
 90
     4095
280
     0
281
     0
  0
CLASS
  1
AMGSETTINGSOBJ
  2
AmgSettingsObj
  3
"AcadM|Product Description: AutoCAD Mechanical|Company: Autodesk, Inc."
 90
     1024
280
     0
281
     0
  0
CLASS
  1
ACME_DOCUMENT
  2
AcMeDbDoc
  3
AcMeServices
 90
     1024
280
     0
281
     0
  0
CLASS
  1
ACMESCOPE
  2
AcMeScope
  3
AcMeServices
 90
     1024
280
     0
281
     0
  0
CLASS
  1
ACMECOMMANDHISTORY
  2
AcMeCommandHistory
  3
AcMeServices
 90
     1024
280
     0
281
     0
  0
CLASS
  1
ACIMSYSVARMAN
  2
AcImSysVarManager
  3
AcMeServices
 90
     1024
280
     0
281
     0
  0
CLASS
  1
ACIMREALSYSVAR
  2
AcImRealSysVar
  3
AcMeServices
 90
     1024
280
     0
281
     0
  0
CLASS
  1
ACIMINTSYSVAR
  2
AcImIntSysVar
  3
AcMeServices
 90
     1024
280
     0
281
     0
  0
CLASS
  1
ACMEDRAWINGMAN
  2
AcMeDrawingMan
  3
AcMeServices
 90
     1024
280
     0
281
     0
  0
CLASS
  1
ACMEVIEW
  2
AcMeView
  3
AcMeServices
 90
     1024
280
     0
281
     0
  0
CLASS
  1
ACDBENTITYCACHE
  2
AcMeEntityCache
  3
AcMeServices
 90
     1024
280
     0
281
     0
  0
CLASS
  1
GSMANAGER
  2
AcMeGSManager
  3
AcMeServices
 90
     1024
280
     0
281
     0
  0
CLASS
  1
AMDTINTERNALREACTOR
  2
AmdtInternalReactor
  3
AcMeServices
 90
     1024
280
     0
281
     0
  0
CLASS
  1
ACMESTATEMGR
  2
AcMeStateMgr
  3
AcMeServices
 90
     1024
280
     0
281
     0
  0
CLASS
  1
ACGREFMASTER
  2
AcGrefMaster
  3
AcAttribServices
 90
     1024
280
     0
281
     0
  0
CLASS
  1
AM_DRAWING_MGR
  2
AcDmDwgMgr
  3
AcMechDwgViewMgmt
 90
     1024
280
     0
281
     0
  0
CLASS
  1
AM_DWG_DOCUMENT
  2
AcDmDwgDocument
  3
AcMechDwgViewMgmt
 90
     1024
280
     0
281
     0
  0
CLASS
  1
AM_DWG_SHEET
  2
AcDmSheet
  3
AcMechDwgViewMgmt
 90
     1024
280
     0
281
     0
  0
CLASS
  1
AM_VIEWDIMPARMAP
  2
AcDmViewDimParMap
  3
AcMechDwgViewMgmt
 90
     1024
280
     0
281
     0
  0
CLASS
  1
AM_DWGMGR_NAME
  2
AcDmDwgMgrName
  3
AcMechDwgViewMgmt
 90
     1024
280
     0
281
     0
  0
CLASS
  1
ACME_DATABASE
  2
AcMeDbDatabase
  3
AcMeServices
 90
     1024
280
     0
281
     0
  0
CLASS
  1
ACRFINSADJUSTERMGR
  2
AcRfInsAdjusterMgr
  3
AcMeServices
 90
     1024
280
     0
281
     0
  0
CLASS
  1
ACGREFACADMASTER
  2
AcGrefacadMaster
  3
AcGrefServices
 90
     1024
280
     0
281
     0
  0
CLASS
  1
AMDTMENUSTATEMGR
  2
AmdtMenuStateMgr
  3
McadcomServices
 90
     1024
280
     0
281
     0
  0
CLASS
  1
AMDTMCOMMENUSTATE
  2
AmdtMcomMenuState
  3
McadcomServices
 90
     1024
280
     0
281
     0
  0
CLASS
  1
AMIMASTER
  2
AmiMaster
  3
AmiServices
 90
     1024
280
     0
281
     0
  0
CLASS
  1
ASAPP
  2
AcAsAppObject
  3
AutoSurfServices
 90
     1024
280
     0
281
     0
  0
CLASS
  1
IM_STATIC_MAN
  2
AcImStaticVarManager
  3
AcMeServices
 90
     1024
280
     0
281
     0
  0
CLASS
  1
ACIMSTRSYSVAR
  2
AcImStrSysVar
  3
AcMeServices
 90
     1024
280
     0
281
     0
  0
CLASS
  1
ACIMDBLSTATICVAR
  2
AcImDblStaticVar
  3
AcMeServices
 90
     1024
280
     0
281
     0
  0
CLASS
  1
ACIMSTRSTATICVAR
  2
AcImStrStaticVar
  3
AcMeServices
 90
     1024
280
     0
281
     0
  0
CLASS
  1
ACIMINTSTATICVAR
  2
AcImIntStaticVar
  3
AcMeServices
 90
     1024
280
     0
281
     0
  0
CLASS
  1
ACASGREFMASTER
  2
AcAsGrefMaster
  3
AutoSurfResolverServices
 90
     1024
280
     0
281
     0
  0
CLASS
  1
ACADGREFMODULE
  2
AcAdGrefModule
  3
AdGrefServices
 90
     1024
280
     0
281
     0
  0
CLASS
  1
AMDTMAPISURFMOUDULE
  2
AmdtMApiSurfModule
  3
MApiSurfServices
 90
     1024
280
     0
281
     0
  0
CLASS
  1
MAPIAMMOUDLE
  2
MApiAmModule
  3
MApiAmServices
 90
     1024
280
     0
281
     0
  0
CLASS
  1
AMDTADMENUSTATE
  2
AmdtAdMenuState
  3
DesignerServices
 90
     1024
280
     0
281
     0
  0
CLASS
  1
ADAPPL
  2
AcAdAppl
  3
DesignerServices
 90
     1024
280
     0
281
     0
  0
CLASS
  1
DEPMGR
  2
AcAdDepMgr
  3
DesignerServices
 90
     1024
280
     0
281
     0
  0
CLASS
  1
PARAMMGR
  2
AcAdParamMgr
  3
DesignerServices
 90
     1024
280
     0
281
     0
  0
CLASS
  1
PARAMSCOPE
  2
AcAdParamScope
  3
DesignerServices
 90
     1024
280
     0
281
     0
  0
CLASS
  1
NAMEDAPPL
  2
AcAdNamedAppl
  3
DesignerServices
 90
     1024
280
     0
281
     0
  0
CLASS
  1
AMDTDMMENUSTATE
  2
AmdtDmMenuState
  3
AcMechDwgViewMgmt
 90
     1024
280
     0
281
     0
  0
CLASS
  1
MAPIADMODULE
  2
MApiAdModule
  3
MApiAdServices
 90
     1024
280
     0
281
     0
  0
CLASS
  1
AMDTAMMENUSTATE
  2
AmdtAmMenuState
  3
DesignerAssemblies
 90
     1024
280
     0
281
     0
  0
CLASS
  1
ACAMPROJECT
  2
AcAmProject
  3
DesignerAssemblies
 90
     1024
280
     0
281
     0
  0
CLASS
  1
ACAMGRCOMPDEF
  2
AcAmGrCompDef
  3
DesignerAssemblies
 90
     1024
280
     0
281
     0
  0
CLASS
  1
ACCMCONTEXT
  2
AcCmContext
  3
DesignerAssemblies
 90
     1024
280
     0
281
     0
  0
CLASS
  1
ACAMCOMPDEF
  2
AcAmCompDef
  3
DesignerAssemblies
 90
     1024
280
     0
281
     0
  0
CLASS
  1
ACAMCOMPDEFMGR
  2
AcAmCompDefMgr
  3
DesignerAssemblies
 90
     1024
280
     0
281
     0
  0
CLASS
  1
AMCONTEXTMGR
  2
AcAmContextMgr
  3
DesignerAssemblies
 90
     1024
280
     0
281
     0
  0
CLASS
  1
ACAMCONTEXTMODELER
  2
AcAmContextModeler
  3
DesignerAssemblies
 90
     1024
280
     0
281
     0
  0
CLASS
  1
ACMDATADICTIONARY
  2
AcmDataDictionary
  3
"AcmSymBB|Product Description: AutoCAD Mechanical|Company: Autodesk, Inc."
 90
     1024
280
     0
281
     0
  0
CLASS
  1
ACMDATAENTRYBLOCK
  2
AcmDataEntryBlock
  3
AcmSymBB|Product Description: AutoCAD Mechanical|Company: Autodesk, Inc.
 90
     1024
280
     0
281
     0
  0
CLASS
  1
ACRFATTGENMGR
  2
AcRfAttGeneralMgr
  3
AcAttribServices
 90
     1024
280
     0
281
     0
  0
CLASS
  1
ACRFOBJATTMGR
  2
AcRfObjAttGroupMgr
  3
AcAttribServices
 90
     1024
280
     0
281
     0
  0
CLASS
  1
ACRFMCADAPIATTHOLDER
  2
AcRfMCADAPIAttHolder
  3
AcAttribServices
 90
     1024
280
     0
281
     0
  0
CLASS
  1
AMDTSYSATTR
  2
AmdtSystemAttribute
  3
AcAttribServices
 90
     1024
280
     0
281
     0
  0
CLASS
  1
CATALOGSTATE
  2
AcAmCatalogState
  3
DesignerAssemblies
 90
     1024
280
     0
281
     0
  0
CLASS
  1
ACAMGRCOMPDEFSET
  2
AcAmGrCompDefSet
  3
DesignerAssemblies
 90
     1024
280
     0
281
     0
  0
CLASS
  1
AMDTBROWSERDBTAB
  2
AmdtBrowserDbTab
  3
McadcomServices
 90
     1024
280
     0
281
     0
  0
CLASS
  1
CBROWSERAPPOBJECT
  2
CBrowserAppObject
  3
McadcomServices
 90
     1024
280
     0
281
     0
  0
CLASS
  1
DM_PLACEHOLDER
  2
AcDmSelsetPlaceholder
  3
AcMechDwgViewMgmt
 90
     1024
280
     0
281
     0
  0
CLASS
  1
ACMSTANDARDANSI
  2
AcmStandardANSI
  3
"Amdt_StdImp|Product Description: AutoCAD Mechanical|Company: Autodesk, Inc."
 90
     1024
280
     0
281
     0
  0
CLASS
  1
ACMSURFSTANDARDANSI
  2
AcmSurfTextStdANSI
  3
"Amdt_StdImp|Product Description: AutoCAD Mechanical|Company: Autodesk, Inc."
 90
     1024
280
     0
281
     0
  0
CLASS
  1
ACMFCFSTANDARDANSI
  2
AcmFCFStdANSI
  3
"Amdt_StdImp|Product Description: AutoCAD Mechanical|Company: Autodesk, Inc."
 90
     1024
280
     0
281
     0
  0
CLASS
  1
ACMWELDSTANDARDANSI
  2
AcmWeldingStdANSI
  3
"Amdt_StdImp|Product Description: AutoCAD Mechanical|Company: Autodesk, Inc."
 90
     1024
280
     0
281
     0
  0
CLASS
  1
ACMIDSTANDARDANSI
  2
AcmIdStdANSI
  3
"Amdt_StdImp|Product Description: AutoCAD Mechanical|Company: Autodesk, Inc."
 90
     1024
280
     0
281
     0
  0
CLASS
  1
ACMDATUMSTANDARDANSI
  2
AcmDatumStdANSI
  3
"Amdt_StdImp|Product Description: AutoCAD Mechanical|Company: Autodesk, Inc."
 90
     1024
280
     0
281
     0
  0
CLASS
  1
ACMBOMSTANDARDANSI
  2
AcmBOMStdANSI
  3
"Amdt_StdImp|Product Description: AutoCAD Mechanical|Company: Autodesk, Inc."
 90
     1024
280
     0
281
     0
  0
CLASS
  1
ACMDETAILSTANDARDANSI
  2
AmdtDetailSymStdANSI
  3
"Amdt_StdImp|Product Description: AutoCAD Mechanical|Company: Autodesk, Inc."
 90
     1024
280
     0
281
     0
  0
CLASS
  1
ACMSECTIONSTANDARDANSI
  2
AmdtSectionSymStdANSI
  3
"Amdt_StdImp|Product Description: AutoCAD Mechanical|Company: Autodesk, Inc."
 90
     1024
280
     0
281
     0
  0
CLASS
  1
ACMCENTERLINESTANDARDANSI
  2
AmdtCenterLineStdANSI
  3
"Amdt_StdImp|Product Description: AutoCAD Mechanical|Company: Autodesk, Inc."
 90
     1024
280
     0
281
     0
  0
CLASS
  1
ACMTHREADLINESTANDARDANSI
  2
AmdtThreadLineStdANSI
  3
"Amdt_StdImp|Product Description: AutoCAD Mechanical|Company: Autodesk, Inc."
 90
     1024
280
     0
281
     0
  0
CLASS
  1
ACMNOTESTANDARDANSI
  2
AmdtNoteStdANSI
  3
"Amdt_StdImp|Product Description: AutoCAD Mechanical|Company: Autodesk, Inc."
 90
     1024
280
     0
281
     0
  0
CLASS
  1
ACMTAPERSTANDARDANSI
  2
AcmTaperStdANSI
  3
"Amdt_StdImp|Product Description: AutoCAD Mechanical|Company: Autodesk, Inc."
 90
     1024
280
     0
281
     0
  0
CLASS
  1
ACMANOOTATIONVIEWSTANDARDANSI
  2
AmdtAnViewStdANSI
  3
"Amdt_StdImp|Product Description: AutoCAD Mechanical|Company: Autodesk, Inc."
 90
     1024
280
     0
281
     0
  0
CLASS
  1
ACAMGLAYSTD
  2
AcAmgLayStd
  3
"AmgLay|Product Description: AutoCAD Mechanical|Company: Autodesk, Inc."
 90
     1024
280
     0
281
     0
  0
CLASS
  1
ACAMGDIMSTD
  2
AcAmgDimStd
  3
"AmgDim|Product Description: AutoCAD Mechanical|Company: Autodesk, Inc."
 90
     1024
280
     0
281
     0
  0
CLASS
  1
ACAMGHOLECHARTSTDANSI
  2
AcAmgHoleChartStdANSI
  3
AmgDim|Product Description: AutoCAD Mechanical|Company: Autodesk, Inc.
 90
     1024
280
     0
281
     0
  0
CLASS
  1
AMGOBJPROPCFG
  2
AmgObjPropCfg
  3
"AmgLay|Product Description: AutoCAD Mechanical|Company: Autodesk, Inc."
 90
     1025
280
     0
281
     0
  0
CLASS
  1
ACAMGTITLESTD
  2
AcAmgTitleStd
  3
"AmgTitle|Product Description: AutoCAD Mechanical|Company: Autodesk, Inc."
 90
     4095
280
     0
281
     0
  0
CLASS
  1
AMDTNOTETEMPLATEDB
  2
AmdtNoteTemplateDB
  3
AcmSymBB|Product Description: AutoCAD Mechanical|Company: Autodesk, Inc.
 90
     1024
280
     0
281
     0
  0
CLASS
  1
ACAMGFILTERDAT
  2
AcAmgFilterDat
  3
"AcadM|Product Description: AutoCAD Mechanical|Company: Autodesk, Inc."
 90
     1024
280
     0
281
     0
  0
CLASS
  1
LAYER_INDEX
  2
AcDbLayerIndex
  3
ObjectDBX Classes
 90
        0
280
     0
281
     0
  0
CLASS
  1
IDBUFFER
  2
AcDbIdBuffer
  3
ObjectDBX Classes
 90
        0
280
     0
281
     0
  0
CLASS
  1
DICTIONARYVAR
  2
AcDbDictionaryVar
  3
ObjectDBX Classes
 90
        0
280
     0
281
     0
  0
CLASS
  1
CELLSTYLEMAP
  2
AcDbCellStyleMap
  3
ObjectDBX Classes
 90
     1152
280
     0
281
     0
  0
CLASS
  1
ACDBPLACEHOLDER
  2
AcDbPlaceHolder
  3
ObjectDBX Classes
 90
        0
280
     0
281
     0
  0
CLASS
  1
LAYOUT
  2
AcDbLayout
  3
ObjectDBX Classes
 90
        0
280
     0
281
     0
  0
ENDSEC
  0
SECTION
  2
TABLES
  0
TABLE
  2
VPORT
  5
29CA
330
0
100
AcDbSymbolTable
 70
     1
  0
VPORT
  5
2A3A
330
29CA
100
AcDbSymbolTableRecord
100
AcDbViewportTableRecord
  2
*ACTIVE
 70
     0
 10
0.0
 20
0.0
 11
1.0
 21
1.0
 12
-280.9469481633935
 22
0.0
 13
0.0
 23
0.0
 14
1.0
 24
1.0
 15
0.0
 25
0.0
 16
0.0
 26
0.0
 36
1.0
 17
290.0106827072097
 27
92.60560070700558
 37
0.0
 40
1015.386294411648
 41
1.712555066079295
 42
50.0
 43
0.0
 44
0.0
 50
0.0
 51
0.0
 71
     0
 72
   100
 73
     1
 74
     0
 75
     0
 76
     0
 77
     0
 78
     0
281
     0
 65
     0
110
0.0
120
0.0
130
0.0
111
1.0
121
0.0
131
0.0
112
0.0
122
1.0
132
0.0
 79
     0
146
0.0
  0
ENDTAB
  0
TABLE
  2
LTYPE
  5
29C7
330
0
100
AcDbSymbolTable
 70
    19
  0
LTYPE
  5
2A24
330
29C7
100
AcDbSymbolTableRecord
100
AcDbLinetypeTableRecord
  2
ByBlock
 70
     0
  3

 72
    65
 73
     0
 40
0.0
  0
LTYPE
  5
2A25
330
29C7
100
AcDbSymbolTableRecord
100
AcDbLinetypeTableRecord
  2
ByLayer
 70
     0
  3

 72
    65
 73
     0
 40
0.0
  0
LTYPE
  5
2A26
330
29C7
100
AcDbSymbolTableRecord
100
AcDbLinetypeTableRecord
  2
CONTINUOUS
 70
     0
  3
実線
 72
    65
 73
     0
 40
0.0
  0
LTYPE
  5
2A3B
330
29C7
100
AcDbSymbolTableRecord
100
AcDbLinetypeTableRecord
  2
DASHDOT
 70
     0
  3
____ _ ____ _ ____ _ ____ _ ____ _ ____ _ ____
 72
    65
 73
     4
 40
5.5
 49
4.0
 74
     0
 49
-0.6
 74
     0
 49
0.3
 74
     0
 49
-0.6
 74
     0
  0
LTYPE
  5
2A3C
330
29C7
100
AcDbSymbolTableRecord
100
AcDbLinetypeTableRecord
  2
HIDDEN
 70
     0
  3
Hidden __ __ __ __ __ __ __ __ __ __ __ __ __ _
 72
    65
 73
     2
 40
0.375
 49
0.25
 74
     0
 49
-0.125
 74
     0
  0
LTYPE
  5
2A3D
330
29C7
100
AcDbSymbolTableRecord
100
AcDbLinetypeTableRecord
  2
PHANTOM2
 70
     0
  3
Phantom (.5x) ___ _ _ ___ _ _ ___ _ _ ___ _ _
 72
    65
 73
     6
 40
1.25
 49
0.625
 74
     0
 49
-0.125
 74
     0
 49
0.125
 74
     0
 49
-0.125
 74
     0
 49
0.125
 74
     0
 49
-0.125
 74
     0
  0
LTYPE
  5
2A3E
330
29C7
100
AcDbSymbolTableRecord
100
AcDbLinetypeTableRecord
  2
CENTER
 70
     0
  3
Center ____ _ ____ _ ____ _ ____ _ ____ _ ____
 72
    65
 73
     4
 40
2.0
 49
1.25
 74
     0
 49
-0.25
 74
     0
 49
0.25
 74
     0
 49
-0.25
 74
     0
  0
LTYPE
  5
2A3F
330
29C7
100
AcDbSymbolTableRecord
100
AcDbLinetypeTableRecord
  2
ASULTYPE
 70
     0
  3
実線
 72
    65
 73
     2
 40
3.0
 49
2.5
 74
     0
 49
0.5
 74
     0
  0
LTYPE
  5
2A40
330
29C7
100
AcDbSymbolTableRecord
100
AcDbLinetypeTableRecord
  2
ASVLTYPE
 70
     0
  3
__ __ __ __ __ __ __ __ __ __ __ __ __ __ __ __ __ __ __ __ __
 72
    65
 73
     2
 40
0.75
 49
0.5
 74
     0
 49
-0.25
 74
     0
  0
LTYPE
  5
2A41
330
29C7
100
AcDbSymbolTableRecord
100
AcDbLinetypeTableRecord
  2
AM_ISO02W050
 70
     0
  3
__ __ __ __ __ __ __ __ __ __ __ __ __ __ __
 72
    65
 73
     2
 40
7.5
 49
6.0
 74
     0
 49
-1.5
 74
     0
  0
LTYPE
  5
2A42
330
29C7
100
AcDbSymbolTableRecord
100
AcDbLinetypeTableRecord
  2
AM_ISO08W050
 70
     0
  3
____ . ____ . ____ . ____ . ____ . ____ . ____
 72
    65
 73
     4
 40
18.0
 49
12.0
 74
     0
 49
-1.5
 74
     0
 49
3.0
 74
     0
 49
-1.5
 74
     0
  0
LTYPE
  5
2A43
330
29C7
100
AcDbSymbolTableRecord
100
AcDbLinetypeTableRecord
  2
AM_ISO09W050
 70
     0
  3
_____ . . _____ . . _____ . . ____ .. ____
 72
    65
 73
     6
 40
22.5
 49
12.0
 74
     0
 49
-1.5
 74
     0
 49
3.0
 74
     0
 49
-1.5
 74
     0
 49
3.0
 74
     0
 49
-1.5
 74
     0
  0
LTYPE
  5
2A44
330
29C7
100
AcDbSymbolTableRecord
100
AcDbLinetypeTableRecord
  2
AMCONSTR
 70
     0
  3
_______________________
 72
    65
 73
     2
 40
9999.0
 49
9999.0
 74
     0
 49
0.0
 74
     0
  0
LTYPE
  5
2A45
330
29C7
100
AcDbSymbolTableRecord
100
AcDbLinetypeTableRecord
  2
AM_ISO08W050X2
 70
     0
  3
__ . __ . __ . __ . __ . __
 72
    65
 73
     4
 40
9.0
 49
6.0
 74
     0
 49
-0.75
 74
     0
 49
1.5
 74
     0
 49
-0.75
 74
     0
  0
LTYPE
  5
2A46
330
29C7
100
AcDbSymbolTableRecord
100
AcDbLinetypeTableRecord
  2
AM_ISO02W050X2
 70
     0
  3
 _ _ _ _ _ _ _ _ _ _ _ _
 72
    65
 73
     2
 40
3.75
 49
3.0
 74
     0
 49
-0.75
 74
     0
  0
LTYPE
  5
2A47
330
29C7
100
AcDbSymbolTableRecord
100
AcDbLinetypeTableRecord
  2
AMZIGZAG
 70
     0
  3
/\/-/\/-/\/-/\/-/\/-/\/
 72
    65
 73
     2
 40
11.0001
 49
0.0001
 74
     0
 49
-11.0
 74
     0
  0
LTYPE
  5
2A48
330
29C7
100
AcDbSymbolTableRecord
100
AcDbLinetypeTableRecord
  2
CENTER2
 70
     0
  3
Center (.5x) ___ _ ___ _ ___ _ ___ _ ___ _ ___
 72
    65
 73
     4
 40
1.125
 49
0.75
 74
     0
 49
-0.125
 74
     0
 49
0.125
 74
     0
 49
-0.125
 74
     0
  0
LTYPE
  5
2A49
330
29C7
100
AcDbSymbolTableRecord
100
AcDbLinetypeTableRecord
  2
HIDDEN2
 70
     0
  3
Hidden (.5x) _ _ _ _ _ _ _ _ _ _ _ _ _ _ _ _ _
 72
    65
 73
     2
 40
0.1875
 49
0.125
 74
     0
 49
-0.0625
 74
     0
  0
LTYPE
  5
2A4A
330
29C7
100
AcDbSymbolTableRecord
100
AcDbLinetypeTableRecord
  2
AMZIGZAG2
 70
     0
  3
/\/-/\/-/\/-/\/-/\/-/\/
 72
    65
 73
     2
 40
0.4401
 49
0.0001
 74
     0
 49
-0.4400000000000003
 74
     0
  0
LTYPE
  5
2A4B
330
29C7
100
AcDbSymbolTableRecord
100
AcDbLinetypeTableRecord
  2
ACANSTGB
 70
     0
  3
__ . . __ . .
 72
    65
 73
     6
 40
0.35433070866
 49
0.15748031496
 74
     0
 49
-0.03937007874
 74
     0
 49
0.03937007874
 74
     0
 49
-0.03937007874
 74
     0
 49
0.03937007874
 74
     0
 49
-0.03937007874
 74
     0
  0
LTYPE
  5
2A4C
330
29C7
100
AcDbSymbolTableRecord
100
AcDbLinetypeTableRecord
  2
ACANSTGL
 70
     0
  3
_ _ _ _ _
 72
    65
 73
     2
 40
0.11811023622
 49
0.07874015748
 74
     0
 49
-0.03937007874
 74
     0
  0
ENDTAB
  0
TABLE
  2
LAYER
  5
29C4
330
0
100
AcDbSymbolTable
 70
    12
  0
LAYER
  5
2A1E
102
{ACAD_XDICTIONARY
360
2BEE
102
}
330
29C4
100
AcDbSymbolTableRecord
100
AcDbLayerTableRecord
  2
0
 70
     0
 62
     7
  6
CONTINUOUS
370
    -3
390
29D1
  0
LAYER
  5
2A4D
102
{ACAD_XDICTIONARY
360
2BF0
102
}
330
29C4
100
AcDbSymbolTableRecord
100
AcDbLayerTableRecord
  2
OUTLINE
 70
     0
 62
     3
  6
CONTINUOUS
370
    -3
390
29D1
  0
LAYER
  5
2A4E
102
{ACAD_XDICTIONARY
360
2BF2
102
}
330
29C4
100
AcDbSymbolTableRecord
100
AcDbLayerTableRecord
  2
SIZE
 70
     0
 62
    30
  6
CONTINUOUS
370
    -3
390
29D1
  0
LAYER
  5
2A4F
102
{ACAD_XDICTIONARY
360
2BF4
102
}
330
29C4
100
AcDbSymbolTableRecord
100
AcDbLayerTableRecord
  2
BASIS
 70
     0
 62
     6
  6
DASHDOT
370
    -3
390
29D1
  0
LAYER
  5
2A50
102
{ACAD_XDICTIONARY
360
2BF6
102
}
330
29C4
100
AcDbSymbolTableRecord
100
AcDbLayerTableRecord
  2
DETAIL
 70
     0
 62
     5
  6
CONTINUOUS
370
    -3
390
29D1
  0
LAYER
  5
2A51
102
{ACAD_XDICTIONARY
360
2BF8
102
}
330
29C4
100
AcDbSymbolTableRecord
100
AcDbLayerTableRecord
  2
ARRANGE
 70
     0
 62
     1
  6
CONTINUOUS
370
    -3
390
29D1
  0
LAYER
  5
2A52
330
29C4
100
AcDbSymbolTableRecord
100
AcDbLayerTableRecord
  2
DEFPOINTS
 70
     0
 62
     7
  6
CONTINUOUS
290
     0
370
    -3
390
29D1
  0
LAYER
  5
2A53
102
{ACAD_XDICTIONARY
360
2BFA
102
}
330
29C4
100
AcDbSymbolTableRecord
100
AcDbLayerTableRecord
  2
ETC
 70
     0
 62
    61
  6
CONTINUOUS
370
    -3
390
29D1
  0
LAYER
  5
2A54
102
{ACAD_XDICTIONARY
360
2BFC
102
}
330
29C4
100
AcDbSymbolTableRecord
100
AcDbLayerTableRecord
  2
FIX
 70
     0
 62
    11
  6
CONTINUOUS
370
    -3
390
29D1
  0
LAYER
  5
2A55
102
{ACAD_XDICTIONARY
360
2BFE
102
}
330
29C4
100
AcDbSymbolTableRecord
100
AcDbLayerTableRecord
  2
NOTE
 70
     0
 62
     4
  6
CONTINUOUS
370
    -3
390
29D1
  0
LAYER
  5
2A56
102
{ACAD_XDICTIONARY
360
2C00
102
}
330
29C4
100
AcDbSymbolTableRecord
100
AcDbLayerTableRecord
  2
SERVICESPACE
 70
     0
 62
     2
  6
DASHDOT
370
    -3
390
29D1
  0
LAYER
  5
2A57
102
{ACAD_XDICTIONARY
360
2C02
102
}
330
29C4
100
AcDbSymbolTableRecord
100
AcDbLayerTableRecord
  2
SYMBOLLINE
 70
     0
 62
    15
  6
CONTINUOUS
370
    -3
390
29D1
  0
ENDTAB
  0
TABLE
  2
STYLE
  5
29C5
330
0
100
AcDbSymbolTable
 70
     5
  0
STYLE
  5
2A1F
330
29C5
100
AcDbSymbolTableRecord
100
AcDbTextStyleTableRecord
  2
STANDARD
 70
     0
 40
64.0
 41
0.9
 50
0.0
 71
     0
 42
64.0
  3
SIMPLEX.shx
  4
BIGFONT.shx
  0
STYLE
  5
2A23
330
29C5
100
AcDbSymbolTableRecord
100
AcDbTextStyleTableRecord
  2
ANNOTATIVE
 70
     0
 40
0.0
 41
1.0
 50
0.0
 71
     0
 42
0.2
  3
txt
  4

1001
ACADANNOTATIVE
1000
AnnotativeData
1002
{
1070
     1
1070
     1
1002
}
  0
STYLE
  5
2A58
330
29C5
100
AcDbSymbolTableRecord
100
AcDbTextStyleTableRecord
  2

 70
     1
 40
0.0
 41
1.0
 50
0.0
 71
     0
 42
64.0
  3
genltshp.shx
  4

  0
STYLE
  5
2A59
330
29C5
100
AcDbSymbolTableRecord
100
AcDbTextStyleTableRecord
  2
ACANSTS
 70
     0
 40
1.0
 41
1.0
 50
0.0
 71
     0
 42
64.0
  3
romans.shx
  4
extfont.shx
  0
STYLE
  5
2A5A
330
29C5
100
AcDbSymbolTableRecord
100
AcDbTextStyleTableRecord
  2
ACANSGDT
 70
     0
 40
0.0
 41
1.0
 50
0.0
 71
     0
 42
64.0
  3
amgdt.shx
  4

  0
ENDTAB
  0
TABLE
  2
VIEW
  5
29C8
330
0
100
AcDbSymbolTable
 70
     1
  0
VIEW
  5
2A5B
330
29C8
100
AcDbSymbolTableRecord
100
AcDbViewTableRecord
  2
ALL
 70
     0
 40
4282.619807999997
 10
0.0
 20
41.30990399999999
 41
5940.0
 11
0.0
 21
0.0
 31
1.0
 12
0.0
 22
0.0
 32
0.0
 42
50.0
 43
0.0
 44
0.0
 50
0.0
 71
     0
281
     0
 72
     1
110
0.0
120
0.0
130
0.0
111
1.0
121
0.0
131
0.0
112
0.0
122
1.0
132
0.0
 79
     0
146
0.0
  0
ENDTAB
  0
TABLE
  2
UCS
  5
29C9
330
0
100
AcDbSymbolTable
 70
     0
  0
ENDTAB
  0
TABLE
  2
APPID
  5
29CB
330
0
100
AcDbSymbolTable
 70
    29
  0
APPID
  5
2A20
330
29CB
100
AcDbSymbolTableRecord
100
AcDbRegAppTableRecord
  2
ACAD
 70
     0
  0
APPID
  5
2A27
330
29CB
100
AcDbSymbolTableRecord
100
AcDbRegAppTableRecord
  2
ACADANNOTATIVE
 70
     0
  0
APPID
  5
2A31
330
29CB
100
AcDbSymbolTableRecord
100
AcDbRegAppTableRecord
  2
ACAD_MLEADERVER
 70
     0
  0
APPID
  5
2A5C
330
29CB
100
AcDbSymbolTableRecord
100
AcDbRegAppTableRecord
  2
GENIUS_GENDIM_13
 70
     0
  0
APPID
  5
2A5D
330
29CB
100
AcDbSymbolTableRecord
100
AcDbRegAppTableRecord
  2
GENIUS_GENDTOL_13
 70
     0
  0
APPID
  5
2A5E
330
29CB
100
AcDbSymbolTableRecord
100
AcDbRegAppTableRecord
  2
GENIUS_GE3DTOL_13
 70
     0
  0
APPID
  5
2A5F
330
29CB
100
AcDbSymbolTableRecord
100
AcDbRegAppTableRecord
  2
MCAD_NO_VIS
 70
     0
  0
APPID
  5
2A60
330
29CB
100
AcDbSymbolTableRecord
100
AcDbRegAppTableRecord
  2
ACAD_TEMP_GRAPHIC
 70
     0
  0
APPID
  5
2A61
330
29CB
100
AcDbSymbolTableRecord
100
AcDbRegAppTableRecord
  2
AD_DRAW
 70
     0
  0
APPID
  5
2A62
330
29CB
100
AcDbSymbolTableRecord
100
AcDbRegAppTableRecord
  2
ACATTRIBSERVICES
 70
     0
  0
APPID
  5
2A63
330
29CB
100
AcDbSymbolTableRecord
100
AcDbRegAppTableRecord
  2
ASURF_PCURVE_APPNAME
 70
     0
  0
APPID
  5
2A64
330
29CB
100
AcDbSymbolTableRecord
100
AcDbRegAppTableRecord
  2
AMG_3D2D_5_0
 70
     0
  0
APPID
  5
2A65
330
29CB
100
AcDbSymbolTableRecord
100
AcDbRegAppTableRecord
  2
DESIGNERASSEMBLIES
 70
     0
  0
APPID
  5
2A66
330
29CB
100
AcDbSymbolTableRecord
100
AcDbRegAppTableRecord
  2
ACADM_DIM_EDIT
 70
     0
  0
APPID
  5
2A67
330
29CB
100
AcDbSymbolTableRecord
100
AcDbRegAppTableRecord
  2
AMDT_DM_ADJ
 70
     0
  0
APPID
  5
2A68
330
29CB
100
AcDbSymbolTableRecord
100
AcDbRegAppTableRecord
  2
ACAD_DSTYLE_DIMARC_LENGTH_
 70
     0
  0
APPID
  5
2A69
330
29CB
100
AcDbSymbolTableRecord
100
AcDbRegAppTableRecord
  2
ACAD_DSTYLE_DIMJOGGED_JOGA
 70
     0
  0
APPID
  5
2A6A
330
29CB
100
AcDbSymbolTableRecord
100
AcDbRegAppTableRecord
  2
ACAD_PSEXT
 70
     0
  0
APPID
  5
2A6B
330
29CB
100
AcDbSymbolTableRecord
100
AcDbRegAppTableRecord
  2
ACAD_EXEMPT_FROM_CAD_STANDARDS
 70
     0
  0
APPID
  5
2A6C
330
29CB
100
AcDbSymbolTableRecord
100
AcDbRegAppTableRecord
  2
ACAD_DSTYLE_DIMJAG
 70
     0
  0
APPID
  5
2A6D
330
29CB
100
AcDbSymbolTableRecord
100
AcDbRegAppTableRecord
  2
ACAD_DSTYLE_DIMTALN
 70
     0
  0
APPID
  5
2A6E
330
29CB
100
AcDbSymbolTableRecord
100
AcDbRegAppTableRecord
  2
AMG_3D2D_5_00
 70
     0
  0
APPID
  5
2A6F
330
29CB
100
AcDbSymbolTableRecord
100
AcDbRegAppTableRecord
  2
AMG_3D2D_5_01
 70
     0
  0
APPID
  5
2A70
330
29CB
100
AcDbSymbolTableRecord
100
AcDbRegAppTableRecord
  2
AMG_3D2D_5_02
 70
     0
  0
APPID
  5
2B8E
330
29CB
100
AcDbSymbolTableRecord
100
AcDbRegAppTableRecord
  2
AMG_3D2D_5.0
 70
     0
  0
APPID
  5
2C2B
330
29CB
100
AcDbSymbolTableRecord
100
AcDbRegAppTableRecord
  2
ACAD_DSTYLE_DIMARC_LENGTH_SYMBOL
 70
     0
  0
APPID
  5
2C2C
330
29CB
100
AcDbSymbolTableRecord
100
AcDbRegAppTableRecord
  2
ACAD_DSTYLE_DIM_LINETYPE
 70
     0
  0
APPID
  5
2C2D
330
29CB
100
AcDbSymbolTableRecord
100
AcDbRegAppTableRecord
  2
ACAD_DSTYLE_DIM_EXT1_LINETYPE
 70
     0
  0
APPID
  5
2C2E
330
29CB
100
AcDbSymbolTableRecord
100
AcDbRegAppTableRecord
  2
ACAD_DSTYLE_DIM_EXT2_LINETYPE
 70
     0
  0
ENDTAB
  0
TABLE
  2
DIMSTYLE
  5
29CC
330
0
100
AcDbSymbolTable
 70
    10
100
AcDbDimStyleTable
 71
     1
340
2A71
  0
DIMSTYLE
105
2A21
330
29CC
100
AcDbSymbolTableRecord
100
AcDbDimStyleTableRecord
  2
STANDARD
 70
     0
 41
12.0
 42
20.0
 44
20.0
 77
     1
 78
     8
140
64.0
141
0.0
147
10.0
275
     1
279
     2
284
     7
285
     7
286
     7
340
2A1F
  0
DIMSTYLE
105
2A22
330
29CC
100
AcDbSymbolTableRecord
100
AcDbDimStyleTableRecord
  2
ANNOTATIVE
 70
     0
275
     1
279
     2
284
     7
285
     7
286
     7
340
2A1F
1001
ACADANNOTATIVE
1000
AnnotativeData
1002
{
1070
     1
1070
     1
1002
}
  0
DIMSTYLE
105
2A71
330
29CC
100
AcDbSymbolTableRecord
100
AcDbDimStyleTableRecord
  2
AM_ANSI
 70
     0
  4
mm
 41
0.12
 42
0.05
 43
0.5
 44
0.1
 47
0.1
 48
0.1
 78
     7
 79
     2
140
0.12
141
0.0
146
0.71
147
0.06
176
   256
177
   256
178
     2
274
     4
284
     7
340
2A1F
371
    -1
372
    -1
1001
ACAD_DSTYLE_DIMARC_LENGTH_SYMBOL
1070
   379
1070
     1
1001
ACAD_DSTYLE_DIM_LINETYPE
1070
   380
1005
2A24
1001
ACAD_DSTYLE_DIM_EXT1_LINETYPE
1070
   381
1005
2A24
1001
ACAD_DSTYLE_DIM_EXT2_LINETYPE
1070
   382
1005
2A24
  0
DIMSTYLE
105
2A72
330
29CC
100
AcDbSymbolTableRecord
100
AcDbDimStyleTableRecord
  2
AM_ANSI$3
 70
     0
  4
mm
 41
0.12
 42
0.05
 43
0.5
 44
0.1
 47
0.1
 48
0.1
 78
     7
 79
     2
140
0.12
141
0.0
146
0.71
147
0.06
176
   256
177
   256
178
     2
274
     4
284
     7
288
     1
289
     0
340
2A1F
371
    -1
372
    -1
1001
ACAD_DSTYLE_DIMARC_LENGTH_SYMBOL
1070
   379
1070
     1
1001
ACAD_DSTYLE_DIM_LINETYPE
1070
   380
1005
2A24
1001
ACAD_DSTYLE_DIM_EXT1_LINETYPE
1070
   381
1005
2A24
1001
ACAD_DSTYLE_DIM_EXT2_LINETYPE
1070
   382
1005
2A24
  0
DIMSTYLE
105
2A73
330
29CC
100
AcDbSymbolTableRecord
100
AcDbDimStyleTableRecord
  2
AM_ANSI$4
 70
     0
  4
mm
 41
0.12
 42
0.05
 43
0.5
 44
0.1
 47
0.1
 48
0.1
 78
     7
 79
     2
140
0.12
141
0.0
146
0.71
147
0.06
176
   256
177
   256
178
     2
274
     4
284
     7
340
2A1F
371
    -1
372
    -1
1001
ACAD_DSTYLE_DIMARC_LENGTH_SYMBOL
1070
   379
1070
     1
1001
ACAD_DSTYLE_DIM_LINETYPE
1070
   380
1005
2A24
1001
ACAD_DSTYLE_DIM_EXT1_LINETYPE
1070
   381
1005
2A24
1001
ACAD_DSTYLE_DIM_EXT2_LINETYPE
1070
   382
1005
2A24
  0
DIMSTYLE
105
2A74
330
29CC
100
AcDbSymbolTableRecord
100
AcDbDimStyleTableRecord
  2
AM_ANSI$7
 70
     0
  4
mm
 41
0.12
 42
0.05
 43
0.5
 44
0.1
 47
0.1
 48
0.1
 78
     7
 79
     2
140
0.12
141
0.0
146
0.71
147
0.06
176
   256
177
   256
178
     2
274
     4
284
     7
340
2A1F
371
    -1
372
    -1
1001
ACAD_DSTYLE_DIMARC_LENGTH_SYMBOL
1070
   379
1070
     1
1001
ACAD_DSTYLE_DIM_LINETYPE
1070
   380
1005
2A24
1001
ACAD_DSTYLE_DIM_EXT1_LINETYPE
1070
   381
1005
2A24
1001
ACAD_DSTYLE_DIM_EXT2_LINETYPE
1070
   382
1005
2A24
  0
DIMSTYLE
105
2A75
330
29CC
100
AcDbSymbolTableRecord
100
AcDbDimStyleTableRecord
  2
AM_ANSI$SF
 70
     0
  4
mm
 41
0.12
 42
0.05
 43
0.5
 44
0.1
 47
0.1
 48
0.1
 75
     1
 76
     1
 78
     7
 79
     2
140
0.12
141
0.0
146
0.71
147
0.06
176
   256
177
   256
178
     2
274
     4
284
     7
340
2A1F
371
    -1
372
    -1
1001
ACAD_DSTYLE_DIMARC_LENGTH_SYMBOL
1070
   379
1070
     1
1001
ACAD_DSTYLE_DIM_LINETYPE
1070
   380
1005
2A24
1001
ACAD_DSTYLE_DIM_EXT1_LINETYPE
1070
   381
1005
2A24
1001
ACAD_DSTYLE_DIM_EXT2_LINETYPE
1070
   382
1005
2A24
  0
DIMSTYLE
105
2A76
330
29CC
100
AcDbSymbolTableRecord
100
AcDbDimStyleTableRecord
  2
AM_ANSI$SH
 70
     0
  4
mm
 41
0.12
 42
0.05
 43
0.5
 44
0.1
 47
0.1
 48
0.1
 75
     1
 76
     1
 78
     7
 79
     2
140
0.12
141
0.0
146
0.71
147
0.06
173
     1
176
   256
177
   256
178
     2
274
     4
284
     7
340
2A1F
343
2A96
371
    -1
372
    -1
1001
ACAD_DSTYLE_DIMARC_LENGTH_SYMBOL
1070
   379
1070
     1
1001
ACAD_DSTYLE_DIM_LINETYPE
1070
   380
1005
2A24
1001
ACAD_DSTYLE_DIM_EXT1_LINETYPE
1070
   381
1005
2A24
1001
ACAD_DSTYLE_DIM_EXT2_LINETYPE
1070
   382
1005
2A24
  0
DIMSTYLE
105
2A77
330
29CC
100
AcDbSymbolTableRecord
100
AcDbDimStyleTableRecord
  2
STANDARD1
 70
     0
 40
6.0
 41
2.5
 42
0.625
 43
6.0
 44
1.25
 47
1.0
 48
0.5
 77
     1
 78
     8
140
2.5
141
0.0
146
0.6
147
1.0
173
     1
275
     1
279
     2
284
     7
285
     7
286
     7
340
2A1F
  0
DIMSTYLE
105
2A78
330
29CC
100
AcDbSymbolTableRecord
100
AcDbDimStyleTableRecord
  2
STANDARD$0
 70
     0
 41
12.0
 42
20.0
 44
20.0
 73
     0
 74
     0
 77
     1
 78
     8
140
64.0
141
0.0
147
10.0
275
     1
279
     2
284
     7
285
     7
286
     7
340
2A1F
  0
ENDTAB
  0
TABLE
  2
BLOCK_RECORD
  5
29C3
330
0
100
AcDbSymbolTable
 70
    71
  0
BLOCK_RECORD
  5
2A36
102
{ACAD_XDICTIONARY
360
2C04
102
}
330
29C3
100
AcDbSymbolTableRecord
100
AcDbBlockTableRecord
  2
*Model_Space
340
2A39
  0
BLOCK_RECORD
  5
2A32
330
29C3
100
AcDbSymbolTableRecord
100
AcDbBlockTableRecord
  2
*Paper_Space
340
2A35
  0
BLOCK_RECORD
  5
2A80
330
29C3
100
AcDbSymbolTableRecord
100
AcDbBlockTableRecord
  2
$MODEL_SPACE
340
0
  0
BLOCK_RECORD
  5
2A82
330
29C3
100
AcDbSymbolTableRecord
100
AcDbBlockTableRecord
  2
$PAPER_SPACE
340
0
  0
BLOCK_RECORD
  5
2A84
330
29C3
100
AcDbSymbolTableRecord
100
AcDbBlockTableRecord
  2
_ORIGIN
340
0
  0
BLOCK_RECORD
  5
2A86
330
29C3
100
AcDbSymbolTableRecord
100
AcDbBlockTableRecord
  2
_DOTBLANK
340
0
102
{BLKREFS
331
1299
331
129A
331
11AA
331
11AB
331
E80
331
E81
331
1123
331
1124
331
11C2
331
11C3
331
11EC
331
11ED
331
11F9
331
11FA
331
1287
331
1288
331
1417
331
1418
331
1423
331
1424
331
142F
331
1430
331
143B
331
143C
331
166E
331
166F
331
1677
331
1678
331
1680
331
1681
331
1689
331
168A
331
1696
331
1697
331
16A3
331
16A4
331
16AF
331
16B0
331
16BB
331
16BC
331
16C7
331
16C8
331
16D3
331
16D4
331
1D86
331
1D87
331
1D8F
331
1D90
331
1D98
331
1D99
331
1DA1
331
1DA2
331
1DAB
331
1DAC
331
1DB5
331
1DB6
331
2973
331
2974
331
2978
331
2979
331
297D
331
297E
331
2982
331
2983
102
}
  0
BLOCK_RECORD
  5
2A88
330
29C3
100
AcDbSymbolTableRecord
100
AcDbBlockTableRecord
  2
_OPEN30
340
0
102
{BLKREFS
331
2088
331
27FE
102
}
  0
BLOCK_RECORD
  5
2A8A
330
29C3
100
AcDbSymbolTableRecord
100
AcDbBlockTableRecord
  2
*D5
340
0
  0
BLOCK_RECORD
  5
2A8C
330
29C3
100
AcDbSymbolTableRecord
100
AcDbBlockTableRecord
  2
*U6
340
0
102
{BLKREFS
331
129B
102
}
  0
BLOCK_RECORD
  5
2A8E
330
29C3
100
AcDbSymbolTableRecord
100
AcDbBlockTableRecord
  2
*D7
340
0
  0
BLOCK_RECORD
  5
2A90
330
29C3
100
AcDbSymbolTableRecord
100
AcDbBlockTableRecord
  2
*U8
340
0
102
{BLKREFS
331
11AC
102
}
  0
BLOCK_RECORD
  5
2A92
330
29C3
100
AcDbSymbolTableRecord
100
AcDbBlockTableRecord
  2
*D9
340
0
  0
BLOCK_RECORD
  5
2A94
330
29C3
100
AcDbSymbolTableRecord
100
AcDbBlockTableRecord
  2
*U10
340
0
102
{BLKREFS
331
E82
102
}
  0
BLOCK_RECORD
  5
2A96
330
29C3
100
AcDbSymbolTableRecord
100
AcDbBlockTableRecord
  2
GENAXEH
340
0
  0
BLOCK_RECORD
  5
2A98
330
29C3
100
AcDbSymbolTableRecord
100
AcDbBlockTableRecord
  2
*D12
340
0
  0
BLOCK_RECORD
  5
2A9A
330
29C3
100
AcDbSymbolTableRecord
100
AcDbBlockTableRecord
  2
*U13
340
0
102
{BLKREFS
331
1125
102
}
  0
BLOCK_RECORD
  5
2A9C
330
29C3
100
AcDbSymbolTableRecord
100
AcDbBlockTableRecord
  2
*D14
340
0
  0
BLOCK_RECORD
  5
2A9E
330
29C3
100
AcDbSymbolTableRecord
100
AcDbBlockTableRecord
  2
*U15
340
0
102
{BLKREFS
331
11C4
102
}
  0
BLOCK_RECORD
  5
2AA0
330
29C3
100
AcDbSymbolTableRecord
100
AcDbBlockTableRecord
  2
*D16
340
0
  0
BLOCK_RECORD
  5
2AA2
330
29C3
100
AcDbSymbolTableRecord
100
AcDbBlockTableRecord
  2
*U17
340
0
102
{BLKREFS
331
11EE
102
}
  0
BLOCK_RECORD
  5
2AA4
330
29C3
100
AcDbSymbolTableRecord
100
AcDbBlockTableRecord
  2
*D18
340
0
  0
BLOCK_RECORD
  5
2AA6
330
29C3
100
AcDbSymbolTableRecord
100
AcDbBlockTableRecord
  2
*U19
340
0
102
{BLKREFS
331
11FB
102
}
  0
BLOCK_RECORD
  5
2AA8
330
29C3
100
AcDbSymbolTableRecord
100
AcDbBlockTableRecord
  2
*D20
340
0
  0
BLOCK_RECORD
  5
2AAA
330
29C3
100
AcDbSymbolTableRecord
100
AcDbBlockTableRecord
  2
*U21
340
0
102
{BLKREFS
331
1289
102
}
  0
BLOCK_RECORD
  5
2AAC
330
29C3
100
AcDbSymbolTableRecord
100
AcDbBlockTableRecord
  2
*D22
340
0
  0
BLOCK_RECORD
  5
2AAE
330
29C3
100
AcDbSymbolTableRecord
100
AcDbBlockTableRecord
  2
*U23
340
0
102
{BLKREFS
331
1419
102
}
  0
BLOCK_RECORD
  5
2AB0
330
29C3
100
AcDbSymbolTableRecord
100
AcDbBlockTableRecord
  2
*D24
340
0
  0
BLOCK_RECORD
  5
2AB2
330
29C3
100
AcDbSymbolTableRecord
100
AcDbBlockTableRecord
  2
*U25
340
0
102
{BLKREFS
331
1425
102
}
  0
BLOCK_RECORD
  5
2AB4
330
29C3
100
AcDbSymbolTableRecord
100
AcDbBlockTableRecord
  2
*D26
340
0
  0
BLOCK_RECORD
  5
2AB6
330
29C3
100
AcDbSymbolTableRecord
100
AcDbBlockTableRecord
  2
*U27
340
0
102
{BLKREFS
331
1431
102
}
  0
BLOCK_RECORD
  5
2AB8
330
29C3
100
AcDbSymbolTableRecord
100
AcDbBlockTableRecord
  2
*D28
340
0
  0
BLOCK_RECORD
  5
2ABA
330
29C3
100
AcDbSymbolTableRecord
100
AcDbBlockTableRecord
  2
*U29
340
0
102
{BLKREFS
331
143D
102
}
  0
BLOCK_RECORD
  5
2ABC
330
29C3
100
AcDbSymbolTableRecord
100
AcDbBlockTableRecord
  2
*D30
340
0
  0
BLOCK_RECORD
  5
2ABE
330
29C3
100
AcDbSymbolTableRecord
100
AcDbBlockTableRecord
  2
*U31
340
0
102
{BLKREFS
331
1670
102
}
  0
BLOCK_RECORD
  5
2AC0
330
29C3
100
AcDbSymbolTableRecord
100
AcDbBlockTableRecord
  2
*D32
340
0
  0
BLOCK_RECORD
  5
2AC2
330
29C3
100
AcDbSymbolTableRecord
100
AcDbBlockTableRecord
  2
*U33
340
0
102
{BLKREFS
331
1679
102
}
  0
BLOCK_RECORD
  5
2AC4
330
29C3
100
AcDbSymbolTableRecord
100
AcDbBlockTableRecord
  2
*D34
340
0
  0
BLOCK_RECORD
  5
2AC6
330
29C3
100
AcDbSymbolTableRecord
100
AcDbBlockTableRecord
  2
*U35
340
0
102
{BLKREFS
331
1682
102
}
  0
BLOCK_RECORD
  5
2AC8
330
29C3
100
AcDbSymbolTableRecord
100
AcDbBlockTableRecord
  2
*D36
340
0
  0
BLOCK_RECORD
  5
2ACA
330
29C3
100
AcDbSymbolTableRecord
100
AcDbBlockTableRecord
  2
*U37
340
0
102
{BLKREFS
331
168B
102
}
  0
BLOCK_RECORD
  5
2ACC
330
29C3
100
AcDbSymbolTableRecord
100
AcDbBlockTableRecord
  2
*U38
340
0
  0
BLOCK_RECORD
  5
2ACE
330
29C3
100
AcDbSymbolTableRecord
100
AcDbBlockTableRecord
  2
*D39
340
0
  0
BLOCK_RECORD
  5
2AD0
330
29C3
100
AcDbSymbolTableRecord
100
AcDbBlockTableRecord
  2
*U40
340
0
102
{BLKREFS
331
1698
102
}
  0
BLOCK_RECORD
  5
2AD2
330
29C3
100
AcDbSymbolTableRecord
100
AcDbBlockTableRecord
  2
*D41
340
0
  0
BLOCK_RECORD
  5
2AD4
330
29C3
100
AcDbSymbolTableRecord
100
AcDbBlockTableRecord
  2
*U42
340
0
102
{BLKREFS
331
16A5
102
}
  0
BLOCK_RECORD
  5
2AD6
330
29C3
100
AcDbSymbolTableRecord
100
AcDbBlockTableRecord
  2
*D43
340
0
  0
BLOCK_RECORD
  5
2AD8
330
29C3
100
AcDbSymbolTableRecord
100
AcDbBlockTableRecord
  2
*U44
340
0
102
{BLKREFS
331
16B1
102
}
  0
BLOCK_RECORD
  5
2ADA
330
29C3
100
AcDbSymbolTableRecord
100
AcDbBlockTableRecord
  2
*D45
340
0
  0
BLOCK_RECORD
  5
2ADC
330
29C3
100
AcDbSymbolTableRecord
100
AcDbBlockTableRecord
  2
*U46
340
0
102
{BLKREFS
331
16BD
102
}
  0
BLOCK_RECORD
  5
2ADE
330
29C3
100
AcDbSymbolTableRecord
100
AcDbBlockTableRecord
  2
*D47
340
0
  0
BLOCK_RECORD
  5
2AE0
330
29C3
100
AcDbSymbolTableRecord
100
AcDbBlockTableRecord
  2
*U48
340
0
102
{BLKREFS
331
16C9
102
}
  0
BLOCK_RECORD
  5
2AE2
330
29C3
100
AcDbSymbolTableRecord
100
AcDbBlockTableRecord
  2
*D49
340
0
  0
BLOCK_RECORD
  5
2AE4
330
29C3
100
AcDbSymbolTableRecord
100
AcDbBlockTableRecord
  2
*U50
340
0
102
{BLKREFS
331
16D5
102
}
  0
BLOCK_RECORD
  5
2AE6
330
29C3
100
AcDbSymbolTableRecord
100
AcDbBlockTableRecord
  2
*D51
340
0
  0
BLOCK_RECORD
  5
2AE8
330
29C3
100
AcDbSymbolTableRecord
100
AcDbBlockTableRecord
  2
*U52
340
0
102
{BLKREFS
331
1D88
102
}
  0
BLOCK_RECORD
  5
2AEA
330
29C3
100
AcDbSymbolTableRecord
100
AcDbBlockTableRecord
  2
*D53
340
0
  0
BLOCK_RECORD
  5
2AEC
330
29C3
100
AcDbSymbolTableRecord
100
AcDbBlockTableRecord
  2
*U54
340
0
102
{BLKREFS
331
1D91
102
}
  0
BLOCK_RECORD
  5
2AEE
330
29C3
100
AcDbSymbolTableRecord
100
AcDbBlockTableRecord
  2
*D55
340
0
  0
BLOCK_RECORD
  5
2AF0
330
29C3
100
AcDbSymbolTableRecord
100
AcDbBlockTableRecord
  2
*U56
340
0
102
{BLKREFS
331
1D9A
102
}
  0
BLOCK_RECORD
  5
2AF2
330
29C3
100
AcDbSymbolTableRecord
100
AcDbBlockTableRecord
  2
*D57
340
0
  0
BLOCK_RECORD
  5
2AF4
330
29C3
100
AcDbSymbolTableRecord
100
AcDbBlockTableRecord
  2
*U58
340
0
102
{BLKREFS
331
1DA3
102
}
  0
BLOCK_RECORD
  5
2AF6
330
29C3
100
AcDbSymbolTableRecord
100
AcDbBlockTableRecord
  2
*D59
340
0
  0
BLOCK_RECORD
  5
2AF8
330
29C3
100
AcDbSymbolTableRecord
100
AcDbBlockTableRecord
  2
*U60
340
0
102
{BLKREFS
331
1DAD
102
}
  0
BLOCK_RECORD
  5
2AFA
330
29C3
100
AcDbSymbolTableRecord
100
AcDbBlockTableRecord
  2
*D61
340
0
  0
BLOCK_RECORD
  5
2AFC
330
29C3
100
AcDbSymbolTableRecord
100
AcDbBlockTableRecord
  2
*U62
340
0
102
{BLKREFS
331
1DB7
102
}
  0
BLOCK_RECORD
  5
2AFE
330
29C3
100
AcDbSymbolTableRecord
100
AcDbBlockTableRecord
  2
*U63
340
0
  0
BLOCK_RECORD
  5
2B00
330
29C3
100
AcDbSymbolTableRecord
100
AcDbBlockTableRecord
  2
*U64
340
0
  0
BLOCK_RECORD
  5
2B02
330
29C3
100
AcDbSymbolTableRecord
100
AcDbBlockTableRecord
  2
*U65
340
0
  0
BLOCK_RECORD
  5
2B04
330
29C3
100
AcDbSymbolTableRecord
100
AcDbBlockTableRecord
  2
*U66
340
0
102
{BLKREFS
331
2956
102
}
  0
BLOCK_RECORD
  5
2B06
330
29C3
100
AcDbSymbolTableRecord
100
AcDbBlockTableRecord
  2
*U67
340
0
102
{BLKREFS
331
2957
102
}
  0
BLOCK_RECORD
  5
2B08
330
29C3
100
AcDbSymbolTableRecord
100
AcDbBlockTableRecord
  2
*X68
340
0
102
{BLKREFS
331
296A
102
}
  0
BLOCK_RECORD
  5
2B0A
330
29C3
100
AcDbSymbolTableRecord
100
AcDbBlockTableRecord
  2
*X69
340
0
102
{BLKREFS
331
296B
102
}
  0
ENDTAB
  0
ENDSEC
  0
SECTION
  2
BLOCKS
  0
BLOCK
  5
2A37
330
2A36
100
AcDbEntity
  8
0
100
AcDbBlockBegin
  2
*Model_Space
 70
     0
 10
0.0
 20
0.0
 30
0.0
  3
*Model_Space
  1

  0
ENDBLK
  5
2A38
330
2A36
100
AcDbEntity
  8
0
100
AcDbBlockEnd
  0
BLOCK
  5
2A33
330
2A32
100
AcDbEntity
 67
     1
  8
0
100
AcDbBlockBegin
  2
*Paper_Space
 70
     0
 10
0.0
 20
0.0
 30
0.0
  3
*Paper_Space
  1

  0
ENDBLK
  5
2A34
330
2A32
100
AcDbEntity
 67
     1
  8
0
100
AcDbBlockEnd
  0
BLOCK
  5
2A81
330
2A80
100
AcDbEntity
  8
0
100
AcDbBlockBegin
  2
$MODEL_SPACE
 70
     0
 10
0.0
 20
0.0
 30
0.0
  3
$MODEL_SPACE
  1

  0
ENDBLK
  5
2655
330
2A80
100
AcDbEntity
  8
0
100
AcDbBlockEnd
  0
BLOCK
  5
2A83
330
2A82
100
AcDbEntity
  8
0
100
AcDbBlockBegin
  2
$PAPER_SPACE
 70
     0
 10
0.0
 20
0.0
 30
0.0
  3
$PAPER_SPACE
  1

  0
ENDBLK
  5
2651
330
2A82
100
AcDbEntity
  8
0
100
AcDbBlockEnd
  0
BLOCK
  5
2A85
330
2A84
100
AcDbEntity
  8
0
100
AcDbBlockBegin
  2
_ORIGIN
 70
     0
 10
0.0
 20
0.0
 30
0.0
  3
_ORIGIN
  1

  0
CIRCLE
  5
880
330
2A84
100
AcDbEntity
  8
0
  6
Continuous
 62
     7
100
AcDbCircle
 10
0.0
 20
0.0
 30
0.0
 40
0.5
  0
LINE
  5
881
330
2A84
100
AcDbEntity
  8
0
  6
Continuous
 62
     7
100
AcDbLine
 10
0.0
 20
0.0
 30
0.0
 11
-1.0
 21
0.0
 31
0.0
  0
ENDBLK
  5
882
330
2A84
100
AcDbEntity
  8
0
100
AcDbBlockEnd
  0
BLOCK
  5
2A87
330
2A86
100
AcDbEntity
  8
0
 62
     1
100
AcDbBlockBegin
  2
_DOTBLANK
 70
     0
 10
0.0
 20
0.0
 30
0.0
  3
_DOTBLANK
  1

  0
CIRCLE
  5
AB3
330
2A86
100
AcDbEntity
  8
0
  6
ByBlock
 62
     0
100
AcDbCircle
 10
0.0
 20
0.0
 30
0.0
 40
0.5
  0
LINE
  5
AB4
330
2A86
100
AcDbEntity
  8
0
  6
ByBlock
 62
     0
100
AcDbLine
 10
-0.5
 20
0.0
 30
0.0
 11
-1.0
 21
0.0
 31
0.0
  0
ENDBLK
  5
AB6
330
2A86
100
AcDbEntity
  8
0
 62
     1
100
AcDbBlockEnd
  0
BLOCK
  5
2A89
330
2A88
100
AcDbEntity
  8
0
 62
     1
100
AcDbBlockBegin
  2
_OPEN30
 70
     0
 10
0.0
 20
0.0
 30
0.0
  3
_OPEN30
  1

  0
LINE
  5
AB8
330
2A88
100
AcDbEntity
  8
0
  6
ByBlock
 62
     0
100
AcDbLine
 10
-1.0
 20
0.26794919
 30
0.0
 11
0.0
 21
0.0
 31
0.0
  0
LINE
  5
AB9
330
2A88
100
AcDbEntity
  8
0
  6
ByBlock
 62
     0
100
AcDbLine
 10
0.0
 20
0.0
 30
0.0
 11
-1.0
 21
-0.26794919
 31
0.0
  0
LINE
  5
ABA
330
2A88
100
AcDbEntity
  8
0
  6
ByBlock
 62
     0
100
AcDbLine
 10
0.0
 20
0.0
 30
0.0
 11
-1.0
 21
0.0
 31
0.0
  0
ENDBLK
  5
ABC
330
2A88
100
AcDbEntity
  8
0
 62
     1
100
AcDbBlockEnd
  0
BLOCK
  5
2A8B
330
2A8A
100
AcDbEntity
  8
0
100
AcDbBlockBegin
  2
*D5
 70
     1
 10
0.0
 20
0.0
 30
0.0
  3
*D5
  1

  0
LINE
  5
1296
330
2A8A
100
AcDbEntity
  8
SIZE
 62
     0
100
AcDbLine
 10
-134.5
 20
-320.0
 30
0.0
 11
-134.5
 21
-468.0173952306001
 31
0.0
  0
LINE
  5
1297
330
2A8A
100
AcDbEntity
  8
SIZE
 62
     0
100
AcDbLine
 10
134.5
 20
-320.0
 30
0.0
 11
134.5
 21
-468.0173952306001
 31
0.0
  0
LINE
  5
1298
330
2A8A
100
AcDbEntity
  8
SIZE
 62
     0
100
AcDbLine
 10
-122.5
 20
-448.0173952306
 30
0.0
 11
122.5
 21
-448.0173952306
 31
0.0
  0
INSERT
  5
1299
330
2A8A
100
AcDbEntity
  8
SIZE
 62
     0
100
AcDbBlockReference
  2
_DOTBLANK
 10
-134.5
 20
-448.0173952306
 30
0.0
 41
12.0
 42
12.0
 43
12.0
 50
180.0
  0
INSERT
  5
129A
330
2A8A
100
AcDbEntity
  8
SIZE
 62
     0
100
AcDbBlockReference
  2
_DOTBLANK
 10
134.5
 20
-448.0173952306
 30
0.0
 41
12.0
 42
12.0
 43
12.0
  0
INSERT
  5
129B
330
2A8A
100
AcDbEntity
  8
0
100
AcDbBlockReference
  2
*U6
 10
0.0
 20
0.0
 30
0.0
  0
POINT
  5
129C
330
2A8A
100
AcDbEntity
  8
DEFPOINTS
 62
     0
100
AcDbPoint
 10
-134.5
 20
-300.0
 30
0.0
  0
POINT
  5
129D
330
2A8A
100
AcDbEntity
  8
DEFPOINTS
 62
     0
100
AcDbPoint
 10
134.5
 20
-300.0
 30
0.0
  0
POINT
  5
129E
330
2A8A
100
AcDbEntity
  8
DEFPOINTS
 62
     0
100
AcDbPoint
 10
134.5
 20
-448.0173952306
 30
0.0
  0
ENDBLK
  5
D72
330
2A8A
100
AcDbEntity
  8
0
100
AcDbBlockEnd
  0
BLOCK
  5
2A8D
330
2A8C
100
AcDbEntity
  8
0
100
AcDbBlockBegin
  2
*U6
 70
     1
 10
0.0
 20
0.0
 30
0.0
  3
*U6
  1

  0
TEXT
  5
1EF5
330
2A8C
100
AcDbEntity
  8
SIZE
 62
     0
100
AcDbText
 10
-72.68571428571426
 20
-438.0173952305999
 30
0.0
 40
64.0
  1
269
 41
0.9
100
AcDbText
  0
ENDBLK
  5
1EF7
330
2A8C
100
AcDbEntity
  8
0
100
AcDbBlockEnd
  0
BLOCK
  5
2A8F
330
2A8E
100
AcDbEntity
  8
0
100
AcDbBlockBegin
  2
*D7
 70
     1
 10
0.0
 20
0.0
 30
0.0
  3
*D7
  1

  0
LINE
  5
11A7
330
2A8E
100
AcDbEntity
  8
SIZE
  6
Continuous
 62
     0
100
AcDbLine
 10
143.5
 20
-300.0
 30
0.0
 11
304.6432844803791
 21
-300.0
 31
0.0
  0
LINE
  5
11A8
330
2A8E
100
AcDbEntity
  8
SIZE
  6
Continuous
 62
     0
100
AcDbLine
 10
177.5
 20
-0.0000000000000057
 30
0.0
 11
304.6432844803792
 21
-0.0000000000000417
 31
0.0
  0
LINE
  5
11A9
330
2A8E
100
AcDbEntity
  8
SIZE
  6
Continuous
 62
     0
100
AcDbLine
 10
284.6432844803791
 20
-288.0000000000001
 30
0.0
 11
284.6432844803792
 21
-12.00000000000003
 31
0.0
  0
INSERT
  5
11AA
330
2A8E
100
AcDbEntity
  8
SIZE
  6
Continuous
 62
     0
100
AcDbBlockReference
  2
_DOTBLANK
 10
284.6432844803791
 20
-300.0
 30
0.0
 41
12.0
 42
12.0
 43
12.0
 50
270.0
  0
INSERT
  5
11AB
330
2A8E
100
AcDbEntity
  8
SIZE
  6
Continuous
 62
     0
100
AcDbBlockReference
  2
_DOTBLANK
 10
284.6432844803792
 20
-0.000000000000036
 30
0.0
 41
12.0
 42
12.0
 43
12.0
 50
90.0
  0
INSERT
  5
11AC
330
2A8E
100
AcDbEntity
  8
0
100
AcDbBlockReference
  2
*U8
 10
0.0
 20
0.0
 30
0.0
  0
POINT
  5
11AD
330
2A8E
100
AcDbEntity
  8
DEFPOINTS
  6
Continuous
 62
     0
100
AcDbPoint
 10
123.5
 20
-300.0
 30
0.0
  0
POINT
  5
11AE
330
2A8E
100
AcDbEntity
  8
DEFPOINTS
  6
Continuous
 62
     0
100
AcDbPoint
 10
157.5
 20
0.0
 30
0.0
  0
POINT
  5
11AF
330
2A8E
100
AcDbEntity
  8
DEFPOINTS
  6
Continuous
 62
     0
100
AcDbPoint
 10
284.6432844803792
 20
-0.000000000000036
 30
0.0
  0
ENDBLK
  5
E11
330
2A8E
100
AcDbEntity
  8
0
100
AcDbBlockEnd
  0
BLOCK
  5
2A91
330
2A90
100
AcDbEntity
  8
0
100
AcDbBlockBegin
  2
*U8
 70
     1
 10
0.0
 20
0.0
 30
0.0
  3
*U8
  1

  0
TEXT
  5
1EE1
330
2A90
100
AcDbEntity
  8
SIZE
 62
     0
100
AcDbText
 10
274.6432844803792
 20
-224.0571428571429
 30
0.0
 40
64.0
  1
300
 50
90.0
 41
0.9
100
AcDbText
  0
ENDBLK
  5
1EE3
330
2A90
100
AcDbEntity
  8
0
100
AcDbBlockEnd
  0
BLOCK
  5
2A93
330
2A92
100
AcDbEntity
  8
0
100
AcDbBlockBegin
  2
*D9
 70
     1
 10
0.0
 20
0.0
 30
0.0
  3
*D9
  1

  0
LINE
  5
E7D
330
2A92
100
AcDbEntity
  8
SIZE
 62
     0
100
AcDbLine
 10
-139.9999999999998
 20
32.46448280219375
 30
0.0
 11
-139.9999999999998
 21
136.4516878685508
 31
0.0
  0
LINE
  5
E7E
330
2A92
100
AcDbEntity
  8
SIZE
 62
     0
100
AcDbLine
 10
140.0
 20
32.46448280219375
 30
0.0
 11
140.0
 21
136.4516878685508
 31
0.0
  0
LINE
  5
E7F
330
2A92
100
AcDbEntity
  8
SIZE
 62
     0
100
AcDbLine
 10
-128.0
 20
116.4516878685508
 30
0.0
 11
128.0
 21
116.4516878685508
 31
0.0
  0
INSERT
  5
E80
330
2A92
100
AcDbEntity
  8
SIZE
 62
     0
100
AcDbBlockReference
  2
_DOTBLANK
 10
-139.9999999999998
 20
116.4516878685508
 30
0.0
 41
12.0
 42
12.0
 43
12.0
 50
180.0
  0
INSERT
  5
E81
330
2A92
100
AcDbEntity
  8
SIZE
 62
     0
100
AcDbBlockReference
  2
_DOTBLANK
 10
140.0
 20
116.4516878685508
 30
0.0
 41
12.0
 42
12.0
 43
12.0
  0
INSERT
  5
E82
330
2A92
100
AcDbEntity
  8
0
100
AcDbBlockReference
  2
*U10
 10
0.0
 20
0.0
 30
0.0
  0
POINT
  5
E83
330
2A92
100
AcDbEntity
  8
DEFPOINTS
 62
     0
100
AcDbPoint
 10
-139.9999999999998
 20
12.46448280219374
 30
0.0
  0
POINT
  5
E84
330
2A92
100
AcDbEntity
  8
DEFPOINTS
 62
     0
100
AcDbPoint
 10
140.0
 20
12.46448280219374
 30
0.0
  0
POINT
  5
E85
330
2A92
100
AcDbEntity
  8
DEFPOINTS
 62
     0
100
AcDbPoint
 10
140.0
 20
116.4516878685508
 30
0.0
  0
ENDBLK
  5
E7C
330
2A92
100
AcDbEntity
  8
0
100
AcDbBlockEnd
  0
BLOCK
  5
2A95
330
2A94
100
AcDbEntity
  8
0
100
AcDbBlockBegin
  2
*U10
 70
     1
 10
0.0
 20
0.0
 30
0.0
  3
*U10
  1

  0
TEXT
  5
1ED8
330
2A94
100
AcDbEntity
  8
SIZE
 62
     0
100
AcDbText
 10
-74.05714285714281
 20
126.4516878685508
 30
0.0
 40
64.0
  1
280
 41
0.9
100
AcDbText
  0
ENDBLK
  5
1EDA
330
2A94
100
AcDbEntity
  8
0
100
AcDbBlockEnd
  0
BLOCK
  5
2A97
330
2A96
100
AcDbEntity
  8
0
100
AcDbBlockBegin
  2
GENAXEH
 70
     0
 10
0.0
 20
0.0
 30
0.0
  3
GENAXEH
  1

  0
LINE
  5
FDB
330
2A96
100
AcDbEntity
  8
0
100
AcDbLine
 10
-1.0
 20
0.0
 30
0.0
 11
1.0
 21
0.0
 31
0.0
  0
ENDBLK
  5
FDD
330
2A96
100
AcDbEntity
  8
0
100
AcDbBlockEnd
  0
BLOCK
  5
2A99
330
2A98
100
AcDbEntity
  8
0
100
AcDbBlockBegin
  2
*D12
 70
     1
 10
0.0
 20
0.0
 30
0.0
  3
*D12
  1

  0
LINE
  5
1120
330
2A98
100
AcDbEntity
  8
SIZE
 62
     0
100
AcDbLine
 10
-157.5
 20
20.0
 30
0.0
 11
-157.5
 21
245.5794621189598
 31
0.0
  0
LINE
  5
1121
330
2A98
100
AcDbEntity
  8
SIZE
 62
     0
100
AcDbLine
 10
157.5
 20
20.0
 30
0.0
 11
157.5
 21
245.5794621189598
 31
0.0
  0
LINE
  5
1122
330
2A98
100
AcDbEntity
  8
SIZE
 62
     0
100
AcDbLine
 10
-145.5
 20
225.5794621189598
 30
0.0
 11
145.5
 21
225.5794621189598
 31
0.0
  0
INSERT
  5
1123
330
2A98
100
AcDbEntity
  8
SIZE
 62
     0
100
AcDbBlockReference
  2
_DOTBLANK
 10
-157.5
 20
225.5794621189598
 30
0.0
 41
12.0
 42
12.0
 43
12.0
 50
180.0
  0
INSERT
  5
1124
330
2A98
100
AcDbEntity
  8
SIZE
 62
     0
100
AcDbBlockReference
  2
_DOTBLANK
 10
157.5
 20
225.5794621189598
 30
0.0
 41
12.0
 42
12.0
 43
12.0
  0
INSERT
  5
1125
330
2A98
100
AcDbEntity
  8
0
100
AcDbBlockReference
  2
*U13
 10
0.0
 20
0.0
 30
0.0
  0
POINT
  5
1126
330
2A98
100
AcDbEntity
  8
DEFPOINTS
 62
     0
100
AcDbPoint
 10
-157.5
 20
0.0
 30
0.0
  0
POINT
  5
1127
330
2A98
100
AcDbEntity
  8
DEFPOINTS
 62
     0
100
AcDbPoint
 10
157.5
 20
0.0
 30
0.0
  0
POINT
  5
1128
330
2A98
100
AcDbEntity
  8
DEFPOINTS
 62
     0
100
AcDbPoint
 10
157.5
 20
225.5794621189598
 30
0.0
  0
ENDBLK
  5
111F
330
2A98
100
AcDbEntity
  8
0
100
AcDbBlockEnd
  0
BLOCK
  5
2A9B
330
2A9A
100
AcDbEntity
  8
0
100
AcDbBlockBegin
  2
*U13
 70
     1
 10
0.0
 20
0.0
 30
0.0
  3
*U13
  1

  0
TEXT
  5
1EDD
330
2A9A
100
AcDbEntity
  8
SIZE
 62
     0
100
AcDbText
 10
-68.57142857142857
 20
235.5794621189599
 30
0.0
 40
64.0
  1
315
 41
0.9
100
AcDbText
  0
ENDBLK
  5
1EDF
330
2A9A
100
AcDbEntity
  8
0
100
AcDbBlockEnd
  0
BLOCK
  5
2A9D
330
2A9C
100
AcDbEntity
  8
0
100
AcDbBlockBegin
  2
*D14
 70
     1
 10
0.0
 20
0.0
 30
0.0
  3
*D14
  1

  0
LINE
  5
11BD
330
2A9C
100
AcDbEntity
  8
NOTE
 62
     0
100
AcDbLine
 10
-123.4999999999999
 20
-320.0
 30
0.0
 11
-123.4999999999999
 21
-354.9529861856111
 31
0.0
  0
LINE
  5
11BE
330
2A9C
100
AcDbEntity
  8
NOTE
 62
     0
100
AcDbLine
 10
-133.4999999999998
 20
-331.2126909923287
 30
0.0
 11
-133.4999999999998
 21
-354.9529861856111
 31
0.0
  0
LINE
  5
11BF
330
2A9C
100
AcDbEntity
  8
NOTE
 62
     0
100
AcDbLine
 10
-111.4999999999999
 20
-334.9529861856112
 30
0.0
 11
-99.4999999999999
 21
-334.9529861856112
 31
0.0
  0
LINE
  5
11C0
330
2A9C
100
AcDbEntity
  8
NOTE
 62
     0
100
AcDbLine
 10
-145.4999999999998
 20
-334.9529861856112
 30
0.0
 11
-157.4999999999998
 21
-334.9529861856112
 31
0.0
  0
LINE
  5
11C1
330
2A9C
100
AcDbEntity
  8
NOTE
 62
     0
100
AcDbLine
 10
-123.4999999999999
 20
-334.9529861856112
 30
0.0
 11
-133.4999999999998
 21
-334.9529861856112
 31
0.0
  0
INSERT
  5
11C2
330
2A9C
100
AcDbEntity
  8
NOTE
 62
     0
100
AcDbBlockReference
  2
_DOTBLANK
 10
-123.4999999999999
 20
-334.9529861856112
 30
0.0
 41
12.0
 42
12.0
 43
12.0
 50
180.0
  0
INSERT
  5
11C3
330
2A9C
100
AcDbEntity
  8
NOTE
 62
     0
100
AcDbBlockReference
  2
_DOTBLANK
 10
-133.4999999999998
 20
-334.9529861856112
 30
0.0
 41
12.0
 42
12.0
 43
12.0
  0
INSERT
  5
11C4
330
2A9C
100
AcDbEntity
  8
0
100
AcDbBlockReference
  2
*U15
 10
0.0
 20
0.0
 30
0.0
  0
POINT
  5
11C5
330
2A9C
100
AcDbEntity
  8
DEFPOINTS
 62
     0
100
AcDbPoint
 10
-123.4999999999999
 20
-300.0
 30
0.0
  0
POINT
  5
11C6
330
2A9C
100
AcDbEntity
  8
DEFPOINTS
 62
     0
100
AcDbPoint
 10
-133.4999999999998
 20
-311.2126909923287
 30
0.0
  0
POINT
  5
11C7
330
2A9C
100
AcDbEntity
  8
DEFPOINTS
 62
     0
100
AcDbPoint
 10
-133.4999999999998
 20
-334.9529861856112
 30
0.0
  0
ENDBLK
  5
11BC
330
2A9C
100
AcDbEntity
  8
0
100
AcDbBlockEnd
  0
BLOCK
  5
2A9F
330
2A9E
100
AcDbEntity
  8
0
100
AcDbBlockBegin
  2
*U15
 70
     1
 10
0.0
 20
0.0
 30
0.0
  3
*U15
  1

  0
TEXT
  5
1EE5
330
2A9E
100
AcDbEntity
  8
NOTE
 62
     0
100
AcDbText
 10
-169.642857142857
 20
-324.9529861856112
 30
0.0
 40
64.0
  1
10
 41
0.9
100
AcDbText
  0
ENDBLK
  5
1EE7
330
2A9E
100
AcDbEntity
  8
0
100
AcDbBlockEnd
  0
BLOCK
  5
2AA1
330
2AA0
100
AcDbEntity
  8
0
100
AcDbBlockBegin
  2
*D16
 70
     1
 10
0.0
 20
0.0
 30
0.0
  3
*D16
  1

  0
LINE
  5
11E7
330
2AA0
100
AcDbEntity
  8
NOTE
 62
     0
100
AcDbLine
 10
-135.5
 20
-333.2126909923287
 30
0.0
 11
-135.5
 21
-386.2569421441843
 31
0.0
  0
LINE
  5
11E8
330
2AA0
100
AcDbEntity
  8
NOTE
 62
     0
100
AcDbLine
 10
-123.4999999999999
 20
-320.0
 30
0.0
 11
-123.4999999999999
 21
-386.2569421441843
 31
0.0
  0
LINE
  5
11E9
330
2AA0
100
AcDbEntity
  8
NOTE
 62
     0
100
AcDbLine
 10
-147.5
 20
-366.2569421441844
 30
0.0
 11
-159.5
 21
-366.2569421441844
 31
0.0
  0
LINE
  5
11EA
330
2AA0
100
AcDbEntity
  8
NOTE
 62
     0
100
AcDbLine
 10
-111.4999999999999
 20
-366.2569421441844
 30
0.0
 11
-99.4999999999999
 21
-366.2569421441844
 31
0.0
  0
LINE
  5
11EB
330
2AA0
100
AcDbEntity
  8
NOTE
 62
     0
100
AcDbLine
 10
-135.5
 20
-366.2569421441844
 30
0.0
 11
-123.4999999999999
 21
-366.2569421441844
 31
0.0
  0
INSERT
  5
11EC
330
2AA0
100
AcDbEntity
  8
NOTE
 62
     0
100
AcDbBlockReference
  2
_DOTBLANK
 10
-135.5
 20
-366.2569421441844
 30
0.0
 41
12.0
 42
12.0
 43
12.0
  0
INSERT
  5
11ED
330
2AA0
100
AcDbEntity
  8
NOTE
 62
     0
100
AcDbBlockReference
  2
_DOTBLANK
 10
-123.4999999999999
 20
-366.2569421441844
 30
0.0
 41
12.0
 42
12.0
 43
12.0
 50
180.0
  0
INSERT
  5
11EE
330
2AA0
100
AcDbEntity
  8
0
100
AcDbBlockReference
  2
*U17
 10
0.0
 20
0.0
 30
0.0
  0
POINT
  5
11EF
330
2AA0
100
AcDbEntity
  8
DEFPOINTS
 62
     0
100
AcDbPoint
 10
-135.5
 20
-313.2126909923287
 30
0.0
  0
POINT
  5
11F0
330
2AA0
100
AcDbEntity
  8
DEFPOINTS
 62
     0
100
AcDbPoint
 10
-123.4999999999999
 20
-300.0
 30
0.0
  0
POINT
  5
11F1
330
2AA0
100
AcDbEntity
  8
DEFPOINTS
 62
     0
100
AcDbPoint
 10
-123.4999999999999
 20
-366.2569421441844
 30
0.0
  0
ENDBLK
  5
11E6
330
2AA0
100
AcDbEntity
  8
0
100
AcDbBlockEnd
  0
BLOCK
  5
2AA3
330
2AA2
100
AcDbEntity
  8
0
100
AcDbBlockBegin
  2
*U17
 70
     1
 10
0.0
 20
0.0
 30
0.0
  3
*U17
  1

  0
TEXT
  5
1EE9
330
2AA2
100
AcDbEntity
  8
NOTE
 62
     0
100
AcDbText
 10
-170.642857142857
 20
-356.2569421441843
 30
0.0
 40
64.0
  1
12
 41
0.9
100
AcDbText
  0
ENDBLK
  5
1EEB
330
2AA2
100
AcDbEntity
  8
0
100
AcDbBlockEnd
  0
BLOCK
  5
2AA5
330
2AA4
100
AcDbEntity
  8
0
100
AcDbBlockBegin
  2
*D18
 70
     1
 10
0.0
 20
0.0
 30
0.0
  3
*D18
  1

  0
LINE
  5
11F6
330
2AA4
100
AcDbEntity
  8
NOTE
 62
     0
100
AcDbLine
 10
-123.4999999999999
 20
-320.0
 30
0.0
 11
-123.4999999999999
 21
-583.8286022818904
 31
0.0
  0
LINE
  5
11F7
330
2AA4
100
AcDbEntity
  8
NOTE
 62
     0
100
AcDbLine
 10
123.5
 20
-320.0
 30
0.0
 11
123.5
 21
-583.8286022818904
 31
0.0
  0
LINE
  5
11F8
330
2AA4
100
AcDbEntity
  8
NOTE
 62
     0
100
AcDbLine
 10
-111.4999999999999
 20
-563.8286022818904
 30
0.0
 11
111.5
 21
-563.8286022818904
 31
0.0
  0
INSERT
  5
11F9
330
2AA4
100
AcDbEntity
  8
NOTE
 62
     0
100
AcDbBlockReference
  2
_DOTBLANK
 10
-123.4999999999999
 20
-563.8286022818904
 30
0.0
 41
12.0
 42
12.0
 43
12.0
 50
180.0
  0
INSERT
  5
11FA
330
2AA4
100
AcDbEntity
  8
NOTE
 62
     0
100
AcDbBlockReference
  2
_DOTBLANK
 10
123.5
 20
-563.8286022818904
 30
0.0
 41
12.0
 42
12.0
 43
12.0
  0
INSERT
  5
11FB
330
2AA4
100
AcDbEntity
  8
0
100
AcDbBlockReference
  2
*U19
 10
0.0
 20
0.0
 30
0.0
  0
POINT
  5
11FC
330
2AA4
100
AcDbEntity
  8
DEFPOINTS
 62
     0
100
AcDbPoint
 10
-123.4999999999999
 20
-300.0
 30
0.0
  0
POINT
  5
11FD
330
2AA4
100
AcDbEntity
  8
DEFPOINTS
 62
     0
100
AcDbPoint
 10
123.5
 20
-300.0
 30
0.0
  0
POINT
  5
11FE
330
2AA4
100
AcDbEntity
  8
DEFPOINTS
 62
     0
100
AcDbPoint
 10
123.5
 20
-563.8286022818904
 30
0.0
  0
ENDBLK
  5
11F5
330
2AA4
100
AcDbEntity
  8
0
100
AcDbBlockEnd
  0
BLOCK
  5
2AA7
330
2AA6
100
AcDbEntity
  8
0
100
AcDbBlockBegin
  2
*U19
 70
     1
 10
0.0
 20
0.0
 30
0.0
  3
*U19
  1

  0
TEXT
  5
1EED
330
2AA6
100
AcDbEntity
  8
NOTE
 62
     0
100
AcDbText
 10
-74.05714285714281
 20
-553.8286022818904
 30
0.0
 40
64.0
  1
247
 41
0.9
100
AcDbText
  0
ENDBLK
  5
1EEF
330
2AA6
100
AcDbEntity
  8
0
100
AcDbBlockEnd
  0
BLOCK
  5
2AA9
330
2AA8
100
AcDbEntity
  8
0
100
AcDbBlockBegin
  2
*D20
 70
     1
 10
0.0
 20
0.0
 30
0.0
  3
*D20
  1

  0
LINE
  5
1284
330
2AA8
100
AcDbEntity
  8
NOTE
 62
     0
100
AcDbLine
 10
-123.5
 20
12.0
 30
0.0
 11
-123.5
 21
71.83630134534229
 31
0.0
  0
LINE
  5
1285
330
2AA8
100
AcDbEntity
  8
NOTE
 62
     0
100
AcDbLine
 10
123.5
 20
12.0
 30
0.0
 11
123.5
 21
71.83630134534229
 31
0.0
  0
LINE
  5
1286
330
2AA8
100
AcDbEntity
  8
NOTE
 62
     0
100
AcDbLine
 10
-111.5
 20
51.83630134534229
 30
0.0
 11
111.5
 21
51.83630134534229
 31
0.0
  0
INSERT
  5
1287
330
2AA8
100
AcDbEntity
  8
NOTE
 62
     0
100
AcDbBlockReference
  2
_DOTBLANK
 10
-123.5
 20
51.83630134534229
 30
0.0
 41
12.0
 42
12.0
 43
12.0
 50
180.0
  0
INSERT
  5
1288
330
2AA8
100
AcDbEntity
  8
NOTE
 62
     0
100
AcDbBlockReference
  2
_DOTBLANK
 10
123.5
 20
51.83630134534229
 30
0.0
 41
12.0
 42
12.0
 43
12.0
  0
INSERT
  5
1289
330
2AA8
100
AcDbEntity
  8
0
100
AcDbBlockReference
  2
*U21
 10
0.0
 20
0.0
 30
0.0
  0
POINT
  5
128A
330
2AA8
100
AcDbEntity
  8
DEFPOINTS
 62
     0
100
AcDbPoint
 10
-123.5
 20
-8.0
 30
0.0
  0
POINT
  5
128B
330
2AA8
100
AcDbEntity
  8
DEFPOINTS
 62
     0
100
AcDbPoint
 10
123.5
 20
-8.0
 30
0.0
  0
POINT
  5
128C
330
2AA8
100
AcDbEntity
  8
DEFPOINTS
 62
     0
100
AcDbPoint
 10
123.5
 20
51.83630134534229
 30
0.0
  0
ENDBLK
  5
1283
330
2AA8
100
AcDbEntity
  8
0
100
AcDbBlockEnd
  0
BLOCK
  5
2AAB
330
2AAA
100
AcDbEntity
  8
0
100
AcDbBlockBegin
  2
*U21
 70
     1
 10
0.0
 20
0.0
 30
0.0
  3
*U21
  1

  0
TEXT
  5
1EF1
330
2AAA
100
AcDbEntity
  8
NOTE
 62
     0
100
AcDbText
 10
-74.05714285714283
 20
61.83630134534229
 30
0.0
 40
64.0
  1
247
 41
0.9
100
AcDbText
  0
ENDBLK
  5
1EF3
330
2AAA
100
AcDbEntity
  8
0
100
AcDbBlockEnd
  0
BLOCK
  5
2AAD
330
2AAC
100
AcDbEntity
  8
0
100
AcDbBlockBegin
  2
*D22
 70
     1
 10
0.0
 20
0.0
 30
0.0
  3
*D22
  1

  0
LINE
  5
1414
330
2AAC
100
AcDbEntity
  8
SIZE
 62
     0
100
AcDbLine
 10
-22313.11521613997
 20
7365.702971374808
 30
0.0
 11
-22313.11521613997
 21
7217.685576144207
 31
0.0
  0
LINE
  5
1415
330
2AAC
100
AcDbEntity
  8
SIZE
 62
     0
100
AcDbLine
 10
-22044.11521613997
 20
7365.702971374808
 30
0.0
 11
-22044.11521613997
 21
7217.685576144207
 31
0.0
  0
LINE
  5
1416
330
2AAC
100
AcDbEntity
  8
SIZE
 62
     0
100
AcDbLine
 10
-22301.11521613997
 20
7237.685576144207
 30
0.0
 11
-22056.11521613997
 21
7237.685576144207
 31
0.0
  0
INSERT
  5
1417
330
2AAC
100
AcDbEntity
  8
SIZE
 62
     0
100
AcDbBlockReference
  2
_DOTBLANK
 10
-22313.11521613997
 20
7237.685576144207
 30
0.0
 41
12.0
 42
12.0
 43
12.0
 50
180.0
  0
INSERT
  5
1418
330
2AAC
100
AcDbEntity
  8
SIZE
 62
     0
100
AcDbBlockReference
  2
_DOTBLANK
 10
-22044.11521613997
 20
7237.685576144207
 30
0.0
 41
12.0
 42
12.0
 43
12.0
  0
INSERT
  5
1419
330
2AAC
100
AcDbEntity
  8
0
100
AcDbBlockReference
  2
*U23
 10
0.0
 20
0.0
 30
0.0
  0
POINT
  5
141A
330
2AAC
100
AcDbEntity
  8
DEFPOINTS
 62
     0
100
AcDbPoint
 10
-22313.11521613997
 20
7385.702971374808
 30
0.0
  0
POINT
  5
141B
330
2AAC
100
AcDbEntity
  8
DEFPOINTS
 62
     0
100
AcDbPoint
 10
-22044.11521613997
 20
7385.702971374808
 30
0.0
  0
POINT
  5
141C
330
2AAC
100
AcDbEntity
  8
DEFPOINTS
 62
     0
100
AcDbPoint
 10
-22044.11521613997
 20
7237.685576144207
 30
0.0
  0
ENDBLK
  5
141D
330
2AAC
100
AcDbEntity
  8
0
100
AcDbBlockEnd
  0
BLOCK
  5
2AAF
330
2AAE
100
AcDbEntity
  8
0
100
AcDbBlockBegin
  2
*U23
 70
     1
 10
0.0
 20
0.0
 30
0.0
  3
*U23
  1

  0
TEXT
  5
1EF9
330
2AAE
100
AcDbEntity
  8
SIZE
 62
     0
100
AcDbText
 10
-22251.30093042568
 20
7247.685576144205
 30
0.0
 40
64.0
  1
269
 41
0.9
100
AcDbText
  0
ENDBLK
  5
1EFB
330
2AAE
100
AcDbEntity
  8
0
100
AcDbBlockEnd
  0
BLOCK
  5
2AB1
330
2AB0
100
AcDbEntity
  8
0
100
AcDbBlockBegin
  2
*D24
 70
     1
 10
0.0
 20
0.0
 30
0.0
  3
*D24
  1

  0
LINE
  5
1420
330
2AB0
100
AcDbEntity
  8
SIZE
  6
Continuous
 62
     0
100
AcDbLine
 10
-22035.11521613997
 20
7385.702971374808
 30
0.0
 11
-21873.97193165959
 21
7385.702971374808
 31
0.0
  0
LINE
  5
1421
330
2AB0
100
AcDbEntity
  8
SIZE
  6
Continuous
 62
     0
100
AcDbLine
 10
-22001.11521613997
 20
7685.702971374808
 30
0.0
 11
-21873.97193165959
 21
7685.702971374808
 31
0.0
  0
LINE
  5
1422
330
2AB0
100
AcDbEntity
  8
SIZE
  6
Continuous
 62
     0
100
AcDbLine
 10
-21893.97193165959
 20
7397.702971374808
 30
0.0
 11
-21893.97193165959
 21
7673.702971374808
 31
0.0
  0
INSERT
  5
1423
330
2AB0
100
AcDbEntity
  8
SIZE
  6
Continuous
 62
     0
100
AcDbBlockReference
  2
_DOTBLANK
 10
-21893.97193165959
 20
7385.702971374808
 30
0.0
 41
12.0
 42
12.0
 43
12.0
 50
270.0
  0
INSERT
  5
1424
330
2AB0
100
AcDbEntity
  8
SIZE
  6
Continuous
 62
     0
100
AcDbBlockReference
  2
_DOTBLANK
 10
-21893.97193165959
 20
7685.702971374808
 30
0.0
 41
12.0
 42
12.0
 43
12.0
 50
90.0
  0
INSERT
  5
1425
330
2AB0
100
AcDbEntity
  8
0
100
AcDbBlockReference
  2
*U25
 10
0.0
 20
0.0
 30
0.0
  0
POINT
  5
1426
330
2AB0
100
AcDbEntity
  8
DEFPOINTS
  6
Continuous
 62
     0
100
AcDbPoint
 10
-22055.11521613997
 20
7385.702971374808
 30
0.0
  0
POINT
  5
1427
330
2AB0
100
AcDbEntity
  8
DEFPOINTS
  6
Continuous
 62
     0
100
AcDbPoint
 10
-22021.11521613997
 20
7685.702971374808
 30
0.0
  0
POINT
  5
1428
330
2AB0
100
AcDbEntity
  8
DEFPOINTS
  6
Continuous
 62
     0
100
AcDbPoint
 10
-21893.97193165959
 20
7685.702971374808
 30
0.0
  0
ENDBLK
  5
1429
330
2AB0
100
AcDbEntity
  8
0
100
AcDbBlockEnd
  0
BLOCK
  5
2AB3
330
2AB2
100
AcDbEntity
  8
0
100
AcDbBlockBegin
  2
*U25
 70
     1
 10
0.0
 20
0.0
 30
0.0
  3
*U25
  1

  0
TEXT
  5
1EFD
330
2AB2
100
AcDbEntity
  8
SIZE
 62
     0
100
AcDbText
 10
-21903.97193165959
 20
7461.645828517662
 30
0.0
 40
64.0
  1
300
 50
90.0
 41
0.9
100
AcDbText
  0
ENDBLK
  5
1EFF
330
2AB2
100
AcDbEntity
  8
0
100
AcDbBlockEnd
  0
BLOCK
  5
2AB5
330
2AB4
100
AcDbEntity
  8
0
100
AcDbBlockBegin
  2
*D26
 70
     1
 10
0.0
 20
0.0
 30
0.0
  3
*D26
  1

  0
LINE
  5
142C
330
2AB4
100
AcDbEntity
  8
SIZE
 62
     0
100
AcDbLine
 10
-22318.61521613997
 20
7718.167454177002
 30
0.0
 11
-22318.61521613997
 21
7822.154659243358
 31
0.0
  0
LINE
  5
142D
330
2AB4
100
AcDbEntity
  8
SIZE
 62
     0
100
AcDbLine
 10
-22038.61521613997
 20
7718.167454177002
 30
0.0
 11
-22038.61521613997
 21
7822.154659243358
 31
0.0
  0
LINE
  5
142E
330
2AB4
100
AcDbEntity
  8
SIZE
 62
     0
100
AcDbLine
 10
-22306.61521613997
 20
7802.154659243358
 30
0.0
 11
-22050.61521613997
 21
7802.154659243358
 31
0.0
  0
INSERT
  5
142F
330
2AB4
100
AcDbEntity
  8
SIZE
 62
     0
100
AcDbBlockReference
  2
_DOTBLANK
 10
-22318.61521613997
 20
7802.154659243358
 30
0.0
 41
12.0
 42
12.0
 43
12.0
 50
180.0
  0
INSERT
  5
1430
330
2AB4
100
AcDbEntity
  8
SIZE
 62
     0
100
AcDbBlockReference
  2
_DOTBLANK
 10
-22038.61521613997
 20
7802.154659243358
 30
0.0
 41
12.0
 42
12.0
 43
12.0
  0
INSERT
  5
1431
330
2AB4
100
AcDbEntity
  8
0
100
AcDbBlockReference
  2
*U27
 10
0.0
 20
0.0
 30
0.0
  0
POINT
  5
1432
330
2AB4
100
AcDbEntity
  8
DEFPOINTS
 62
     0
100
AcDbPoint
 10
-22318.61521613997
 20
7698.167454177002
 30
0.0
  0
POINT
  5
1433
330
2AB4
100
AcDbEntity
  8
DEFPOINTS
 62
     0
100
AcDbPoint
 10
-22038.61521613997
 20
7698.167454177002
 30
0.0
  0
POINT
  5
1434
330
2AB4
100
AcDbEntity
  8
DEFPOINTS
 62
     0
100
AcDbPoint
 10
-22038.61521613997
 20
7802.154659243358
 30
0.0
  0
ENDBLK
  5
1435
330
2AB4
100
AcDbEntity
  8
0
100
AcDbBlockEnd
  0
BLOCK
  5
2AB7
330
2AB6
100
AcDbEntity
  8
0
100
AcDbBlockBegin
  2
*U27
 70
     1
 10
0.0
 20
0.0
 30
0.0
  3
*U27
  1

  0
TEXT
  5
1F01
330
2AB6
100
AcDbEntity
  8
SIZE
 62
     0
100
AcDbText
 10
-22252.6723589971
 20
7812.154659243358
 30
0.0
 40
64.0
  1
280
 41
0.9
100
AcDbText
  0
ENDBLK
  5
1F03
330
2AB6
100
AcDbEntity
  8
0
100
AcDbBlockEnd
  0
BLOCK
  5
2AB9
330
2AB8
100
AcDbEntity
  8
0
100
AcDbBlockBegin
  2
*D28
 70
     1
 10
0.0
 20
0.0
 30
0.0
  3
*D28
  1

  0
LINE
  5
1438
330
2AB8
100
AcDbEntity
  8
SIZE
 62
     0
100
AcDbLine
 10
-22336.11521613997
 20
7705.702971374808
 30
0.0
 11
-22336.11521613997
 21
7931.282433493766
 31
0.0
  0
LINE
  5
1439
330
2AB8
100
AcDbEntity
  8
SIZE
 62
     0
100
AcDbLine
 10
-22021.11521613997
 20
7705.702971374808
 30
0.0
 11
-22021.11521613997
 21
7931.282433493766
 31
0.0
  0
LINE
  5
143A
330
2AB8
100
AcDbEntity
  8
SIZE
 62
     0
100
AcDbLine
 10
-22324.11521613997
 20
7911.282433493766
 30
0.0
 11
-22033.11521613997
 21
7911.282433493766
 31
0.0
  0
INSERT
  5
143B
330
2AB8
100
AcDbEntity
  8
SIZE
 62
     0
100
AcDbBlockReference
  2
_DOTBLANK
 10
-22336.11521613997
 20
7911.282433493766
 30
0.0
 41
12.0
 42
12.0
 43
12.0
 50
180.0
  0
INSERT
  5
143C
330
2AB8
100
AcDbEntity
  8
SIZE
 62
     0
100
AcDbBlockReference
  2
_DOTBLANK
 10
-22021.11521613997
 20
7911.282433493766
 30
0.0
 41
12.0
 42
12.0
 43
12.0
  0
INSERT
  5
143D
330
2AB8
100
AcDbEntity
  8
0
100
AcDbBlockReference
  2
*U29
 10
0.0
 20
0.0
 30
0.0
  0
POINT
  5
143E
330
2AB8
100
AcDbEntity
  8
DEFPOINTS
 62
     0
100
AcDbPoint
 10
-22336.11521613997
 20
7685.702971374808
 30
0.0
  0
POINT
  5
143F
330
2AB8
100
AcDbEntity
  8
DEFPOINTS
 62
     0
100
AcDbPoint
 10
-22021.11521613997
 20
7685.702971374808
 30
0.0
  0
POINT
  5
1440
330
2AB8
100
AcDbEntity
  8
DEFPOINTS
 62
     0
100
AcDbPoint
 10
-22021.11521613997
 20
7911.282433493766
 30
0.0
  0
ENDBLK
  5
1441
330
2AB8
100
AcDbEntity
  8
0
100
AcDbBlockEnd
  0
BLOCK
  5
2ABB
330
2ABA
100
AcDbEntity
  8
0
100
AcDbBlockBegin
  2
*U29
 70
     1
 10
0.0
 20
0.0
 30
0.0
  3
*U29
  1

  0
TEXT
  5
1F05
330
2ABA
100
AcDbEntity
  8
SIZE
 62
     0
100
AcDbText
 10
-22247.18664471139
 20
7921.282433493766
 30
0.0
 40
64.0
  1
315
 41
0.9
100
AcDbText
  0
ENDBLK
  5
1F07
330
2ABA
100
AcDbEntity
  8
0
100
AcDbBlockEnd
  0
BLOCK
  5
2ABD
330
2ABC
100
AcDbEntity
  8
0
100
AcDbBlockBegin
  2
*D30
 70
     1
 10
0.0
 20
0.0
 30
0.0
  3
*D30
  1

  0
LINE
  5
166B
330
2ABC
100
AcDbEntity
  8
SIZE
 62
     0
100
AcDbLine
 10
-134.5
 20
-320.0
 30
0.0
 11
-134.5
 21
-468.0173952306001
 31
0.0
  0
LINE
  5
166C
330
2ABC
100
AcDbEntity
  8
SIZE
 62
     0
100
AcDbLine
 10
134.5
 20
-320.0
 30
0.0
 11
134.5
 21
-468.0173952306001
 31
0.0
  0
LINE
  5
166D
330
2ABC
100
AcDbEntity
  8
SIZE
 62
     0
100
AcDbLine
 10
-122.5
 20
-448.0173952306
 30
0.0
 11
122.5
 21
-448.0173952306
 31
0.0
  0
INSERT
  5
166E
330
2ABC
100
AcDbEntity
  8
SIZE
 62
     0
100
AcDbBlockReference
  2
_DOTBLANK
 10
-134.5
 20
-448.0173952306
 30
0.0
 41
12.0
 42
12.0
 43
12.0
 50
180.0
  0
INSERT
  5
166F
330
2ABC
100
AcDbEntity
  8
SIZE
 62
     0
100
AcDbBlockReference
  2
_DOTBLANK
 10
134.5
 20
-448.0173952306
 30
0.0
 41
12.0
 42
12.0
 43
12.0
  0
INSERT
  5
1670
330
2ABC
100
AcDbEntity
  8
0
100
AcDbBlockReference
  2
*U31
 10
0.0
 20
0.0
 30
0.0
  0
POINT
  5
1671
330
2ABC
100
AcDbEntity
  8
DEFPOINTS
 62
     0
100
AcDbPoint
 10
-134.5
 20
-300.0
 30
0.0
  0
POINT
  5
1672
330
2ABC
100
AcDbEntity
  8
DEFPOINTS
 62
     0
100
AcDbPoint
 10
134.5
 20
-300.0
 30
0.0
  0
POINT
  5
1673
330
2ABC
100
AcDbEntity
  8
DEFPOINTS
 62
     0
100
AcDbPoint
 10
134.5
 20
-448.0173952306
 30
0.0
  0
ENDBLK
  5
14A7
330
2ABC
100
AcDbEntity
  8
0
100
AcDbBlockEnd
  0
BLOCK
  5
2ABF
330
2ABE
100
AcDbEntity
  8
0
100
AcDbBlockBegin
  2
*U31
 70
     1
 10
0.0
 20
0.0
 30
0.0
  3
*U31
  1

  0
TEXT
  5
1F09
330
2ABE
100
AcDbEntity
  8
SIZE
 62
     0
100
AcDbText
 10
-72.68571428571426
 20
-438.0173952306002
 30
0.0
 40
64.0
  1
269
 41
0.9
100
AcDbText
  0
ENDBLK
  5
1F0B
330
2ABE
100
AcDbEntity
  8
0
100
AcDbBlockEnd
  0
BLOCK
  5
2AC1
330
2AC0
100
AcDbEntity
  8
0
100
AcDbBlockBegin
  2
*D32
 70
     1
 10
0.0
 20
0.0
 30
0.0
  3
*D32
  1

  0
LINE
  5
1674
330
2AC0
100
AcDbEntity
  8
SIZE
  6
Continuous
 62
     0
100
AcDbLine
 10
143.5
 20
-300.0
 30
0.0
 11
304.6432844803784
 21
-300.0
 31
0.0
  0
LINE
  5
1675
330
2AC0
100
AcDbEntity
  8
SIZE
  6
Continuous
 62
     0
100
AcDbLine
 10
177.5
 20
-0.0000000000000057
 30
0.0
 11
304.6432844803785
 21
-0.0000000000000417
 31
0.0
  0
LINE
  5
1676
330
2AC0
100
AcDbEntity
  8
SIZE
  6
Continuous
 62
     0
100
AcDbLine
 10
284.6432844803784
 20
-288.0000000000001
 30
0.0
 11
284.6432844803785
 21
-12.00000000000003
 31
0.0
  0
INSERT
  5
1677
330
2AC0
100
AcDbEntity
  8
SIZE
  6
Continuous
 62
     0
100
AcDbBlockReference
  2
_DOTBLANK
 10
284.6432844803784
 20
-300.0
 30
0.0
 41
12.0
 42
12.0
 43
12.0
 50
270.0
  0
INSERT
  5
1678
330
2AC0
100
AcDbEntity
  8
SIZE
  6
Continuous
 62
     0
100
AcDbBlockReference
  2
_DOTBLANK
 10
284.6432844803785
 20
-0.000000000000036
 30
0.0
 41
12.0
 42
12.0
 43
12.0
 50
90.0
  0
INSERT
  5
1679
330
2AC0
100
AcDbEntity
  8
0
100
AcDbBlockReference
  2
*U33
 10
0.0
 20
0.0
 30
0.0
  0
POINT
  5
167A
330
2AC0
100
AcDbEntity
  8
DEFPOINTS
  6
Continuous
 62
     0
100
AcDbPoint
 10
123.5
 20
-300.0
 30
0.0
  0
POINT
  5
167B
330
2AC0
100
AcDbEntity
  8
DEFPOINTS
  6
Continuous
 62
     0
100
AcDbPoint
 10
157.5
 20
0.0
 30
0.0
  0
POINT
  5
167C
330
2AC0
100
AcDbEntity
  8
DEFPOINTS
  6
Continuous
 62
     0
100
AcDbPoint
 10
284.6432844803785
 20
-0.000000000000036
 30
0.0
  0
ENDBLK
  5
14B3
330
2AC0
100
AcDbEntity
  8
0
100
AcDbBlockEnd
  0
BLOCK
  5
2AC3
330
2AC2
100
AcDbEntity
  8
0
100
AcDbBlockBegin
  2
*U33
 70
     1
 10
0.0
 20
0.0
 30
0.0
  3
*U33
  1

  0
TEXT
  5
1F0D
330
2AC2
100
AcDbEntity
  8
SIZE
 62
     0
100
AcDbText
 10
274.6432844803785
 20
-224.0571428571429
 30
0.0
 40
64.0
  1
300
 50
90.0
 41
0.9
100
AcDbText
  0
ENDBLK
  5
1F0F
330
2AC2
100
AcDbEntity
  8
0
100
AcDbBlockEnd
  0
BLOCK
  5
2AC5
330
2AC4
100
AcDbEntity
  8
0
100
AcDbBlockBegin
  2
*D34
 70
     1
 10
0.0
 20
0.0
 30
0.0
  3
*D34
  1

  0
LINE
  5
167D
330
2AC4
100
AcDbEntity
  8
SIZE
 62
     0
100
AcDbLine
 10
-140.0
 20
32.46448280219375
 30
0.0
 11
-140.0
 21
136.4516878685507
 31
0.0
  0
LINE
  5
167E
330
2AC4
100
AcDbEntity
  8
SIZE
 62
     0
100
AcDbLine
 10
140.0
 20
32.46448280219375
 30
0.0
 11
140.0
 21
136.4516878685507
 31
0.0
  0
LINE
  5
167F
330
2AC4
100
AcDbEntity
  8
SIZE
 62
     0
100
AcDbLine
 10
-128.0
 20
116.4516878685508
 30
0.0
 11
128.0
 21
116.4516878685508
 31
0.0
  0
INSERT
  5
1680
330
2AC4
100
AcDbEntity
  8
SIZE
 62
     0
100
AcDbBlockReference
  2
_DOTBLANK
 10
-140.0
 20
116.4516878685508
 30
0.0
 41
12.0
 42
12.0
 43
12.0
 50
180.0
  0
INSERT
  5
1681
330
2AC4
100
AcDbEntity
  8
SIZE
 62
     0
100
AcDbBlockReference
  2
_DOTBLANK
 10
140.0
 20
116.4516878685508
 30
0.0
 41
12.0
 42
12.0
 43
12.0
  0
INSERT
  5
1682
330
2AC4
100
AcDbEntity
  8
0
100
AcDbBlockReference
  2
*U35
 10
0.0
 20
0.0
 30
0.0
  0
POINT
  5
1683
330
2AC4
100
AcDbEntity
  8
DEFPOINTS
 62
     0
100
AcDbPoint
 10
-140.0
 20
12.46448280219374
 30
0.0
  0
POINT
  5
1684
330
2AC4
100
AcDbEntity
  8
DEFPOINTS
 62
     0
100
AcDbPoint
 10
140.0
 20
12.46448280219374
 30
0.0
  0
POINT
  5
1685
330
2AC4
100
AcDbEntity
  8
DEFPOINTS
 62
     0
100
AcDbPoint
 10
140.0
 20
116.4516878685508
 30
0.0
  0
ENDBLK
  5
14BF
330
2AC4
100
AcDbEntity
  8
0
100
AcDbBlockEnd
  0
BLOCK
  5
2AC7
330
2AC6
100
AcDbEntity
  8
0
100
AcDbBlockBegin
  2
*U35
 70
     1
 10
0.0
 20
0.0
 30
0.0
  3
*U35
  1

  0
TEXT
  5
1F11
330
2AC6
100
AcDbEntity
  8
SIZE
 62
     0
100
AcDbText
 10
-74.05714285714283
 20
126.4516878685507
 30
0.0
 40
64.0
  1
280
 41
0.9
100
AcDbText
  0
ENDBLK
  5
1F13
330
2AC6
100
AcDbEntity
  8
0
100
AcDbBlockEnd
  0
BLOCK
  5
2AC9
330
2AC8
100
AcDbEntity
  8
0
100
AcDbBlockBegin
  2
*D36
 70
     1
 10
0.0
 20
0.0
 30
0.0
  3
*D36
  1

  0
LINE
  5
1686
330
2AC8
100
AcDbEntity
  8
SIZE
 62
     0
100
AcDbLine
 10
-157.5
 20
20.0
 30
0.0
 11
-157.5
 21
245.5794621189598
 31
0.0
  0
LINE
  5
1687
330
2AC8
100
AcDbEntity
  8
SIZE
 62
     0
100
AcDbLine
 10
157.5
 20
20.0
 30
0.0
 11
157.5
 21
245.5794621189598
 31
0.0
  0
LINE
  5
1688
330
2AC8
100
AcDbEntity
  8
SIZE
 62
     0
100
AcDbLine
 10
-145.5
 20
225.5794621189598
 30
0.0
 11
145.5
 21
225.5794621189598
 31
0.0
  0
INSERT
  5
1689
330
2AC8
100
AcDbEntity
  8
SIZE
 62
     0
100
AcDbBlockReference
  2
_DOTBLANK
 10
-157.5
 20
225.5794621189598
 30
0.0
 41
12.0
 42
12.0
 43
12.0
 50
180.0
  0
INSERT
  5
168A
330
2AC8
100
AcDbEntity
  8
SIZE
 62
     0
100
AcDbBlockReference
  2
_DOTBLANK
 10
157.5
 20
225.5794621189598
 30
0.0
 41
12.0
 42
12.0
 43
12.0
  0
INSERT
  5
168B
330
2AC8
100
AcDbEntity
  8
0
100
AcDbBlockReference
  2
*U37
 10
0.0
 20
0.0
 30
0.0
  0
POINT
  5
168C
330
2AC8
100
AcDbEntity
  8
DEFPOINTS
 62
     0
100
AcDbPoint
 10
-157.5
 20
0.0
 30
0.0
  0
POINT
  5
168D
330
2AC8
100
AcDbEntity
  8
DEFPOINTS
 62
     0
100
AcDbPoint
 10
157.5
 20
0.0
 30
0.0
  0
POINT
  5
168E
330
2AC8
100
AcDbEntity
  8
DEFPOINTS
 62
     0
100
AcDbPoint
 10
157.5
 20
225.5794621189598
 30
0.0
  0
ENDBLK
  5
14CB
330
2AC8
100
AcDbEntity
  8
0
100
AcDbBlockEnd
  0
BLOCK
  5
2ACB
330
2ACA
100
AcDbEntity
  8
0
100
AcDbBlockBegin
  2
*U37
 70
     1
 10
0.0
 20
0.0
 30
0.0
  3
*U37
  1

  0
TEXT
  5
1F15
330
2ACA
100
AcDbEntity
  8
SIZE
 62
     0
100
AcDbText
 10
-68.57142857142857
 20
235.5794621189598
 30
0.0
 40
64.0
  1
315
 41
0.9
100
AcDbText
  0
ENDBLK
  5
1F17
330
2ACA
100
AcDbEntity
  8
0
100
AcDbBlockEnd
  0
BLOCK
  5
2ACD
330
2ACC
100
AcDbEntity
  8
0
100
AcDbBlockBegin
  2
*U38
 70
     1
 10
0.0
 20
0.0
 30
0.0
  3
*U38
  1

  0
ENDBLK
  5
15CF
330
2ACC
100
AcDbEntity
  8
0
100
AcDbBlockEnd
  0
BLOCK
  5
2ACF
330
2ACE
100
AcDbEntity
  8
0
100
AcDbBlockBegin
  2
*D39
 70
     1
 10
0.0
 20
0.0
 30
0.0
  3
*D39
  1

  0
LINE
  5
1692
330
2ACE
100
AcDbEntity
  8
SIZE
 62
     0
100
AcDbLine
 10
-25844.51823276502
 20
7685.702971374808
 30
0.0
 11
-25981.04465488371
 21
7685.702971374808
 31
0.0
  0
LINE
  5
1693
330
2ACE
100
AcDbEntity
  8
SIZE
 62
     0
100
AcDbLine
 10
-25844.51823276502
 20
7677.702971374808
 30
0.0
 11
-25981.04465488371
 21
7677.702971374808
 31
0.0
  0
LINE
  5
1694
330
2ACE
100
AcDbEntity
  8
SIZE
 62
     0
100
AcDbLine
 10
-25961.04465488371
 20
7697.702971374808
 30
0.0
 11
-25961.04465488371
 21
7709.702971374809
 31
0.0
  0
LINE
  5
1695
330
2ACE
100
AcDbEntity
  8
SIZE
 62
     0
100
AcDbLine
 10
-25961.04465488371
 20
7665.70297137481
 30
0.0
 11
-25961.04465488371
 21
7595.302971374808
 31
0.0
  0
INSERT
  5
1696
330
2ACE
100
AcDbEntity
  8
SIZE
 62
     0
100
AcDbBlockReference
  2
_DOTBLANK
 10
-25961.04465488371
 20
7685.702971374808
 30
0.0
 41
12.0
 42
12.0
 43
12.0
 50
270.0
  0
INSERT
  5
1697
330
2ACE
100
AcDbEntity
  8
SIZE
 62
     0
100
AcDbBlockReference
  2
_DOTBLANK
 10
-25961.04465488371
 20
7677.702971374808
 30
0.0
 41
12.0
 42
12.0
 43
12.0
 50
90.0
  0
INSERT
  5
1698
330
2ACE
100
AcDbEntity
  8
0
100
AcDbBlockReference
  2
*U40
 10
0.0
 20
0.0
 30
0.0
  0
POINT
  5
1699
330
2ACE
100
AcDbEntity
  8
DEFPOINTS
 62
     0
100
AcDbPoint
 10
-25824.51823276501
 20
7685.702971374808
 30
0.0
  0
POINT
  5
169A
330
2ACE
100
AcDbEntity
  8
DEFPOINTS
 62
     0
100
AcDbPoint
 10
-25824.51823276501
 20
7677.702971374808
 30
0.0
  0
POINT
  5
169B
330
2ACE
100
AcDbEntity
  8
DEFPOINTS
 62
     0
100
AcDbPoint
 10
-25961.04465488371
 20
7677.702971374808
 30
0.0
  0
ENDBLK
  5
169C
330
2ACE
100
AcDbEntity
  8
0
100
AcDbBlockEnd
  0
BLOCK
  5
2AD1
330
2AD0
100
AcDbEntity
  8
0
100
AcDbBlockBegin
  2
*U40
 70
     1
 10
0.0
 20
0.0
 30
0.0
  3
*U40
  1

  0
TEXT
  5
1F19
330
2AD0
100
AcDbEntity
  8
SIZE
 62
     0
100
AcDbText
 10
-25971.04465488371
 20
7605.302971374804
 30
0.0
 40
64.0
  1
8
 50
90.0
 41
0.9
100
AcDbText
  0
ENDBLK
  5
1F1B
330
2AD0
100
AcDbEntity
  8
0
100
AcDbBlockEnd
  0
BLOCK
  5
2AD3
330
2AD2
100
AcDbEntity
  8
0
100
AcDbBlockBegin
  2
*D41
 70
     1
 10
0.0
 20
0.0
 30
0.0
  3
*D41
  1

  0
LINE
  5
169F
330
2AD2
100
AcDbEntity
  8
SIZE
 62
     0
100
AcDbLine
 10
-25512.51823276502
 20
7385.702971374808
 30
0.0
 11
-25362.37494828464
 21
7385.702971374808
 31
0.0
  0
LINE
  5
16A0
330
2AD2
100
AcDbEntity
  8
SIZE
 62
     0
100
AcDbLine
 10
-25523.51823276501
 20
7373.702971374808
 30
0.0
 11
-25362.37494828464
 21
7373.702971374808
 31
0.0
  0
LINE
  5
16A1
330
2AD2
100
AcDbEntity
  8
SIZE
 62
     0
100
AcDbLine
 10
-25382.37494828464
 20
7397.702971374808
 30
0.0
 11
-25382.37494828464
 21
7409.70297137481
 31
0.0
  0
LINE
  5
16A2
330
2AD2
100
AcDbEntity
  8
SIZE
 62
     0
100
AcDbLine
 10
-25382.37494828464
 20
7361.702971374808
 30
0.0
 11
-25382.37494828464
 21
7244.674399946238
 31
0.0
  0
INSERT
  5
16A3
330
2AD2
100
AcDbEntity
  8
SIZE
 62
     0
100
AcDbBlockReference
  2
_DOTBLANK
 10
-25382.37494828464
 20
7385.702971374808
 30
0.0
 41
12.0
 42
12.0
 43
12.0
 50
270.0
  0
INSERT
  5
16A4
330
2AD2
100
AcDbEntity
  8
SIZE
 62
     0
100
AcDbBlockReference
  2
_DOTBLANK
 10
-25382.37494828464
 20
7373.702971374808
 30
0.0
 41
12.0
 42
12.0
 43
12.0
 50
90.0
  0
INSERT
  5
16A5
330
2AD2
100
AcDbEntity
  8
0
100
AcDbBlockReference
  2
*U42
 10
0.0
 20
0.0
 30
0.0
  0
POINT
  5
16A6
330
2AD2
100
AcDbEntity
  8
DEFPOINTS
 62
     0
100
AcDbPoint
 10
-25532.51823276502
 20
7385.702971374808
 30
0.0
  0
POINT
  5
16A7
330
2AD2
100
AcDbEntity
  8
DEFPOINTS
 62
     0
100
AcDbPoint
 10
-25543.51823276502
 20
7373.702971374808
 30
0.0
  0
POINT
  5
16A8
330
2AD2
100
AcDbEntity
  8
DEFPOINTS
 62
     0
100
AcDbPoint
 10
-25382.37494828464
 20
7373.702971374808
 30
0.0
  0
ENDBLK
  5
16A9
330
2AD2
100
AcDbEntity
  8
0
100
AcDbBlockEnd
  0
BLOCK
  5
2AD5
330
2AD4
100
AcDbEntity
  8
0
100
AcDbBlockBegin
  2
*U42
 70
     1
 10
0.0
 20
0.0
 30
0.0
  3
*U42
  1

  0
TEXT
  5
1F1D
330
2AD4
100
AcDbEntity
  8
SIZE
 62
     0
100
AcDbText
 10
-25392.37494828464
 20
7256.045828517662
 30
0.0
 40
64.0
  1
12
 50
90.0
 41
0.9
100
AcDbText
  0
ENDBLK
  5
1F1F
330
2AD4
100
AcDbEntity
  8
0
100
AcDbBlockEnd
  0
BLOCK
  5
2AD7
330
2AD6
100
AcDbEntity
  8
0
100
AcDbBlockBegin
  2
*D43
 70
     1
 10
0.0
 20
0.0
 30
0.0
  3
*D43
  1

  0
LINE
  5
16AC
330
2AD6
100
AcDbEntity
  8
SIZE
 62
     0
100
AcDbLine
 10
-25801.51823276501
 20
7365.702971374808
 30
0.0
 11
-25801.51823276501
 21
7217.685576144207
 31
0.0
  0
LINE
  5
16AD
330
2AD6
100
AcDbEntity
  8
SIZE
 62
     0
100
AcDbLine
 10
-25532.51823276502
 20
7365.702971374808
 30
0.0
 11
-25532.51823276502
 21
7217.685576144207
 31
0.0
  0
LINE
  5
16AE
330
2AD6
100
AcDbEntity
  8
SIZE
 62
     0
100
AcDbLine
 10
-25789.51823276502
 20
7237.685576144207
 30
0.0
 11
-25544.51823276501
 21
7237.685576144207
 31
0.0
  0
INSERT
  5
16AF
330
2AD6
100
AcDbEntity
  8
SIZE
 62
     0
100
AcDbBlockReference
  2
_DOTBLANK
 10
-25801.51823276501
 20
7237.685576144207
 30
0.0
 41
12.0
 42
12.0
 43
12.0
 50
180.0
  0
INSERT
  5
16B0
330
2AD6
100
AcDbEntity
  8
SIZE
 62
     0
100
AcDbBlockReference
  2
_DOTBLANK
 10
-25532.51823276502
 20
7237.685576144207
 30
0.0
 41
12.0
 42
12.0
 43
12.0
  0
INSERT
  5
16B1
330
2AD6
100
AcDbEntity
  8
0
100
AcDbBlockReference
  2
*U44
 10
0.0
 20
0.0
 30
0.0
  0
POINT
  5
16B2
330
2AD6
100
AcDbEntity
  8
DEFPOINTS
 62
     0
100
AcDbPoint
 10
-25801.51823276501
 20
7385.702971374808
 30
0.0
  0
POINT
  5
16B3
330
2AD6
100
AcDbEntity
  8
DEFPOINTS
 62
     0
100
AcDbPoint
 10
-25532.51823276502
 20
7385.702971374808
 30
0.0
  0
POINT
  5
16B4
330
2AD6
100
AcDbEntity
  8
DEFPOINTS
 62
     0
100
AcDbPoint
 10
-25532.51823276502
 20
7237.685576144207
 30
0.0
  0
ENDBLK
  5
16B5
330
2AD6
100
AcDbEntity
  8
0
100
AcDbBlockEnd
  0
BLOCK
  5
2AD9
330
2AD8
100
AcDbEntity
  8
0
100
AcDbBlockBegin
  2
*U44
 70
     1
 10
0.0
 20
0.0
 30
0.0
  3
*U44
  1

  0
TEXT
  5
1F21
330
2AD8
100
AcDbEntity
  8
SIZE
 62
     0
100
AcDbText
 10
-25739.70394705074
 20
7247.685576144205
 30
0.0
 40
64.0
  1
269
 41
0.9
100
AcDbText
  0
ENDBLK
  5
1F23
330
2AD8
100
AcDbEntity
  8
0
100
AcDbBlockEnd
  0
BLOCK
  5
2ADB
330
2ADA
100
AcDbEntity
  8
0
100
AcDbBlockBegin
  2
*D45
 70
     1
 10
0.0
 20
0.0
 30
0.0
  3
*D45
  1

  0
LINE
  5
16B8
330
2ADA
100
AcDbEntity
  8
SIZE
 62
     0
100
AcDbLine
 10
-25512.51823276502
 20
7385.702971374808
 30
0.0
 11
-25362.37494828464
 21
7385.702971374808
 31
0.0
  0
LINE
  5
16B9
330
2ADA
100
AcDbEntity
  8
SIZE
 62
     0
100
AcDbLine
 10
-25489.51823276501
 20
7685.702971374808
 30
0.0
 11
-25362.37494828464
 21
7685.702971374808
 31
0.0
  0
LINE
  5
16BA
330
2ADA
100
AcDbEntity
  8
SIZE
 62
     0
100
AcDbLine
 10
-25382.37494828464
 20
7397.702971374808
 30
0.0
 11
-25382.37494828464
 21
7673.702971374808
 31
0.0
  0
INSERT
  5
16BB
330
2ADA
100
AcDbEntity
  8
SIZE
 62
     0
100
AcDbBlockReference
  2
_DOTBLANK
 10
-25382.37494828464
 20
7385.702971374808
 30
0.0
 41
12.0
 42
12.0
 43
12.0
 50
270.0
  0
INSERT
  5
16BC
330
2ADA
100
AcDbEntity
  8
SIZE
 62
     0
100
AcDbBlockReference
  2
_DOTBLANK
 10
-25382.37494828464
 20
7685.702971374808
 30
0.0
 41
12.0
 42
12.0
 43
12.0
 50
90.0
  0
INSERT
  5
16BD
330
2ADA
100
AcDbEntity
  8
0
100
AcDbBlockReference
  2
*U46
 10
0.0
 20
0.0
 30
0.0
  0
POINT
  5
16BE
330
2ADA
100
AcDbEntity
  8
DEFPOINTS
 62
     0
100
AcDbPoint
 10
-25532.51823276502
 20
7385.702971374808
 30
0.0
  0
POINT
  5
16BF
330
2ADA
100
AcDbEntity
  8
DEFPOINTS
 62
     0
100
AcDbPoint
 10
-25509.51823276502
 20
7685.702971374808
 30
0.0
  0
POINT
  5
16C0
330
2ADA
100
AcDbEntity
  8
DEFPOINTS
 62
     0
100
AcDbPoint
 10
-25382.37494828464
 20
7685.702971374808
 30
0.0
  0
ENDBLK
  5
16C1
330
2ADA
100
AcDbEntity
  8
0
100
AcDbBlockEnd
  0
BLOCK
  5
2ADD
330
2ADC
100
AcDbEntity
  8
0
100
AcDbBlockBegin
  2
*U46
 70
     1
 10
0.0
 20
0.0
 30
0.0
  3
*U46
  1

  0
TEXT
  5
1F25
330
2ADC
100
AcDbEntity
  8
SIZE
 62
     0
100
AcDbText
 10
-25392.37494828464
 20
7461.645828517662
 30
0.0
 40
64.0
  1
300
 50
90.0
 41
0.9
100
AcDbText
  0
ENDBLK
  5
1F27
330
2ADC
100
AcDbEntity
  8
0
100
AcDbBlockEnd
  0
BLOCK
  5
2ADF
330
2ADE
100
AcDbEntity
  8
0
100
AcDbBlockBegin
  2
*D47
 70
     1
 10
0.0
 20
0.0
 30
0.0
  3
*D47
  1

  0
LINE
  5
16C4
330
2ADE
100
AcDbEntity
  8
SIZE
 62
     0
100
AcDbLine
 10
-25807.01823276501
 20
7718.167454177002
 30
0.0
 11
-25807.01823276501
 21
7822.154659243358
 31
0.0
  0
LINE
  5
16C5
330
2ADE
100
AcDbEntity
  8
SIZE
 62
     0
100
AcDbLine
 10
-25527.01823276501
 20
7718.167454177002
 30
0.0
 11
-25527.01823276501
 21
7822.154659243358
 31
0.0
  0
LINE
  5
16C6
330
2ADE
100
AcDbEntity
  8
SIZE
 62
     0
100
AcDbLine
 10
-25795.01823276502
 20
7802.154659243358
 30
0.0
 11
-25539.01823276501
 21
7802.154659243358
 31
0.0
  0
INSERT
  5
16C7
330
2ADE
100
AcDbEntity
  8
SIZE
 62
     0
100
AcDbBlockReference
  2
_DOTBLANK
 10
-25807.01823276501
 20
7802.154659243358
 30
0.0
 41
12.0
 42
12.0
 43
12.0
 50
180.0
  0
INSERT
  5
16C8
330
2ADE
100
AcDbEntity
  8
SIZE
 62
     0
100
AcDbBlockReference
  2
_DOTBLANK
 10
-25527.01823276501
 20
7802.154659243358
 30
0.0
 41
12.0
 42
12.0
 43
12.0
  0
INSERT
  5
16C9
330
2ADE
100
AcDbEntity
  8
0
100
AcDbBlockReference
  2
*U48
 10
0.0
 20
0.0
 30
0.0
  0
POINT
  5
16CA
330
2ADE
100
AcDbEntity
  8
DEFPOINTS
 62
     0
100
AcDbPoint
 10
-25807.01823276501
 20
7698.167454177002
 30
0.0
  0
POINT
  5
16CB
330
2ADE
100
AcDbEntity
  8
DEFPOINTS
 62
     0
100
AcDbPoint
 10
-25527.01823276501
 20
7698.167454177002
 30
0.0
  0
POINT
  5
16CC
330
2ADE
100
AcDbEntity
  8
DEFPOINTS
 62
     0
100
AcDbPoint
 10
-25527.01823276501
 20
7802.154659243358
 30
0.0
  0
ENDBLK
  5
16CD
330
2ADE
100
AcDbEntity
  8
0
100
AcDbBlockEnd
  0
BLOCK
  5
2AE1
330
2AE0
100
AcDbEntity
  8
0
100
AcDbBlockBegin
  2
*U48
 70
     1
 10
0.0
 20
0.0
 30
0.0
  3
*U48
  1

  0
TEXT
  5
1F29
330
2AE0
100
AcDbEntity
  8
SIZE
 62
     0
100
AcDbText
 10
-25741.07537562216
 20
7812.154659243358
 30
0.0
 40
64.0
  1
280
 41
0.9
100
AcDbText
  0
ENDBLK
  5
1F2B
330
2AE0
100
AcDbEntity
  8
0
100
AcDbBlockEnd
  0
BLOCK
  5
2AE3
330
2AE2
100
AcDbEntity
  8
0
100
AcDbBlockBegin
  2
*D49
 70
     1
 10
0.0
 20
0.0
 30
0.0
  3
*D49
  1

  0
LINE
  5
16D0
330
2AE2
100
AcDbEntity
  8
SIZE
 62
     0
100
AcDbLine
 10
-25824.51823276501
 20
7705.702971374808
 30
0.0
 11
-25824.51823276501
 21
7931.282433493766
 31
0.0
  0
LINE
  5
16D1
330
2AE2
100
AcDbEntity
  8
SIZE
 62
     0
100
AcDbLine
 10
-25509.51823276502
 20
7705.702971374808
 30
0.0
 11
-25509.51823276502
 21
7931.282433493766
 31
0.0
  0
LINE
  5
16D2
330
2AE2
100
AcDbEntity
  8
SIZE
 62
     0
100
AcDbLine
 10
-25812.51823276502
 20
7911.282433493766
 30
0.0
 11
-25521.51823276501
 21
7911.282433493766
 31
0.0
  0
INSERT
  5
16D3
330
2AE2
100
AcDbEntity
  8
SIZE
 62
     0
100
AcDbBlockReference
  2
_DOTBLANK
 10
-25824.51823276501
 20
7911.282433493766
 30
0.0
 41
12.0
 42
12.0
 43
12.0
 50
180.0
  0
INSERT
  5
16D4
330
2AE2
100
AcDbEntity
  8
SIZE
 62
     0
100
AcDbBlockReference
  2
_DOTBLANK
 10
-25509.51823276502
 20
7911.282433493766
 30
0.0
 41
12.0
 42
12.0
 43
12.0
  0
INSERT
  5
16D5
330
2AE2
100
AcDbEntity
  8
0
100
AcDbBlockReference
  2
*U50
 10
0.0
 20
0.0
 30
0.0
  0
POINT
  5
16D6
330
2AE2
100
AcDbEntity
  8
DEFPOINTS
 62
     0
100
AcDbPoint
 10
-25824.51823276501
 20
7685.702971374808
 30
0.0
  0
POINT
  5
16D7
330
2AE2
100
AcDbEntity
  8
DEFPOINTS
 62
     0
100
AcDbPoint
 10
-25509.51823276502
 20
7685.702971374808
 30
0.0
  0
POINT
  5
16D8
330
2AE2
100
AcDbEntity
  8
DEFPOINTS
 62
     0
100
AcDbPoint
 10
-25509.51823276502
 20
7911.282433493766
 30
0.0
  0
ENDBLK
  5
16D9
330
2AE2
100
AcDbEntity
  8
0
100
AcDbBlockEnd
  0
BLOCK
  5
2AE5
330
2AE4
100
AcDbEntity
  8
0
100
AcDbBlockBegin
  2
*U50
 70
     1
 10
0.0
 20
0.0
 30
0.0
  3
*U50
  1

  0
TEXT
  5
1F2D
330
2AE4
100
AcDbEntity
  8
SIZE
 62
     0
100
AcDbText
 10
-25735.58966133645
 20
7921.282433493766
 30
0.0
 40
64.0
  1
315
 41
0.9
100
AcDbText
  0
ENDBLK
  5
1F2F
330
2AE4
100
AcDbEntity
  8
0
100
AcDbBlockEnd
  0
BLOCK
  5
2AE7
330
2AE6
100
AcDbEntity
  8
0
100
AcDbBlockBegin
  2
*D51
 70
     1
 10
0.0
 20
0.0
 30
0.0
  3
*D51
  1

  0
LINE
  5
1D83
330
2AE6
100
AcDbEntity
  8
SIZE
 62
     0
100
AcDbLine
 10
-134.5
 20
-320.0
 30
0.0
 11
-134.5
 21
-468.0173952306001
 31
0.0
  0
LINE
  5
1D84
330
2AE6
100
AcDbEntity
  8
SIZE
 62
     0
100
AcDbLine
 10
134.5
 20
-320.0
 30
0.0
 11
134.5
 21
-468.0173952306001
 31
0.0
  0
LINE
  5
1D85
330
2AE6
100
AcDbEntity
  8
SIZE
 62
     0
100
AcDbLine
 10
-122.5
 20
-448.0173952306
 30
0.0
 11
122.5
 21
-448.0173952306
 31
0.0
  0
INSERT
  5
1D86
330
2AE6
100
AcDbEntity
  8
SIZE
 62
     0
100
AcDbBlockReference
  2
_DOTBLANK
 10
-134.5
 20
-448.0173952306
 30
0.0
 41
12.0
 42
12.0
 43
12.0
 50
180.0
  0
INSERT
  5
1D87
330
2AE6
100
AcDbEntity
  8
SIZE
 62
     0
100
AcDbBlockReference
  2
_DOTBLANK
 10
134.5
 20
-448.0173952306
 30
0.0
 41
12.0
 42
12.0
 43
12.0
  0
INSERT
  5
1D88
330
2AE6
100
AcDbEntity
  8
0
100
AcDbBlockReference
  2
*U52
 10
0.0
 20
0.0
 30
0.0
  0
POINT
  5
1D89
330
2AE6
100
AcDbEntity
  8
DEFPOINTS
 62
     0
100
AcDbPoint
 10
-134.5
 20
-300.0
 30
0.0
  0
POINT
  5
1D8A
330
2AE6
100
AcDbEntity
  8
DEFPOINTS
 62
     0
100
AcDbPoint
 10
134.5
 20
-300.0
 30
0.0
  0
POINT
  5
1D8B
330
2AE6
100
AcDbEntity
  8
DEFPOINTS
 62
     0
100
AcDbPoint
 10
134.5
 20
-448.0173952306
 30
0.0
  0
ENDBLK
  5
173D
330
2AE6
100
AcDbEntity
  8
0
100
AcDbBlockEnd
  0
BLOCK
  5
2AE9
330
2AE8
100
AcDbEntity
  8
0
100
AcDbBlockBegin
  2
*U52
 70
     1
 10
0.0
 20
0.0
 30
0.0
  3
*U52
  1

  0
TEXT
  5
1F31
330
2AE8
100
AcDbEntity
  8
SIZE
 62
     0
100
AcDbText
 10
-72.68571428571426
 20
-438.0173952306003
 30
0.0
 40
64.0
  1
269
 41
0.9
100
AcDbText
  0
ENDBLK
  5
1F33
330
2AE8
100
AcDbEntity
  8
0
100
AcDbBlockEnd
  0
BLOCK
  5
2AEB
330
2AEA
100
AcDbEntity
  8
0
100
AcDbBlockBegin
  2
*D53
 70
     1
 10
0.0
 20
0.0
 30
0.0
  3
*D53
  1

  0
LINE
  5
1D8C
330
2AEA
100
AcDbEntity
  8
SIZE
 62
     0
100
AcDbLine
 10
154.5
 20
-300.0
 30
0.0
 11
304.6432844803784
 21
-300.0
 31
0.0
  0
LINE
  5
1D8D
330
2AEA
100
AcDbEntity
  8
SIZE
 62
     0
100
AcDbLine
 10
177.5
 20
-0.0000000000000057
 30
0.0
 11
304.6432844803785
 21
-0.0000000000000417
 31
0.0
  0
LINE
  5
1D8E
330
2AEA
100
AcDbEntity
  8
SIZE
 62
     0
100
AcDbLine
 10
284.6432844803784
 20
-288.0
 30
0.0
 11
284.6432844803785
 21
-12.00000000000003
 31
0.0
  0
INSERT
  5
1D8F
330
2AEA
100
AcDbEntity
  8
SIZE
 62
     0
100
AcDbBlockReference
  2
_DOTBLANK
 10
284.6432844803784
 20
-300.0
 30
0.0
 41
12.0
 42
12.0
 43
12.0
 50
270.0
  0
INSERT
  5
1D90
330
2AEA
100
AcDbEntity
  8
SIZE
 62
     0
100
AcDbBlockReference
  2
_DOTBLANK
 10
284.6432844803785
 20
-0.000000000000036
 30
0.0
 41
12.0
 42
12.0
 43
12.0
 50
90.0
  0
INSERT
  5
1D91
330
2AEA
100
AcDbEntity
  8
0
100
AcDbBlockReference
  2
*U54
 10
0.0
 20
0.0
 30
0.0
  0
POINT
  5
1D92
330
2AEA
100
AcDbEntity
  8
DEFPOINTS
 62
     0
100
AcDbPoint
 10
134.5
 20
-300.0
 30
0.0
  0
POINT
  5
1D93
330
2AEA
100
AcDbEntity
  8
DEFPOINTS
 62
     0
100
AcDbPoint
 10
157.5
 20
0.0
 30
0.0
  0
POINT
  5
1D94
330
2AEA
100
AcDbEntity
  8
DEFPOINTS
 62
     0
100
AcDbPoint
 10
284.6432844803785
 20
-0.000000000000036
 30
0.0
  0
ENDBLK
  5
1749
330
2AEA
100
AcDbEntity
  8
0
100
AcDbBlockEnd
  0
BLOCK
  5
2AED
330
2AEC
100
AcDbEntity
  8
0
100
AcDbBlockBegin
  2
*U54
 70
     1
 10
0.0
 20
0.0
 30
0.0
  3
*U54
  1

  0
TEXT
  5
1F35
330
2AEC
100
AcDbEntity
  8
SIZE
 62
     0
100
AcDbText
 10
274.6432844803785
 20
-224.0571428571429
 30
0.0
 40
64.0
  1
300
 50
90.0
 41
0.9
100
AcDbText
  0
ENDBLK
  5
1F37
330
2AEC
100
AcDbEntity
  8
0
100
AcDbBlockEnd
  0
BLOCK
  5
2AEF
330
2AEE
100
AcDbEntity
  8
0
100
AcDbBlockBegin
  2
*D55
 70
     1
 10
0.0
 20
0.0
 30
0.0
  3
*D55
  1

  0
LINE
  5
1D95
330
2AEE
100
AcDbEntity
  8
SIZE
 62
     0
100
AcDbLine
 10
-140.0
 20
32.46448280219375
 30
0.0
 11
-140.0
 21
136.4516878685508
 31
0.0
  0
LINE
  5
1D96
330
2AEE
100
AcDbEntity
  8
SIZE
 62
     0
100
AcDbLine
 10
140.0
 20
32.46448280219375
 30
0.0
 11
140.0
 21
136.4516878685508
 31
0.0
  0
LINE
  5
1D97
330
2AEE
100
AcDbEntity
  8
SIZE
 62
     0
100
AcDbLine
 10
-128.0
 20
116.4516878685508
 30
0.0
 11
128.0
 21
116.4516878685508
 31
0.0
  0
INSERT
  5
1D98
330
2AEE
100
AcDbEntity
  8
SIZE
 62
     0
100
AcDbBlockReference
  2
_DOTBLANK
 10
-140.0
 20
116.4516878685508
 30
0.0
 41
12.0
 42
12.0
 43
12.0
 50
180.0
  0
INSERT
  5
1D99
330
2AEE
100
AcDbEntity
  8
SIZE
 62
     0
100
AcDbBlockReference
  2
_DOTBLANK
 10
140.0
 20
116.4516878685508
 30
0.0
 41
12.0
 42
12.0
 43
12.0
  0
INSERT
  5
1D9A
330
2AEE
100
AcDbEntity
  8
0
100
AcDbBlockReference
  2
*U56
 10
0.0
 20
0.0
 30
0.0
  0
POINT
  5
1D9B
330
2AEE
100
AcDbEntity
  8
DEFPOINTS
 62
     0
100
AcDbPoint
 10
-140.0
 20
12.46448280219374
 30
0.0
  0
POINT
  5
1D9C
330
2AEE
100
AcDbEntity
  8
DEFPOINTS
 62
     0
100
AcDbPoint
 10
140.0
 20
12.46448280219374
 30
0.0
  0
POINT
  5
1D9D
330
2AEE
100
AcDbEntity
  8
DEFPOINTS
 62
     0
100
AcDbPoint
 10
140.0
 20
116.4516878685508
 30
0.0
  0
ENDBLK
  5
1755
330
2AEE
100
AcDbEntity
  8
0
100
AcDbBlockEnd
  0
BLOCK
  5
2AF1
330
2AF0
100
AcDbEntity
  8
0
100
AcDbBlockBegin
  2
*U56
 70
     1
 10
0.0
 20
0.0
 30
0.0
  3
*U56
  1

  0
TEXT
  5
1F39
330
2AF0
100
AcDbEntity
  8
SIZE
 62
     0
100
AcDbText
 10
-74.05714285714283
 20
126.4516878685508
 30
0.0
 40
64.0
  1
280
 41
0.9
100
AcDbText
  0
ENDBLK
  5
1F3B
330
2AF0
100
AcDbEntity
  8
0
100
AcDbBlockEnd
  0
BLOCK
  5
2AF3
330
2AF2
100
AcDbEntity
  8
0
100
AcDbBlockBegin
  2
*D57
 70
     1
 10
0.0
 20
0.0
 30
0.0
  3
*D57
  1

  0
LINE
  5
1D9E
330
2AF2
100
AcDbEntity
  8
SIZE
 62
     0
100
AcDbLine
 10
-157.5
 20
20.0
 30
0.0
 11
-157.5
 21
245.5794621189598
 31
0.0
  0
LINE
  5
1D9F
330
2AF2
100
AcDbEntity
  8
SIZE
 62
     0
100
AcDbLine
 10
157.5
 20
20.0
 30
0.0
 11
157.5
 21
245.5794621189598
 31
0.0
  0
LINE
  5
1DA0
330
2AF2
100
AcDbEntity
  8
SIZE
 62
     0
100
AcDbLine
 10
-145.5
 20
225.5794621189598
 30
0.0
 11
145.5
 21
225.5794621189598
 31
0.0
  0
INSERT
  5
1DA1
330
2AF2
100
AcDbEntity
  8
SIZE
 62
     0
100
AcDbBlockReference
  2
_DOTBLANK
 10
-157.5
 20
225.5794621189598
 30
0.0
 41
12.0
 42
12.0
 43
12.0
 50
180.0
  0
INSERT
  5
1DA2
330
2AF2
100
AcDbEntity
  8
SIZE
 62
     0
100
AcDbBlockReference
  2
_DOTBLANK
 10
157.5
 20
225.5794621189598
 30
0.0
 41
12.0
 42
12.0
 43
12.0
  0
INSERT
  5
1DA3
330
2AF2
100
AcDbEntity
  8
0
100
AcDbBlockReference
  2
*U58
 10
0.0
 20
0.0
 30
0.0
  0
POINT
  5
1DA4
330
2AF2
100
AcDbEntity
  8
DEFPOINTS
 62
     0
100
AcDbPoint
 10
-157.5
 20
0.0
 30
0.0
  0
POINT
  5
1DA5
330
2AF2
100
AcDbEntity
  8
DEFPOINTS
 62
     0
100
AcDbPoint
 10
157.5
 20
0.0
 30
0.0
  0
POINT
  5
1DA6
330
2AF2
100
AcDbEntity
  8
DEFPOINTS
 62
     0
100
AcDbPoint
 10
157.5
 20
225.5794621189598
 30
0.0
  0
ENDBLK
  5
1761
330
2AF2
100
AcDbEntity
  8
0
100
AcDbBlockEnd
  0
BLOCK
  5
2AF5
330
2AF4
100
AcDbEntity
  8
0
100
AcDbBlockBegin
  2
*U58
 70
     1
 10
0.0
 20
0.0
 30
0.0
  3
*U58
  1

  0
TEXT
  5
1F3D
330
2AF4
100
AcDbEntity
  8
SIZE
 62
     0
100
AcDbText
 10
-68.57142857142857
 20
235.5794621189599
 30
0.0
 40
64.0
  1
315
 41
0.9
100
AcDbText
  0
ENDBLK
  5
1F3F
330
2AF4
100
AcDbEntity
  8
0
100
AcDbBlockEnd
  0
BLOCK
  5
2AF7
330
2AF6
100
AcDbEntity
  8
0
100
AcDbBlockBegin
  2
*D59
 70
     1
 10
0.0
 20
0.0
 30
0.0
  3
*D59
  1

  0
LINE
  5
1DA7
330
2AF6
100
AcDbEntity
  8
SIZE
 62
     0
100
AcDbLine
 10
-177.5
 20
0.0000000000000057
 30
0.0
 11
-314.0264221186908
 21
0.0000000000000443
 31
0.0
  0
LINE
  5
1DA8
330
2AF6
100
AcDbEntity
  8
SIZE
 62
     0
100
AcDbLine
 10
-177.5
 20
-7.999999999999993
 30
0.0
 11
-314.0264221186908
 21
-7.999999999999958
 31
0.0
  0
LINE
  5
1DA9
330
2AF6
100
AcDbEntity
  8
SIZE
 62
     0
100
AcDbLine
 10
-294.0264221186908
 20
12.00000000000003
 30
0.0
 11
-294.0264221186908
 21
24.00000000000004
 31
0.0
  0
LINE
  5
1DAA
330
2AF6
100
AcDbEntity
  8
SIZE
 62
     0
100
AcDbLine
 10
-294.0264221186908
 20
-19.99999999999996
 30
0.0
 11
-294.0264221186908
 21
-90.39999999999997
 31
0.0
  0
INSERT
  5
1DAB
330
2AF6
100
AcDbEntity
  8
SIZE
 62
     0
100
AcDbBlockReference
  2
_DOTBLANK
 10
-294.0264221186908
 20
0.0000000000000387
 30
0.0
 41
12.0
 42
12.0
 43
12.0
 50
270.0
  0
INSERT
  5
1DAC
330
2AF6
100
AcDbEntity
  8
SIZE
 62
     0
100
AcDbBlockReference
  2
_DOTBLANK
 10
-294.0264221186908
 20
-7.999999999999961
 30
0.0
 41
12.0
 42
12.0
 43
12.0
 50
90.0
  0
INSERT
  5
1DAD
330
2AF6
100
AcDbEntity
  8
0
100
AcDbBlockReference
  2
*U60
 10
0.0
 20
0.0
 30
0.0
  0
POINT
  5
1DAE
330
2AF6
100
AcDbEntity
  8
DEFPOINTS
 62
     0
100
AcDbPoint
 10
-157.5
 20
0.0
 30
0.0
  0
POINT
  5
1DAF
330
2AF6
100
AcDbEntity
  8
DEFPOINTS
 62
     0
100
AcDbPoint
 10
-157.5
 20
-8.000000000000003
 30
0.0
  0
POINT
  5
1DB0
330
2AF6
100
AcDbEntity
  8
DEFPOINTS
 62
     0
100
AcDbPoint
 10
-294.0264221186908
 20
-7.999999999999961
 30
0.0
  0
ENDBLK
  5
176D
330
2AF6
100
AcDbEntity
  8
0
100
AcDbBlockEnd
  0
BLOCK
  5
2AF9
330
2AF8
100
AcDbEntity
  8
0
100
AcDbBlockBegin
  2
*U60
 70
     1
 10
0.0
 20
0.0
 30
0.0
  3
*U60
  1

  0
TEXT
  5
1F41
330
2AF8
100
AcDbEntity
  8
SIZE
 62
     0
100
AcDbText
 10
-304.0264221186908
 20
-80.4
 30
0.0
 40
64.0
  1
8
 50
90.0
 41
0.9
100
AcDbText
  0
ENDBLK
  5
1F43
330
2AF8
100
AcDbEntity
  8
0
100
AcDbBlockEnd
  0
BLOCK
  5
2AFB
330
2AFA
100
AcDbEntity
  8
0
100
AcDbBlockBegin
  2
*D61
 70
     1
 10
0.0
 20
0.0
 30
0.0
  3
*D61
  1

  0
LINE
  5
1DB1
330
2AFA
100
AcDbEntity
  8
SIZE
 62
     0
100
AcDbLine
 10
154.5
 20
-300.0
 30
0.0
 11
304.6432844803785
 21
-300.0
 31
0.0
  0
LINE
  5
1DB2
330
2AFA
100
AcDbEntity
  8
SIZE
 62
     0
100
AcDbLine
 10
143.5
 20
-312.0
 30
0.0
 11
304.6432844803785
 21
-312.0
 31
0.0
  0
LINE
  5
1DB3
330
2AFA
100
AcDbEntity
  8
SIZE
 62
     0
100
AcDbLine
 10
284.6432844803785
 20
-288.0
 30
0.0
 11
284.6432844803785
 21
-276.0
 31
0.0
  0
LINE
  5
1DB4
330
2AFA
100
AcDbEntity
  8
SIZE
 62
     0
100
AcDbLine
 10
284.6432844803785
 20
-324.0000000000001
 30
0.0
 11
284.6432844803784
 21
-438.2857142857143
 31
0.0
  0
INSERT
  5
1DB5
330
2AFA
100
AcDbEntity
  8
SIZE
 62
     0
100
AcDbBlockReference
  2
_DOTBLANK
 10
284.6432844803785
 20
-300.0
 30
0.0
 41
12.0
 42
12.0
 43
12.0
 50
270.0
  0
INSERT
  5
1DB6
330
2AFA
100
AcDbEntity
  8
SIZE
 62
     0
100
AcDbBlockReference
  2
_DOTBLANK
 10
284.6432844803785
 20
-312.0
 30
0.0
 41
12.0
 42
12.0
 43
12.0
 50
90.0
  0
INSERT
  5
1DB7
330
2AFA
100
AcDbEntity
  8
0
100
AcDbBlockReference
  2
*U62
 10
0.0
 20
0.0
 30
0.0
  0
POINT
  5
1DB8
330
2AFA
100
AcDbEntity
  8
DEFPOINTS
 62
     0
100
AcDbPoint
 10
134.5
 20
-300.0
 30
0.0
  0
POINT
  5
1DB9
330
2AFA
100
AcDbEntity
  8
DEFPOINTS
 62
     0
100
AcDbPoint
 10
123.5
 20
-312.0
 30
0.0
  0
POINT
  5
1DBA
330
2AFA
100
AcDbEntity
  8
DEFPOINTS
 62
     0
100
AcDbPoint
 10
284.6432844803785
 20
-312.0
 30
0.0
  0
ENDBLK
  5
177B
330
2AFA
100
AcDbEntity
  8
0
100
AcDbBlockEnd
  0
BLOCK
  5
2AFD
330
2AFC
100
AcDbEntity
  8
0
100
AcDbBlockBegin
  2
*U62
 70
     1
 10
0.0
 20
0.0
 30
0.0
  3
*U62
  1

  0
TEXT
  5
1F45
330
2AFC
100
AcDbEntity
  8
SIZE
 62
     0
100
AcDbText
 10
274.6432844803785
 20
-428.2857142857142
 30
0.0
 40
64.0
  1
12
 50
90.0
 41
0.9
100
AcDbText
  0
ENDBLK
  5
1F47
330
2AFC
100
AcDbEntity
  8
0
100
AcDbBlockEnd
  0
BLOCK
  5
2AFF
330
2AFE
100
AcDbEntity
  8
0
100
AcDbBlockBegin
  2
*U63
 70
     1
 10
0.0
 20
0.0
 30
0.0
  3
*U63
  1

  0
ENDBLK
  5
1D57
330
2AFE
100
AcDbEntity
  8
0
100
AcDbBlockEnd
  0
BLOCK
  5
2B01
330
2B00
100
AcDbEntity
  8
0
100
AcDbBlockBegin
  2
*U64
 70
     1
 10
0.0
 20
0.0
 30
0.0
  3
*U64
  1

  0
INSERT
  5
2088
330
2B00
100
AcDbEntity
  8
NOTE
100
AcDbBlockReference
  2
_OPEN30
 10
-140.0
 20
0.0
 30
0.0
 41
12.0
 42
12.0
 43
12.0
 50
312.6090116116894
  0
POLYLINE
  5
2089
330
2B00
100
AcDbEntity
  8
NOTE
100
AcDb2dPolyline
 66
     1
 10
0.0
 20
0.0
 30
0.0
  0
VERTEX
  5
2124
330
2089
100
AcDbEntity
  8
NOTE
100
AcDbVertex
100
AcDb2dVertex
 10
-148.1239008361894
 20
8.831887408915472
 30
0.0
  0
VERTEX
  5
2125
330
2089
100
AcDbEntity
  8
NOTE
100
AcDbVertex
100
AcDb2dVertex
 10
-227.8693999922543
 20
95.52709505801338
 30
0.0
  0
VERTEX
  5
2126
330
2089
100
AcDbEntity
  8
NOTE
100
AcDbVertex
100
AcDb2dVertex
 10
-773.7093999922541
 20
95.52709505801338
 30
0.0
  0
SEQEND
  5
2127
330
2089
100
AcDbEntity
  8
NOTE
  0
ENDBLK
  5
208A
330
2B00
100
AcDbEntity
  8
0
100
AcDbBlockEnd
  0
BLOCK
  5
2B03
330
2B02
100
AcDbEntity
  8
0
100
AcDbBlockBegin
  2
*U65
 70
     1
 10
0.0
 20
0.0
 30
0.0
  3
*U65
  1

  0
TEXT
  5
208D
330
2B02
100
AcDbEntity
  8
NOTE
100
AcDbText
 10
-773.7093999922541
 20
113.5270950580134
 30
0.0
 40
64.0
  1
4×φ10取付穴
 41
0.9
100
AcDbText
  0
ENDBLK
  5
208E
330
2B02
100
AcDbEntity
  8
0
100
AcDbBlockEnd
  0
BLOCK
  5
2B05
330
2B04
100
AcDbEntity
  8
0
100
AcDbBlockBegin
  2
*U66
 70
     1
 10
0.0
 20
0.0
 30
0.0
  3
*U66
  1

  0
INSERT
  5
27FE
330
2B04
100
AcDbEntity
  8
NOTE
100
AcDbBlockReference
  2
_OPEN30
 10
-140.0
 20
0.0
 30
0.0
 41
12.0
 42
12.0
 43
12.0
 50
312.6090116116894
  0
POLYLINE
  5
27FF
330
2B04
100
AcDbEntity
  8
NOTE
100
AcDb2dPolyline
 66
     1
 10
0.0
 20
0.0
 30
0.0
  0
VERTEX
  5
2800
330
27FF
100
AcDbEntity
  8
NOTE
100
AcDbVertex
100
AcDb2dVertex
 10
-148.1239008361894
 20
8.831887408915472
 30
0.0
  0
VERTEX
  5
2801
330
27FF
100
AcDbEntity
  8
NOTE
100
AcDbVertex
100
AcDb2dVertex
 10
-227.8693999922543
 20
95.52709505801338
 30
0.0
  0
VERTEX
  5
2802
330
27FF
100
AcDbEntity
  8
NOTE
100
AcDbVertex
100
AcDb2dVertex
 10
-773.7093999922541
 20
95.52709505801338
 30
0.0
  0
SEQEND
  5
2803
330
27FF
100
AcDbEntity
  8
NOTE
  0
ENDBLK
  5
2804
330
2B04
100
AcDbEntity
  8
0
100
AcDbBlockEnd
  0
BLOCK
  5
2B07
330
2B06
100
AcDbEntity
  8
0
100
AcDbBlockBegin
  2
*U67
 70
     1
 10
0.0
 20
0.0
 30
0.0
  3
*U67
  1

  0
TEXT
  5
2807
330
2B06
100
AcDbEntity
  8
NOTE
100
AcDbText
 10
-773.7093999922541
 20
113.5270950580134
 30
0.0
 40
64.0
  1
4×φ10取付穴
 41
0.9
100
AcDbText
  0
ENDBLK
  5
2808
330
2B06
100
AcDbEntity
  8
0
100
AcDbBlockEnd
  0
BLOCK
  5
2B09
330
2B08
100
AcDbEntity
  8
0
100
AcDbBlockBegin
  2
*X68
 70
     1
 10
0.0
 20
0.0
 30
0.0
  3
*X68
  1

  0
LINE
  5
280B
330
2B08
100
AcDbEntity
  8
0
 62
     0
100
AcDbLine
 10
105.0836526177372
 20
-244.3999999999996
 30
0.0
 11
107.8999999999942
 21
-242.5224398729042
 31
0.0
  0
LINE
  5
280C
330
2B08
100
AcDbEntity
  8
0
 62
     0
100
AcDbLine
 10
100.5836913238508
 20
-244.4000000000015
 30
0.0
 11
107.8999999999923
 21
-239.5224733374889
 31
0.0
  0
LINE
  5
280D
330
2B08
100
AcDbEntity
  8
0
 62
     0
100
AcDbLine
 10
96.08373002996453
 20
-244.4000000000015
 30
0.0
 11
107.8999999999942
 21
-236.5225068020718
 31
0.0
  0
LINE
  5
280E
330
2B08
100
AcDbEntity
  8
0
 62
     0
100
AcDbLine
 10
91.58376873607812
 20
-244.4000000000015
 30
0.0
 11
107.8999999999923
 21
-233.5225402666564
 31
0.0
  0
LINE
  5
280F
330
2B08
100
AcDbEntity
  8
0
 62
     0
100
AcDbLine
 10
87.08380744218993
 20
-244.4000000000015
 30
0.0
 11
107.8999999999923
 21
-230.5225737312376
 31
0.0
  0
LINE
  5
2810
330
2B08
100
AcDbEntity
  8
0
 62
     0
100
AcDbLine
 10
82.58384614830537
 20
-244.4000000000033
 30
0.0
 11
107.8999999999942
 21
-227.5226071958223
 31
0.0
  0
LINE
  5
2811
330
2B08
100
AcDbEntity
  8
0
 62
     0
100
AcDbLine
 10
78.08388485442083
 20
-244.4000000000033
 30
0.0
 11
107.8999999999942
 21
-224.522640660407
 31
0.0
  0
LINE
  5
2812
330
2B08
100
AcDbEntity
  8
0
 62
     0
100
AcDbLine
 10
73.58392356053809
 20
-244.3999999999996
 30
0.0
 11
107.8999999999923
 21
-221.5226741249899
 31
0.0
  0
LINE
  5
2813
330
2B08
100
AcDbEntity
  8
0
 62
     0
100
AcDbLine
 10
69.08396226665172
 20
-244.3999999999996
 30
0.0
 11
107.8999999999923
 21
-218.5227075895745
 31
0.0
  0
LINE
  5
2814
330
2B08
100
AcDbEntity
  8
0
 62
     0
100
AcDbLine
 10
64.58400097276717
 20
-244.4000000000015
 30
0.0
 11
107.8999999999942
 21
-215.5227410541574
 31
0.0
  0
LINE
  5
2815
330
2B08
100
AcDbEntity
  8
0
 62
     0
100
AcDbLine
 10
60.08403967887897
 20
-244.4000000000033
 30
0.0
 11
107.8999999999923
 21
-212.522774518744
 31
0.0
  0
LINE
  5
2816
330
2B08
100
AcDbEntity
  8
0
 62
     0
100
AcDbLine
 10
55.58407838499261
 20
-244.4000000000015
 30
0.0
 11
107.8999999999923
 21
-209.522807983325
 31
0.0
  0
LINE
  5
2817
330
2B08
100
AcDbEntity
  8
0
 62
     0
100
AcDbLine
 10
51.08411709110622
 20
-244.4000000000015
 30
0.0
 11
107.8999999999923
 21
-206.5228414479097
 31
0.0
  0
LINE
  5
2818
330
2B08
100
AcDbEntity
  8
0
 62
     0
100
AcDbLine
 10
46.58415579721984
 20
-244.4000000000033
 30
0.0
 11
107.8999999999923
 21
-203.5228749124926
 31
0.0
  0
LINE
  5
2819
330
2B08
100
AcDbEntity
  8
0
 62
     0
100
AcDbLine
 10
42.08419450333349
 20
-244.4000000000051
 30
0.0
 11
107.8999999999905
 21
-200.5229083770792
 31
0.0
  0
LINE
  5
281A
330
2B08
100
AcDbEntity
  8
0
 62
     0
100
AcDbLine
 10
37.5842332094544
 20
-244.3999999999996
 30
0.0
 11
107.8999999999923
 21
-197.5229418416618
 31
0.0
  0
LINE
  5
281B
330
2B08
100
AcDbEntity
  8
0
 62
     0
100
AcDbLine
 10
33.08427191556802
 20
-244.3999999999996
 30
0.0
 11
107.899999999996
 21
-194.5229753062431
 31
0.0
  0
LINE
  5
281C
330
2B08
100
AcDbEntity
  8
0
 62
     0
100
AcDbLine
 10
28.58431062168165
 20
-244.3999999999996
 30
0.0
 11
107.8999999999923
 21
-191.5230087708278
 31
0.0
  0
LINE
  5
281D
330
2B08
100
AcDbEntity
  8
0
 62
     0
100
AcDbLine
 10
24.08434932779346
 20
-244.4000000000015
 30
0.0
 11
107.8999999999942
 21
-188.5230422354107
 31
0.0
  0
LINE
  5
281E
330
2B08
100
AcDbEntity
  8
0
 62
     0
100
AcDbLine
 10
19.5843880339089
 20
-244.4000000000033
 30
0.0
 11
107.8999999999923
 21
-185.5230756999971
 31
0.0
  0
LINE
  5
281F
330
2B08
100
AcDbEntity
  8
0
 62
     0
100
AcDbLine
 10
15.08442674002252
 20
-244.4000000000033
 30
0.0
 11
107.8999999999942
 21
-182.5231091645801
 31
0.0
  0
LINE
  5
2820
330
2B08
100
AcDbEntity
  8
0
 62
     0
100
AcDbLine
 10
10.58446544613434
 20
-244.4000000000015
 30
0.0
 11
107.8999999999905
 21
-179.5231426291628
 31
0.0
  0
LINE
  5
2821
330
2B08
100
AcDbEntity
  8
0
 62
     0
100
AcDbLine
 10
6.084504152255249
 20
-244.3999999999996
 30
0.0
 11
107.8999999999942
 21
-176.5231760937477
 31
0.0
  0
LINE
  5
2822
330
2B08
100
AcDbEntity
  8
0
 62
     0
100
AcDbLine
 10
1.584542858370696
 20
-244.4000000000015
 30
0.0
 11
107.899999999996
 21
-173.5232095583305
 31
0.0
  0
LINE
  5
2823
330
2B08
100
AcDbEntity
  8
0
 62
     0
100
AcDbLine
 10
-2.915418435517493
 20
-244.4000000000015
 30
0.0
 11
107.8999999999942
 21
-170.5232430229152
 31
0.0
  0
LINE
  5
2824
330
2B08
100
AcDbEntity
  8
0
 62
     0
100
AcDbLine
 10
-7.415379729403866
 20
-244.4000000000015
 30
0.0
 11
107.8999999999942
 21
-167.5232764874981
 31
0.0
  0
LINE
  5
2825
330
2B08
100
AcDbEntity
  8
0
 62
     0
100
AcDbLine
 10
-11.91534102329024
 20
-244.4000000000015
 30
0.0
 11
107.8999999999923
 21
-164.5233099520828
 31
0.0
  0
LINE
  5
2826
330
2B08
100
AcDbEntity
  8
0
 62
     0
100
AcDbLine
 10
-16.41530231717661
 20
-244.4000000000033
 30
0.0
 11
107.8999999999942
 21
-161.5233434166675
 31
0.0
  0
LINE
  5
2827
330
2B08
100
AcDbEntity
  8
0
 62
     0
100
AcDbLine
 10
-20.91526361106298
 20
-244.4000000000033
 30
0.0
 11
107.8999999999905
 21
-158.5233768812504
 31
0.0
  0
LINE
  5
2828
330
2B08
100
AcDbEntity
  8
0
 62
     0
100
AcDbLine
 10
-25.41522490494936
 20
-244.4000000000033
 30
0.0
 11
107.8999999999942
 21
-155.5234103458333
 31
0.0
  0
LINE
  5
2829
330
2B08
100
AcDbEntity
  8
0
 62
     0
100
AcDbLine
 10
-29.91518619882845
 20
-244.3999999999978
 30
0.0
 11
107.8999999999923
 21
-152.523443810418
 31
0.0
  0
LINE
  5
282A
330
2B08
100
AcDbEntity
  8
0
 62
     0
100
AcDbLine
 10
-34.41514749271664
 20
-244.3999999999996
 30
0.0
 11
107.8999999999923
 21
-149.5234772750009
 31
0.0
  0
LINE
  5
282B
330
2B08
100
AcDbEntity
  8
0
 62
     0
100
AcDbLine
 10
-38.91510878660302
 20
-244.4000000000015
 30
0.0
 11
107.8999999999942
 21
-146.5235107395856
 31
0.0
  0
LINE
  5
282C
330
2B08
100
AcDbEntity
  8
0
 62
     0
100
AcDbLine
 10
-43.41507008048757
 20
-244.4000000000015
 30
0.0
 11
107.8999999999942
 21
-143.5235442041685
 31
0.0
  0
LINE
  5
282D
330
2B08
100
AcDbEntity
  8
0
 62
     0
100
AcDbLine
 10
-47.91503137437394
 20
-244.4000000000015
 30
0.0
 11
107.8999999999942
 21
-140.5235776687514
 31
0.0
  0
LINE
  5
282E
330
2B08
100
AcDbEntity
  8
0
 62
     0
100
AcDbLine
 10
-52.41499266826213
 20
-244.4000000000033
 30
0.0
 11
107.8999999999923
 21
-137.5236111333379
 31
0.0
  0
LINE
  5
282F
330
2B08
100
AcDbEntity
  8
0
 62
     0
100
AcDbLine
 10
-56.91495396214668
 20
-244.4000000000033
 30
0.0
 11
107.8999999999942
 21
-134.5236445979208
 31
0.0
  0
LINE
  5
2830
330
2B08
100
AcDbEntity
  8
0
 62
     0
100
AcDbLine
 10
-61.41491525602759
 20
-244.3999999999996
 30
0.0
 11
107.8999999999923
 21
-131.5236780625055
 31
0.0
  0
LINE
  5
2831
330
2B08
100
AcDbEntity
  8
0
 62
     0
100
AcDbLine
 10
-65.91487654992125
 20
-244.4000000000033
 30
0.0
 11
107.8999999999923
 21
-128.5237115270865
 31
0.0
  0
LINE
  5
2832
330
2B08
100
AcDbEntity
  8
0
 62
     0
100
AcDbLine
 10
-70.41483784380034
 20
-244.4000000000015
 30
0.0
 11
107.8999999999923
 21
-125.5237449916731
 31
0.0
  0
LINE
  5
2833
330
2B08
100
AcDbEntity
  8
0
 62
     0
100
AcDbLine
 10
-74.9147991376867
 20
-244.4000000000033
 30
0.0
 11
107.8999999999942
 21
-122.5237784562578
 31
0.0
  0
LINE
  5
2834
330
2B08
100
AcDbEntity
  8
0
 62
     0
100
AcDbLine
 10
-79.41476043157127
 20
-244.4000000000015
 30
0.0
 11
107.8999999999942
 21
-119.5238119208388
 31
0.0
  0
LINE
  5
2835
330
2B08
100
AcDbEntity
  8
0
 62
     0
100
AcDbLine
 10
-83.91472172546126
 20
-244.4000000000015
 30
0.0
 11
107.8999999999923
 21
-116.5238453854235
 31
0.0
  0
LINE
  5
2836
330
2B08
100
AcDbEntity
  8
0
 62
     0
100
AcDbLine
 10
-88.41468301934581
 20
-244.4000000000015
 30
0.0
 11
107.8999999999942
 21
-113.5238788500046
 31
0.0
  0
LINE
  5
2837
330
2B08
100
AcDbEntity
  8
0
 62
     0
100
AcDbLine
 10
-92.91464431322493
 20
-244.3999999999996
 30
0.0
 11
107.8999999999923
 21
-110.5239123145911
 31
0.0
  0
LINE
  5
2838
330
2B08
100
AcDbEntity
  8
0
 62
     0
100
AcDbLine
 10
-97.41460560711495
 20
-244.4000000000015
 30
0.0
 11
107.8999999999923
 21
-107.523945779174
 31
0.0
  0
LINE
  5
2839
330
2B08
100
AcDbEntity
  8
0
 62
     0
100
AcDbLine
 10
-101.9145669009995
 20
-244.3999999999996
 30
0.0
 11
107.8999999999923
 21
-104.5239792437587
 31
0.0
  0
LINE
  5
283A
330
2B08
100
AcDbEntity
  8
0
 62
     0
100
AcDbLine
 10
-106.414528194884
 20
-244.3999999999996
 30
0.0
 11
107.8999999999942
 21
-101.5240127083416
 31
0.0
  0
LINE
  5
283B
330
2B08
100
AcDbEntity
  8
0
 62
     0
100
AcDbLine
 10
-107.9000000000051
 20
-242.3903454725387
 30
0.0
 11
107.8999999999905
 21
-98.52404617292631
 31
0.0
  0
LINE
  5
283C
330
2B08
100
AcDbEntity
  8
0
 62
     0
100
AcDbLine
 10
-107.9000000000051
 20
-239.3903789371252
 30
0.0
 11
107.8999999999923
 21
-95.52407963751102
 31
0.0
  0
LINE
  5
283D
330
2B08
100
AcDbEntity
  8
0
 62
     0
100
AcDbLine
 10
-107.9000000000051
 20
-236.3904124017063
 30
0.0
 11
107.899999999996
 21
-92.52411310209209
 31
0.0
  0
LINE
  5
283E
330
2B08
100
AcDbEntity
  8
0
 62
     0
100
AcDbLine
 10
-107.9000000000069
 20
-233.390445866291
 30
0.0
 11
107.8999999999923
 21
-89.52414656667679
 31
0.0
  0
LINE
  5
283F
330
2B08
100
AcDbEntity
  8
0
 62
     0
100
AcDbLine
 10
-107.9000000000051
 20
-230.3904793308738
 30
0.0
 11
107.8999999999942
 21
-86.52418003126149
 31
0.0
  0
LINE
  5
2840
330
2B08
100
AcDbEntity
  8
0
 62
     0
100
AcDbLine
 10
-107.9000000000051
 20
-227.3905127954604
 30
0.0
 11
107.8999999999923
 21
-83.52421349584618
 31
0.0
  0
LINE
  5
2841
330
2B08
100
AcDbEntity
  8
0
 62
     0
100
AcDbLine
 10
-107.9000000000069
 20
-224.3905462600433
 30
0.0
 11
107.8999999999942
 21
-80.5242469604291
 31
0.0
  0
LINE
  5
2842
330
2B08
100
AcDbEntity
  8
0
 62
     0
100
AcDbLine
 10
-107.9000000000087
 20
-221.3905797246261
 30
0.0
 11
107.8999999999905
 21
-77.52428042501378
 31
0.0
  0
LINE
  5
2843
330
2B08
100
AcDbEntity
  8
0
 62
     0
100
AcDbLine
 10
-107.9000000000051
 20
-218.390613189209
 30
0.0
 11
107.8999999999942
 21
-74.52431388959483
 31
0.0
  0
LINE
  5
2844
330
2B08
100
AcDbEntity
  8
0
 62
     0
100
AcDbLine
 10
-107.9000000000051
 20
-215.3906466537919
 30
0.0
 11
107.8999999999923
 21
-71.52434735418137
 31
0.0
  0
LINE
  5
2845
330
2B08
100
AcDbEntity
  8
0
 62
     0
100
AcDbLine
 10
-107.9000000000069
 20
-212.3906801183784
 30
0.0
 11
107.8999999999942
 21
-68.52438081876425
 31
0.0
  0
LINE
  5
2846
330
2B08
100
AcDbEntity
  8
0
 62
     0
100
AcDbLine
 10
-107.9000000000051
 20
-209.3907135829613
 30
0.0
 11
107.8999999999942
 21
-65.52441428334714
 31
0.0
  0
LINE
  5
2847
330
2B08
100
AcDbEntity
  8
0
 62
     0
100
AcDbLine
 10
-107.9000000000051
 20
-206.3907470475442
 30
0.0
 11
107.8999999999942
 21
-62.52444774793001
 31
0.0
  0
LINE
  5
2848
330
2B08
100
AcDbEntity
  8
0
 62
     0
100
AcDbLine
 10
-107.9000000000069
 20
-203.3907805121288
 30
0.0
 11
107.8999999999942
 21
-59.52448121251471
 31
0.0
  0
LINE
  5
2849
330
2B08
100
AcDbEntity
  8
0
 62
     0
100
AcDbLine
 10
-107.9000000000087
 20
-200.3908139767136
 30
0.0
 11
107.8999999999923
 21
-56.52451467710125
 31
0.0
  0
LINE
  5
284A
330
2B08
100
AcDbEntity
  8
0
 62
     0
100
AcDbLine
 10
-107.9000000000051
 20
-197.3908474412965
 30
0.0
 11
107.8999999999942
 21
-53.52454814168232
 31
0.0
  0
LINE
  5
284B
330
2B08
100
AcDbEntity
  8
0
 62
     0
100
AcDbLine
 10
-107.9000000000069
 20
-194.3908809058812
 30
0.0
 11
107.7868721205158
 21
-50.60000000000218
 31
0.0
  0
LINE
  5
284C
330
2B08
100
AcDbEntity
  8
0
 62
     0
100
AcDbLine
 10
-107.9000000000051
 20
-191.3909143704641
 30
0.0
 11
103.2869108266295
 21
-50.60000000000218
 31
0.0
  0
LINE
  5
284D
330
2B08
100
AcDbEntity
  8
0
 62
     0
100
AcDbLine
 10
-107.9000000000051
 20
-188.3909478350488
 30
0.0
 11
98.78694953274315
 21
-50.600000000004
 31
0.0
  0
LINE
  5
284E
330
2B08
100
AcDbEntity
  8
0
 62
     0
100
AcDbLine
 10
-107.9000000000051
 20
-185.3909812996317
 30
0.0
 11
94.2869882388604
 21
-50.60000000000218
 31
0.0
  0
LINE
  5
284F
330
2B08
100
AcDbEntity
  8
0
 62
     0
100
AcDbLine
 10
-107.9000000000051
 20
-182.3910147642145
 30
0.0
 11
89.7870269449722
 21
-50.60000000000218
 31
0.0
  0
LINE
  5
2850
330
2B08
100
AcDbEntity
  8
0
 62
     0
100
AcDbLine
 10
-107.9000000000069
 20
-179.3910482287992
 30
0.0
 11
85.28706565108587
 21
-50.60000000000218
 31
0.0
  0
LINE
  5
2851
330
2B08
100
AcDbEntity
  8
0
 62
     0
100
AcDbLine
 10
-107.9000000000051
 20
-176.3910816933821
 30
0.0
 11
80.78710435720314
 21
-50.60000000000036
 31
0.0
  0
LINE
  5
2852
330
2B08
100
AcDbEntity
  8
0
 62
     0
100
AcDbLine
 10
-107.9000000000051
 20
-173.3911151579687
 30
0.0
 11
76.28714306331858
 21
-50.60000000000218
 31
0.0
  0
LINE
  5
2853
330
2B08
100
AcDbEntity
  8
0
 62
     0
100
AcDbLine
 10
-107.9000000000069
 20
-170.3911486225497
 30
0.0
 11
71.7871817694322
 21
-50.60000000000036
 31
0.0
  0
LINE
  5
2854
330
2B08
100
AcDbEntity
  8
0
 62
     0
100
AcDbLine
 10
-107.9000000000069
 20
-167.3911820871344
 30
0.0
 11
67.28722047554402
 21
-50.60000000000218
 31
0.0
  0
LINE
  5
2855
330
2B08
100
AcDbEntity
  8
0
 62
     0
100
AcDbLine
 10
-107.9000000000051
 20
-164.3912155517173
 30
0.0
 11
62.78725918166128
 21
-50.60000000000218
 31
0.0
  0
LINE
  5
2856
330
2B08
100
AcDbEntity
  8
0
 62
     0
100
AcDbLine
 10
-107.9000000000051
 20
-161.391249016302
 30
0.0
 11
58.2872978877749
 21
-50.60000000000218
 31
0.0
  0
LINE
  5
2857
330
2B08
100
AcDbEntity
  8
0
 62
     0
100
AcDbLine
 10
-107.9000000000069
 20
-158.3912824808867
 30
0.0
 11
53.78733659388854
 21
-50.60000000000218
 31
0.0
  0
LINE
  5
2858
330
2B08
100
AcDbEntity
  8
0
 62
     0
100
AcDbLine
 10
-107.9000000000051
 20
-155.3913159454678
 30
0.0
 11
49.28737530000216
 21
-50.60000000000218
 31
0.0
  0
LINE
  5
2859
330
2B08
100
AcDbEntity
  8
0
 62
     0
100
AcDbLine
 10
-107.9000000000069
 20
-152.3913494100543
 30
0.0
 11
44.7874140061176
 21
-50.60000000000218
 31
0.0
  0
LINE
  5
285A
330
2B08
100
AcDbEntity
  8
0
 62
     0
100
AcDbLine
 10
-107.9000000000069
 20
-149.3913828746372
 30
0.0
 11
40.28745271223124
 21
-50.600000000004
 31
0.0
  0
LINE
  5
285B
330
2B08
100
AcDbEntity
  8
0
 62
     0
100
AcDbLine
 10
-107.9000000000069
 20
-146.3914163392219
 30
0.0
 11
35.78749141834669
 21
-50.60000000000218
 31
0.0
  0
LINE
  5
285C
330
2B08
100
AcDbEntity
  8
0
 62
     0
100
AcDbLine
 10
-107.9000000000051
 20
-143.3914498038048
 30
0.0
 11
31.28753012446032
 21
-50.60000000000218
 31
0.0
  0
LINE
  5
285D
330
2B08
100
AcDbEntity
  8
0
 62
     0
100
AcDbLine
 10
-107.9000000000069
 20
-140.3914832683877
 30
0.0
 11
26.78756883057577
 21
-50.60000000000036
 31
0.0
  0
LINE
  5
285E
330
2B08
100
AcDbEntity
  8
0
 62
     0
100
AcDbLine
 10
-107.9000000000069
 20
-137.3915167329724
 30
0.0
 11
22.28760753668939
 21
-50.60000000000218
 31
0.0
  0
LINE
  5
285F
330
2B08
100
AcDbEntity
  8
0
 62
     0
100
AcDbLine
 10
-107.9000000000051
 20
-134.3915501975552
 30
0.0
 11
17.78764624280484
 21
-50.600000000004
 31
0.0
  0
LINE
  5
2860
330
2B08
100
AcDbEntity
  8
0
 62
     0
100
AcDbLine
 10
-107.9000000000069
 20
-131.3915836621399
 30
0.0
 11
13.28768494892029
 21
-50.60000000000036
 31
0.0
  0
LINE
  5
2861
330
2B08
100
AcDbEntity
  8
0
 62
     0
100
AcDbLine
 10
-107.9000000000069
 20
-128.3916171267228
 30
0.0
 11
8.787723655033913
 21
-50.60000000000036
 31
0.0
  0
LINE
  5
2862
330
2B08
100
AcDbEntity
  8
0
 62
     0
100
AcDbLine
 10
-107.9000000000069
 20
-125.3916505913075
 30
0.0
 11
4.287762361147541
 21
-50.60000000000218
 31
0.0
  0
LINE
  5
2863
330
2B08
100
AcDbEntity
  8
0
 62
     0
100
AcDbLine
 10
-107.9000000000051
 20
-122.3916840558922
 30
0.0
 11
-0.2121989327370102
 21
-50.600000000004
 31
0.0
  0
LINE
  5
2864
330
2B08
100
AcDbEntity
  8
0
 62
     0
100
AcDbLine
 10
-107.9000000000087
 20
-119.3917175204751
 30
0.0
 11
-4.712160226623382
 21
-50.60000000000218
 31
0.0
  0
LINE
  5
2865
330
2B08
100
AcDbEntity
  8
0
 62
     0
100
AcDbLine
 10
-107.9000000000069
 20
-116.391750985058
 30
0.0
 11
-9.212121520507935
 21
-50.60000000000036
 31
0.0
  0
LINE
  5
2866
330
2B08
100
AcDbEntity
  8
0
 62
     0
100
AcDbLine
 10
-107.9000000000069
 20
-113.3917844496445
 30
0.0
 11
-13.71208281439431
 21
-50.60000000000218
 31
0.0
  0
LINE
  5
2867
330
2B08
100
AcDbEntity
  8
0
 62
     0
100
AcDbLine
 10
-107.9000000000069
 20
-110.3918179142274
 30
0.0
 11
-18.21204410828068
 21
-50.600000000004
 31
0.0
  0
LINE
  5
2868
330
2B08
100
AcDbEntity
  8
0
 62
     0
100
AcDbLine
 10
-107.9000000000051
 20
-107.3918513788103
 30
0.0
 11
-22.71200540216523
 21
-50.60000000000218
 31
0.0
  0
LINE
  5
2869
330
2B08
100
AcDbEntity
  8
0
 62
     0
100
AcDbLine
 10
-107.9000000000069
 20
-104.3918848433932
 30
0.0
 11
-27.21196669604978
 21
-50.60000000000218
 31
0.0
  0
LINE
  5
286A
330
2B08
100
AcDbEntity
  8
0
 62
     0
100
AcDbLine
 10
-107.9000000000051
 20
-101.3919183079761
 30
0.0
 11
-31.71192798993799
 21
-50.60000000000036
 31
0.0
  0
LINE
  5
286B
330
2B08
100
AcDbEntity
  8
0
 62
     0
100
AcDbLine
 10
-107.9000000000087
 20
-98.39195177256259
 30
0.0
 11
-36.21188928382253
 21
-50.60000000000036
 31
0.0
  0
LINE
  5
286C
330
2B08
100
AcDbEntity
  8
0
 62
     0
100
AcDbLine
 10
-107.9000000000051
 20
-95.39198523714548
 30
0.0
 11
-40.71185057770708
 21
-50.60000000000218
 31
0.0
  0
LINE
  5
286D
330
2B08
100
AcDbEntity
  8
0
 62
     0
100
AcDbLine
 10
-107.9000000000069
 20
-92.39201870173019
 30
0.0
 11
-45.21181187159164
 21
-50.60000000000218
 31
0.0
  0
LINE
  5
286E
330
2B08
100
AcDbEntity
  8
0
 62
     0
100
AcDbLine
 10
-107.9000000000051
 20
-89.39205216631126
 30
0.0
 11
-49.71177316547983
 21
-50.60000000000218
 31
0.0
  0
LINE
  5
286F
330
2B08
100
AcDbEntity
  8
0
 62
     0
100
AcDbLine
 10
-107.9000000000087
 20
-86.39208563089779
 30
0.0
 11
-54.21173445936439
 21
-50.60000000000036
 31
0.0
  0
LINE
  5
2870
330
2B08
100
AcDbEntity
  8
0
 62
     0
100
AcDbLine
 10
-107.9000000000051
 20
-83.39211909548248
 30
0.0
 11
-58.71169575324893
 21
-50.60000000000218
 31
0.0
  0
LINE
  5
2871
330
2B08
100
AcDbEntity
  8
0
 62
     0
100
AcDbLine
 10
-107.9000000000051
 20
-80.39215256006354
 30
0.0
 11
-63.21165704713529
 21
-50.60000000000218
 31
0.0
  0
LINE
  5
2872
330
2B08
100
AcDbEntity
  8
0
 62
     0
100
AcDbLine
 10
-107.9000000000069
 20
-77.39218602464827
 30
0.0
 11
-67.7116183410235
 21
-50.60000000000218
 31
0.0
  0
LINE
  5
2873
330
2B08
100
AcDbEntity
  8
0
 62
     0
100
AcDbLine
 10
-107.9000000000051
 20
-74.39221948923114
 30
0.0
 11
-72.21157963490441
 21
-50.60000000000218
 31
0.0
  0
LINE
  5
2874
330
2B08
100
AcDbEntity
  8
0
 62
     0
100
AcDbLine
 10
-107.9000000000051
 20
-71.39225295381766
 30
0.0
 11
-76.71154092879078
 21
-50.60000000000218
 31
0.0
  0
LINE
  5
2875
330
2B08
100
AcDbEntity
  8
0
 62
     0
100
AcDbLine
 10
-107.9000000000051
 20
-68.39228641840055
 30
0.0
 11
-81.21150222267715
 21
-50.60000000000218
 31
0.0
  0
LINE
  5
2876
330
2B08
100
AcDbEntity
  8
0
 62
     0
100
AcDbLine
 10
-107.9000000000069
 20
-65.39231988298343
 30
0.0
 11
-85.71146351656535
 21
-50.60000000000218
 31
0.0
  0
LINE
  5
2877
330
2B08
100
AcDbEntity
  8
0
 62
     0
100
AcDbLine
 10
-107.9000000000051
 20
-62.39235334756813
 30
0.0
 11
-90.21142481044625
 21
-50.60000000000218
 31
0.0
  0
LINE
  5
2878
330
2B08
100
AcDbEntity
  8
0
 62
     0
100
AcDbLine
 10
-107.9000000000051
 20
-59.3923868121492
 30
0.0
 11
-94.71138610433444
 21
-50.60000000000218
 31
0.0
  0
LINE
  5
2879
330
2B08
100
AcDbEntity
  8
0
 62
     0
100
AcDbLine
 10
-107.9000000000069
 20
-56.39242027673571
 30
0.0
 11
-99.21134739822081
 21
-50.60000000000218
 31
0.0
  0
LINE
  5
287A
330
2B08
100
AcDbEntity
  8
0
 62
     0
100
AcDbLine
 10
-107.9000000000051
 20
-53.39245374131678
 30
0.0
 11
-103.7113086921035
 21
-50.60000000000036
 31
0.0
  0
ENDBLK
  5
287B
330
2B08
100
AcDbEntity
  8
0
100
AcDbBlockEnd
  0
BLOCK
  5
2B0B
330
2B0A
100
AcDbEntity
  8
0
100
AcDbBlockBegin
  2
*X69
 70
     1
 10
0.0
 20
0.0
 30
0.0
  3
*X69
  1

  0
LINE
  5
287E
330
2B0A
100
AcDbEntity
  8
0
 62
     0
100
AcDbLine
 10
-107.8999999999978
 20
-244.0342703382702
 30
0.0
 11
-107.3514041065518
 21
-244.3999999999978
 31
0.0
  0
LINE
  5
287F
330
2B0A
100
AcDbEntity
  8
0
 62
     0
100
AcDbLine
 10
-107.899999999996
 20
-241.0343038028532
 30
0.0
 11
-102.8514428126636
 21
-244.3999999999978
 31
0.0
  0
LINE
  5
2880
330
2B0A
100
AcDbEntity
  8
0
 62
     0
100
AcDbLine
 10
-107.899999999996
 20
-238.0343372674361
 30
0.0
 11
-98.3514815187773
 21
-244.3999999999978
 31
0.0
  0
LINE
  5
2881
330
2B0A
100
AcDbEntity
  8
0
 62
     0
100
AcDbLine
 10
-107.8999999999978
 20
-235.0343707320208
 30
0.0
 11
-93.8515202248927
 21
-244.3999999999996
 31
0.0
  0
LINE
  5
2882
330
2B0A
100
AcDbEntity
  8
0
 62
     0
100
AcDbLine
 10
-107.8999999999978
 20
-232.0344041966036
 30
0.0
 11
-89.35155893100818
 21
-244.3999999999978
 31
0.0
  0
LINE
  5
2883
330
2B0A
100
AcDbEntity
  8
0
 62
     0
100
AcDbLine
 10
-107.899999999996
 20
-229.0344376611884
 30
0.0
 11
-84.8515976371218
 21
-244.3999999999978
 31
0.0
  0
LINE
  5
2884
330
2B0A
100
AcDbEntity
  8
0
 62
     0
100
AcDbLine
 10
-107.8999999999978
 20
-226.0344711257712
 30
0.0
 11
-80.35163634323543
 21
-244.3999999999978
 31
0.0
  0
LINE
  5
2885
330
2B0A
100
AcDbEntity
  8
0
 62
     0
100
AcDbLine
 10
-107.899999999996
 20
-223.0345045903559
 30
0.0
 11
-75.85167504934905
 21
-244.3999999999996
 31
0.0
  0
LINE
  5
2886
330
2B0A
100
AcDbEntity
  8
0
 62
     0
100
AcDbLine
 10
-107.899999999996
 20
-220.0345380549388
 30
0.0
 11
-71.35171375546452
 21
-244.3999999999978
 31
0.0
  0
LINE
  5
2887
330
2B0A
100
AcDbEntity
  8
0
 62
     0
100
AcDbLine
 10
-107.899999999996
 20
-217.0345715195235
 30
0.0
 11
-66.85175246157996
 21
-244.3999999999996
 31
0.0
  0
LINE
  5
2888
330
2B0A
100
AcDbEntity
  8
0
 62
     0
100
AcDbLine
 10
-107.8999999999978
 20
-214.0346049841064
 30
0.0
 11
-62.35179116769359
 21
-244.3999999999978
 31
0.0
  0
LINE
  5
2889
330
2B0A
100
AcDbEntity
  8
0
 62
     0
100
AcDbLine
 10
-107.899999999996
 20
-211.0346384486911
 30
0.0
 11
-57.85182987381086
 21
-244.3999999999978
 31
0.0
  0
LINE
  5
288A
330
2B0A
100
AcDbEntity
  8
0
 62
     0
100
AcDbLine
 10
-107.899999999996
 20
-208.034671913274
 30
0.0
 11
-53.35186857992264
 21
-244.3999999999978
 31
0.0
  0
LINE
  5
288B
330
2B0A
100
AcDbEntity
  8
0
 62
     0
100
AcDbLine
 10
-107.8999999999978
 20
-205.0347053778587
 30
0.0
 11
-48.85190728603811
 21
-244.3999999999996
 31
0.0
  0
LINE
  5
288C
330
2B0A
100
AcDbEntity
  8
0
 62
     0
100
AcDbLine
 10
-107.8999999999978
 20
-202.0347388424416
 30
0.0
 11
-44.35194599214992
 21
-244.3999999999996
 31
0.0
  0
LINE
  5
288D
330
2B0A
100
AcDbEntity
  8
0
 62
     0
100
AcDbLine
 10
-107.899999999996
 20
-199.0347723070263
 30
0.0
 11
-39.85198469826719
 21
-244.3999999999978
 31
0.0
  0
LINE
  5
288E
330
2B0A
100
AcDbEntity
  8
0
 62
     0
100
AcDbLine
 10
-107.8999999999978
 20
-196.0348057716091
 30
0.0
 11
-35.352023404379
 21
-244.3999999999996
 31
0.0
  0
LINE
  5
288F
330
2B0A
100
AcDbEntity
  8
0
 62
     0
100
AcDbLine
 10
-107.8999999999978
 20
-193.034839236192
 30
0.0
 11
-30.85206211049627
 21
-244.3999999999978
 31
0.0
  0
LINE
  5
2890
330
2B0A
100
AcDbEntity
  8
0
 62
     0
100
AcDbLine
 10
-107.8999999999978
 20
-190.0348727007767
 30
0.0
 11
-26.35210081660807
 21
-244.3999999999996
 31
0.0
  0
LINE
  5
2891
330
2B0A
100
AcDbEntity
  8
0
 62
     0
100
AcDbLine
 10
-107.899999999996
 20
-187.0349061653614
 30
0.0
 11
-21.8521395227217
 21
-244.3999999999996
 31
0.0
  0
LINE
  5
2892
330
2B0A
100
AcDbEntity
  8
0
 62
     0
100
AcDbLine
 10
-107.8999999999978
 20
-184.0349396299462
 30
0.0
 11
-17.35217822883714
 21
-244.4000000000015
 31
0.0
  0
LINE
  5
2893
330
2B0A
100
AcDbEntity
  8
0
 62
     0
100
AcDbLine
 10
-107.899999999996
 20
-181.0349730945288
 30
0.0
 11
-12.85221693495259
 21
-244.3999999999978
 31
0.0
  0
LINE
  5
2894
330
2B0A
100
AcDbEntity
  8
0
 62
     0
100
AcDbLine
 10
-107.899999999996
 20
-178.0350065591119
 30
0.0
 11
-8.352255641066221
 21
-244.3999999999996
 31
0.0
  0
LINE
  5
2895
330
2B0A
100
AcDbEntity
  8
0
 62
     0
100
AcDbLine
 10
-107.8999999999978
 20
-175.0350400236948
 30
0.0
 11
-3.852294347179848
 21
-244.3999999999996
 31
0.0
  0
LINE
  5
2896
330
2B0A
100
AcDbEntity
  8
0
 62
     0
100
AcDbLine
 10
-107.8999999999978
 20
-172.0350734882813
 30
0.0
 11
0.6476669467028842
 21
-244.3999999999996
 31
0.0
  0
LINE
  5
2897
330
2B0A
100
AcDbEntity
  8
0
 62
     0
100
AcDbLine
 10
-107.899999999996
 20
-169.0351069528642
 30
0.0
 11
5.147628240591075
 21
-244.3999999999978
 31
0.0
  0
LINE
  5
2898
330
2B0A
100
AcDbEntity
  8
0
 62
     0
100
AcDbLine
 10
-107.899999999996
 20
-166.0351404174489
 30
0.0
 11
9.647589534475628
 21
-244.3999999999996
 31
0.0
  0
LINE
  5
2899
330
2B0A
100
AcDbEntity
  8
0
 62
     0
100
AcDbLine
 10
-107.8999999999978
 20
-163.0351738820318
 30
0.0
 11
14.147550828362
 21
-244.3999999999996
 31
0.0
  0
LINE
  5
289A
330
2B0A
100
AcDbEntity
  8
0
 62
     0
100
AcDbLine
 10
-107.899999999996
 20
-160.0352073466165
 30
0.0
 11
18.64751212224655
 21
-244.3999999999996
 31
0.0
  0
LINE
  5
289B
330
2B0A
100
AcDbEntity
  8
0
 62
     0
100
AcDbLine
 10
-107.8999999999978
 20
-157.0352408111976
 30
0.0
 11
23.14747341613657
 21
-244.4000000000015
 31
0.0
  0
LINE
  5
289C
330
2B0A
100
AcDbEntity
  8
0
 62
     0
100
AcDbLine
 10
-107.8999999999978
 20
-154.0352742757823
 30
0.0
 11
27.64743471001748
 21
-244.3999999999996
 31
0.0
  0
LINE
  5
289D
330
2B0A
100
AcDbEntity
  8
0
 62
     0
100
AcDbLine
 10
-107.8999999999978
 20
-151.035307740367
 30
0.0
 11
32.14739600390569
 21
-244.3999999999996
 31
0.0
  0
LINE
  5
289E
330
2B0A
100
AcDbEntity
  8
0
 62
     0
100
AcDbLine
 10
-107.899999999996
 20
-148.0353412049498
 30
0.0
 11
36.64735729779023
 21
-244.3999999999978
 31
0.0
  0
LINE
  5
289F
330
2B0A
100
AcDbEntity
  8
0
 62
     0
100
AcDbLine
 10
-107.8999999999978
 20
-145.0353746695346
 30
0.0
 11
41.14731859167475
 21
-244.3999999999996
 31
0.0
  0
LINE
  5
28A0
330
2B0A
100
AcDbEntity
  8
0
 62
     0
100
AcDbLine
 10
-107.8999999999978
 20
-142.0354081341174
 30
0.0
 11
45.64727988555932
 21
-244.3999999999996
 31
0.0
  0
LINE
  5
28A1
330
2B0A
100
AcDbEntity
  8
0
 62
     0
100
AcDbLine
 10
-107.8999999999978
 20
-139.0354415987021
 30
0.0
 11
50.14724117944388
 21
-244.3999999999978
 31
0.0
  0
LINE
  5
28A2
330
2B0A
100
AcDbEntity
  8
0
 62
     0
100
AcDbLine
 10
-107.899999999996
 20
-136.035475063285
 30
0.0
 11
54.64720247333389
 21
-244.3999999999996
 31
0.0
  0
LINE
  5
28A3
330
2B0A
100
AcDbEntity
  8
0
 62
     0
100
AcDbLine
 10
-107.8999999999978
 20
-133.0355085278697
 30
0.0
 11
59.14716376721663
 21
-244.3999999999996
 31
0.0
  0
LINE
  5
28A4
330
2B0A
100
AcDbEntity
  8
0
 62
     0
100
AcDbLine
 10
-107.8999999999978
 20
-130.0355419924526
 30
0.0
 11
63.647125061103
 21
-244.3999999999996
 31
0.0
  0
LINE
  5
28A5
330
2B0A
100
AcDbEntity
  8
0
 62
     0
100
AcDbLine
 10
-107.899999999996
 20
-127.0355754570373
 30
0.0
 11
68.14708635498755
 21
-244.3999999999996
 31
0.0
  0
LINE
  5
28A6
330
2B0A
100
AcDbEntity
  8
0
 62
     0
100
AcDbLine
 10
-107.8999999999978
 20
-124.0356089216202
 30
0.0
 11
72.6470476488757
 21
-244.4000000000015
 31
0.0
  0
LINE
  5
28A7
330
2B0A
100
AcDbEntity
  8
0
 62
     0
100
AcDbLine
 10
-107.8999999999978
 20
-121.0356423862049
 30
0.0
 11
77.14700894275846
 21
-244.3999999999996
 31
0.0
  0
LINE
  5
28A8
330
2B0A
100
AcDbEntity
  8
0
 62
     0
100
AcDbLine
 10
-107.8999999999978
 20
-118.0356758507878
 30
0.0
 11
81.64697023664484
 21
-244.3999999999996
 31
0.0
  0
LINE
  5
28A9
330
2B0A
100
AcDbEntity
  8
0
 62
     0
100
AcDbLine
 10
-107.899999999996
 20
-115.0357093153707
 30
0.0
 11
86.146931530533
 21
-244.3999999999996
 31
0.0
  0
LINE
  5
28AA
330
2B0A
100
AcDbEntity
  8
0
 62
     0
100
AcDbLine
 10
-107.8999999999978
 20
-112.0357427799554
 30
0.0
 11
90.6468928244176
 21
-244.4000000000015
 31
0.0
  0
LINE
  5
28AB
330
2B0A
100
AcDbEntity
  8
0
 62
     0
100
AcDbLine
 10
-107.899999999996
 20
-109.0357762445401
 30
0.0
 11
95.14685411830212
 21
-244.3999999999996
 31
0.0
  0
LINE
  5
28AC
330
2B0A
100
AcDbEntity
  8
0
 62
     0
100
AcDbLine
 10
-107.899999999996
 20
-106.0358097091248
 30
0.0
 11
99.64681541218851
 21
-244.3999999999996
 31
0.0
  0
LINE
  5
28AD
330
2B0A
100
AcDbEntity
  8
0
 62
     0
100
AcDbLine
 10
-107.8999999999978
 20
-103.0358431737057
 30
0.0
 11
104.1467767060749
 21
-244.3999999999996
 31
0.0
  0
LINE
  5
28AE
330
2B0A
100
AcDbEntity
  8
0
 62
     0
100
AcDbLine
 10
-107.8999999999978
 20
-100.0358766382905
 30
0.0
 11
107.9000000000014
 21
-243.9021759379029
 31
0.0
  0
LINE
  5
28AF
330
2B0A
100
AcDbEntity
  8
0
 62
     0
100
AcDbLine
 10
-107.899999999996
 20
-97.03591010287347
 30
0.0
 11
107.9000000000014
 21
-240.9022094024876
 31
0.0
  0
LINE
  5
28B0
330
2B0A
100
AcDbEntity
  8
0
 62
     0
100
AcDbLine
 10
-107.8999999999978
 20
-94.03594356745998
 30
0.0
 11
107.9000000000014
 21
-237.9022428670723
 31
0.0
  0
LINE
  5
28B1
330
2B0A
100
AcDbEntity
  8
0
 62
     0
100
AcDbLine
 10
-107.8999999999978
 20
-91.03597703204286
 30
0.0
 11
107.8999999999996
 21
-234.9022763316552
 31
0.0
  0
LINE
  5
28B2
330
2B0A
100
AcDbEntity
  8
0
 62
     0
100
AcDbLine
 10
-107.8999999999978
 20
-88.03601049662754
 30
0.0
 11
107.9000000000014
 21
-231.90230979624
 31
0.0
  0
LINE
  5
28B3
330
2B0A
100
AcDbEntity
  8
0
 62
     0
100
AcDbLine
 10
-107.899999999996
 20
-85.03604396121046
 30
0.0
 11
107.9000000000014
 21
-228.9023432608228
 31
0.0
  0
LINE
  5
28B4
330
2B0A
100
AcDbEntity
  8
0
 62
     0
100
AcDbLine
 10
-107.8999999999978
 20
-82.03607742579331
 30
0.0
 11
107.9000000000014
 21
-225.9023767254075
 31
0.0
  0
LINE
  5
28B5
330
2B0A
100
AcDbEntity
  8
0
 62
     0
100
AcDbLine
 10
-107.8999999999978
 20
-79.03611089037622
 30
0.0
 11
107.9000000000014
 21
-222.9024101899904
 31
0.0
  0
LINE
  5
28B6
330
2B0A
100
AcDbEntity
  8
0
 62
     0
100
AcDbLine
 10
-107.899999999996
 20
-76.03614435496094
 30
0.0
 11
107.9000000000033
 21
-219.9024436545733
 31
0.0
  0
LINE
  5
28B7
330
2B0A
100
AcDbEntity
  8
0
 62
     0
100
AcDbLine
 10
-107.8999999999978
 20
-73.03617781954563
 30
0.0
 11
107.8999999999996
 21
-216.902477119158
 31
0.0
  0
LINE
  5
28B8
330
2B0A
100
AcDbEntity
  8
0
 62
     0
100
AcDbLine
 10
-107.8999999999978
 20
-70.0362112841285
 30
0.0
 11
107.8999999999996
 21
-213.9025105837409
 31
0.0
  0
LINE
  5
28B9
330
2B0A
100
AcDbEntity
  8
0
 62
     0
100
AcDbLine
 10
-107.8999999999978
 20
-67.03624474871322
 30
0.0
 11
107.8999999999996
 21
-210.9025440483256
 31
0.0
  0
LINE
  5
28BA
330
2B0A
100
AcDbEntity
  8
0
 62
     0
100
AcDbLine
 10
-107.899999999996
 20
-64.0362782132961
 30
0.0
 11
107.9000000000014
 21
-207.9025775129085
 31
0.0
  0
LINE
  5
28BB
330
2B0A
100
AcDbEntity
  8
0
 62
     0
100
AcDbLine
 10
-107.8999999999978
 20
-61.03631167788079
 30
0.0
 11
107.8999999999996
 21
-204.9026109774932
 31
0.0
  0
LINE
  5
28BC
330
2B0A
100
AcDbEntity
  8
0
 62
     0
100
AcDbLine
 10
-107.899999999996
 20
-58.03634514246368
 30
0.0
 11
107.9000000000014
 21
-201.902644442076
 31
0.0
  0
LINE
  5
28BD
330
2B0A
100
AcDbEntity
  8
0
 62
     0
100
AcDbLine
 10
-107.8999999999978
 20
-55.03637860704838
 30
0.0
 11
107.9000000000033
 21
-198.9026779066607
 31
0.0
  0
LINE
  5
28BE
330
2B0A
100
AcDbEntity
  8
0
 62
     0
100
AcDbLine
 10
-107.8999999999978
 20
-52.03641207163126
 30
0.0
 11
107.9000000000014
 21
-195.9027113712454
 31
0.0
  0
LINE
  5
28BF
330
2B0A
100
AcDbEntity
  8
0
 62
     0
100
AcDbLine
 10
-105.5546623154459
 20
-50.60000000000036
 30
0.0
 11
107.9000000000014
 21
-192.9027448358301
 31
0.0
  0
LINE
  5
28C0
330
2B0A
100
AcDbEntity
  8
0
 62
     0
100
AcDbLine
 10
-101.0547010215578
 20
-50.60000000000036
 30
0.0
 11
107.9000000000014
 21
-189.9027783004112
 31
0.0
  0
LINE
  5
28C1
330
2B0A
100
AcDbEntity
  8
0
 62
     0
100
AcDbLine
 10
-96.55473972767504
 20
-50.59999999999853
 30
0.0
 11
107.9000000000014
 21
-186.9028117649959
 31
0.0
  0
LINE
  5
28C2
330
2B0A
100
AcDbEntity
  8
0
 62
     0
100
AcDbLine
 10
-92.05477843378686
 20
-50.60000000000036
 30
0.0
 11
107.8999999999996
 21
-183.9028452295788
 31
0.0
  0
LINE
  5
28C3
330
2B0A
100
AcDbEntity
  8
0
 62
     0
100
AcDbLine
 10
-87.55481713990231
 20
-50.60000000000036
 30
0.0
 11
107.9000000000014
 21
-180.9028786941634
 31
0.0
  0
LINE
  5
28C4
330
2B0A
100
AcDbEntity
  8
0
 62
     0
100
AcDbLine
 10
-83.05485584601592
 20
-50.60000000000036
 30
0.0
 11
107.9000000000014
 21
-177.9029121587481
 31
0.0
  0
LINE
  5
28C5
330
2B0A
100
AcDbEntity
  8
0
 62
     0
100
AcDbLine
 10
-78.55489455213319
 20
-50.59999999999671
 30
0.0
 11
107.9000000000014
 21
-174.9029456233311
 31
0.0
  0
LINE
  5
28C6
330
2B0A
100
AcDbEntity
  8
0
 62
     0
100
AcDbLine
 10
-74.0549332582432
 20
-50.60000000000036
 30
0.0
 11
107.9000000000014
 21
-171.9029790879158
 31
0.0
  0
LINE
  5
28C7
330
2B0A
100
AcDbEntity
  8
0
 62
     0
100
AcDbLine
 10
-69.55497196435863
 20
-50.59999999999853
 30
0.0
 11
107.9000000000033
 21
-168.9030125524987
 31
0.0
  0
LINE
  5
28C8
330
2B0A
100
AcDbEntity
  8
0
 62
     0
100
AcDbLine
 10
-65.05501067047408
 20
-50.60000000000036
 30
0.0
 11
107.9000000000014
 21
-165.9030460170834
 31
0.0
  0
LINE
  5
28C9
330
2B0A
100
AcDbEntity
  8
0
 62
     0
100
AcDbLine
 10
-60.55504937659134
 20
-50.59999999999853
 30
0.0
 11
107.8999999999996
 21
-162.9030794816663
 31
0.0
  0
LINE
  5
28CA
330
2B0A
100
AcDbEntity
  8
0
 62
     0
100
AcDbLine
 10
-56.05508808270315
 20
-50.60000000000036
 30
0.0
 11
107.8999999999996
 21
-159.903112946251
 31
0.0
  0
LINE
  5
28CB
330
2B0A
100
AcDbEntity
  8
0
 62
     0
100
AcDbLine
 10
-51.55512678881677
 20
-50.59999999999853
 30
0.0
 11
107.9000000000014
 21
-156.9031464108338
 31
0.0
  0
LINE
  5
28CC
330
2B0A
100
AcDbEntity
  8
0
 62
     0
100
AcDbLine
 10
-47.05516549493403
 20
-50.59999999999853
 30
0.0
 11
107.8999999999996
 21
-153.9031798754184
 31
0.0
  0
LINE
  5
28CD
330
2B0A
100
AcDbEntity
  8
0
 62
     0
100
AcDbLine
 10
-42.55520420104402
 20
-50.60000000000036
 30
0.0
 11
107.9000000000014
 21
-150.9032133400014
 31
0.0
  0
LINE
  5
28CE
330
2B0A
100
AcDbEntity
  8
0
 62
     0
100
AcDbLine
 10
-38.0552429071613
 20
-50.60000000000036
 30
0.0
 11
107.9000000000014
 21
-147.9032468045861
 31
0.0
  0
LINE
  5
28CF
330
2B0A
100
AcDbEntity
  8
0
 62
     0
100
AcDbLine
 10
-33.55528161327493
 20
-50.60000000000036
 30
0.0
 11
107.9000000000014
 21
-144.903280269169
 31
0.0
  0
LINE
  5
28D0
330
2B0A
100
AcDbEntity
  8
0
 62
     0
100
AcDbLine
 10
-29.0553203193922
 20
-50.59999999999853
 30
0.0
 11
107.9000000000014
 21
-141.9033137337537
 31
0.0
  0
LINE
  5
28D1
330
2B0A
100
AcDbEntity
  8
0
 62
     0
100
AcDbLine
 10
-24.55535902550219
 20
-50.60000000000036
 30
0.0
 11
107.9000000000014
 21
-138.9033471983366
 31
0.0
  0
LINE
  5
28D2
330
2B0A
100
AcDbEntity
  8
0
 62
     0
100
AcDbLine
 10
-20.05539773161945
 20
-50.59999999999853
 30
0.0
 11
107.9000000000033
 21
-135.9033806629195
 31
0.0
  0
LINE
  5
28D3
330
2B0A
100
AcDbEntity
  8
0
 62
     0
100
AcDbLine
 10
-15.55543643773308
 20
-50.60000000000036
 30
0.0
 11
107.9000000000014
 21
-132.903414127506
 31
0.0
  0
LINE
  5
28D4
330
2B0A
100
AcDbEntity
  8
0
 62
     0
100
AcDbLine
 10
-11.0554751438467
 20
-50.60000000000036
 30
0.0
 11
107.9000000000014
 21
-129.9034475920871
 31
0.0
  0
LINE
  5
28D5
330
2B0A
100
AcDbEntity
  8
0
 62
     0
100
AcDbLine
 10
-6.555513849962151
 20
-50.59999999999853
 30
0.0
 11
107.9000000000014
 21
-126.9034810566718
 31
0.0
  0
LINE
  5
28D6
330
2B0A
100
AcDbEntity
  8
0
 62
     0
100
AcDbLine
 10
-2.0555525560776
 20
-50.59999999999853
 30
0.0
 11
107.9000000000014
 21
-123.9035145212547
 31
0.0
  0
LINE
  5
28D7
330
2B0A
100
AcDbEntity
  8
0
 62
     0
100
AcDbLine
 10
2.444408737805131
 20
-50.59999999999853
 30
0.0
 11
107.8999999999996
 21
-120.9035479858394
 31
0.0
  0
LINE
  5
28D8
330
2B0A
100
AcDbEntity
  8
0
 62
     0
100
AcDbLine
 10
6.94437003169696
 20
-50.60000000000036
 30
0.0
 11
107.9000000000033
 21
-117.9035814504241
 31
0.0
  0
LINE
  5
28D9
330
2B0A
100
AcDbEntity
  8
0
 62
     0
100
AcDbLine
 10
11.44433132557969
 20
-50.60000000000036
 30
0.0
 11
107.9000000000014
 21
-114.9036149150088
 31
0.0
  0
LINE
  5
28DA
330
2B0A
100
AcDbEntity
  8
0
 62
     0
100
AcDbLine
 10
15.94429261946425
 20
-50.59999999999853
 30
0.0
 11
107.9000000000014
 21
-111.9036483795917
 31
0.0
  0
LINE
  5
28DB
330
2B0A
100
AcDbEntity
  8
0
 62
     0
100
AcDbLine
 10
20.4442539133488
 20
-50.59999999999853
 30
0.0
 11
107.9000000000014
 21
-108.9036818441764
 31
0.0
  0
LINE
  5
28DC
330
2B0A
100
AcDbEntity
  8
0
 62
     0
100
AcDbLine
 10
24.94421520723881
 20
-50.60000000000036
 30
0.0
 11
107.9000000000033
 21
-105.9037153087593
 31
0.0
  0
LINE
  5
28DD
330
2B0A
100
AcDbEntity
  8
0
 62
     0
100
AcDbLine
 10
29.44417650112155
 20
-50.60000000000036
 30
0.0
 11
107.8999999999996
 21
-102.9037487733421
 31
0.0
  0
LINE
  5
28DE
330
2B0A
100
AcDbEntity
  8
0
 62
     0
100
AcDbLine
 10
33.94413779500792
 20
-50.60000000000036
 30
0.0
 11
107.9000000000014
 21
-99.90378223792689
 31
0.0
  0
LINE
  5
28DF
330
2B0A
100
AcDbEntity
  8
0
 62
     0
100
AcDbLine
 10
38.44409908889611
 20
-50.59999999999853
 30
0.0
 11
107.9000000000014
 21
-96.90381570250973
 31
0.0
  0
LINE
  5
28E0
330
2B0A
100
AcDbEntity
  8
0
 62
     0
100
AcDbLine
 10
42.94406038278064
 20
-50.60000000000036
 30
0.0
 11
107.9000000000014
 21
-93.90384916709443
 31
0.0
  0
LINE
  5
28E1
330
2B0A
100
AcDbEntity
  8
0
 62
     0
100
AcDbLine
 10
47.44402167666339
 20
-50.59999999999853
 30
0.0
 11
107.8999999999996
 21
-90.9038826316773
 31
0.0
  0
LINE
  5
28E2
330
2B0A
100
AcDbEntity
  8
0
 62
     0
100
AcDbLine
 10
51.94398297054977
 20
-50.60000000000036
 30
0.0
 11
107.9000000000014
 21
-87.90391609626203
 31
0.0
  0
LINE
  5
28E3
330
2B0A
100
AcDbEntity
  8
0
 62
     0
100
AcDbLine
 10
56.44394426443795
 20
-50.60000000000036
 30
0.0
 11
107.9000000000014
 21
-84.90394956084491
 31
0.0
  0
LINE
  5
28E4
330
2B0A
100
AcDbEntity
  8
0
 62
     0
100
AcDbLine
 10
60.94390555831886
 20
-50.59999999999853
 30
0.0
 11
107.9000000000014
 21
-81.90398302542963
 31
0.0
  0
LINE
  5
28E5
330
2B0A
100
AcDbEntity
  8
0
 62
     0
100
AcDbLine
 10
65.44386685220707
 20
-50.59999999999853
 30
0.0
 11
107.9000000000033
 21
-78.90401649001251
 31
0.0
  0
LINE
  5
28E6
330
2B0A
100
AcDbEntity
  8
0
 62
     0
100
AcDbLine
 10
69.94382814609162
 20
-50.59999999999853
 30
0.0
 11
107.9000000000014
 21
-75.90404995459721
 31
0.0
  0
LINE
  5
28E7
330
2B0A
100
AcDbEntity
  8
0
 62
     0
100
AcDbLine
 10
74.44378943997981
 20
-50.60000000000036
 30
0.0
 11
107.9000000000014
 21
-72.90408341918009
 31
0.0
  0
LINE
  5
28E8
330
2B0A
100
AcDbEntity
  8
0
 62
     0
100
AcDbLine
 10
78.94375073386072
 20
-50.60000000000036
 30
0.0
 11
107.8999999999996
 21
-69.9041168837648
 31
0.0
  0
LINE
  5
28E9
330
2B0A
100
AcDbEntity
  8
0
 62
     0
100
AcDbLine
 10
83.44371202775073
 20
-50.59999999999853
 30
0.0
 11
107.9000000000033
 21
-66.90415034834768
 31
0.0
  0
LINE
  5
28EA
330
2B0A
100
AcDbEntity
  8
0
 62
     0
100
AcDbLine
 10
87.94367332163167
 20
-50.59999999999853
 30
0.0
 11
107.9000000000014
 21
-63.90418381293239
 31
0.0
  0
LINE
  5
28EB
330
2B0A
100
AcDbEntity
  8
0
 62
     0
100
AcDbLine
 10
92.44363461552167
 20
-50.60000000000036
 30
0.0
 11
107.9000000000014
 21
-60.90421727751528
 31
0.0
  0
LINE
  5
28EC
330
2B0A
100
AcDbEntity
  8
0
 62
     0
100
AcDbLine
 10
96.94359590940443
 20
-50.60000000000036
 30
0.0
 11
107.9000000000014
 21
-57.90425074209998
 31
0.0
  0
LINE
  5
28ED
330
2B0A
100
AcDbEntity
  8
0
 62
     0
100
AcDbLine
 10
101.4435572032926
 20
-50.60000000000036
 30
0.0
 11
107.9000000000033
 21
-54.90428420668467
 31
0.0
  0
LINE
  5
28EE
330
2B0A
100
AcDbEntity
  8
0
 62
     0
100
AcDbLine
 10
105.9435184971771
 20
-50.59999999999853
 30
0.0
 11
107.9000000000014
 21
-51.90431767126757
 31
0.0
  0
ENDBLK
  5
28EF
330
2B0A
100
AcDbEntity
  8
0
100
AcDbBlockEnd
  0
ENDSEC
  0
SECTION
  2
ENTITIES
  0
TEXT
  5
953
330
2A36
100
AcDbEntity
  8
OUTLINE
  6
Continuous
 62
     3
100
AcDbText
 10
-418.231467
 20
13.715189
 30
0.0
 40
64.0
  1
 
 41
0.9
100
AcDbText
  0
TEXT
  5
954
330
2A36
100
AcDbEntity
  8
OUTLINE
  6
Continuous
 62
     3
100
AcDbText
 10
-418.231467
 20
13.715189
 30
0.0
 40
64.0
  1
 
 41
0.9
100
AcDbText
  0
TEXT
  5
955
330
2A36
100
AcDbEntity
  8
OUTLINE
  6
Continuous
 62
     3
100
AcDbText
 10
1341.41903
 20
-706.0588199999997
 30
0.0
 40
64.0
  1
 
 41
0.9
100
AcDbText
  0
TEXT
  5
956
330
2A36
100
AcDbEntity
  8
OUTLINE
  6
Continuous
 62
     3
100
AcDbText
 10
1341.41903
 20
-706.0588199999997
 30
0.0
 40
64.0
  1
 
 41
0.9
100
AcDbText
  0
TEXT
  5
957
330
2A36
100
AcDbEntity
  8
OUTLINE
  6
Continuous
 62
     3
100
AcDbText
 10
1341.41903
 20
-706.0588199999997
 30
0.0
 40
64.0
  1
 
 41
0.9
100
AcDbText
  0
TEXT
  5
958
330
2A36
100
AcDbEntity
  8
OUTLINE
  6
Continuous
 62
     3
100
AcDbText
 10
1341.41903
 20
-706.0588199999997
 30
0.0
 40
64.0
  1
 
 41
0.9
100
AcDbText
  0
TEXT
  5
2942
330
2A36
100
AcDbEntity
  8
ETC
100
AcDbText
 10
256.2468308916468
 20
432.02286157577
 30
0.0
 40
64.0
  1
システム部材
 41
0.9
100
AcDbText
  0
TEXT
  5
2943
330
2A36
100
AcDbEntity
  8
ETC
100
AcDbText
 10
262.4548288916449
 20
532.9061875757696
 30
0.0
 40
64.0
  1
W-20SAM_6
 41
0.9
100
AcDbText
  0
TEXT
  5
2944
330
2A36
100
AcDbEntity
  8
ETC
100
AcDbText
 10
256.2468308916468
 20
332.0228615757701
 30
0.0
 40
64.0
  1
W-20SAM
 41
0.9
100
AcDbText
  0
CIRCLE
  5
2945
330
2A36
100
AcDbEntity
  8
ARRANGE
100
AcDbCircle
 10
0.0
 20
-0.0000000986738087
 30
0.0
 40
40.0
  0
LINE
  5
2946
330
2A36
100
AcDbEntity
  8
BASIS
100
AcDbLine
 10
0.0
 20
25.0
 30
0.0
 11
0.0
 21
-285.0
 31
0.0
  0
LINE
  5
2947
330
2A36
100
AcDbEntity
  8
NOTE
100
AcDbLine
 10
140.0
 20
12.5
 30
0.0
 11
140.0
 21
-12.5
 31
0.0
  0
LINE
  5
2948
330
2A36
100
AcDbEntity
  8
DETAIL
100
AcDbLine
 10
123.5
 20
-0.6000000000003638
 30
0.0
 11
123.5
 21
-260.0
 31
0.0
  0
LINE
  5
2949
330
2A36
100
AcDbEntity
  8
NOTE
100
AcDbLine
 10
-140.0
 20
12.5
 30
0.0
 11
-140.0
 21
-12.5
 31
0.0
  0
LINE
  5
294A
330
2A36
100
AcDbEntity
  8
DETAIL
100
AcDbLine
 10
-123.5
 20
-0.6000000000003638
 30
0.0
 11
-123.5
 21
-260.0
 31
0.0
  0
LINE
  5
294B
330
2A36
100
AcDbEntity
  8
DETAIL
100
AcDbLine
 10
157.5
 20
0.0
 30
0.0
 11
-157.5
 21
0.0
 31
0.0
  0
LINE
  5
294C
330
2A36
100
AcDbEntity
  8
DETAIL
100
AcDbLine
 10
157.5
 20
-0.6000000000003638
 30
0.0
 11
-157.5
 21
-0.6000000000003638
 31
0.0
  0
LINE
  5
294D
330
2A36
100
AcDbEntity
  8
DETAIL
100
AcDbLine
 10
-157.5
 20
0.0
 30
0.0
 11
-157.5
 21
-0.6000000000003638
 31
0.0
  0
LINE
  5
294E
330
2A36
100
AcDbEntity
  8
DETAIL
100
AcDbLine
 10
157.5
 20
0.0
 30
0.0
 11
157.5
 21
-0.6000000000003638
 31
0.0
  0
LINE
  5
294F
330
2A36
100
AcDbEntity
  8
DETAIL
100
AcDbLine
 10
-107.8999999999978
 20
-244.3999999999996
 30
0.0
 11
107.9000000000014
 21
-244.3999999999996
 31
0.0
  0
LINE
  5
2950
330
2A36
100
AcDbEntity
  8
DETAIL
100
AcDbLine
 10
107.9000000000014
 20
-50.60000000000036
 30
0.0
 11
-107.8999999999978
 21
-50.60000000000036
 31
0.0
  0
LINE
  5
2951
330
2A36
100
AcDbEntity
  8
DETAIL
100
AcDbLine
 10
123.5
 20
-35.0
 30
0.0
 11
-123.5
 21
-35.0
 31
0.0
  0
LINE
  5
2952
330
2A36
100
AcDbEntity
  8
DETAIL
100
AcDbLine
 10
-123.5
 20
-260.0
 30
0.0
 11
123.5
 21
-260.0
 31
0.0
  0
LINE
  5
2953
330
2A36
100
AcDbEntity
  8
DETAIL
100
AcDbLine
 10
-107.8999999999978
 20
-50.60000000000036
 30
0.0
 11
-107.8999999999978
 21
-244.3999999999996
 31
0.0
  0
LINE
  5
2954
330
2A36
100
AcDbEntity
  8
DETAIL
100
AcDbLine
 10
107.9000000000014
 20
-50.60000000000036
 30
0.0
 11
107.9000000000014
 21
-244.3999999999996
 31
0.0
  0
POINT
  5
2955
330
2A36
100
AcDbEntity
  8
ARRANGE
100
AcDbPoint
 10
0.0
 20
0.0
 30
0.0
 39
50.0
  0
INSERT
  5
2956
330
2A36
100
AcDbEntity
  8
0
100
AcDbBlockReference
  2
*U66
 10
0.0
 20
0.0
 30
0.0
1001
ACAD
1000
DSTYLE
1002
{
1070
    41
1040
12.0
1070
    42
1040
20.0
1070
    43
1040
200.0
1070
    44
1040
20.0
1070
    73
1070
     0
1070
    74
1070
     0
1070
    77
1070
     1
1070
    78
1070
     8
1070
   140
1040
64.0
1070
   147
1040
50.0
1070
   172
1070
     1
1070
   174
1070
     1
1070
   275
1070
     0
1070
   284
1070
     0
1070
   285
1070
     0
1070
   286
1070
     0
1070
   341
1005
0
1070
   342
1005
0
1002
}
  0
INSERT
  5
2957
330
2A36
100
AcDbEntity
  8
0
100
AcDbBlockReference
  2
*U67
 10
0.0
 20
0.0
 30
0.0
  0
LINE
  5
2958
330
2A36
100
AcDbEntity
  8
NOTE
100
AcDbLine
 39
50.0
 10
127.5
 20
0.0
 30
0.0
 11
152.5
 21
0.0
 31
0.0
  0
LINE
  5
2959
330
2A36
100
AcDbEntity
  8
NOTE
100
AcDbLine
 39
50.0
 10
-152.5
 20
0.0
 30
0.0
 11
-127.5
 21
0.0
 31
0.0
  0
LINE
  5
295A
330
2A36
100
AcDbEntity
  8
OUTLINE
100
AcDbLine
 39
50.0
 10
-157.5
 20
0.0
 30
0.0
 11
157.5
 21
0.0
 31
0.0
  0
LINE
  5
295B
330
2A36
100
AcDbEntity
  8
OUTLINE
100
AcDbLine
 10
157.5
 20
-0.6000000000003638
 30
0.0
 11
-157.5
 21
-0.6000000000003638
 31
0.0
  0
LINE
  5
295C
330
2A36
100
AcDbEntity
  8
OUTLINE
100
AcDbLine
 10
-157.5
 20
0.0
 30
0.0
 11
-157.5
 21
-0.6000000000003638
 31
0.0
  0
LINE
  5
295D
330
2A36
100
AcDbEntity
  8
OUTLINE
100
AcDbLine
 10
-123.5
 20
-260.0
 30
0.0
 11
123.5
 21
-260.0
 31
0.0
  0
LINE
  5
295E
330
2A36
100
AcDbEntity
  8
OUTLINE
100
AcDbLine
 10
157.5
 20
0.0
 30
0.0
 11
157.5
 21
-0.6000000000003638
 31
0.0
  0
LINE
  5
295F
330
2A36
100
AcDbEntity
  8
OUTLINE
100
AcDbLine
 10
123.5
 20
-35.0
 30
0.0
 11
-123.5
 21
-35.0
 31
0.0
  0
LINE
  5
2960
330
2A36
100
AcDbEntity
  8
OUTLINE
100
AcDbLine
 39
50.0
 10
-123.5
 20
-0.6000000000003638
 30
0.0
 11
-123.5
 21
-260.0
 31
0.0
  0
LINE
  5
2961
330
2A36
100
AcDbEntity
  8
OUTLINE
100
AcDbLine
 39
50.0
 10
123.5
 20
-0.6000000000003638
 30
0.0
 11
123.5
 21
-260.0
 31
0.0
  0
LINE
  5
2962
330
2A36
100
AcDbEntity
  8
DETAIL
100
AcDbLine
 10
-107.8999999999978
 20
-50.60000000000036
 30
0.0
 11
-107.8999999999978
 21
-244.4000000000006
 31
0.0
  0
LINE
  5
2963
330
2A36
100
AcDbEntity
  8
DETAIL
100
AcDbLine
 10
107.9000000000014
 20
-50.60000000000036
 30
0.0
 11
107.9000000000014
 21
-244.4000000000006
 31
0.0
  0
LINE
  5
2964
330
2A36
100
AcDbEntity
  8
DETAIL
100
AcDbLine
 10
107.9000000000014
 20
-50.60000000000036
 30
0.0
 11
-107.8999999999978
 21
-50.60000000000036
 31
0.0
  0
LINE
  5
2965
330
2A36
100
AcDbEntity
  8
DETAIL
100
AcDbLine
 10
-107.8999999999978
 20
-244.4000000000006
 30
0.0
 11
107.9000000000014
 21
-244.4000000000006
 31
0.0
  0
LINE
  5
2966
330
2A36
100
AcDbEntity
  8
DETAIL
100
AcDbLine
 10
-107.8999999999978
 20
-50.60000000000036
 30
0.0
 11
-107.8999999999978
 21
-244.4000000000006
 31
0.0
  0
LINE
  5
2967
330
2A36
100
AcDbEntity
  8
DETAIL
100
AcDbLine
 10
107.9000000000014
 20
-50.60000000000036
 30
0.0
 11
107.9000000000014
 21
-244.4000000000006
 31
0.0
  0
LINE
  5
2968
330
2A36
100
AcDbEntity
  8
DETAIL
100
AcDbLine
 10
107.9000000000014
 20
-50.60000000000036
 30
0.0
 11
-107.8999999999978
 21
-50.60000000000036
 31
0.0
  0
LINE
  5
2969
330
2A36
100
AcDbEntity
  8
DETAIL
100
AcDbLine
 10
-107.8999999999978
 20
-244.4000000000006
 30
0.0
 11
107.9000000000014
 21
-244.4000000000006
 31
0.0
  0
INSERT
  5
296A
330
2A36
100
AcDbEntity
  8
DETAIL
100
AcDbBlockReference
  2
*X68
 10
0.0
 20
0.0
 30
0.0
1001
ACADANNOTATIVE
1000
AnnotativeData
1002
{
1070
     1
1070
     0
1002
}
1001
ACAD
1000
HATCH
1002
{
1070
    19
1000
LINE
1040
19.969
1040
0.5880014249968896
1002
}
  0
INSERT
  5
296B
330
2A36
100
AcDbEntity
  8
DETAIL
100
AcDbBlockReference
  2
*X69
 10
0.0
 20
0.0
 30
0.0
1001
ACADANNOTATIVE
1000
AnnotativeData
1002
{
1070
     1
1070
     0
1002
}
1001
ACAD
1000
HATCH
1002
{
1070
    19
1000
LINE
1040
19.969
1040
5.695183882182695
1002
}
  0
LINE
  5
296C
330
2A36
100
AcDbEntity
  8
DETAIL
100
AcDbLine
 10
-107.8999999999978
 20
-50.60000000000036
 30
0.0
 11
-107.8999999999978
 21
-244.4000000000006
 31
0.0
  0
LINE
  5
296D
330
2A36
100
AcDbEntity
  8
DETAIL
100
AcDbLine
 10
107.9000000000014
 20
-50.60000000000036
 30
0.0
 11
107.9000000000014
 21
-244.4000000000006
 31
0.0
  0
LINE
  5
296E
330
2A36
100
AcDbEntity
  8
DETAIL
100
AcDbLine
 10
107.9000000000014
 20
-50.60000000000036
 30
0.0
 11
-107.8999999999978
 21
-50.60000000000036
 31
0.0
  0
LINE
  5
296F
330
2A36
100
AcDbEntity
  8
DETAIL
100
AcDbLine
 10
-107.8999999999978
 20
-244.4000000000006
 30
0.0
 11
107.9000000000014
 21
-244.4000000000006
 31
0.0
  0
LINE
  5
2970
330
2A36
100
AcDbEntity
  8
SIZE
100
AcDbLine
 10
157.5
 20
20.0
 30
0.0
 11
157.5
 21
298.8865929365165
 31
0.0
  0
LINE
  5
2971
330
2A36
100
AcDbEntity
  8
SIZE
100
AcDbLine
 10
-157.5
 20
20.0
 30
0.0
 11
-157.5
 21
298.8865929365165
 31
0.0
  0
LINE
  5
2972
330
2A36
100
AcDbEntity
  8
SIZE
100
AcDbLine
 10
145.5
 20
278.8865929365165
 30
0.0
 11
-145.5
 21
278.8865929365165
 31
0.0
  0
INSERT
  5
2973
330
2A36
100
AcDbEntity
  8
SIZE
100
AcDbBlockReference
  2
_DOTBLANK
 10
157.5
 20
278.8865929365165
 30
0.0
 41
12.0
 42
12.0
 43
12.0
  0
INSERT
  5
2974
330
2A36
100
AcDbEntity
  8
SIZE
100
AcDbBlockReference
  2
_DOTBLANK
 10
-157.5
 20
278.8865929365165
 30
0.0
 41
12.0
 42
12.0
 43
12.0
 50
180.0
  0
LINE
  5
2975
330
2A36
100
AcDbEntity
  8
SIZE
100
AcDbLine
 10
140.0
 20
32.46448280219375
 30
0.0
 11
140.0
 21
180.332091009617
 31
0.0
  0
LINE
  5
2976
330
2A36
100
AcDbEntity
  8
SIZE
100
AcDbLine
 10
-140.0
 20
32.46448280219375
 30
0.0
 11
-140.0
 21
180.332091009617
 31
0.0
  0
LINE
  5
2977
330
2A36
100
AcDbEntity
  8
SIZE
100
AcDbLine
 10
128.0
 20
160.3320910096171
 30
0.0
 11
-128.0
 21
160.3320910096171
 31
0.0
  0
INSERT
  5
2978
330
2A36
100
AcDbEntity
  8
SIZE
100
AcDbBlockReference
  2
_DOTBLANK
 10
140.0
 20
160.3320910096171
 30
0.0
 41
12.0
 42
12.0
 43
12.0
  0
INSERT
  5
2979
330
2A36
100
AcDbEntity
  8
SIZE
100
AcDbBlockReference
  2
_DOTBLANK
 10
-140.0
 20
160.3320910096171
 30
0.0
 41
12.0
 42
12.0
 43
12.0
 50
180.0
  0
LINE
  5
297A
330
2A36
100
AcDbEntity
  8
SIZE
100
AcDbLine
 10
-143.5
 20
-260.0
 30
0.0
 11
-345.3170819897096
 21
-260.0
 31
0.0
  0
LINE
  5
297B
330
2A36
100
AcDbEntity
  8
SIZE
100
AcDbLine
 10
-177.5
 20
0.0
 30
0.0
 11
-345.3170819897096
 21
0.0000000000000568
 31
0.0
  0
LINE
  5
297C
330
2A36
100
AcDbEntity
  8
SIZE
100
AcDbLine
 10
-325.3170819897095
 20
-247.9999999999999
 30
0.0
 11
-325.3170819897095
 21
-11.99999999999994
 31
0.0
  0
INSERT
  5
297D
330
2A36
100
AcDbEntity
  8
SIZE
100
AcDbBlockReference
  2
_DOTBLANK
 10
-325.3170819897095
 20
-260.0
 30
0.0
 41
12.0
 42
12.0
 43
12.0
 50
270.0
  0
INSERT
  5
297E
330
2A36
100
AcDbEntity
  8
SIZE
100
AcDbBlockReference
  2
_DOTBLANK
 10
-325.3170819897095
 20
0.0000000000000568
 30
0.0
 41
12.0
 42
12.0
 43
12.0
 50
90.0
  0
LINE
  5
297F
330
2A36
100
AcDbEntity
  8
SIZE
100
AcDbLine
 10
123.5
 20
-280.0
 30
0.0
 11
123.5
 21
-411.6593666390443
 31
0.0
  0
LINE
  5
2980
330
2A36
100
AcDbEntity
  8
SIZE
100
AcDbLine
 10
-123.5
 20
-280.0
 30
0.0
 11
-123.5
 21
-411.6593666390443
 31
0.0
  0
LINE
  5
2981
330
2A36
100
AcDbEntity
  8
SIZE
100
AcDbLine
 10
111.5
 20
-391.6593666390445
 30
0.0
 11
-111.5
 21
-391.6593666390445
 31
0.0
  0
INSERT
  5
2982
330
2A36
100
AcDbEntity
  8
SIZE
100
AcDbBlockReference
  2
_DOTBLANK
 10
123.5
 20
-391.6593666390445
 30
0.0
 41
12.0
 42
12.0
 43
12.0
  0
INSERT
  5
2983
330
2A36
100
AcDbEntity
  8
SIZE
100
AcDbBlockReference
  2
_DOTBLANK
 10
-123.5
 20
-391.6593666390445
 30
0.0
 41
12.0
 42
12.0
 43
12.0
 50
180.0
  0
TEXT
  5
2984
330
2A36
100
AcDbEntity
  8
SIZE
100
AcDbText
 10
-74.05714285714293
 20
-381.6593666390445
 30
0.0
 40
64.0
  1
247
 41
0.9
100
AcDbText
  0
TEXT
  5
2985
330
2A36
100
AcDbEntity
  8
SIZE
100
AcDbText
 10
-335.3170819897095
 20
-203.4571212696582
 30
0.0
 40
64.0
  1
260
 50
90.0
 41
0.9
100
AcDbText
  0
TEXT
  5
2986
330
2A36
100
AcDbEntity
  8
SIZE
100
AcDbText
 10
-74.61302049113601
 20
170.3320910096171
 30
0.0
 40
64.0
  1
280
 41
0.9
100
AcDbText
  0
TEXT
  5
2987
330
2A36
100
AcDbEntity
  8
SIZE
100
AcDbText
 10
-68.57142857142844
 20
288.8865929365166
 30
0.0
 40
64.0
  1
315
 41
0.9
100
AcDbText
  0
ENDSEC
  0
SECTION
  2
OBJECTS
  0
DICTIONARY
  5
29CE
330
0
100
AcDbDictionary
281
     1
  3
ACAD_2007HEADERVARS_RT
350
2C1E
  3
ACAD_COLOR
350
2A2C
  3
ACAD_GROUP
350
29CF
  3
ACAD_LAYOUT
350
2A2B
  3
ACAD_MATERIAL
350
29D2
  3
ACAD_MLEADERSTYLE
350
2A2F
  3
ACAD_MLINESTYLE
350
2A28
  3
ACAD_PLOTSETTINGS
350
2A2A
  3
ACAD_PLOTSTYLENAME
350
29D0
  3
ACAD_SCALELIST
350
29FC
  3
ACAD_TABLESTYLE
350
2A2D
  3
ACAD_VISUALSTYLE
350
29EB
  3
ACDB_RECOMPOSE_DATA
350
2C1C
  3
AcDbVariableDictionary
350
2C13
  3
AcmDictionary
350
2BBF
  3
AMG
350
2B0C
  3
AMGSNAPSETTINGS
350
2BE7
  3
DWGPROPS
350
2C1D
  3
MAPISURF_MODULE
350
2B8C
  0
DICTIONARY
  5
2BEE
330
2A1E
100
AcDbDictionary
280
     1
281
     1
  3
ADSK_XREC_LAYER_RECONCILED
360
2BEF
  0
DICTIONARY
  5
2BF0
330
2A4D
100
AcDbDictionary
280
     1
281
     1
  3
ADSK_XREC_LAYER_RECONCILED
360
2BF1
  0
DICTIONARY
  5
2BF2
330
2A4E
100
AcDbDictionary
280
     1
281
     1
  3
ADSK_XREC_LAYER_RECONCILED
360
2BF3
  0
DICTIONARY
  5
2BF4
330
2A4F
100
AcDbDictionary
280
     1
281
     1
  3
ADSK_XREC_LAYER_RECONCILED
360
2BF5
  0
DICTIONARY
  5
2BF6
330
2A50
100
AcDbDictionary
280
     1
281
     1
  3
ADSK_XREC_LAYER_RECONCILED
360
2BF7
  0
DICTIONARY
  5
2BF8
330
2A51
100
AcDbDictionary
280
     1
281
     1
  3
ADSK_XREC_LAYER_RECONCILED
360
2BF9
  0
DICTIONARY
  5
2BFA
330
2A53
100
AcDbDictionary
280
     1
281
     1
  3
ADSK_XREC_LAYER_RECONCILED
360
2BFB
  0
DICTIONARY
  5
2BFC
330
2A54
100
AcDbDictionary
280
     1
281
     1
  3
ADSK_XREC_LAYER_RECONCILED
360
2BFD
  0
DICTIONARY
  5
2BFE
330
2A55
100
AcDbDictionary
280
     1
281
     1
  3
ADSK_XREC_LAYER_RECONCILED
360
2BFF
  0
DICTIONARY
  5
2C00
330
2A56
100
AcDbDictionary
280
     1
281
     1
  3
ADSK_XREC_LAYER_RECONCILED
360
2C01
  0
DICTIONARY
  5
2C02
330
2A57
100
AcDbDictionary
280
     1
281
     1
  3
ADSK_XREC_LAYER_RECONCILED
360
2C03
  0
DICTIONARY
  5
2C04
330
2A36
100
AcDbDictionary
280
     1
281
     1
  3
ACAD_INDEX
360
2C05
  0
DICTIONARY
  5
2C1E
102
{ACAD_REACTORS
330
29CE
102
}
330
29CE
100
AcDbDictionary
281
     1
  3
DIMARCSYM
350
2C1F
  3
DIMLTEX1
350
2C21
  3
DIMLTEX2
350
2C22
  3
DIMLTYPE
350
2C20
  0
DICTIONARY
  5
2A2C
102
{ACAD_REACTORS
330
29CE
102
}
330
29CE
100
AcDbDictionary
281
     1
  0
DICTIONARY
  5
29CF
102
{ACAD_REACTORS
330
29CE
102
}
330
29CE
100
AcDbDictionary
281
     1
  0
DICTIONARY
  5
2A2B
102
{ACAD_REACTORS
330
29CE
102
}
330
29CE
100
AcDbDictionary
281
     1
  3
Model
350
2A39
  3
レイアウト1
350
2A35
  0
DICTIONARY
  5
29D2
102
{ACAD_REACTORS
330
29CE
102
}
330
29CE
100
AcDbDictionary
281
     1
  3
ByBlock
350
29DB
  3
ByLayer
350
29D3
  3
Global
350
29E3
  0
DICTIONARY
  5
2A2F
102
{ACAD_REACTORS
330
29CE
102
}
330
29CE
100
AcDbDictionary
281
     1
  3
Standard
350
2A30
  0
DICTIONARY
  5
2A28
102
{ACAD_REACTORS
330
29CE
102
}
330
29CE
100
AcDbDictionary
281
     1
  3
Standard
350
2A29
  0
DICTIONARY
  5
2A2A
102
{ACAD_REACTORS
330
29CE
102
}
330
29CE
100
AcDbDictionary
281
     1
  0
ACDBDICTIONARYWDFLT
  5
29D0
102
{ACAD_REACTORS
330
29CE
102
}
330
29CE
100
AcDbDictionary
281
     1
  3
Normal
350
29D1
100
AcDbDictionaryWithDefault
340
29D1
  0
DICTIONARY
  5
29FC
102
{ACAD_REACTORS
330
29CE
102
}
330
29CE
100
AcDbDictionary
281
     1
  3
A0
350
29FD
  3
A1
350
29FE
  3
A2
350
29FF
  3
A3
350
2A00
  3
A4
350
2A01
  3
A5
350
2A02
  3
A6
350
2A03
  3
A7
350
2A04
  3
A8
350
2A05
  3
A9
350
2A06
  3
B0
350
2A07
  3
B1
350
2A08
  3
B2
350
2A09
  3
B3
350
2A0A
  3
B4
350
2A0B
  3
B5
350
2A0C
  3
B6
350
2A0D
  3
B7
350
2A0E
  3
B8
350
2A0F
  3
B9
350
2A10
  3
C0
350
2A11
  3
C1
350
2A12
  3
C2
350
2A13
  3
C3
350
2A14
  3
C4
350
2A15
  3
C5
350
2A16
  3
C6
350
2A17
  3
C7
350
2A18
  3
C8
350
2A19
  3
C9
350
2A1A
  3
D0
350
2A1B
  3
D1
350
2A1C
  3
D2
350
2A1D
  0
DICTIONARY
  5
2A2D
102
{ACAD_REACTORS
330
29CE
102
}
330
29CE
100
AcDbDictionary
281
     1
  3
Standard
350
2A2E
  0
DICTIONARY
  5
29EB
102
{ACAD_REACTORS
330
29CE
102
}
330
29CE
100
AcDbDictionary
281
     1
  3
2dWireframe
350
29F1
  3
3D Hidden
350
29F3
  3
3dWireframe
350
29F2
  3
Basic
350
29F0
  3
Brighten
350
29F7
  3
ColorChange
350
29FB
  3
Conceptual
350
29F4
  3
Dim
350
29F6
  3
Facepattern
350
29FA
  3
Flat
350
29EC
  3
FlatWithEdges
350
29ED
  3
Gouraud
350
29EE
  3
GouraudWithEdges
350
29EF
  3
Linepattern
350
29F9
  3
Realistic
350
29F5
  3
Thicken
350
29F8
  0
XRECORD
  5
2C1C
102
{ACAD_REACTORS
330
29CE
102
}
330
29CE
100
AcDbXrecord
280
     1
 90
        1
330
2A2E
  0
DICTIONARY
  5
2C13
102
{ACAD_REACTORS
330
29CE
102
}
330
29CE
100
AcDbDictionary
281
     1
  3
CANNOSCALE
350
2C16
  3
CMLEADERSTYLE
350
2C15
  3
CTABLESTYLE
350
2C14
  3
DIMASSOC
350
2C19
  3
INDEXCTL
350
2C18
  3
SORTENTS
350
2C17
  0
DICTIONARY
  5
2BBF
102
{ACAD_REACTORS
330
29CE
102
}
330
29CE
100
AcDbDictionary
281
     1
  3
AcmStdDictionary
350
2BCD
  0
DICTIONARY
  5
2B0C
102
{ACAD_REACTORS
330
29CE
102
}
330
29CE
100
AcDbDictionary
281
     1
  3
AcMgSettings
350
2B0D
  0
DICTIONARY
  5
2BE7
102
{ACAD_REACTORS
330
29CE
102
}
330
29CE
100
AcDbDictionary
281
     1
  3
DIMENSION
350
2BEC
  3
FEA
350
2BEB
  3
HATCH (1)
350
2BE8
  3
HATCH (2)
350
2BE9
  3
SIMPLE WELD
350
2BED
  3
SYMBOLS
350
2BEA
  0
XRECORD
  5
2C1D
102
{ACAD_REACTORS
330
29CE
102
}
330
29CE
100
AcDbXrecord
280
     1
  1
DWGPROPS COOKIE
  2

  3

  4

  6

  7

  8
A090053
  9

300
AmdtFileType=84
301
=
302
=
303
=
304
=
305
=
306
=
307
=
308
=
309
=
 40
1.041698310185185
 41
2452321.396199653
 42
2456210.45508066
  1

 90
        1
  0
XRECORD
  5
2BEF
102
{ACAD_REACTORS
330
2BEE
102
}
330
2BEE
100
AcDbXrecord
280
     1
290
     1
  0
XRECORD
  5
2BF1
102
{ACAD_REACTORS
330
2BF0
102
}
330
2BF0
100
AcDbXrecord
280
     1
290
     1
  0
XRECORD
  5
2BF3
102
{ACAD_REACTORS
330
2BF2
102
}
330
2BF2
100
AcDbXrecord
280
     1
290
     1
  0
XRECORD
  5
2BF5
102
{ACAD_REACTORS
330
2BF4
102
}
330
2BF4
100
AcDbXrecord
280
     1
290
     1
  0
XRECORD
  5
2BF7
102
{ACAD_REACTORS
330
2BF6
102
}
330
2BF6
100
AcDbXrecord
280
     1
290
     1
  0
XRECORD
  5
2BF9
102
{ACAD_REACTORS
330
2BF8
102
}
330
2BF8
100
AcDbXrecord
280
     1
290
     1
  0
XRECORD
  5
2BFB
102
{ACAD_REACTORS
330
2BFA
102
}
330
2BFA
100
AcDbXrecord
280
     1
290
     1
  0
XRECORD
  5
2BFD
102
{ACAD_REACTORS
330
2BFC
102
}
330
2BFC
100
AcDbXrecord
280
     1
290
     1
  0
XRECORD
  5
2BFF
102
{ACAD_REACTORS
330
2BFE
102
}
330
2BFE
100
AcDbXrecord
280
     1
290
     1
  0
XRECORD
  5
2C01
102
{ACAD_REACTORS
330
2C00
102
}
330
2C00
100
AcDbXrecord
280
     1
290
     1
  0
XRECORD
  5
2C03
102
{ACAD_REACTORS
330
2C02
102
}
330
2C02
100
AcDbXrecord
280
     1
290
     1
  0
DICTIONARY
  5
2C05
102
{ACAD_REACTORS
330
2C04
102
}
330
2C04
100
AcDbDictionary
281
     1
  3
*A1
350
2C06
  0
XRECORD
  5
2C1F
102
{ACAD_REACTORS
330
2C1E
102
}
330
2C1E
100
AcDbXrecord
280
     1
 70
     1
  0
XRECORD
  5
2C21
102
{ACAD_REACTORS
330
2C1E
102
}
330
2C1E
100
AcDbXrecord
280
     1
340
2A24
  0
XRECORD
  5
2C22
102
{ACAD_REACTORS
330
2C1E
102
}
330
2C1E
100
AcDbXrecord
280
     1
340
2A24
  0
XRECORD
  5
2C20
102
{ACAD_REACTORS
330
2C1E
102
}
330
2C1E
100
AcDbXrecord
280
     1
340
2A24
  0
LAYOUT
  5
2A39
102
{ACAD_XDICTIONARY
360
2C29
102
}
102
{ACAD_REACTORS
330
2A2B
102
}
330
2A2B
100
AcDbPlotSettings
  1

  2
自動 EPSON LP-9600S (W2450527 上)
  4

  6

 40
0.0
 41
0.0
 42
0.0
 43
0.0
 44
0.0
 45
0.0
 46
0.0
 47
0.0
 48
0.0
 49
0.0
140
0.0
141
0.0
142
1.0
143
1.0
 70
  1712
 72
     0
 73
     0
 74
     0
  7

 75
     0
147
1.0
148
0.0
149
0.0
100
AcDbLayout
  1
Model
 70
     1
 71
     0
 10
0.0
 20
0.0
 11
12.0
 21
9.0
 12
0.0
 22
0.0
 32
0.0
 14
0.0
 24
0.0
 34
0.0
 15
0.0
 25
0.0
 35
0.0
146
0.0
 13
0.0
 23
0.0
 33
0.0
 16
1.0
 26
0.0
 36
0.0
 17
0.0
 27
1.0
 37
0.0
 76
     0
330
2A36
331
2A3A
  0
LAYOUT
  5
2A35
102
{ACAD_XDICTIONARY
360
2C27
102
}
102
{ACAD_REACTORS
330
2A2B
102
}
330
2A2B
100
AcDbPlotSettings
  1

  2
自動 EPSON LP-9600S (W2450527 上)
  4

  6

 40
0.0
 41
0.0
 42
0.0
 43
0.0
 44
0.0
 45
0.0
 46
0.0
 47
0.0
 48
0.0
 49
0.0
140
0.0
141
0.0
142
1.0
143
1.0
 70
   688
 72
     0
 73
     0
 74
     5
  7

 75
    16
147
1.0
148
0.0
149
0.0
100
AcDbLayout
  1
レイアウト1
 70
     1
 71
     1
 10
0.0
 20
0.0
 11
12.0
 21
9.0
 12
0.0
 22
0.0
 32
0.0
 14
1.000000000000000E+20
 24
1.000000000000000E+20
 34
1.000000000000000E+20
 15
-1.000000000000000E+20
 25
-1.000000000000000E+20
 35
-1.000000000000000E+20
146
0.0
 13
0.0
 23
0.0
 33
0.0
 16
1.0
 26
0.0
 36
0.0
 17
0.0
 27
1.0
 37
0.0
 76
     0
330
2A32
  0
MATERIAL
  5
29DB
102
{ACAD_XDICTIONARY
360
29DC
102
}
102
{ACAD_REACTORS
330
29D2
102
}
330
29D2
100
AcDbMaterial
  1
ByBlock
 72
     0
 43
0.0208333333333333
 43
0.0
 43
0.0
 43
0.0
 43
0.0
 43
0.0208333333333333
 43
0.0
 43
0.0
 43
0.0
 43
0.0
 43
1.0
 43
0.0
 43
0.0
 43
0.0
 43
0.0
 43
1.0
 77
     0
 47
0.0208333333333333
 47
0.0
 47
0.0
 47
0.0
 47
0.0
 47
0.0208333333333333
 47
0.0
 47
0.0
 47
0.0
 47
0.0
 47
1.0
 47
0.0
 47
0.0
 47
0.0
 47
0.0
 47
1.0
171
     0
 49
0.0208333333333333
 49
0.0
 49
0.0
 49
0.0
 49
0.0
 49
0.0208333333333333
 49
0.0
 49
0.0
 49
0.0
 49
0.0
 49
1.0
 49
0.0
 49
0.0
 49
0.0
 49
0.0
 49
1.0
175
     0
142
0.0208333333333333
142
0.0
142
0.0
142
0.0
142
0.0
142
0.0208333333333333
142
0.0
142
0.0
142
0.0
142
0.0
142
1.0
142
0.0
142
0.0
142
0.0
142
0.0
142
1.0
179
     0
144
0.0208333333333333
144
0.0
144
0.0
144
0.0
144
0.0
144
0.0208333333333333
144
0.0
144
0.0
144
0.0
144
0.0
144
1.0
144
0.0
144
0.0
144
0.0
144
0.0
144
1.0
147
0.0208333333333333
147
0.0
147
0.0
147
0.0
147
0.0
147
0.0208333333333333
147
0.0
147
0.0
147
0.0
147
0.0
147
1.0
147
0.0
147
0.0
147
0.0
147
0.0
147
1.0
  0
MATERIAL
  5
29D3
102
{ACAD_XDICTIONARY
360
29D4
102
}
102
{ACAD_REACTORS
330
29D2
102
}
330
29D2
100
AcDbMaterial
  1
ByLayer
 72
     0
 43
0.0208333333333333
 43
0.0
 43
0.0
 43
0.0
 43
0.0
 43
0.0208333333333333
 43
0.0
 43
0.0
 43
0.0
 43
0.0
 43
1.0
 43
0.0
 43
0.0
 43
0.0
 43
0.0
 43
1.0
 77
     0
 47
0.0208333333333333
 47
0.0
 47
0.0
 47
0.0
 47
0.0
 47
0.0208333333333333
 47
0.0
 47
0.0
 47
0.0
 47
0.0
 47
1.0
 47
0.0
 47
0.0
 47
0.0
 47
0.0
 47
1.0
171
     0
 49
0.0208333333333333
 49
0.0
 49
0.0
 49
0.0
 49
0.0
 49
0.0208333333333333
 49
0.0
 49
0.0
 49
0.0
 49
0.0
 49
1.0
 49
0.0
 49
0.0
 49
0.0
 49
0.0
 49
1.0
175
     0
142
0.0208333333333333
142
0.0
142
0.0
142
0.0
142
0.0
142
0.0208333333333333
142
0.0
142
0.0
142
0.0
142
0.0
142
1.0
142
0.0
142
0.0
142
0.0
142
0.0
142
1.0
179
     0
144
0.0208333333333333
144
0.0
144
0.0
144
0.0
144
0.0
144
0.0208333333333333
144
0.0
144
0.0
144
0.0
144
0.0
144
1.0
144
0.0
144
0.0
144
0.0
144
0.0
144
1.0
147
0.0208333333333333
147
0.0
147
0.0
147
0.0
147
0.0
147
0.0208333333333333
147
0.0
147
0.0
147
0.0
147
0.0
147
1.0
147
0.0
147
0.0
147
0.0
147
0.0
147
1.0
  0
MATERIAL
  5
29E3
102
{ACAD_XDICTIONARY
360
29E4
102
}
102
{ACAD_REACTORS
330
29D2
102
}
330
29D2
100
AcDbMaterial
  1
Global
 72
     0
 43
0.0208333333333333
 43
0.0
 43
0.0
 43
0.0
 43
0.0
 43
0.0208333333333333
 43
0.0
 43
0.0
 43
0.0
 43
0.0
 43
1.0
 43
0.0
 43
0.0
 43
0.0
 43
0.0
 43
1.0
 77
     0
 47
0.0208333333333333
 47
0.0
 47
0.0
 47
0.0
 47
0.0
 47
0.0208333333333333
 47
0.0
 47
0.0
 47
0.0
 47
0.0
 47
1.0
 47
0.0
 47
0.0
 47
0.0
 47
0.0
 47
1.0
171
     0
 49
0.0208333333333333
 49
0.0
 49
0.0
 49
0.0
 49
0.0
 49
0.0208333333333333
 49
0.0
 49
0.0
 49
0.0
 49
0.0
 49
1.0
 49
0.0
 49
0.0
 49
0.0
 49
0.0
 49
1.0
175
     0
142
0.0208333333333333
142
0.0
142
0.0
142
0.0
142
0.0
142
0.0208333333333333
142
0.0
142
0.0
142
0.0
142
0.0
142
1.0
142
0.0
142
0.0
142
0.0
142
0.0
142
1.0
179
     0
144
0.0208333333333333
144
0.0
144
0.0
144
0.0
144
0.0
144
0.0208333333333333
144
0.0
144
0.0
144
0.0
144
0.0
144
1.0
144
0.0
144
0.0
144
0.0
144
0.0
144
1.0
147
0.0208333333333333
147
0.0
147
0.0
147
0.0
147
0.0
147
0.0208333333333333
147
0.0
147
0.0
147
0.0
147
0.0
147
1.0
147
0.0
147
0.0
147
0.0
147
0.0
147
1.0
  0
MLEADERSTYLE
  5
2A30
102
{ACAD_REACTORS
330
2A2F
102
}
330
2A2F
100
AcDbMLeaderStyle
170
     2
171
     1
172
     0
 90
        2
 40
0.0
 41
0.0
173
     1
 91
-1056964608
340
2A24
 92
       -2
290
     1
 42
0.09
291
     1
 43
0.36
  3
Standard
 44
0.18
300

342
2A1F
174
     1
178
     6
175
     1
176
     0
 93
-1056964608
 45
0.18
292
     0
297
     0
 46
0.18
 94
-1056964608
 47
1.0
 49
1.0
140
1.0
293
     1
141
0.0
294
     1
177
     0
142
1.0
295
     0
296
     0
143
0.125
1001
ACAD_MLEADERVER
1070
     2
  0
MLINESTYLE
  5
2A29
102
{ACAD_REACTORS
330
2A28
102
}
330
2A28
100
AcDbMlineStyle
  2
STANDARD
 70
     0
  3

 62
   256
 51
90.0
 52
90.0
 71
     2
 49
0.5
 62
   256
  6
BYLAYER
 49
-0.5
 62
   256
  6
BYLAYER
  0
ACDBPLACEHOLDER
  5
29D1
102
{ACAD_REACTORS
330
29D0
102
}
330
29D0
  0
SCALE
  5
29FD
102
{ACAD_REACTORS
330
29FC
102
}
330
29FC
100
AcDbScale
 70
     0
300
1:1
140
1.0
141
1.0
290
     1
  0
SCALE
  5
29FE
102
{ACAD_REACTORS
330
29FC
102
}
330
29FC
100
AcDbScale
 70
     0
300
1:2
140
1.0
141
2.0
290
     0
  0
SCALE
  5
29FF
102
{ACAD_REACTORS
330
29FC
102
}
330
29FC
100
AcDbScale
 70
     0
300
1:4
140
1.0
141
4.0
290
     0
  0
SCALE
  5
2A00
102
{ACAD_REACTORS
330
29FC
102
}
330
29FC
100
AcDbScale
 70
     0
300
1:5
140
1.0
141
5.0
290
     0
  0
SCALE
  5
2A01
102
{ACAD_REACTORS
330
29FC
102
}
330
29FC
100
AcDbScale
 70
     0
300
1:8
140
1.0
141
8.0
290
     0
  0
SCALE
  5
2A02
102
{ACAD_REACTORS
330
29FC
102
}
330
29FC
100
AcDbScale
 70
     0
300
1:10
140
1.0
141
10.0
290
     0
  0
SCALE
  5
2A03
102
{ACAD_REACTORS
330
29FC
102
}
330
29FC
100
AcDbScale
 70
     0
300
1:16
140
1.0
141
16.0
290
     0
  0
SCALE
  5
2A04
102
{ACAD_REACTORS
330
29FC
102
}
330
29FC
100
AcDbScale
 70
     0
300
1:20
140
1.0
141
20.0
290
     0
  0
SCALE
  5
2A05
102
{ACAD_REACTORS
330
29FC
102
}
330
29FC
100
AcDbScale
 70
     0
300
1:30
140
1.0
141
30.0
290
     0
  0
SCALE
  5
2A06
102
{ACAD_REACTORS
330
29FC
102
}
330
29FC
100
AcDbScale
 70
     0
300
1:40
140
1.0
141
40.0
290
     0
  0
SCALE
  5
2A07
102
{ACAD_REACTORS
330
29FC
102
}
330
29FC
100
AcDbScale
 70
     0
300
1:50
140
1.0
141
50.0
290
     0
  0
SCALE
  5
2A08
102
{ACAD_REACTORS
330
29FC
102
}
330
29FC
100
AcDbScale
 70
     0
300
1:100
140
1.0
141
100.0
290
     0
  0
SCALE
  5
2A09
102
{ACAD_REACTORS
330
29FC
102
}
330
29FC
100
AcDbScale
 70
     0
300
2:1
140
2.0
141
1.0
290
     0
  0
SCALE
  5
2A0A
102
{ACAD_REACTORS
330
29FC
102
}
330
29FC
100
AcDbScale
 70
     0
300
4:1
140
4.0
141
1.0
290
     0
  0
SCALE
  5
2A0B
102
{ACAD_REACTORS
330
29FC
102
}
330
29FC
100
AcDbScale
 70
     0
300
8:1
140
8.0
141
1.0
290
     0
  0
SCALE
  5
2A0C
102
{ACAD_REACTORS
330
29FC
102
}
330
29FC
100
AcDbScale
 70
     0
300
10:1
140
10.0
141
1.0
290
     0
  0
SCALE
  5
2A0D
102
{ACAD_REACTORS
330
29FC
102
}
330
29FC
100
AcDbScale
 70
     0
300
100:1
140
100.0
141
1.0
290
     0
  0
SCALE
  5
2A0E
102
{ACAD_REACTORS
330
29FC
102
}
330
29FC
100
AcDbScale
 70
     0
300
1/128" = 1'-0"
140
0.0078125
141
12.0
290
     0
  0
SCALE
  5
2A0F
102
{ACAD_REACTORS
330
29FC
102
}
330
29FC
100
AcDbScale
 70
     0
300
1/64" = 1'-0"
140
0.015625
141
12.0
290
     0
  0
SCALE
  5
2A10
102
{ACAD_REACTORS
330
29FC
102
}
330
29FC
100
AcDbScale
 70
     0
300
1/32" = 1'-0"
140
0.03125
141
12.0
290
     0
  0
SCALE
  5
2A11
102
{ACAD_REACTORS
330
29FC
102
}
330
29FC
100
AcDbScale
 70
     0
300
1/16" = 1'-0"
140
0.0625
141
12.0
290
     0
  0
SCALE
  5
2A12
102
{ACAD_REACTORS
330
29FC
102
}
330
29FC
100
AcDbScale
 70
     0
300
3/32" = 1'-0"
140
0.09375
141
12.0
290
     0
  0
SCALE
  5
2A13
102
{ACAD_REACTORS
330
29FC
102
}
330
29FC
100
AcDbScale
 70
     0
300
1/8" = 1'-0"
140
0.125
141
12.0
290
     0
  0
SCALE
  5
2A14
102
{ACAD_REACTORS
330
29FC
102
}
330
29FC
100
AcDbScale
 70
     0
300
3/16" = 1'-0"
140
0.1875
141
12.0
290
     0
  0
SCALE
  5
2A15
102
{ACAD_REACTORS
330
29FC
102
}
330
29FC
100
AcDbScale
 70
     0
300
1/4" = 1'-0"
140
0.25
141
12.0
290
     0
  0
SCALE
  5
2A16
102
{ACAD_REACTORS
330
29FC
102
}
330
29FC
100
AcDbScale
 70
     0
300
3/8" = 1'-0"
140
0.375
141
12.0
290
     0
  0
SCALE
  5
2A17
102
{ACAD_REACTORS
330
29FC
102
}
330
29FC
100
AcDbScale
 70
     0
300
1/2" = 1'-0"
140
0.5
141
12.0
290
     0
  0
SCALE
  5
2A18
102
{ACAD_REACTORS
330
29FC
102
}
330
29FC
100
AcDbScale
 70
     0
300
3/4" = 1'-0"
140
0.75
141
12.0
290
     0
  0
SCALE
  5
2A19
102
{ACAD_REACTORS
330
29FC
102
}
330
29FC
100
AcDbScale
 70
     0
300
1" = 1'-0"
140
1.0
141
12.0
290
     0
  0
SCALE
  5
2A1A
102
{ACAD_REACTORS
330
29FC
102
}
330
29FC
100
AcDbScale
 70
     0
300
1-1/2" = 1'-0"
140
1.5
141
12.0
290
     0
  0
SCALE
  5
2A1B
102
{ACAD_REACTORS
330
29FC
102
}
330
29FC
100
AcDbScale
 70
     0
300
3" = 1'-0"
140
3.0
141
12.0
290
     0
  0
SCALE
  5
2A1C
102
{ACAD_REACTORS
330
29FC
102
}
330
29FC
100
AcDbScale
 70
     0
300
6" = 1'-0"
140
6.0
141
12.0
290
     0
  0
SCALE
  5
2A1D
102
{ACAD_REACTORS
330
29FC
102
}
330
29FC
100
AcDbScale
 70
     0
300
1'-0" = 1'-0"
140
12.0
141
12.0
290
     0
  0
TABLESTYLE
  5
2A2E
102
{ACAD_XDICTIONARY
360
2C1A
102
}
102
{ACAD_REACTORS
330
2A2D
102
}
330
2A2D
100
AcDbTableStyle
  3
Standard
 70
     0
 71
     0
 40
0.06
 41
0.06
280
     0
281
     0
  7
STANDARD
140
0.18
170
     2
 62
     0
 63
     7
283
     0
274
    -2
284
     1
 64
     0
275
    -2
285
     1
 65
     0
276
    -2
286
     1
 66
     0
277
    -2
287
     1
 67
     0
278
    -2
288
     1
 68
     0
279
    -2
289
     1
 69
     0
  7
STANDARD
140
0.25
170
     5
 62
     0
 63
     7
283
     0
274
    -2
284
     1
 64
     0
275
    -2
285
     1
 65
     0
276
    -2
286
     1
 66
     0
277
    -2
287
     1
 67
     0
278
    -2
288
     1
 68
     0
279
    -2
289
     1
 69
     0
  7
STANDARD
140
0.18
170
     5
 62
     0
 63
     7
283
     0
274
    -2
284
     1
 64
     0
275
    -2
285
     1
 65
     0
276
    -2
286
     1
 66
     0
277
    -2
287
     1
 67
     0
278
    -2
288
     1
 68
     0
279
    -2
289
     1
 69
     0
  0
VISUALSTYLE
  5
29F1
102
{ACAD_REACTORS
330
29EB
102
}
330
29EB
100
AcDbVisualStyle
  2
2dWireframe
 70
     4
 71
     0
 72
     2
 73
     0
 90
        0
 40
-0.6
 41
-30.0
 62
     5
 63
     7
 74
     1
 91
        4
 64
     7
 65
   257
 75
     1
175
     1
 42
1.0
 92
        0
 66
   257
 43
1.0
 76
     1
 77
     6
 78
     2
 67
     7
 79
     5
170
     0
171
     0
290
     0
174
     0
 93
        1
 44
0.0
173
     0
291
     0
 45
0.0
1001
ACAD
1000
AcDbSavedByObjectVersion
1070
     0
  0
VISUALSTYLE
  5
29F3
102
{ACAD_REACTORS
330
29EB
102
}
330
29EB
100
AcDbVisualStyle
  2
3D Hidden
 70
     6
 71
     1
 72
     2
 73
     2
 90
        0
 40
-0.6
 41
-30.0
 62
     5
 63
     7
 74
     2
 91
        2
 64
     7
 65
   257
 75
     2
175
     1
 42
40.0
 92
        0
 66
   257
 43
1.0
 76
     1
 77
     6
 78
     2
 67
     7
 79
     3
170
     0
171
     0
290
     0
174
     0
 93
        1
 44
0.0
173
     0
291
     0
 45
0.0
1001
ACAD
1000
AcDbSavedByObjectVersion
1070
     0
  0
VISUALSTYLE
  5
29F2
102
{ACAD_REACTORS
330
29EB
102
}
330
29EB
100
AcDbVisualStyle
  2
3dWireframe
 70
     5
 71
     0
 72
     2
 73
     0
 90
        0
 40
-0.6
 41
-30.0
 62
     5
 63
     7
 74
     1
 91
        4
 64
     7
 65
   257
 75
     1
175
     1
 42
1.0
 92
        0
 66
   257
 43
1.0
 76
     1
 77
     6
 78
     2
 67
     7
 79
     5
170
     0
171
     0
290
     0
174
     0
 93
        1
 44
0.0
173
     0
291
     0
 45
0.0
1001
ACAD
1000
AcDbSavedByObjectVersion
1070
     0
  0
VISUALSTYLE
  5
29F0
102
{ACAD_REACTORS
330
29EB
102
}
330
29EB
100
AcDbVisualStyle
  2
Basic
 70
     7
 71
     1
 72
     0
 73
     1
 90
        0
 40
-0.6
 41
-30.0
 62
     5
 63
     7
 74
     0
 91
        4
 64
     7
 65
   257
 75
     1
175
     1
 42
1.0
 92
        8
 66
     7
 43
1.0
 76
     1
 77
     6
 78
     2
 67
     7
 79
     5
170
     0
171
     0
290
     0
174
     0
 93
        1
 44
0.0
173
     0
291
     1
 45
0.0
1001
ACAD
1000
AcDbSavedByObjectVersion
1070
     0
  0
VISUALSTYLE
  5
29F7
102
{ACAD_REACTORS
330
29EB
102
}
330
29EB
100
AcDbVisualStyle
  2
Brighten
 70
    12
 71
     2
 72
     2
 73
     0
 90
        0
 40
-0.6
 41
-30.0
 62
     5
 63
     7
 74
     1
 91
        4
 64
     7
 65
   257
 75
     1
175
     1
 42
1.0
 92
        8
 66
     7
 43
1.0
 76
     1
 77
     6
 78
     2
 67
     7
 79
     5
170
     0
171
     0
290
     0
174
     0
 93
        1
 44
50.0
173
     0
291
     1
 45
0.0
1001
ACAD
1000
AcDbSavedByObjectVersion
1070
     0
  0
VISUALSTYLE
  5
29FB
102
{ACAD_REACTORS
330
29EB
102
}
330
29EB
100
AcDbVisualStyle
  2
ColorChange
 70
    16
 71
     2
 72
     2
 73
     3
 90
        0
 40
-0.6
 41
-30.0
 62
     5
 63
     8
 74
     1
 91
        4
 64
     7
 65
   257
 75
     1
175
     1
 42
1.0
 92
        8
 66
     8
 43
1.0
 76
     1
 77
     6
 78
     2
 67
     7
 79
     5
170
     0
171
     0
290
     0
174
     0
 93
        1
 44
0.0
173
     0
291
     1
 45
0.0
1001
ACAD
1000
AcDbSavedByObjectVersion
1070
     0
  0
VISUALSTYLE
  5
29F4
102
{ACAD_REACTORS
330
29EB
102
}
330
29EB
100
AcDbVisualStyle
  2
Conceptual
 70
     9
 71
     3
 72
     2
 73
     0
 90
        0
 40
-0.6
 41
-30.0
 62
     5
 63
     7
 74
     2
 91
        2
 64
     7
 65
   257
 75
     1
175
     1
 42
40.0
 92
        8
 66
     7
 43
1.0
 76
     1
 77
     6
 78
     2
 67
     7
 79
     3
170
     0
171
     0
290
     0
174
     0
 93
        1
 44
0.0
173
     0
291
     0
 45
0.0
1001
ACAD
1000
AcDbSavedByObjectVersion
1070
     0
  0
VISUALSTYLE
  5
29F6
102
{ACAD_REACTORS
330
29EB
102
}
330
29EB
100
AcDbVisualStyle
  2
Dim
 70
    11
 71
     2
 72
     2
 73
     0
 90
        0
 40
-0.6
 41
-30.0
 62
     5
 63
     7
 74
     1
 91
        4
 64
     7
 65
   257
 75
     1
175
     1
 42
1.0
 92
        8
 66
     7
 43
1.0
 76
     1
 77
     6
 78
     2
 67
     7
 79
     5
170
     0
171
     0
290
     0
174
     0
 93
        1
 44
-50.0
173
     0
291
     1
 45
0.0
1001
ACAD
1000
AcDbSavedByObjectVersion
1070
     0
  0
VISUALSTYLE
  5
29FA
102
{ACAD_REACTORS
330
29EB
102
}
330
29EB
100
AcDbVisualStyle
  2
Facepattern
 70
    15
 71
     2
 72
     2
 73
     0
 90
        0
 40
-0.6
 41
-30.0
 62
     5
 63
     7
 74
     1
 91
        4
 64
     7
 65
   257
 75
     1
175
     1
 42
1.0
 92
        8
 66
     7
 43
1.0
 76
     1
 77
     6
 78
     2
 67
     7
 79
     5
170
     0
171
     0
290
     0
174
     0
 93
        1
 44
0.0
173
     0
291
     1
 45
0.0
1001
ACAD
1000
AcDbSavedByObjectVersion
1070
     0
  0
VISUALSTYLE
  5
29EC
102
{ACAD_REACTORS
330
29EB
102
}
330
29EB
100
AcDbVisualStyle
  2
Flat
 70
     0
 71
     2
 72
     1
 73
     1
 90
        2
 40
-0.6
 41
30.0
 62
     5
 63
     7
 74
     0
 91
        4
 64
     7
 65
   257
 75
     1
175
     1
 42
1.0
 92
        8
 66
     7
 43
1.0
 76
     1
 77
     6
 78
     2
 67
     7
 79
     5
170
     0
171
     0
290
     0
174
     0
 93
       13
 44
0.0
173
     0
291
     1
 45
0.0
1001
ACAD
1000
AcDbSavedByObjectVersion
1070
     0
  0
VISUALSTYLE
  5
29ED
102
{ACAD_REACTORS
330
29EB
102
}
330
29EB
100
AcDbVisualStyle
  2
FlatWithEdges
 70
     1
 71
     2
 72
     1
 73
     1
 90
        2
 40
-0.6
 41
30.0
 62
     5
 63
     7
 74
     1
 91
        4
 64
     7
 65
   257
 75
     1
175
     1
 42
1.0
 92
        0
 66
   257
 43
1.0
 76
     1
 77
     6
 78
     2
 67
     7
 79
     5
170
     0
171
     0
290
     0
174
     0
 93
       13
 44
0.0
173
     0
291
     1
 45
0.0
1001
ACAD
1000
AcDbSavedByObjectVersion
1070
     0
  0
VISUALSTYLE
  5
29EE
102
{ACAD_REACTORS
330
29EB
102
}
330
29EB
100
AcDbVisualStyle
  2
Gouraud
 70
     2
 71
     2
 72
     2
 73
     1
 90
        2
 40
-0.6
 41
30.0
 62
     5
 63
     7
 74
     0
 91
        4
 64
     7
 65
   257
 75
     1
175
     1
 42
1.0
 92
        0
 66
     7
 43
1.0
 76
     1
 77
     6
 78
     2
 67
     7
 79
     5
170
     0
171
     0
290
     0
174
     0
 93
       13
 44
0.0
173
     0
291
     1
 45
0.0
1001
ACAD
1000
AcDbSavedByObjectVersion
1070
     0
  0
VISUALSTYLE
  5
29EF
102
{ACAD_REACTORS
330
29EB
102
}
330
29EB
100
AcDbVisualStyle
  2
GouraudWithEdges
 70
     3
 71
     2
 72
     2
 73
     1
 90
        2
 40
-0.6
 41
30.0
 62
     5
 63
     7
 74
     1
 91
        4
 64
     7
 65
   257
 75
     1
175
     1
 42
1.0
 92
        0
 66
   257
 43
1.0
 76
     1
 77
     6
 78
     2
 67
     7
 79
     5
170
     0
171
     0
290
     0
174
     0
 93
       13
 44
0.0
173
     0
291
     1
 45
0.0
1001
ACAD
1000
AcDbSavedByObjectVersion
1070
     0
  0
VISUALSTYLE
  5
29F9
102
{ACAD_REACTORS
330
29EB
102
}
330
29EB
100
AcDbVisualStyle
  2
Linepattern
 70
    14
 71
     2
 72
     2
 73
     0
 90
        0
 40
-0.6
 41
-30.0
 62
     5
 63
     7
 74
     1
 91
        4
 64
     7
 65
   257
 75
     7
175
     7
 42
1.0
 92
        8
 66
     7
 43
1.0
 76
     1
 77
     6
 78
     2
 67
     7
 79
     5
170
     0
171
     0
290
     0
174
     0
 93
        1
 44
0.0
173
     0
291
     1
 45
0.0
1001
ACAD
1000
AcDbSavedByObjectVersion
1070
     0
  0
VISUALSTYLE
  5
29F5
102
{ACAD_REACTORS
330
29EB
102
}
330
29EB
100
AcDbVisualStyle
  2
Realistic
 70
     8
 71
     2
 72
     2
 73
     0
 90
        0
 40
-0.6
 41
-30.0
 62
     5
 63
     7
 74
     1
 91
        0
 64
     7
 65
   257
 75
     1
175
     1
 42
1.0
 92
        8
 66
     8
 43
1.0
 76
     1
 77
     6
 78
     2
 67
     7
 79
     5
170
     0
171
     0
290
     0
174
     0
 93
       13
 44
0.0
173
     0
291
     0
 45
0.0
1001
ACAD
1000
AcDbSavedByObjectVersion
1070
     0
  0
VISUALSTYLE
  5
29F8
102
{ACAD_REACTORS
330
29EB
102
}
330
29EB
100
AcDbVisualStyle
  2
Thicken
 70
    13
 71
     2
 72
     2
 73
     0
 90
        0
 40
-0.6
 41
-30.0
 62
     5
 63
     7
 74
     1
 91
        4
 64
     7
 65
   257
 75
     1
175
     1
 42
1.0
 92
       12
 66
     7
 43
1.0
 76
     1
 77
     6
 78
     2
 67
     7
 79
     5
170
     0
171
     0
290
     0
174
     0
 93
        1
 44
0.0
173
     0
291
     1
 45
0.0
1001
ACAD
1000
AcDbSavedByObjectVersion
1070
     0
  0
DICTIONARYVAR
  5
2C16
102
{ACAD_REACTORS
330
2C13
102
}
330
2C13
100
DictionaryVariables
280
     0
  1
1:1
  0
DICTIONARYVAR
  5
2C15
102
{ACAD_REACTORS
330
2C13
102
}
330
2C13
100
DictionaryVariables
280
     0
  1
STANDARD
  0
DICTIONARYVAR
  5
2C14
102
{ACAD_REACTORS
330
2C13
102
}
330
2C13
100
DictionaryVariables
280
     0
  1
STANDARD
  0
DICTIONARYVAR
  5
2C19
102
{ACAD_REACTORS
330
2C13
102
}
330
2C13
100
DictionaryVariables
280
     0
  1
1
  0
DICTIONARYVAR
  5
2C18
102
{ACAD_REACTORS
330
2C13
102
}
330
2C13
100
DictionaryVariables
280
     0
  1
1
  0
DICTIONARYVAR
  5
2C17
102
{ACAD_REACTORS
330
2C13
102
}
330
2C13
100
DictionaryVariables
280
     0
  1
127
  0
DICTIONARY
  5
2BCD
102
{ACAD_REACTORS
330
2BBF
102
}
330
2BBF
100
AcDbDictionary
281
     1
  0
DICTIONARY
  5
2B0D
102
{ACAD_REACTORS
330
2B0C
102
}
330
2B0C
100
AcDbDictionary
281
     1
  3
DWGSETTINGS
350
2B0E
  3
TRANSSETTINGS
350
2B0F
  0
ACAMGFILTERDAT
  5
2BEC
102
{ACAD_REACTORS
330
2BE7
102
}
330
2BE7
100
AcAmgFilterDat
 70
    15
  1
DIMENSION,AMDT_*_DIM
  2
*
  3
*
  4
*
  5
*
290
     1
  0
ACAMGFILTERDAT
  5
2BEB
102
{ACAD_REACTORS
330
2BE7
102
}
330
2BE7
100
AcAmgFilterDat
 70
    15
  1
*
  2
AM_FEA-AM_*
  3
*
  4
*
  5
*
290
     1
  0
ACAMGFILTERDAT
  5
2BE8
102
{ACAD_REACTORS
330
2BE7
102
}
330
2BE7
100
AcAmgFilterDat
 70
    15
  1
HATCH
  2
*
  3
*
  4
*
  5
*
290
     1
  0
ACAMGFILTERDAT
  5
2BE9
102
{ACAD_REACTORS
330
2BE7
102
}
330
2BE7
100
AcAmgFilterDat
 70
    15
  1
LINE
  2
8,8N,*-8,*-8N,AM_8,AM_8N,*-AM_8,*-AM_8N
  3
*
  4
*
  5
INSERT,STDPART2D
290
     1
  0
ACAMGFILTERDAT
  5
2BED
102
{ACAD_REACTORS
330
2BE7
102
}
330
2BE7
100
AcAmgFilterDat
 70
    15
  1
ARC
  2
AM_5
  3
*
  4
2
  5
INSERT
290
     0
  0
ACAMGFILTERDAT
  5
2BEA
102
{ACAD_REACTORS
330
2BE7
102
}
330
2BE7
100
AcAmgFilterDat
 70
    15
  1
ACMFCFRAME,ACMDATUMTARGET,ACMDATUMID,ACMWELDSYM,ACMSURFSYM,ACMFEATID,ACMPARTREF,ACMBALLOON,AMDTEDGESYM,AMGSCREWCALCTABLE,ACMMARKSTAMP
  2
*
  3
*
  4
*
  5
*
290
     1
  0
LAYER_INDEX
  5
2C06
102
{ACAD_REACTORS
330
2C05
102
}
330
2C05
100
AcDbIndex
 40
2456210.45508066
100
AcDbLayerIndex
  8
0
360
2C07
 90
        2
  8
OUTLINE
360
2C08
 90
       14
  8
SIZE
360
2C09
 90
       24
  8
BASIS
360
2C0A
 90
        1
  8
DETAIL
360
2C0B
 90
       26
  8
ARRANGE
360
2C0C
 90
        2
  8
DEFPOINTS
360
2C0D
 90
        0
  8
ETC
360
2C0E
 90
        3
  8
FIX
360
2C0F
 90
        0
  8
NOTE
360
2C10
 90
        4
  8
SERVICESPACE
360
2C11
 90
        0
  8
SYMBOLLINE
360
2C12
 90
        0
  0
DICTIONARY
  5
2C29
330
2A39
100
AcDbDictionary
280
     1
281
     1
  3
ACAD_XREC_ROUNDTRIP
360
2C2A
  0
DICTIONARY
  5
2C27
330
2A35
100
AcDbDictionary
280
     1
281
     1
  3
ACAD_XREC_ROUNDTRIP
360
2C28
  0
DICTIONARY
  5
29DC
330
29DB
100
AcDbDictionary
280
     1
281
     1
  3
ACAD_XREC_ROUNDTRIP
360
2C24
  3
BUMPTILE
360
29DE
  3
DIFFUSETILE
360
29DD
  3
OPACITYTILE
360
29E1
  3
REFLECTIONTILE
360
29E0
  3
REFRACTIONTILE
360
29E2
  3
SPECULARTILE
360
29DF
  0
DICTIONARY
  5
29D4
330
29D3
100
AcDbDictionary
280
     1
281
     1
  3
ACAD_XREC_ROUNDTRIP
360
2C23
  3
BUMPTILE
360
29D6
  3
DIFFUSETILE
360
29D5
  3
OPACITYTILE
360
29D9
  3
REFLECTIONTILE
360
29D8
  3
REFRACTIONTILE
360
29DA
  3
SPECULARTILE
360
29D7
  0
DICTIONARY
  5
29E4
330
29E3
100
AcDbDictionary
280
     1
281
     1
  3
ACAD_XREC_ROUNDTRIP
360
2C25
  3
BUMPTILE
360
29E6
  3
DIFFUSETILE
360
29E5
  3
OPACITYTILE
360
29E9
  3
REFLECTIONTILE
360
29E8
  3
REFRACTIONTILE
360
29EA
  3
SPECULARTILE
360
29E7
  0
DICTIONARY
  5
2C1A
330
2A2E
100
AcDbDictionary
280
     1
281
     1
  3
ACAD_ROUNDTRIP_2008_TABLESTYLE_CELLSTYLEMAP
360
2C1B
  3
ACAD_XREC_ROUNDTRIP
360
2C26
  0
IDBUFFER
  5
2C07
330
0
100
AcDbIdBuffer
330
2956
330
2957
  0
IDBUFFER
  5
2C08
330
0
100
AcDbIdBuffer
330
953
330
954
330
955
330
956
330
957
330
958
330
295A
330
295B
330
295C
330
295D
330
295E
330
295F
330
2960
330
2961
  0
IDBUFFER
  5
2C09
330
0
100
AcDbIdBuffer
330
2980
330
2981
330
2982
330
2983
330
2984
330
2985
330
2986
330
2987
330
2970
330
2971
330
2972
330
2973
330
2974
330
2975
330
2976
330
2977
330
2978
330
2979
330
297A
330
297B
330
297C
330
297D
330
297E
330
297F
  0
IDBUFFER
  5
2C0A
330
0
100
AcDbIdBuffer
330
2946
  0
IDBUFFER
  5
2C0B
330
0
100
AcDbIdBuffer
330
2966
330
2967
330
2968
330
2969
330
296A
330
296B
330
296C
330
296D
330
296E
330
296F
330
2948
330
294A
330
294B
330
294C
330
294D
330
294E
330
294F
330
2950
330
2951
330
2952
330
2953
330
2954
330
2962
330
2963
330
2964
330
2965
  0
IDBUFFER
  5
2C0C
330
0
100
AcDbIdBuffer
330
2945
330
2955
  0
IDBUFFER
  5
2C0D
330
0
100
AcDbIdBuffer
  0
IDBUFFER
  5
2C0E
330
0
100
AcDbIdBuffer
330
2942
330
2943
330
2944
  0
IDBUFFER
  5
2C0F
330
0
100
AcDbIdBuffer
  0
IDBUFFER
  5
2C10
330
0
100
AcDbIdBuffer
330
2947
330
2949
330
2958
330
2959
  0
IDBUFFER
  5
2C11
330
0
100
AcDbIdBuffer
  0
IDBUFFER
  5
2C12
330
0
100
AcDbIdBuffer
  0
XRECORD
  5
2C2A
102
{ACAD_REACTORS
330
2C29
102
}
330
2C29
100
AcDbXrecord
280
     1
102
SHADEPLOT
 70
     0
102
SHADEPLOTRESLEVEL
 70
     2
102
SHADEPLOTCUSTOMDPI
 70
   300
  0
XRECORD
  5
2C28
102
{ACAD_REACTORS
330
2C27
102
}
330
2C27
100
AcDbXrecord
280
     1
102
SHADEPLOT
 70
     0
102
SHADEPLOTRESLEVEL
 70
     2
102
SHADEPLOTCUSTOMDPI
 70
   300
  0
XRECORD
  5
2C24
102
{ACAD_REACTORS
330
29DC
102
}
330
29DC
100
AcDbXrecord
280
     1
102
MATERIAL
148
0.0
149
0.0
149
0.0
 93
        0
 94
      127
282
     0
 72
     0
 77
     0
171
     0
175
     0
179
     0
273
     0
  0
XRECORD
  5
29DE
102
{ACAD_REACTORS
330
29DC
102
}
330
29DC
100
AcDbXrecord
280
     1
270
     1
271
     1
  0
XRECORD
  5
29DD
102
{ACAD_REACTORS
330
29DC
102
}
330
29DC
100
AcDbXrecord
280
     1
270
     1
271
     1
  0
XRECORD
  5
29E1
102
{ACAD_REACTORS
330
29DC
102
}
330
29DC
100
AcDbXrecord
280
     1
270
     1
271
     1
  0
XRECORD
  5
29E0
102
{ACAD_REACTORS
330
29DC
102
}
330
29DC
100
AcDbXrecord
280
     1
270
     1
271
     1
  0
XRECORD
  5
29E2
102
{ACAD_REACTORS
330
29DC
102
}
330
29DC
100
AcDbXrecord
280
     1
270
     1
271
     1
  0
XRECORD
  5
29DF
102
{ACAD_REACTORS
330
29DC
102
}
330
29DC
100
AcDbXrecord
280
     1
270
     1
271
     1
  0
XRECORD
  5
2C23
102
{ACAD_REACTORS
330
29D4
102
}
330
29D4
100
AcDbXrecord
280
     1
102
MATERIAL
148
0.0
149
0.0
149
0.0
 93
        0
 94
      127
282
     0
 72
     0
 77
     0
171
     0
175
     0
179
     0
273
     0
  0
XRECORD
  5
29D6
102
{ACAD_REACTORS
330
29D4
102
}
330
29D4
100
AcDbXrecord
280
     1
270
     1
271
     1
  0
XRECORD
  5
29D5
102
{ACAD_REACTORS
330
29D4
102
}
330
29D4
100
AcDbXrecord
280
     1
270
     1
271
     1
  0
XRECORD
  5
29D9
102
{ACAD_REACTORS
330
29D4
102
}
330
29D4
100
AcDbXrecord
280
     1
270
     1
271
     1
  0
XRECORD
  5
29D8
102
{ACAD_REACTORS
330
29D4
102
}
330
29D4
100
AcDbXrecord
280
     1
270
     1
271
     1
  0
XRECORD
  5
29DA
102
{ACAD_REACTORS
330
29D4
102
}
330
29D4
100
AcDbXrecord
280
     1
270
     1
271
     1
  0
XRECORD
  5
29D7
102
{ACAD_REACTORS
330
29D4
102
}
330
29D4
100
AcDbXrecord
280
     1
270
     1
271
     1
  0
XRECORD
  5
2C25
102
{ACAD_REACTORS
330
29E4
102
}
330
29E4
100
AcDbXrecord
280
     1
102
MATERIAL
148
0.0
149
0.0
149
0.0
 93
        0
 94
      127
282
     0
 72
     0
 77
     0
171
     0
175
     0
179
     0
273
     0
  0
XRECORD
  5
29E6
102
{ACAD_REACTORS
330
29E4
102
}
330
29E4
100
AcDbXrecord
280
     1
270
     1
271
     1
  0
XRECORD
  5
29E5
102
{ACAD_REACTORS
330
29E4
102
}
330
29E4
100
AcDbXrecord
280
     1
270
     1
271
     1
  0
XRECORD
  5
29E9
102
{ACAD_REACTORS
330
29E4
102
}
330
29E4
100
AcDbXrecord
280
     1
270
     1
271
     1
  0
XRECORD
  5
29E8
102
{ACAD_REACTORS
330
29E4
102
}
330
29E4
100
AcDbXrecord
280
     1
270
     1
271
     1
  0
XRECORD
  5
29EA
102
{ACAD_REACTORS
330
29E4
102
}
330
29E4
100
AcDbXrecord
280
     1
270
     1
271
     1
  0
XRECORD
  5
29E7
102
{ACAD_REACTORS
330
29E4
102
}
330
29E4
100
AcDbXrecord
280
     1
270
     1
271
     1
  0
CELLSTYLEMAP
  5
2C1B
102
{ACAD_REACTORS
330
2C1A
102
}
330
2C1A
100
AcDbCellStyleMap
 90
        3
300
CELLSTYLE
  1
TABLEFORMAT_BEGIN
 90
        5
170
     1
 91
        0
 92
    32768
 62
   257
 93
        1
300
CONTENTFORMAT
  1
CONTENTFORMAT_BEGIN
 90
        0
 91
        0
 92
      512
 93
        0
300

 40
0.0
140
1.0
 94
        5
 62
     0
340
2A1F
144
0.25
309
CONTENTFORMAT_END
171
     0
 94
        0
309
TABLEFORMAT_END
  1
CELLSTYLE_BEGIN
 90
        1
 91
        1
300
_TITLE
309
CELLSTYLE_END
300
CELLSTYLE
  1
TABLEFORMAT_BEGIN
 90
        5
170
     1
 91
        0
 92
        0
 62
   257
 93
        1
300
CONTENTFORMAT
  1
CONTENTFORMAT_BEGIN
 90
        0
 91
        0
 92
      512
 93
        0
300

 40
0.0
140
1.0
 94
        5
 62
     0
340
2A1F
144
0.18
309
CONTENTFORMAT_END
171
     0
 94
        0
309
TABLEFORMAT_END
  1
CELLSTYLE_BEGIN
 90
        2
 91
        1
300
_HEADER
309
CELLSTYLE_END
300
CELLSTYLE
  1
TABLEFORMAT_BEGIN
 90
        5
170
     1
 91
        0
 92
        0
 62
   257
 93
        1
300
CONTENTFORMAT
  1
CONTENTFORMAT_BEGIN
 90
        0
 91
        0
 92
      512
 93
        0
300

 40
0.0
140
1.0
 94
        2
 62
     0
340
2A1F
144
0.18
309
CONTENTFORMAT_END
171
     0
 94
        0
309
TABLEFORMAT_END
  1
CELLSTYLE_BEGIN
 90
        3
 91
        2
300
_DATA
309
CELLSTYLE_END
  0
XRECORD
  5
2C26
102
{ACAD_REACTORS
330
2C1A
102
}
330
2C1A
100
AcDbXrecord
280
     1
102
ACAD_ROUNDTRIP_PRE2007_TABLESTYLE
 90
      512
 91
        0
  1

 92
      512
 93
        0
  2

 94
      512
 95
        0
  3

  0
ENDSEC
  0
EOF
