  0
SECTION
  2
HEADER
  9
$ACADVER
  1
AC1015
  9
$ACADMAINTVER
 70
    20
  9
$DWGCODEPAGE
  3
ANSI_932
  9
$INSBASE
 10
0.0
 20
0.0
 30
0.0
  9
$EXTMIN
 10
-713.3148028786709
 20
-711.0443001275943
 30
-0.0015257624927045
  9
$EXTMAX
 10
769.9630849994282
 20
690.2160725908069
 30
50.00152599532333
  9
$LIMMIN
 10
-2970.0
 20
-2100.0
  9
$LIMMAX
 10
2970.0
 20
2100.0
  9
$ORTHOMODE
 70
     1
  9
$REGENMODE
 70
     0
  9
$FILLMODE
 70
     1
  9
$QTEXTMODE
 70
     0
  9
$MIRRTEXT
 70
     0
  9
$LTSCALE
 40
20.0
  9
$ATTMODE
 70
     1
  9
$TEXTSIZE
 40
64.0
  9
$TRACEWID
 40
0.05
  9
$TEXTSTYLE
  7
STANDARD
  9
$CLAYER
  8
0
  9
$CELTYPE
  6
ByLayer
  9
$CECOLOR
 62
   256
  9
$CELTSCALE
 40
1.0
  9
$DISPSILH
 70
     0
  9
$DIMSCALE
 40
1.0
  9
$DIMASZ
 40
0.12
  9
$DIMEXO
 40
0.05
  9
$DIMDLI
 40
0.5
  9
$DIMRND
 40
0.0
  9
$DIMDLE
 40
0.0
  9
$DIMEXE
 40
0.1
  9
$DIMTP
 40
0.1
  9
$DIMTM
 40
0.1
  9
$DIMTXT
 40
0.12
  9
$DIMCEN
 40
0.0
  9
$DIMTSZ
 40
0.0
  9
$DIMTOL
 70
     0
  9
$DIMLIM
 70
     0
  9
$DIMTIH
 70
     1
  9
$DIMTOH
 70
     1
  9
$DIMSE1
 70
     0
  9
$DIMSE2
 70
     0
  9
$DIMTAD
 70
     0
  9
$DIMZIN
 70
     7
  9
$DIMBLK
  1

  9
$DIMASO
 70
     1
  9
$DIMSHO
 70
     0
  9
$DIMPOST
  1

  9
$DIMAPOST
  1
mm
  9
$DIMALT
 70
     0
  9
$DIMALTD
 70
     2
  9
$DIMALTF
 40
25.4
  9
$DIMLFAC
 40
1.0
  9
$DIMTOFL
 70
     0
  9
$DIMTVP
 40
0.0
  9
$DIMTIX
 70
     0
  9
$DIMSOXD
 70
     0
  9
$DIMSAH
 70
     0
  9
$DIMBLK1
  1

  9
$DIMBLK2
  1

  9
$DIMSTYLE
  2
AM_ANSI
  9
$DIMCLRD
 70
   256
  9
$DIMCLRE
 70
   256
  9
$DIMCLRT
 70
     2
  9
$DIMTFAC
 40
0.71
  9
$DIMGAP
 40
0.06
  9
$DIMJUST
 70
     0
  9
$DIMSD1
 70
     0
  9
$DIMSD2
 70
     0
  9
$DIMTOLJ
 70
     1
  9
$DIMTZIN
 70
     7
  9
$DIMALTZ
 70
     0
  9
$DIMALTTZ
 70
     0
  9
$DIMUPT
 70
     0
  9
$DIMDEC
 70
     4
  9
$DIMTDEC
 70
     4
  9
$DIMALTU
 70
     2
  9
$DIMALTTD
 70
     4
  9
$DIMTXSTY
  7
STANDARD
  9
$DIMAUNIT
 70
     0
  9
$DIMADEC
 70
     0
  9
$DIMALTRND
 40
0.0
  9
$DIMAZIN
 70
     2
  9
$DIMDSEP
 70
    46
  9
$DIMATFIT
 70
     3
  9
$DIMFRAC
 70
     0
  9
$DIMLDRBLK
  1

  9
$DIMLUNIT
 70
     2
  9
$DIMLWD
 70
    -1
  9
$DIMLWE
 70
    -1
  9
$DIMTMOVE
 70
     0
  9
$LUNITS
 70
     2
  9
$LUPREC
 70
     4
  9
$SKETCHINC
 40
0.1
  9
$FILLETRAD
 40
4.0
  9
$AUNITS
 70
     1
  9
$AUPREC
 70
     3
  9
$MENU
  1
ACAD
  9
$ELEVATION
 40
0.0
  9
$PELEVATION
 40
0.0
  9
$THICKNESS
 40
50.0
  9
$LIMCHECK
 70
     0
  9
$CHAMFERA
 40
0.0
  9
$CHAMFERB
 40
0.0
  9
$CHAMFERC
 40
0.0
  9
$CHAMFERD
 40
0.0
  9
$SKPOLY
 70
     0
  9
$TDCREATE
 40
2452321.396199653
  9
$TDUCREATE
 40
2452321.021199653
  9
$TDUPDATE
 40
2456217.473077511
  9
$TDUUPDATE
 40
2456217.098077511
  9
$TDINDWG
 40
1.0449062153
  9
$TDUSRTIMER
 40
1.0449004398
  9
$USRTIMER
 70
     1
  9
$ANGBASE
 50
0.0
  9
$ANGDIR
 70
     0
  9
$PDMODE
 70
     3
  9
$PDSIZE
 40
-2.0
  9
$PLINEWID
 40
0.0
  9
$SPLFRAME
 70
     0
  9
$SPLINETYPE
 70
     6
  9
$SPLINESEGS
 70
     8
  9
$HANDSEED
  5
395C
  9
$SURFTAB1
 70
     6
  9
$SURFTAB2
 70
     6
  9
$SURFTYPE
 70
     6
  9
$SURFU
 70
     6
  9
$SURFV
 70
     6
  9
$UCSBASE
  2

  9
$UCSNAME
  2

  9
$UCSORG
 10
0.0
 20
0.0
 30
0.0
  9
$UCSXDIR
 10
1.0
 20
0.0
 30
0.0
  9
$UCSYDIR
 10
0.0
 20
1.0
 30
0.0
  9
$UCSORTHOREF
  2

  9
$UCSORTHOVIEW
 70
     0
  9
$UCSORGTOP
 10
0.0
 20
0.0
 30
0.0
  9
$UCSORGBOTTOM
 10
0.0
 20
0.0
 30
0.0
  9
$UCSORGLEFT
 10
0.0
 20
0.0
 30
0.0
  9
$UCSORGRIGHT
 10
0.0
 20
0.0
 30
0.0
  9
$UCSORGFRONT
 10
0.0
 20
0.0
 30
0.0
  9
$UCSORGBACK
 10
0.0
 20
0.0
 30
0.0
  9
$PUCSBASE
  2

  9
$PUCSNAME
  2

  9
$PUCSORG
 10
0.0
 20
0.0
 30
0.0
  9
$PUCSXDIR
 10
1.0
 20
0.0
 30
0.0
  9
$PUCSYDIR
 10
0.0
 20
1.0
 30
0.0
  9
$PUCSORTHOREF
  2

  9
$PUCSORTHOVIEW
 70
     0
  9
$PUCSORGTOP
 10
0.0
 20
0.0
 30
0.0
  9
$PUCSORGBOTTOM
 10
0.0
 20
0.0
 30
0.0
  9
$PUCSORGLEFT
 10
0.0
 20
0.0
 30
0.0
  9
$PUCSORGRIGHT
 10
0.0
 20
0.0
 30
0.0
  9
$PUCSORGFRONT
 10
0.0
 20
0.0
 30
0.0
  9
$PUCSORGBACK
 10
0.0
 20
0.0
 30
0.0
  9
$USERI1
 70
     0
  9
$USERI2
 70
     0
  9
$USERI3
 70
     0
  9
$USERI4
 70
     0
  9
$USERI5
 70
     0
  9
$USERR1
 40
20.0
  9
$USERR2
 40
0.0
  9
$USERR3
 40
0.0
  9
$USERR4
 40
0.0
  9
$USERR5
 40
0.0
  9
$WORLDVIEW
 70
     1
  9
$SHADEDGE
 70
     3
  9
$SHADEDIF
 70
    70
  9
$TILEMODE
 70
     1
  9
$MAXACTVP
 70
    64
  9
$PINSBASE
 10
0.0
 20
0.0
 30
0.0
  9
$PLIMCHECK
 70
     0
  9
$PEXTMIN
 10
1.000000000000000E+20
 20
1.000000000000000E+20
 30
1.000000000000000E+20
  9
$PEXTMAX
 10
-1.000000000000000E+20
 20
-1.000000000000000E+20
 30
-1.000000000000000E+20
  9
$PLIMMIN
 10
0.0
 20
0.0
  9
$PLIMMAX
 10
12.0
 20
9.0
  9
$UNITMODE
 70
     0
  9
$VISRETAIN
 70
     1
  9
$PLINEGEN
 70
     0
  9
$PSLTSCALE
 70
     1
  9
$TREEDEPTH
 70
  3020
  9
$CMLSTYLE
  2
Standard
  9
$CMLJUST
 70
     0
  9
$CMLSCALE
 40
1.0
  9
$PROXYGRAPHICS
 70
     1
  9
$MEASUREMENT
 70
     0
  9
$CELWEIGHT
370
    -1
  9
$ENDCAPS
280
     0
  9
$JOINSTYLE
280
     0
  9
$LWDISPLAY
290
     0
  9
$INSUNITS
 70
     0
  9
$HYPERLINKBASE
  1

  9
$STYLESHEET
  1

  9
$XEDIT
290
     1
  9
$CEPSNTYPE
380
     0
  9
$PSTYLEMODE
290
     1
  9
$FINGERPRINTGUID
  2
{DAE4442C-A7B8-446A-8745-7F6EAFE6B79D}
  9
$VERSIONGUID
  2
{FE1306C4-35DB-4AB2-9CBA-B3C3DEE9DF86}
  9
$EXTNAMES
290
     1
  9
$PSVPSCALE
 40
0.0
  9
$OLESTARTUP
290
     0
  0
ENDSEC
  0
SECTION
  2
CLASSES
  0
CLASS
  1
ACDBDICTIONARYWDFLT
  2
AcDbDictionaryWithDefault
  3
ObjectDBX Classes
 90
        0
280
     0
281
     0
  0
CLASS
  1
MATERIAL
  2
AcDbMaterial
  3
ObjectDBX Classes
 90
     1153
280
     0
281
     0
  0
CLASS
  1
VISUALSTYLE
  2
AcDbVisualStyle
  3
ObjectDBX Classes
 90
     4095
280
     0
281
     0
  0
CLASS
  1
SCALE
  2
AcDbScale
  3
ObjectDBX Classes
 90
     1153
280
     0
281
     0
  0
CLASS
  1
TABLESTYLE
  2
AcDbTableStyle
  3
ObjectDBX Classes
 90
     4095
280
     0
281
     0
  0
CLASS
  1
MLEADERSTYLE
  2
AcDbMLeaderStyle
  3
ACDB_MLEADERSTYLE_CLASS
 90
     4095
280
     0
281
     0
  0
CLASS
  1
AMGSETTINGSOBJ
  2
AmgSettingsObj
  3
"AcadM|Product Description: AutoCAD Mechanical|Company: Autodesk, Inc."
 90
     1024
280
     0
281
     0
  0
CLASS
  1
ACME_DOCUMENT
  2
AcMeDbDoc
  3
AcMeServices
 90
     1024
280
     0
281
     0
  0
CLASS
  1
ACMESCOPE
  2
AcMeScope
  3
AcMeServices
 90
     1024
280
     0
281
     0
  0
CLASS
  1
ACMECOMMANDHISTORY
  2
AcMeCommandHistory
  3
AcMeServices
 90
     1024
280
     0
281
     0
  0
CLASS
  1
ACIMSYSVARMAN
  2
AcImSysVarManager
  3
AcMeServices
 90
     1024
280
     0
281
     0
  0
CLASS
  1
ACIMREALSYSVAR
  2
AcImRealSysVar
  3
AcMeServices
 90
     1024
280
     0
281
     0
  0
CLASS
  1
ACIMINTSYSVAR
  2
AcImIntSysVar
  3
AcMeServices
 90
     1024
280
     0
281
     0
  0
CLASS
  1
ACMEDRAWINGMAN
  2
AcMeDrawingMan
  3
AcMeServices
 90
     1024
280
     0
281
     0
  0
CLASS
  1
ACMEVIEW
  2
AcMeView
  3
AcMeServices
 90
     1024
280
     0
281
     0
  0
CLASS
  1
ACDBENTITYCACHE
  2
AcMeEntityCache
  3
AcMeServices
 90
     1024
280
     0
281
     0
  0
CLASS
  1
GSMANAGER
  2
AcMeGSManager
  3
AcMeServices
 90
     1024
280
     0
281
     0
  0
CLASS
  1
AMDTINTERNALREACTOR
  2
AmdtInternalReactor
  3
AcMeServices
 90
     1024
280
     0
281
     0
  0
CLASS
  1
ACMESTATEMGR
  2
AcMeStateMgr
  3
AcMeServices
 90
     1024
280
     0
281
     0
  0
CLASS
  1
ACGREFMASTER
  2
AcGrefMaster
  3
AcAttribServices
 90
     1024
280
     0
281
     0
  0
CLASS
  1
AM_DRAWING_MGR
  2
AcDmDwgMgr
  3
AcMechDwgViewMgmt
 90
     1024
280
     0
281
     0
  0
CLASS
  1
AM_DWG_DOCUMENT
  2
AcDmDwgDocument
  3
AcMechDwgViewMgmt
 90
     1024
280
     0
281
     0
  0
CLASS
  1
AM_DWG_SHEET
  2
AcDmSheet
  3
AcMechDwgViewMgmt
 90
     1024
280
     0
281
     0
  0
CLASS
  1
AM_VIEWDIMPARMAP
  2
AcDmViewDimParMap
  3
AcMechDwgViewMgmt
 90
     1024
280
     0
281
     0
  0
CLASS
  1
AM_DWGMGR_NAME
  2
AcDmDwgMgrName
  3
AcMechDwgViewMgmt
 90
     1024
280
     0
281
     0
  0
CLASS
  1
ACME_DATABASE
  2
AcMeDbDatabase
  3
AcMeServices
 90
     1024
280
     0
281
     0
  0
CLASS
  1
ACRFINSADJUSTERMGR
  2
AcRfInsAdjusterMgr
  3
AcMeServices
 90
     1024
280
     0
281
     0
  0
CLASS
  1
ACGREFACADMASTER
  2
AcGrefacadMaster
  3
AcGrefServices
 90
     1024
280
     0
281
     0
  0
CLASS
  1
AMDTMENUSTATEMGR
  2
AmdtMenuStateMgr
  3
McadcomServices
 90
     1024
280
     0
281
     0
  0
CLASS
  1
AMDTMCOMMENUSTATE
  2
AmdtMcomMenuState
  3
McadcomServices
 90
     1024
280
     0
281
     0
  0
CLASS
  1
AMIMASTER
  2
AmiMaster
  3
AmiServices
 90
     1024
280
     0
281
     0
  0
CLASS
  1
ASAPP
  2
AcAsAppObject
  3
AutoSurfServices
 90
     1024
280
     0
281
     0
  0
CLASS
  1
IM_STATIC_MAN
  2
AcImStaticVarManager
  3
AcMeServices
 90
     1024
280
     0
281
     0
  0
CLASS
  1
ACIMSTRSYSVAR
  2
AcImStrSysVar
  3
AcMeServices
 90
     1024
280
     0
281
     0
  0
CLASS
  1
ACIMDBLSTATICVAR
  2
AcImDblStaticVar
  3
AcMeServices
 90
     1024
280
     0
281
     0
  0
CLASS
  1
ACIMSTRSTATICVAR
  2
AcImStrStaticVar
  3
AcMeServices
 90
     1024
280
     0
281
     0
  0
CLASS
  1
ACIMINTSTATICVAR
  2
AcImIntStaticVar
  3
AcMeServices
 90
     1024
280
     0
281
     0
  0
CLASS
  1
ACASGREFMASTER
  2
AcAsGrefMaster
  3
AutoSurfResolverServices
 90
     1024
280
     0
281
     0
  0
CLASS
  1
ACADGREFMODULE
  2
AcAdGrefModule
  3
AdGrefServices
 90
     1024
280
     0
281
     0
  0
CLASS
  1
AMDTMAPISURFMOUDULE
  2
AmdtMApiSurfModule
  3
MApiSurfServices
 90
    33792
280
     0
281
     0
  0
CLASS
  1
MAPIAMMOUDLE
  2
MApiAmModule
  3
MApiAmServices
 90
     1024
280
     0
281
     0
  0
CLASS
  1
AMDTADMENUSTATE
  2
AmdtAdMenuState
  3
DesignerServices
 90
     1024
280
     0
281
     0
  0
CLASS
  1
ADAPPL
  2
AcAdAppl
  3
DesignerServices
 90
     1024
280
     0
281
     0
  0
CLASS
  1
DEPMGR
  2
AcAdDepMgr
  3
DesignerServices
 90
     1024
280
     0
281
     0
  0
CLASS
  1
PARAMMGR
  2
AcAdParamMgr
  3
DesignerServices
 90
     1024
280
     0
281
     0
  0
CLASS
  1
PARAMSCOPE
  2
AcAdParamScope
  3
DesignerServices
 90
     1024
280
     0
281
     0
  0
CLASS
  1
NAMEDAPPL
  2
AcAdNamedAppl
  3
DesignerServices
 90
     1024
280
     0
281
     0
  0
CLASS
  1
AMDTDMMENUSTATE
  2
AmdtDmMenuState
  3
AcMechDwgViewMgmt
 90
     1024
280
     0
281
     0
  0
CLASS
  1
MAPIADMODULE
  2
MApiAdModule
  3
MApiAdServices
 90
     1024
280
     0
281
     0
  0
CLASS
  1
AMDTAMMENUSTATE
  2
AmdtAmMenuState
  3
DesignerAssemblies
 90
     1024
280
     0
281
     0
  0
CLASS
  1
ACAMPROJECT
  2
AcAmProject
  3
DesignerAssemblies
 90
     1024
280
     0
281
     0
  0
CLASS
  1
ACAMGRCOMPDEF
  2
AcAmGrCompDef
  3
DesignerAssemblies
 90
     1024
280
     0
281
     0
  0
CLASS
  1
ACCMCONTEXT
  2
AcCmContext
  3
DesignerAssemblies
 90
     1024
280
     0
281
     0
  0
CLASS
  1
ACAMCOMPDEF
  2
AcAmCompDef
  3
DesignerAssemblies
 90
     1024
280
     0
281
     0
  0
CLASS
  1
ACAMCOMPDEFMGR
  2
AcAmCompDefMgr
  3
DesignerAssemblies
 90
     1024
280
     0
281
     0
  0
CLASS
  1
AMCONTEXTMGR
  2
AcAmContextMgr
  3
DesignerAssemblies
 90
     1024
280
     0
281
     0
  0
CLASS
  1
ACAMCONTEXTMODELER
  2
AcAmContextModeler
  3
DesignerAssemblies
 90
     1024
280
     0
281
     0
  0
CLASS
  1
ACMDATADICTIONARY
  2
AcmDataDictionary
  3
"AcmSymBB|Product Description: AutoCAD Mechanical|Company: Autodesk, Inc."
 90
     1024
280
     0
281
     0
  0
CLASS
  1
ACMDATAENTRYBLOCK
  2
AcmDataEntryBlock
  3
AcmSymBB|Product Description: AutoCAD Mechanical|Company: Autodesk, Inc.
 90
     1024
280
     0
281
     0
  0
CLASS
  1
ACRFATTGENMGR
  2
AcRfAttGeneralMgr
  3
AcAttribServices
 90
     1024
280
     0
281
     0
  0
CLASS
  1
ACRFOBJATTMGR
  2
AcRfObjAttGroupMgr
  3
AcAttribServices
 90
     1024
280
     0
281
     0
  0
CLASS
  1
ACRFMCADAPIATTHOLDER
  2
AcRfMCADAPIAttHolder
  3
AcAttribServices
 90
     1024
280
     0
281
     0
  0
CLASS
  1
AMDTSYSATTR
  2
AmdtSystemAttribute
  3
AcAttribServices
 90
     1024
280
     0
281
     0
  0
CLASS
  1
CATALOGSTATE
  2
AcAmCatalogState
  3
DesignerAssemblies
 90
     1024
280
     0
281
     0
  0
CLASS
  1
ACAMGRCOMPDEFSET
  2
AcAmGrCompDefSet
  3
DesignerAssemblies
 90
     1024
280
     0
281
     0
  0
CLASS
  1
AMDTBROWSERDBTAB
  2
AmdtBrowserDbTab
  3
McadcomServices
 90
     1024
280
     0
281
     0
  0
CLASS
  1
CBROWSERAPPOBJECT
  2
CBrowserAppObject
  3
McadcomServices
 90
     1024
280
     0
281
     0
  0
CLASS
  1
DM_PLACEHOLDER
  2
AcDmSelsetPlaceholder
  3
AcMechDwgViewMgmt
 90
     1024
280
     0
281
     0
  0
CLASS
  1
ACMSTANDARDANSI
  2
AcmStandardANSI
  3
"Amdt_StdImp|Product Description: AutoCAD Mechanical|Company: Autodesk, Inc."
 90
     1024
280
     0
281
     0
  0
CLASS
  1
ACMSURFSTANDARDANSI
  2
AcmSurfTextStdANSI
  3
"Amdt_StdImp|Product Description: AutoCAD Mechanical|Company: Autodesk, Inc."
 90
     1024
280
     0
281
     0
  0
CLASS
  1
ACMFCFSTANDARDANSI
  2
AcmFCFStdANSI
  3
"Amdt_StdImp|Product Description: AutoCAD Mechanical|Company: Autodesk, Inc."
 90
     1024
280
     0
281
     0
  0
CLASS
  1
ACMWELDSTANDARDANSI
  2
AcmWeldingStdANSI
  3
"Amdt_StdImp|Product Description: AutoCAD Mechanical|Company: Autodesk, Inc."
 90
     1024
280
     0
281
     0
  0
CLASS
  1
ACMIDSTANDARDANSI
  2
AcmIdStdANSI
  3
"Amdt_StdImp|Product Description: AutoCAD Mechanical|Company: Autodesk, Inc."
 90
     1024
280
     0
281
     0
  0
CLASS
  1
ACMDATUMSTANDARDANSI
  2
AcmDatumStdANSI
  3
"Amdt_StdImp|Product Description: AutoCAD Mechanical|Company: Autodesk, Inc."
 90
     1024
280
     0
281
     0
  0
CLASS
  1
ACMBOMSTANDARDANSI
  2
AcmBOMStdANSI
  3
"Amdt_StdImp|Product Description: AutoCAD Mechanical|Company: Autodesk, Inc."
 90
     1024
280
     0
281
     0
  0
CLASS
  1
ACMDETAILSTANDARDANSI
  2
AmdtDetailSymStdANSI
  3
"Amdt_StdImp|Product Description: AutoCAD Mechanical|Company: Autodesk, Inc."
 90
     1024
280
     0
281
     0
  0
CLASS
  1
ACMSECTIONSTANDARDANSI
  2
AmdtSectionSymStdANSI
  3
"Amdt_StdImp|Product Description: AutoCAD Mechanical|Company: Autodesk, Inc."
 90
     1024
280
     0
281
     0
  0
CLASS
  1
ACMCENTERLINESTANDARDANSI
  2
AmdtCenterLineStdANSI
  3
"Amdt_StdImp|Product Description: AutoCAD Mechanical|Company: Autodesk, Inc."
 90
     1024
280
     0
281
     0
  0
CLASS
  1
ACMTHREADLINESTANDARDANSI
  2
AmdtThreadLineStdANSI
  3
"Amdt_StdImp|Product Description: AutoCAD Mechanical|Company: Autodesk, Inc."
 90
     1024
280
     0
281
     0
  0
CLASS
  1
ACMNOTESTANDARDANSI
  2
AmdtNoteStdANSI
  3
"Amdt_StdImp|Product Description: AutoCAD Mechanical|Company: Autodesk, Inc."
 90
     1024
280
     0
281
     0
  0
CLASS
  1
ACMTAPERSTANDARDANSI
  2
AcmTaperStdANSI
  3
"Amdt_StdImp|Product Description: AutoCAD Mechanical|Company: Autodesk, Inc."
 90
     1024
280
     0
281
     0
  0
CLASS
  1
ACMANOOTATIONVIEWSTANDARDANSI
  2
AmdtAnViewStdANSI
  3
"Amdt_StdImp|Product Description: AutoCAD Mechanical|Company: Autodesk, Inc."
 90
     1024
280
     0
281
     0
  0
CLASS
  1
ACAMGLAYSTD
  2
AcAmgLayStd
  3
"AmgLay|Product Description: AutoCAD Mechanical|Company: Autodesk, Inc."
 90
     1024
280
     0
281
     0
  0
CLASS
  1
ACAMGDIMSTD
  2
AcAmgDimStd
  3
"AmgDim|Product Description: AutoCAD Mechanical|Company: Autodesk, Inc."
 90
     1024
280
     0
281
     0
  0
CLASS
  1
ACAMGHOLECHARTSTDANSI
  2
AcAmgHoleChartStdANSI
  3
AmgDim|Product Description: AutoCAD Mechanical|Company: Autodesk, Inc.
 90
     1024
280
     0
281
     0
  0
CLASS
  1
AMGOBJPROPCFG
  2
AmgObjPropCfg
  3
"AmgLay|Product Description: AutoCAD Mechanical|Company: Autodesk, Inc."
 90
     1025
280
     0
281
     0
  0
CLASS
  1
ACAMGTITLESTD
  2
AcAmgTitleStd
  3
"AmgTitle|Product Description: AutoCAD Mechanical|Company: Autodesk, Inc."
 90
     4095
280
     0
281
     0
  0
CLASS
  1
AMDTNOTETEMPLATEDB
  2
AmdtNoteTemplateDB
  3
AcmSymBB|Product Description: AutoCAD Mechanical|Company: Autodesk, Inc.
 90
     1024
280
     0
281
     0
  0
CLASS
  1
LAYER_INDEX
  2
AcDbLayerIndex
  3
ObjectDBX Classes
 90
        0
280
     0
281
     0
  0
CLASS
  1
IDBUFFER
  2
AcDbIdBuffer
  3
ObjectDBX Classes
 90
        0
280
     0
281
     0
  0
CLASS
  1
DICTIONARYVAR
  2
AcDbDictionaryVar
  3
ObjectDBX Classes
 90
        0
280
     0
281
     0
  0
CLASS
  1
CELLSTYLEMAP
  2
AcDbCellStyleMap
  3
ObjectDBX Classes
 90
     1152
280
     0
281
     0
  0
CLASS
  1
ACDBPLACEHOLDER
  2
AcDbPlaceHolder
  3
ObjectDBX Classes
 90
        0
280
     0
281
     0
  0
CLASS
  1
LAYOUT
  2
AcDbLayout
  3
ObjectDBX Classes
 90
        0
280
     0
281
     0
  0
CLASS
  1
ACDB_HATCHSCALECONTEXTDATA_CLASS
  2
AcDbHatchScaleContextData
  3
ObjectDBX Classes
 90
     1153
280
     0
281
     0
  0
CLASS
  1
SORTENTSTABLE
  2
AcDbSortentsTable
  3
ObjectDBX Classes
 90
        0
280
     0
281
     0
  0
CLASS
  1
ACAMGFILTERDAT
  2
AcAmgFilterDat
  3
"AcadM|Product Description: AutoCAD Mechanical|Company: Autodesk, Inc."
 90
     1024
280
     0
281
     0
  0
CLASS
  1
ACDB_HATCHVIEWCONTEXTDATA_CLASS
  2
AcDbHatchViewContextData
  3
ObjectDBX Classes
 90
     1153
280
     0
281
     0
  0
ENDSEC
  0
SECTION
  2
TABLES
  0
TABLE
  2
VPORT
  5
34C4
330
0
100
AcDbSymbolTable
 70
     1
  0
VPORT
  5
3534
330
34C4
100
AcDbSymbolTableRecord
100
AcDbViewportTableRecord
  2
*ACTIVE
 70
     0
 10
0.0
 20
0.0
 11
1.0
 21
1.0
 12
-222.1132976012582
 22
-54.63164296342029
 13
0.0
 23
0.0
 14
1.0
 24
1.0
 15
0.0
 25
0.0
 16
0.0
 26
0.0
 36
1.0
 17
250.4374386616368
 27
44.2175291950266
 37
0.0
 40
1410.509616102681
 41
1.712555066079294
 42
50.0
 43
0.0
 44
0.0
 50
0.0
 51
0.0
 71
     0
 72
   100
 73
     1
 74
     0
 75
     0
 76
     0
 77
     0
 78
     0
281
     0
 65
     0
110
0.0
120
0.0
130
0.0
111
1.0
121
0.0
131
0.0
112
0.0
122
1.0
132
0.0
 79
     0
146
0.0
  0
ENDTAB
  0
TABLE
  2
LTYPE
  5
34C1
330
0
100
AcDbSymbolTable
 70
    20
  0
LTYPE
  5
351E
330
34C1
100
AcDbSymbolTableRecord
100
AcDbLinetypeTableRecord
  2
ByBlock
 70
     0
  3

 72
    65
 73
     0
 40
0.0
  0
LTYPE
  5
351F
330
34C1
100
AcDbSymbolTableRecord
100
AcDbLinetypeTableRecord
  2
ByLayer
 70
     0
  3

 72
    65
 73
     0
 40
0.0
  0
LTYPE
  5
3520
330
34C1
100
AcDbSymbolTableRecord
100
AcDbLinetypeTableRecord
  2
CONTINUOUS
 70
     0
  3
実線
 72
    65
 73
     0
 40
0.0
  0
LTYPE
  5
3535
330
34C1
100
AcDbSymbolTableRecord
100
AcDbLinetypeTableRecord
  2
DASHDOT
 70
     0
  3
____ _ ____ _ ____ _ ____ _ ____ _ ____ _ ____
 72
    65
 73
     4
 40
5.5
 49
4.0
 74
     0
 49
-0.6
 74
     0
 49
0.3
 74
     0
 49
-0.6
 74
     0
  0
LTYPE
  5
3536
330
34C1
100
AcDbSymbolTableRecord
100
AcDbLinetypeTableRecord
  2
HIDDEN
 70
     0
  3
Hidden __ __ __ __ __ __ __ __ __ __ __ __ __ _
 72
    65
 73
     2
 40
0.375
 49
0.25
 74
     0
 49
-0.125
 74
     0
  0
LTYPE
  5
3537
330
34C1
100
AcDbSymbolTableRecord
100
AcDbLinetypeTableRecord
  2
PHANTOM2
 70
     0
  3
Phantom (.5x) ___ _ _ ___ _ _ ___ _ _ ___ _ _
 72
    65
 73
     6
 40
1.25
 49
0.625
 74
     0
 49
-0.125
 74
     0
 49
0.125
 74
     0
 49
-0.125
 74
     0
 49
0.125
 74
     0
 49
-0.125
 74
     0
  0
LTYPE
  5
3538
330
34C1
100
AcDbSymbolTableRecord
100
AcDbLinetypeTableRecord
  2
CENTER
 70
     0
  3
Center ____ _ ____ _ ____ _ ____ _ ____ _ ____
 72
    65
 73
     4
 40
2.0
 49
1.25
 74
     0
 49
-0.25
 74
     0
 49
0.25
 74
     0
 49
-0.25
 74
     0
  0
LTYPE
  5
3539
330
34C1
100
AcDbSymbolTableRecord
100
AcDbLinetypeTableRecord
  2
ASULTYPE
 70
     0
  3
実線
 72
    65
 73
     2
 40
3.0
 49
2.5
 74
     0
 49
0.5
 74
     0
  0
LTYPE
  5
353A
330
34C1
100
AcDbSymbolTableRecord
100
AcDbLinetypeTableRecord
  2
ASVLTYPE
 70
     0
  3
__ __ __ __ __ __ __ __ __ __ __ __ __ __ __ __ __ __ __ __ __
 72
    65
 73
     2
 40
0.75
 49
0.5
 74
     0
 49
-0.25
 74
     0
  0
LTYPE
  5
353B
330
34C1
100
AcDbSymbolTableRecord
100
AcDbLinetypeTableRecord
  2
AM_ISO02W050
 70
     0
  3
__ __ __ __ __ __ __ __ __ __ __ __ __ __ __
 72
    65
 73
     2
 40
7.5
 49
6.0
 74
     0
 49
-1.5
 74
     0
  0
LTYPE
  5
353C
330
34C1
100
AcDbSymbolTableRecord
100
AcDbLinetypeTableRecord
  2
AM_ISO08W050
 70
     0
  3
____ . ____ . ____ . ____ . ____ . ____ . ____
 72
    65
 73
     4
 40
18.0
 49
12.0
 74
     0
 49
-1.5
 74
     0
 49
3.0
 74
     0
 49
-1.5
 74
     0
  0
LTYPE
  5
353D
330
34C1
100
AcDbSymbolTableRecord
100
AcDbLinetypeTableRecord
  2
AM_ISO09W050
 70
     0
  3
_____ . . _____ . . _____ . . ____ .. ____
 72
    65
 73
     6
 40
22.5
 49
12.0
 74
     0
 49
-1.5
 74
     0
 49
3.0
 74
     0
 49
-1.5
 74
     0
 49
3.0
 74
     0
 49
-1.5
 74
     0
  0
LTYPE
  5
353E
330
34C1
100
AcDbSymbolTableRecord
100
AcDbLinetypeTableRecord
  2
AMCONSTR
 70
     0
  3
_______________________
 72
    65
 73
     2
 40
9999.0
 49
9999.0
 74
     0
 49
0.0
 74
     0
  0
LTYPE
  5
353F
330
34C1
100
AcDbSymbolTableRecord
100
AcDbLinetypeTableRecord
  2
AM_ISO08W050X2
 70
     0
  3
__ . __ . __ . __ . __ . __
 72
    65
 73
     4
 40
9.0
 49
6.0
 74
     0
 49
-0.75
 74
     0
 49
1.5
 74
     0
 49
-0.75
 74
     0
  0
LTYPE
  5
3540
330
34C1
100
AcDbSymbolTableRecord
100
AcDbLinetypeTableRecord
  2
AM_ISO02W050X2
 70
     0
  3
 _ _ _ _ _ _ _ _ _ _ _ _
 72
    65
 73
     2
 40
3.75
 49
3.0
 74
     0
 49
-0.75
 74
     0
  0
LTYPE
  5
3541
330
34C1
100
AcDbSymbolTableRecord
100
AcDbLinetypeTableRecord
  2
AMZIGZAG
 70
     0
  3
/\/-/\/-/\/-/\/-/\/-/\/
 72
    65
 73
     2
 40
11.0001
 49
0.0001
 74
     0
 49
-11.0
 74
     0
  0
LTYPE
  5
3542
330
34C1
100
AcDbSymbolTableRecord
100
AcDbLinetypeTableRecord
  2
CENTER2
 70
     0
  3
Center (.5x) ___ _ ___ _ ___ _ ___ _ ___ _ ___
 72
    65
 73
     4
 40
1.125
 49
0.75
 74
     0
 49
-0.125
 74
     0
 49
0.125
 74
     0
 49
-0.125
 74
     0
  0
LTYPE
  5
3543
330
34C1
100
AcDbSymbolTableRecord
100
AcDbLinetypeTableRecord
  2
HIDDEN2
 70
     0
  3
Hidden (.5x) _ _ _ _ _ _ _ _ _ _ _ _ _ _ _ _ _
 72
    65
 73
     2
 40
0.1875
 49
0.125
 74
     0
 49
-0.0625
 74
     0
  0
LTYPE
  5
3544
330
34C1
100
AcDbSymbolTableRecord
100
AcDbLinetypeTableRecord
  2
AMZIGZAG2
 70
     0
  3
/\/-/\/-/\/-/\/-/\/-/\/
 72
    65
 73
     2
 40
0.4401
 49
0.0001
 74
     0
 49
-0.4400000000000003
 74
     0
  0
LTYPE
  5
3545
330
34C1
100
AcDbSymbolTableRecord
100
AcDbLinetypeTableRecord
  2
ACANSTGB
 70
     0
  3
__ . . __ . .
 72
    65
 73
     6
 40
0.35433070866
 49
0.15748031496
 74
     0
 49
-0.03937007874
 74
     0
 49
0.03937007874
 74
     0
 49
-0.03937007874
 74
     0
 49
0.03937007874
 74
     0
 49
-0.03937007874
 74
     0
  0
LTYPE
  5
3546
330
34C1
100
AcDbSymbolTableRecord
100
AcDbLinetypeTableRecord
  2
ACANSTGL
 70
     0
  3
_ _ _ _ _
 72
    65
 73
     2
 40
0.11811023622
 49
0.07874015748
 74
     0
 49
-0.03937007874
 74
     0
  0
LTYPE
  5
3814
330
34C1
100
AcDbSymbolTableRecord
100
AcDbLinetypeTableRecord
  2
DASHED
 70
     0
  3
_ _ _ _ _ _ _ _ _ _ _ _ _ _ _ _ _ _ _ _ _ _ _
 72
    65
 73
     2
 40
2.0
 49
1.199999999999999
 74
     0
 49
-0.8
 74
     0
  0
ENDTAB
  0
TABLE
  2
LAYER
  5
34BE
102
{ACAD_XDICTIONARY
360
3817
102
}
330
0
100
AcDbSymbolTable
 70
    14
  0
LAYER
  5
3518
102
{ACAD_XDICTIONARY
360
36F1
102
}
330
34BE
100
AcDbSymbolTableRecord
100
AcDbLayerTableRecord
  2
0
 70
     0
 62
     7
  6
CONTINUOUS
370
    -3
390
34CB
  0
LAYER
  5
3547
102
{ACAD_XDICTIONARY
360
36F3
102
}
330
34BE
100
AcDbSymbolTableRecord
100
AcDbLayerTableRecord
  2
OUTLINE
 70
     0
 62
     3
  6
CONTINUOUS
370
    -3
390
34CB
  0
LAYER
  5
3548
102
{ACAD_XDICTIONARY
360
36F5
102
}
330
34BE
100
AcDbSymbolTableRecord
100
AcDbLayerTableRecord
  2
SIZE
 70
     0
 62
    30
  6
CONTINUOUS
370
    -3
390
34CB
  0
LAYER
  5
3549
102
{ACAD_XDICTIONARY
360
36F7
102
}
330
34BE
100
AcDbSymbolTableRecord
100
AcDbLayerTableRecord
  2
BASIS
 70
     0
 62
     6
  6
DASHDOT
370
    -3
390
34CB
  0
LAYER
  5
354A
102
{ACAD_XDICTIONARY
360
36F9
102
}
330
34BE
100
AcDbSymbolTableRecord
100
AcDbLayerTableRecord
  2
DETAIL
 70
     0
 62
     5
  6
CONTINUOUS
370
    -3
390
34CB
  0
LAYER
  5
354B
102
{ACAD_XDICTIONARY
360
36FB
102
}
330
34BE
100
AcDbSymbolTableRecord
100
AcDbLayerTableRecord
  2
ARRANGE
 70
     0
 62
     1
  6
CONTINUOUS
370
    -3
390
34CB
  0
LAYER
  5
354C
330
34BE
100
AcDbSymbolTableRecord
100
AcDbLayerTableRecord
  2
DEFPOINTS
 70
     0
 62
     7
  6
CONTINUOUS
290
     0
370
    -3
390
34CB
  0
LAYER
  5
354D
102
{ACAD_XDICTIONARY
360
36FD
102
}
330
34BE
100
AcDbSymbolTableRecord
100
AcDbLayerTableRecord
  2
ETC
 70
     0
 62
    61
  6
CONTINUOUS
370
    -3
390
34CB
  0
LAYER
  5
354E
102
{ACAD_XDICTIONARY
360
36FF
102
}
330
34BE
100
AcDbSymbolTableRecord
100
AcDbLayerTableRecord
  2
FIX
 70
     0
 62
    11
  6
CONTINUOUS
370
    -3
390
34CB
  0
LAYER
  5
354F
102
{ACAD_XDICTIONARY
360
3701
102
}
330
34BE
100
AcDbSymbolTableRecord
100
AcDbLayerTableRecord
  2
NOTE
 70
     0
 62
     4
  6
CONTINUOUS
370
    -3
390
34CB
  0
LAYER
  5
3550
102
{ACAD_XDICTIONARY
360
3703
102
}
330
34BE
100
AcDbSymbolTableRecord
100
AcDbLayerTableRecord
  2
SERVICESPACE
 70
     0
 62
     2
  6
DASHDOT
370
    -3
390
34CB
  0
LAYER
  5
3551
102
{ACAD_XDICTIONARY
360
3705
102
}
330
34BE
100
AcDbSymbolTableRecord
100
AcDbLayerTableRecord
  2
SYMBOLLINE
 70
     0
 62
    15
  6
CONTINUOUS
370
    -3
390
34CB
  0
LAYER
  5
3552
102
{ACAD_XDICTIONARY
360
3707
102
}
330
34BE
100
AcDbSymbolTableRecord
100
AcDbLayerTableRecord
  2
DETAIL___1
 70
     0
 62
     5
  6
CONTINUOUS
370
    -3
390
34CB
  0
LAYER
  5
394E
102
{ACAD_XDICTIONARY
360
394F
102
}
330
34BE
100
AcDbSymbolTableRecord
100
AcDbLayerTableRecord
  2
DETAIL @ 1
 70
     0
 62
     5
  6
CONTINUOUS
370
    -3
390
34CB
1001
AcadAnnotativeDecomposition
1000
AnnotativeData
1002
{
1070
     1
1070
     1
1002
}
  0
ENDTAB
  0
TABLE
  2
STYLE
  5
34BF
330
0
100
AcDbSymbolTable
 70
     5
  0
STYLE
  5
3519
330
34BF
100
AcDbSymbolTableRecord
100
AcDbTextStyleTableRecord
  2
STANDARD
 70
     0
 40
64.0
 41
0.9
 50
0.0
 71
     0
 42
64.0
  3
SIMPLEX.shx
  4
BIGFONT.shx
  0
STYLE
  5
351D
330
34BF
100
AcDbSymbolTableRecord
100
AcDbTextStyleTableRecord
  2
ANNOTATIVE
 70
     0
 40
0.0
 41
1.0
 50
0.0
 71
     0
 42
0.2
  3
txt
  4

1001
ACADANNOTATIVE
1000
AnnotativeData
1002
{
1070
     1
1070
     1
1002
}
  0
STYLE
  5
3553
330
34BF
100
AcDbSymbolTableRecord
100
AcDbTextStyleTableRecord
  2

 70
     1
 40
0.0
 41
1.0
 50
0.0
 71
     0
 42
64.0
  3
genltshp.shx
  4

  0
STYLE
  5
3554
330
34BF
100
AcDbSymbolTableRecord
100
AcDbTextStyleTableRecord
  2
ACANSTS
 70
     0
 40
1.0
 41
1.0
 50
0.0
 71
     0
 42
64.0
  3
romans.shx
  4
extfont.shx
  0
STYLE
  5
3555
330
34BF
100
AcDbSymbolTableRecord
100
AcDbTextStyleTableRecord
  2
ACANSGDT
 70
     0
 40
0.0
 41
1.0
 50
0.0
 71
     0
 42
64.0
  3
amgdt.shx
  4

  0
ENDTAB
  0
TABLE
  2
VIEW
  5
34C2
330
0
100
AcDbSymbolTable
 70
     1
  0
VIEW
  5
3556
330
34C2
100
AcDbSymbolTableRecord
100
AcDbViewTableRecord
  2
ALL
 70
     0
 40
4282.619807999997
 10
0.0
 20
41.30990399999999
 41
5940.0
 11
0.0
 21
0.0
 31
1.0
 12
0.0
 22
0.0
 32
0.0
 42
50.0
 43
0.0
 44
0.0
 50
0.0
 71
     0
281
     0
 72
     1
110
0.0
120
0.0
130
0.0
111
1.0
121
0.0
131
0.0
112
0.0
122
1.0
132
0.0
 79
     0
146
0.0
  0
ENDTAB
  0
TABLE
  2
UCS
  5
34C3
330
0
100
AcDbSymbolTable
 70
     0
  0
ENDTAB
  0
TABLE
  2
APPID
  5
34C5
330
0
100
AcDbSymbolTable
 70
    34
  0
APPID
  5
351A
330
34C5
100
AcDbSymbolTableRecord
100
AcDbRegAppTableRecord
  2
ACAD
 70
     0
  0
APPID
  5
3521
330
34C5
100
AcDbSymbolTableRecord
100
AcDbRegAppTableRecord
  2
ACADANNOTATIVE
 70
     0
  0
APPID
  5
352B
330
34C5
100
AcDbSymbolTableRecord
100
AcDbRegAppTableRecord
  2
ACAD_MLEADERVER
 70
     0
  0
APPID
  5
3557
330
34C5
100
AcDbSymbolTableRecord
100
AcDbRegAppTableRecord
  2
GENIUS_GENDIM_13
 70
     0
  0
APPID
  5
3558
330
34C5
100
AcDbSymbolTableRecord
100
AcDbRegAppTableRecord
  2
GENIUS_GENDTOL_13
 70
     0
  0
APPID
  5
3559
330
34C5
100
AcDbSymbolTableRecord
100
AcDbRegAppTableRecord
  2
GENIUS_GE3DTOL_13
 70
     0
  0
APPID
  5
355A
330
34C5
100
AcDbSymbolTableRecord
100
AcDbRegAppTableRecord
  2
MCAD_NO_VIS
 70
     0
  0
APPID
  5
355B
330
34C5
100
AcDbSymbolTableRecord
100
AcDbRegAppTableRecord
  2
ACAD_TEMP_GRAPHIC
 70
     0
  0
APPID
  5
355C
330
34C5
100
AcDbSymbolTableRecord
100
AcDbRegAppTableRecord
  2
AD_DRAW
 70
     0
  0
APPID
  5
355D
330
34C5
100
AcDbSymbolTableRecord
100
AcDbRegAppTableRecord
  2
ACATTRIBSERVICES
 70
     0
  0
APPID
  5
355E
330
34C5
100
AcDbSymbolTableRecord
100
AcDbRegAppTableRecord
  2
ASURF_PCURVE_APPNAME
 70
     0
  0
APPID
  5
355F
330
34C5
100
AcDbSymbolTableRecord
100
AcDbRegAppTableRecord
  2
AMG_3D2D_5_0
 70
     0
  0
APPID
  5
3560
330
34C5
100
AcDbSymbolTableRecord
100
AcDbRegAppTableRecord
  2
DESIGNERASSEMBLIES
 70
     0
  0
APPID
  5
3561
330
34C5
100
AcDbSymbolTableRecord
100
AcDbRegAppTableRecord
  2
ACADM_DIM_EDIT
 70
     0
  0
APPID
  5
3562
330
34C5
100
AcDbSymbolTableRecord
100
AcDbRegAppTableRecord
  2
AMDT_DM_ADJ
 70
     0
  0
APPID
  5
3563
330
34C5
100
AcDbSymbolTableRecord
100
AcDbRegAppTableRecord
  2
ACAD_DSTYLE_DIMARC_LENGTH_
 70
     0
  0
APPID
  5
3564
330
34C5
100
AcDbSymbolTableRecord
100
AcDbRegAppTableRecord
  2
ACAD_DSTYLE_DIMJOGGED_JOGA
 70
     0
  0
APPID
  5
3565
330
34C5
100
AcDbSymbolTableRecord
100
AcDbRegAppTableRecord
  2
ACAD_PSEXT
 70
     0
  0
APPID
  5
3566
330
34C5
100
AcDbSymbolTableRecord
100
AcDbRegAppTableRecord
  2
ACAD_EXEMPT_FROM_CAD_STANDARDS
 70
     0
  0
APPID
  5
3567
330
34C5
100
AcDbSymbolTableRecord
100
AcDbRegAppTableRecord
  2
ACAD_DSTYLE_DIMJAG
 70
     0
  0
APPID
  5
3568
330
34C5
100
AcDbSymbolTableRecord
100
AcDbRegAppTableRecord
  2
ACAD_DSTYLE_DIMTALN
 70
     0
  0
APPID
  5
3569
330
34C5
100
AcDbSymbolTableRecord
100
AcDbRegAppTableRecord
  2
AMG_3D2D_5_00
 70
     0
  0
APPID
  5
356A
330
34C5
100
AcDbSymbolTableRecord
100
AcDbRegAppTableRecord
  2
AMG_3D2D_5_01
 70
     0
  0
APPID
  5
356B
330
34C5
100
AcDbSymbolTableRecord
100
AcDbRegAppTableRecord
  2
AMG_3D2D_5_02
 70
     0
  0
APPID
  5
356C
330
34C5
100
AcDbSymbolTableRecord
100
AcDbRegAppTableRecord
  2
AMG_3D2D_5_03
 70
     0
  0
APPID
  5
356D
330
34C5
100
AcDbSymbolTableRecord
100
AcDbRegAppTableRecord
  2
AMG_3D2D_5_04
 70
     0
  0
APPID
  5
356E
330
34C5
100
AcDbSymbolTableRecord
100
AcDbRegAppTableRecord
  2
AMG_3D2D_5_05
 70
     0
  0
APPID
  5
3698
330
34C5
100
AcDbSymbolTableRecord
100
AcDbRegAppTableRecord
  2
AMG_3D2D_5.0
 70
     0
  0
APPID
  5
3731
330
34C5
100
AcDbSymbolTableRecord
100
AcDbRegAppTableRecord
  2
ACAD_DSTYLE_DIMARC_LENGTH_SYMBOL
 70
     0
  0
APPID
  5
3732
330
34C5
100
AcDbSymbolTableRecord
100
AcDbRegAppTableRecord
  2
ACAD_DSTYLE_DIM_LINETYPE
 70
     0
  0
APPID
  5
3733
330
34C5
100
AcDbSymbolTableRecord
100
AcDbRegAppTableRecord
  2
ACAD_DSTYLE_DIM_EXT1_LINETYPE
 70
     0
  0
APPID
  5
3734
330
34C5
100
AcDbSymbolTableRecord
100
AcDbRegAppTableRecord
  2
ACAD_DSTYLE_DIM_EXT2_LINETYPE
 70
     0
  0
APPID
  5
3815
330
34C5
100
AcDbSymbolTableRecord
100
AcDbRegAppTableRecord
  2
ACAD_DSTYLE_DIMJOGGED_JOGANGLE_SYMBOL
 70
     0
  0
APPID
  5
3816
330
34C5
100
AcDbSymbolTableRecord
100
AcDbRegAppTableRecord
  2
AcadAnnotativeDecomposition
 70
     0
  0
ENDTAB
  0
TABLE
  2
DIMSTYLE
  5
34C6
330
0
100
AcDbSymbolTable
 70
    10
100
AcDbDimStyleTable
 71
     1
340
356F
  0
DIMSTYLE
105
351B
330
34C6
100
AcDbSymbolTableRecord
100
AcDbDimStyleTableRecord
  2
STANDARD
 70
     0
 41
12.0
 42
20.0
 44
20.0
 77
     1
 78
     8
140
64.0
141
0.0
147
10.0
275
     1
279
     2
284
     7
285
     7
286
     7
340
3519
  0
DIMSTYLE
105
351C
330
34C6
100
AcDbSymbolTableRecord
100
AcDbDimStyleTableRecord
  2
ANNOTATIVE
 70
     0
275
     1
279
     2
284
     7
285
     7
286
     7
340
3519
1001
ACADANNOTATIVE
1000
AnnotativeData
1002
{
1070
     1
1070
     1
1002
}
  0
DIMSTYLE
105
356F
330
34C6
100
AcDbSymbolTableRecord
100
AcDbDimStyleTableRecord
  2
AM_ANSI
 70
     0
  4
mm
 41
0.12
 42
0.05
 43
0.5
 44
0.1
 47
0.1
 48
0.1
 78
     7
 79
     2
140
0.12
141
0.0
146
0.71
147
0.06
176
   256
177
   256
178
     2
274
     4
284
     7
340
3519
371
    -1
372
    -1
1001
ACAD_DSTYLE_DIMARC_LENGTH_SYMBOL
1070
   379
1070
     1
1001
ACAD_DSTYLE_DIM_LINETYPE
1070
   380
1005
351E
1001
ACAD_DSTYLE_DIM_EXT1_LINETYPE
1070
   381
1005
351E
1001
ACAD_DSTYLE_DIM_EXT2_LINETYPE
1070
   382
1005
351E
  0
DIMSTYLE
105
3570
330
34C6
100
AcDbSymbolTableRecord
100
AcDbDimStyleTableRecord
  2
AM_ANSI$3
 70
     0
  4
mm
 41
0.12
 42
0.05
 43
0.5
 44
0.1
 47
0.1
 48
0.1
 78
     7
 79
     2
140
0.12
141
0.0
146
0.71
147
0.06
176
   256
177
   256
178
     2
274
     4
284
     7
288
     1
289
     0
340
3519
371
    -1
372
    -1
1001
ACAD_DSTYLE_DIMARC_LENGTH_SYMBOL
1070
   379
1070
     1
1001
ACAD_DSTYLE_DIM_LINETYPE
1070
   380
1005
351E
1001
ACAD_DSTYLE_DIM_EXT1_LINETYPE
1070
   381
1005
351E
1001
ACAD_DSTYLE_DIM_EXT2_LINETYPE
1070
   382
1005
351E
  0
DIMSTYLE
105
3571
330
34C6
100
AcDbSymbolTableRecord
100
AcDbDimStyleTableRecord
  2
AM_ANSI$4
 70
     0
  4
mm
 41
0.12
 42
0.05
 43
0.5
 44
0.1
 47
0.1
 48
0.1
 78
     7
 79
     2
140
0.12
141
0.0
146
0.71
147
0.06
176
   256
177
   256
178
     2
274
     4
284
     7
340
3519
371
    -1
372
    -1
1001
ACAD_DSTYLE_DIMARC_LENGTH_SYMBOL
1070
   379
1070
     1
1001
ACAD_DSTYLE_DIM_LINETYPE
1070
   380
1005
351E
1001
ACAD_DSTYLE_DIM_EXT1_LINETYPE
1070
   381
1005
351E
1001
ACAD_DSTYLE_DIM_EXT2_LINETYPE
1070
   382
1005
351E
  0
DIMSTYLE
105
3572
330
34C6
100
AcDbSymbolTableRecord
100
AcDbDimStyleTableRecord
  2
AM_ANSI$7
 70
     0
  4
mm
 41
0.12
 42
0.05
 43
0.5
 44
0.1
 47
0.1
 48
0.1
 78
     7
 79
     2
140
0.12
141
0.0
146
0.71
147
0.06
176
   256
177
   256
178
     2
274
     4
284
     7
340
3519
371
    -1
372
    -1
1001
ACAD_DSTYLE_DIMARC_LENGTH_SYMBOL
1070
   379
1070
     1
1001
ACAD_DSTYLE_DIM_LINETYPE
1070
   380
1005
351E
1001
ACAD_DSTYLE_DIM_EXT1_LINETYPE
1070
   381
1005
351E
1001
ACAD_DSTYLE_DIM_EXT2_LINETYPE
1070
   382
1005
351E
  0
DIMSTYLE
105
3573
330
34C6
100
AcDbSymbolTableRecord
100
AcDbDimStyleTableRecord
  2
AM_ANSI$SF
 70
     0
  4
mm
 41
0.12
 42
0.05
 43
0.5
 44
0.1
 47
0.1
 48
0.1
 75
     1
 76
     1
 78
     7
 79
     2
140
0.12
141
0.0
146
0.71
147
0.06
176
   256
177
   256
178
     2
274
     4
284
     7
340
3519
371
    -1
372
    -1
1001
ACAD_DSTYLE_DIMARC_LENGTH_SYMBOL
1070
   379
1070
     1
1001
ACAD_DSTYLE_DIM_LINETYPE
1070
   380
1005
351E
1001
ACAD_DSTYLE_DIM_EXT1_LINETYPE
1070
   381
1005
351E
1001
ACAD_DSTYLE_DIM_EXT2_LINETYPE
1070
   382
1005
351E
  0
DIMSTYLE
105
3574
330
34C6
100
AcDbSymbolTableRecord
100
AcDbDimStyleTableRecord
  2
AM_ANSI$SH
 70
     0
  4
mm
 41
0.12
 42
0.05
 43
0.5
 44
0.1
 47
0.1
 48
0.1
 75
     1
 76
     1
 78
     7
 79
     2
140
0.12
141
0.0
146
0.71
147
0.06
173
     1
176
   256
177
   256
178
     2
274
     4
284
     7
340
3519
343
3594
371
    -1
372
    -1
1001
ACAD_DSTYLE_DIMARC_LENGTH_SYMBOL
1070
   379
1070
     1
1001
ACAD_DSTYLE_DIM_LINETYPE
1070
   380
1005
351E
1001
ACAD_DSTYLE_DIM_EXT1_LINETYPE
1070
   381
1005
351E
1001
ACAD_DSTYLE_DIM_EXT2_LINETYPE
1070
   382
1005
351E
  0
DIMSTYLE
105
3575
330
34C6
100
AcDbSymbolTableRecord
100
AcDbDimStyleTableRecord
  2
STANDARD1
 70
     0
 40
6.0
 41
2.5
 42
0.625
 43
6.0
 44
1.25
 47
1.0
 48
0.5
 77
     1
 78
     8
140
2.5
141
0.0
146
0.6
147
1.0
173
     1
275
     1
279
     2
284
     7
285
     7
286
     7
340
3519
  0
DIMSTYLE
105
3576
330
34C6
100
AcDbSymbolTableRecord
100
AcDbDimStyleTableRecord
  2
STANDARD$0
 70
     0
 41
12.0
 42
20.0
 44
20.0
 73
     0
 74
     0
 77
     1
 78
     8
140
64.0
141
0.0
147
10.0
275
     1
279
     2
284
     7
285
     7
286
     7
340
3519
  0
ENDTAB
  0
TABLE
  2
BLOCK_RECORD
  5
34BD
330
0
100
AcDbSymbolTable
 70
    78
  0
BLOCK_RECORD
  5
3530
102
{ACAD_XDICTIONARY
360
3709
102
}
330
34BD
100
AcDbSymbolTableRecord
100
AcDbBlockTableRecord
  2
*Model_Space
340
3533
  0
BLOCK_RECORD
  5
352C
330
34BD
100
AcDbSymbolTableRecord
100
AcDbBlockTableRecord
  2
*Paper_Space
340
352F
  0
BLOCK_RECORD
  5
357E
330
34BD
100
AcDbSymbolTableRecord
100
AcDbBlockTableRecord
  2
$MODEL_SPACE
340
0
  0
BLOCK_RECORD
  5
3580
330
34BD
100
AcDbSymbolTableRecord
100
AcDbBlockTableRecord
  2
$PAPER_SPACE
340
0
  0
BLOCK_RECORD
  5
3582
330
34BD
100
AcDbSymbolTableRecord
100
AcDbBlockTableRecord
  2
_ORIGIN
340
0
  0
BLOCK_RECORD
  5
3584
330
34BD
100
AcDbSymbolTableRecord
100
AcDbBlockTableRecord
  2
_DOTBLANK
340
0
102
{BLKREFS
331
1299
331
129A
331
11AA
331
11AB
331
E80
331
E81
331
1123
331
1124
331
11C2
331
11C3
331
11EC
331
11ED
331
11F9
331
11FA
331
1287
331
1288
331
1417
331
1418
331
1423
331
1424
331
142F
331
1430
331
143B
331
143C
331
166E
331
166F
331
1677
331
1678
331
1680
331
1681
331
1689
331
168A
331
1696
331
1697
331
16A3
331
16A4
331
16AF
331
16B0
331
16BB
331
16BC
331
16C7
331
16C8
331
16D3
331
16D4
331
1D86
331
1D87
331
1D8F
331
1D90
331
1D98
331
1D99
331
1DA1
331
1DA2
331
1DAB
331
1DAC
331
1DB5
331
1DB6
331
3824
331
3825
331
382A
331
382B
331
3830
331
3831
331
385A
331
385B
331
3862
331
3863
331
3884
331
3885
331
3896
331
3897
331
3922
331
3923
331
3934
331
3935
331
38C2
331
38C3
331
38C8
331
38C9
331
38CE
331
38CF
331
38F8
331
38F9
331
3900
331
3901
102
}
  0
BLOCK_RECORD
  5
3586
330
34BD
100
AcDbSymbolTableRecord
100
AcDbBlockTableRecord
  2
_OPEN30
340
0
102
{BLKREFS
331
2164
331
216D
331
24AD
331
24B6
331
27FF
331
2B2D
331
2B36
331
3220
331
3229
331
384B
331
384E
331
38E9
331
38EC
102
}
  0
BLOCK_RECORD
  5
3588
330
34BD
100
AcDbSymbolTableRecord
100
AcDbBlockTableRecord
  2
*D5
340
0
  0
BLOCK_RECORD
  5
358A
330
34BD
100
AcDbSymbolTableRecord
100
AcDbBlockTableRecord
  2
*U6
340
0
102
{BLKREFS
331
129B
102
}
  0
BLOCK_RECORD
  5
358C
330
34BD
100
AcDbSymbolTableRecord
100
AcDbBlockTableRecord
  2
*D7
340
0
  0
BLOCK_RECORD
  5
358E
330
34BD
100
AcDbSymbolTableRecord
100
AcDbBlockTableRecord
  2
*U8
340
0
102
{BLKREFS
331
11AC
102
}
  0
BLOCK_RECORD
  5
3590
330
34BD
100
AcDbSymbolTableRecord
100
AcDbBlockTableRecord
  2
*D9
340
0
  0
BLOCK_RECORD
  5
3592
330
34BD
100
AcDbSymbolTableRecord
100
AcDbBlockTableRecord
  2
*U10
340
0
102
{BLKREFS
331
E82
102
}
  0
BLOCK_RECORD
  5
3594
330
34BD
100
AcDbSymbolTableRecord
100
AcDbBlockTableRecord
  2
GENAXEH
340
0
  0
BLOCK_RECORD
  5
3596
330
34BD
100
AcDbSymbolTableRecord
100
AcDbBlockTableRecord
  2
*D12
340
0
  0
BLOCK_RECORD
  5
3598
330
34BD
100
AcDbSymbolTableRecord
100
AcDbBlockTableRecord
  2
*U13
340
0
102
{BLKREFS
331
1125
102
}
  0
BLOCK_RECORD
  5
359A
330
34BD
100
AcDbSymbolTableRecord
100
AcDbBlockTableRecord
  2
*D14
340
0
  0
BLOCK_RECORD
  5
359C
330
34BD
100
AcDbSymbolTableRecord
100
AcDbBlockTableRecord
  2
*U15
340
0
102
{BLKREFS
331
11C4
102
}
  0
BLOCK_RECORD
  5
359E
330
34BD
100
AcDbSymbolTableRecord
100
AcDbBlockTableRecord
  2
*D16
340
0
  0
BLOCK_RECORD
  5
35A0
330
34BD
100
AcDbSymbolTableRecord
100
AcDbBlockTableRecord
  2
*U17
340
0
102
{BLKREFS
331
11EE
102
}
  0
BLOCK_RECORD
  5
35A2
330
34BD
100
AcDbSymbolTableRecord
100
AcDbBlockTableRecord
  2
*D18
340
0
  0
BLOCK_RECORD
  5
35A4
330
34BD
100
AcDbSymbolTableRecord
100
AcDbBlockTableRecord
  2
*U19
340
0
102
{BLKREFS
331
11FB
102
}
  0
BLOCK_RECORD
  5
35A6
330
34BD
100
AcDbSymbolTableRecord
100
AcDbBlockTableRecord
  2
*D20
340
0
  0
BLOCK_RECORD
  5
35A8
330
34BD
100
AcDbSymbolTableRecord
100
AcDbBlockTableRecord
  2
*U21
340
0
102
{BLKREFS
331
1289
102
}
  0
BLOCK_RECORD
  5
35AA
330
34BD
100
AcDbSymbolTableRecord
100
AcDbBlockTableRecord
  2
*D22
340
0
  0
BLOCK_RECORD
  5
35AC
330
34BD
100
AcDbSymbolTableRecord
100
AcDbBlockTableRecord
  2
*U23
340
0
102
{BLKREFS
331
1419
102
}
  0
BLOCK_RECORD
  5
35AE
330
34BD
100
AcDbSymbolTableRecord
100
AcDbBlockTableRecord
  2
*D24
340
0
  0
BLOCK_RECORD
  5
35B0
330
34BD
100
AcDbSymbolTableRecord
100
AcDbBlockTableRecord
  2
*U25
340
0
102
{BLKREFS
331
1425
102
}
  0
BLOCK_RECORD
  5
35B2
330
34BD
100
AcDbSymbolTableRecord
100
AcDbBlockTableRecord
  2
*D26
340
0
  0
BLOCK_RECORD
  5
35B4
330
34BD
100
AcDbSymbolTableRecord
100
AcDbBlockTableRecord
  2
*U27
340
0
102
{BLKREFS
331
1431
102
}
  0
BLOCK_RECORD
  5
35B6
330
34BD
100
AcDbSymbolTableRecord
100
AcDbBlockTableRecord
  2
*D28
340
0
  0
BLOCK_RECORD
  5
35B8
330
34BD
100
AcDbSymbolTableRecord
100
AcDbBlockTableRecord
  2
*U29
340
0
102
{BLKREFS
331
143D
102
}
  0
BLOCK_RECORD
  5
35BA
330
34BD
100
AcDbSymbolTableRecord
100
AcDbBlockTableRecord
  2
*D30
340
0
  0
BLOCK_RECORD
  5
35BC
330
34BD
100
AcDbSymbolTableRecord
100
AcDbBlockTableRecord
  2
*U31
340
0
102
{BLKREFS
331
1670
102
}
  0
BLOCK_RECORD
  5
35BE
330
34BD
100
AcDbSymbolTableRecord
100
AcDbBlockTableRecord
  2
*D32
340
0
  0
BLOCK_RECORD
  5
35C0
330
34BD
100
AcDbSymbolTableRecord
100
AcDbBlockTableRecord
  2
*U33
340
0
102
{BLKREFS
331
1679
102
}
  0
BLOCK_RECORD
  5
35C2
330
34BD
100
AcDbSymbolTableRecord
100
AcDbBlockTableRecord
  2
*D34
340
0
  0
BLOCK_RECORD
  5
35C4
330
34BD
100
AcDbSymbolTableRecord
100
AcDbBlockTableRecord
  2
*U35
340
0
102
{BLKREFS
331
1682
102
}
  0
BLOCK_RECORD
  5
35C6
330
34BD
100
AcDbSymbolTableRecord
100
AcDbBlockTableRecord
  2
*D36
340
0
  0
BLOCK_RECORD
  5
35C8
330
34BD
100
AcDbSymbolTableRecord
100
AcDbBlockTableRecord
  2
*U37
340
0
102
{BLKREFS
331
168B
102
}
  0
BLOCK_RECORD
  5
35CA
330
34BD
100
AcDbSymbolTableRecord
100
AcDbBlockTableRecord
  2
*U38
340
0
  0
BLOCK_RECORD
  5
35CC
330
34BD
100
AcDbSymbolTableRecord
100
AcDbBlockTableRecord
  2
*D39
340
0
  0
BLOCK_RECORD
  5
35CE
330
34BD
100
AcDbSymbolTableRecord
100
AcDbBlockTableRecord
  2
*U40
340
0
102
{BLKREFS
331
1698
102
}
  0
BLOCK_RECORD
  5
35D0
330
34BD
100
AcDbSymbolTableRecord
100
AcDbBlockTableRecord
  2
*D41
340
0
  0
BLOCK_RECORD
  5
35D2
330
34BD
100
AcDbSymbolTableRecord
100
AcDbBlockTableRecord
  2
*U42
340
0
102
{BLKREFS
331
16A5
102
}
  0
BLOCK_RECORD
  5
35D4
330
34BD
100
AcDbSymbolTableRecord
100
AcDbBlockTableRecord
  2
*D43
340
0
  0
BLOCK_RECORD
  5
35D6
330
34BD
100
AcDbSymbolTableRecord
100
AcDbBlockTableRecord
  2
*U44
340
0
102
{BLKREFS
331
16B1
102
}
  0
BLOCK_RECORD
  5
35D8
330
34BD
100
AcDbSymbolTableRecord
100
AcDbBlockTableRecord
  2
*D45
340
0
  0
BLOCK_RECORD
  5
35DA
330
34BD
100
AcDbSymbolTableRecord
100
AcDbBlockTableRecord
  2
*U46
340
0
102
{BLKREFS
331
16BD
102
}
  0
BLOCK_RECORD
  5
35DC
330
34BD
100
AcDbSymbolTableRecord
100
AcDbBlockTableRecord
  2
*D47
340
0
  0
BLOCK_RECORD
  5
35DE
330
34BD
100
AcDbSymbolTableRecord
100
AcDbBlockTableRecord
  2
*U48
340
0
102
{BLKREFS
331
16C9
102
}
  0
BLOCK_RECORD
  5
35E0
330
34BD
100
AcDbSymbolTableRecord
100
AcDbBlockTableRecord
  2
*D49
340
0
  0
BLOCK_RECORD
  5
35E2
330
34BD
100
AcDbSymbolTableRecord
100
AcDbBlockTableRecord
  2
*U50
340
0
102
{BLKREFS
331
16D5
102
}
  0
BLOCK_RECORD
  5
35E4
330
34BD
100
AcDbSymbolTableRecord
100
AcDbBlockTableRecord
  2
*D51
340
0
  0
BLOCK_RECORD
  5
35E6
330
34BD
100
AcDbSymbolTableRecord
100
AcDbBlockTableRecord
  2
*U52
340
0
102
{BLKREFS
331
1D88
102
}
  0
BLOCK_RECORD
  5
35E8
330
34BD
100
AcDbSymbolTableRecord
100
AcDbBlockTableRecord
  2
*D53
340
0
  0
BLOCK_RECORD
  5
35EA
330
34BD
100
AcDbSymbolTableRecord
100
AcDbBlockTableRecord
  2
*U54
340
0
102
{BLKREFS
331
1D91
102
}
  0
BLOCK_RECORD
  5
35EC
330
34BD
100
AcDbSymbolTableRecord
100
AcDbBlockTableRecord
  2
*D55
340
0
  0
BLOCK_RECORD
  5
35EE
330
34BD
100
AcDbSymbolTableRecord
100
AcDbBlockTableRecord
  2
*U56
340
0
102
{BLKREFS
331
1D9A
102
}
  0
BLOCK_RECORD
  5
35F0
330
34BD
100
AcDbSymbolTableRecord
100
AcDbBlockTableRecord
  2
*D57
340
0
  0
BLOCK_RECORD
  5
35F2
330
34BD
100
AcDbSymbolTableRecord
100
AcDbBlockTableRecord
  2
*U58
340
0
102
{BLKREFS
331
1DA3
102
}
  0
BLOCK_RECORD
  5
35F4
330
34BD
100
AcDbSymbolTableRecord
100
AcDbBlockTableRecord
  2
*D59
340
0
  0
BLOCK_RECORD
  5
35F6
330
34BD
100
AcDbSymbolTableRecord
100
AcDbBlockTableRecord
  2
*U60
340
0
102
{BLKREFS
331
1DAD
102
}
  0
BLOCK_RECORD
  5
35F8
330
34BD
100
AcDbSymbolTableRecord
100
AcDbBlockTableRecord
  2
*D61
340
0
  0
BLOCK_RECORD
  5
35FA
330
34BD
100
AcDbSymbolTableRecord
100
AcDbBlockTableRecord
  2
*U62
340
0
102
{BLKREFS
331
1DB7
102
}
  0
BLOCK_RECORD
  5
35FC
330
34BD
100
AcDbSymbolTableRecord
100
AcDbBlockTableRecord
  2
*U63
340
0
  0
BLOCK_RECORD
  5
35FE
330
34BD
100
AcDbSymbolTableRecord
100
AcDbBlockTableRecord
  2
*U64
340
0
  0
BLOCK_RECORD
  5
3600
330
34BD
100
AcDbSymbolTableRecord
100
AcDbBlockTableRecord
  2
*U65
340
0
  0
BLOCK_RECORD
  5
3602
330
34BD
100
AcDbSymbolTableRecord
100
AcDbBlockTableRecord
  2
*U66
340
0
  0
BLOCK_RECORD
  5
3604
330
34BD
100
AcDbSymbolTableRecord
100
AcDbBlockTableRecord
  2
*U67
340
0
  0
BLOCK_RECORD
  5
3606
330
34BD
100
AcDbSymbolTableRecord
100
AcDbBlockTableRecord
  2
*U68
340
0
  0
BLOCK_RECORD
  5
3608
330
34BD
100
AcDbSymbolTableRecord
100
AcDbBlockTableRecord
  2
*U69
340
0
  0
BLOCK_RECORD
  5
360A
330
34BD
100
AcDbSymbolTableRecord
100
AcDbBlockTableRecord
  2
*U70
340
0
  0
BLOCK_RECORD
  5
360C
330
34BD
100
AcDbSymbolTableRecord
100
AcDbBlockTableRecord
  2
*U71
340
0
  0
BLOCK_RECORD
  5
360E
330
34BD
100
AcDbSymbolTableRecord
100
AcDbBlockTableRecord
  2
*U72
340
0
  0
BLOCK_RECORD
  5
3610
330
34BD
100
AcDbSymbolTableRecord
100
AcDbBlockTableRecord
  2
*U73
340
0
  0
BLOCK_RECORD
  5
3612
330
34BD
100
AcDbSymbolTableRecord
100
AcDbBlockTableRecord
  2
*X74
340
0
  0
BLOCK_RECORD
  5
3614
330
34BD
100
AcDbSymbolTableRecord
100
AcDbBlockTableRecord
  2
*X75
340
0
  0
ENDTAB
  0
ENDSEC
  0
SECTION
  2
BLOCKS
  0
BLOCK
  5
3531
330
3530
100
AcDbEntity
  8
0
100
AcDbBlockBegin
  2
*Model_Space
 70
     0
 10
0.0
 20
0.0
 30
0.0
  3
*Model_Space
  1

  0
ENDBLK
  5
3532
330
3530
100
AcDbEntity
  8
0
100
AcDbBlockEnd
  0
BLOCK
  5
352D
330
352C
100
AcDbEntity
 67
     1
  8
0
100
AcDbBlockBegin
  2
*Paper_Space
 70
     0
 10
0.0
 20
0.0
 30
0.0
  3
*Paper_Space
  1

  0
ENDBLK
  5
352E
330
352C
100
AcDbEntity
 67
     1
  8
0
100
AcDbBlockEnd
  0
BLOCK
  5
357F
330
357E
100
AcDbEntity
  8
0
100
AcDbBlockBegin
  2
$MODEL_SPACE
 70
     0
 10
0.0
 20
0.0
 30
0.0
  3
$MODEL_SPACE
  1

  0
ENDBLK
  5
3068
330
357E
100
AcDbEntity
  8
0
100
AcDbBlockEnd
  0
BLOCK
  5
3581
330
3580
100
AcDbEntity
  8
0
100
AcDbBlockBegin
  2
$PAPER_SPACE
 70
     0
 10
0.0
 20
0.0
 30
0.0
  3
$PAPER_SPACE
  1

  0
ENDBLK
  5
3064
330
3580
100
AcDbEntity
  8
0
100
AcDbBlockEnd
  0
BLOCK
  5
3583
330
3582
100
AcDbEntity
  8
0
100
AcDbBlockBegin
  2
_ORIGIN
 70
     0
 10
0.0
 20
0.0
 30
0.0
  3
_ORIGIN
  1

  0
CIRCLE
  5
880
330
3582
100
AcDbEntity
  8
0
  6
Continuous
 62
     7
100
AcDbCircle
 10
0.0
 20
0.0
 30
0.0
 40
0.5
  0
LINE
  5
881
330
3582
100
AcDbEntity
  8
0
  6
Continuous
 62
     7
100
AcDbLine
 10
0.0
 20
0.0
 30
0.0
 11
-1.0
 21
0.0
 31
0.0
  0
ENDBLK
  5
882
330
3582
100
AcDbEntity
  8
0
100
AcDbBlockEnd
  0
BLOCK
  5
3585
330
3584
100
AcDbEntity
  8
0
 62
     1
100
AcDbBlockBegin
  2
_DOTBLANK
 70
     0
 10
0.0
 20
0.0
 30
0.0
  3
_DOTBLANK
  1

  0
CIRCLE
  5
AB3
330
3584
100
AcDbEntity
  8
0
  6
ByBlock
 62
     0
100
AcDbCircle
 10
0.0
 20
0.0
 30
0.0
 40
0.5
  0
LINE
  5
AB4
330
3584
100
AcDbEntity
  8
0
  6
ByBlock
 62
     0
100
AcDbLine
 10
-0.5
 20
0.0
 30
0.0
 11
-1.0
 21
0.0
 31
0.0
  0
ENDBLK
  5
AB6
330
3584
100
AcDbEntity
  8
0
 62
     1
100
AcDbBlockEnd
  0
BLOCK
  5
3587
330
3586
100
AcDbEntity
  8
0
 62
     1
100
AcDbBlockBegin
  2
_OPEN30
 70
     0
 10
0.0
 20
0.0
 30
0.0
  3
_OPEN30
  1

  0
LINE
  5
AB8
330
3586
100
AcDbEntity
  8
0
  6
ByBlock
 62
     0
100
AcDbLine
 10
-1.0
 20
0.26794919
 30
0.0
 11
0.0
 21
0.0
 31
0.0
  0
LINE
  5
AB9
330
3586
100
AcDbEntity
  8
0
  6
ByBlock
 62
     0
100
AcDbLine
 10
0.0
 20
0.0
 30
0.0
 11
-1.0
 21
-0.26794919
 31
0.0
  0
LINE
  5
ABA
330
3586
100
AcDbEntity
  8
0
  6
ByBlock
 62
     0
100
AcDbLine
 10
0.0
 20
0.0
 30
0.0
 11
-1.0
 21
0.0
 31
0.0
  0
ENDBLK
  5
ABC
330
3586
100
AcDbEntity
  8
0
 62
     1
100
AcDbBlockEnd
  0
BLOCK
  5
3589
330
3588
100
AcDbEntity
  8
0
100
AcDbBlockBegin
  2
*D5
 70
     1
 10
0.0
 20
0.0
 30
0.0
  3
*D5
  1

  0
LINE
  5
1296
330
3588
100
AcDbEntity
  8
SIZE
 62
     0
100
AcDbLine
 10
-134.5
 20
-320.0
 30
0.0
 11
-134.5
 21
-468.0173952306001
 31
0.0
  0
LINE
  5
1297
330
3588
100
AcDbEntity
  8
SIZE
 62
     0
100
AcDbLine
 10
134.5
 20
-320.0
 30
0.0
 11
134.5
 21
-468.0173952306001
 31
0.0
  0
LINE
  5
1298
330
3588
100
AcDbEntity
  8
SIZE
 62
     0
100
AcDbLine
 10
-122.5
 20
-448.0173952306
 30
0.0
 11
122.5
 21
-448.0173952306
 31
0.0
  0
INSERT
  5
1299
330
3588
100
AcDbEntity
  8
SIZE
 62
     0
100
AcDbBlockReference
  2
_DOTBLANK
 10
-134.5
 20
-448.0173952306
 30
0.0
 41
12.0
 42
12.0
 43
12.0
 50
180.0
  0
INSERT
  5
129A
330
3588
100
AcDbEntity
  8
SIZE
 62
     0
100
AcDbBlockReference
  2
_DOTBLANK
 10
134.5
 20
-448.0173952306
 30
0.0
 41
12.0
 42
12.0
 43
12.0
  0
INSERT
  5
129B
330
3588
100
AcDbEntity
  8
0
100
AcDbBlockReference
  2
*U6
 10
0.0
 20
0.0
 30
0.0
  0
POINT
  5
129C
330
3588
100
AcDbEntity
  8
DEFPOINTS
 62
     0
100
AcDbPoint
 10
-134.5
 20
-300.0
 30
0.0
  0
POINT
  5
129D
330
3588
100
AcDbEntity
  8
DEFPOINTS
 62
     0
100
AcDbPoint
 10
134.5
 20
-300.0
 30
0.0
  0
POINT
  5
129E
330
3588
100
AcDbEntity
  8
DEFPOINTS
 62
     0
100
AcDbPoint
 10
134.5
 20
-448.0173952306
 30
0.0
  0
ENDBLK
  5
D72
330
3588
100
AcDbEntity
  8
0
100
AcDbBlockEnd
  0
BLOCK
  5
358B
330
358A
100
AcDbEntity
  8
0
100
AcDbBlockBegin
  2
*U6
 70
     1
 10
0.0
 20
0.0
 30
0.0
  3
*U6
  1

  0
TEXT
  5
1EF5
330
358A
100
AcDbEntity
  8
SIZE
 62
     0
100
AcDbText
 10
-72.68571428571426
 20
-438.0173952305999
 30
0.0
 40
64.0
  1
269
 41
0.9
100
AcDbText
  0
ENDBLK
  5
1EF7
330
358A
100
AcDbEntity
  8
0
100
AcDbBlockEnd
  0
BLOCK
  5
358D
330
358C
100
AcDbEntity
  8
0
100
AcDbBlockBegin
  2
*D7
 70
     1
 10
0.0
 20
0.0
 30
0.0
  3
*D7
  1

  0
LINE
  5
11A7
330
358C
100
AcDbEntity
  8
SIZE
  6
Continuous
 62
     0
100
AcDbLine
 10
143.5
 20
-300.0
 30
0.0
 11
304.6432844803791
 21
-300.0
 31
0.0
  0
LINE
  5
11A8
330
358C
100
AcDbEntity
  8
SIZE
  6
Continuous
 62
     0
100
AcDbLine
 10
177.5
 20
-0.0000000000000057
 30
0.0
 11
304.6432844803792
 21
-0.0000000000000417
 31
0.0
  0
LINE
  5
11A9
330
358C
100
AcDbEntity
  8
SIZE
  6
Continuous
 62
     0
100
AcDbLine
 10
284.6432844803791
 20
-288.0000000000001
 30
0.0
 11
284.6432844803792
 21
-12.00000000000003
 31
0.0
  0
INSERT
  5
11AA
330
358C
100
AcDbEntity
  8
SIZE
  6
Continuous
 62
     0
100
AcDbBlockReference
  2
_DOTBLANK
 10
284.6432844803791
 20
-300.0
 30
0.0
 41
12.0
 42
12.0
 43
12.0
 50
270.0
  0
INSERT
  5
11AB
330
358C
100
AcDbEntity
  8
SIZE
  6
Continuous
 62
     0
100
AcDbBlockReference
  2
_DOTBLANK
 10
284.6432844803792
 20
-0.000000000000036
 30
0.0
 41
12.0
 42
12.0
 43
12.0
 50
90.0
  0
INSERT
  5
11AC
330
358C
100
AcDbEntity
  8
0
100
AcDbBlockReference
  2
*U8
 10
0.0
 20
0.0
 30
0.0
  0
POINT
  5
11AD
330
358C
100
AcDbEntity
  8
DEFPOINTS
  6
Continuous
 62
     0
100
AcDbPoint
 10
123.5
 20
-300.0
 30
0.0
  0
POINT
  5
11AE
330
358C
100
AcDbEntity
  8
DEFPOINTS
  6
Continuous
 62
     0
100
AcDbPoint
 10
157.5
 20
0.0
 30
0.0
  0
POINT
  5
11AF
330
358C
100
AcDbEntity
  8
DEFPOINTS
  6
Continuous
 62
     0
100
AcDbPoint
 10
284.6432844803792
 20
-0.000000000000036
 30
0.0
  0
ENDBLK
  5
E11
330
358C
100
AcDbEntity
  8
0
100
AcDbBlockEnd
  0
BLOCK
  5
358F
330
358E
100
AcDbEntity
  8
0
100
AcDbBlockBegin
  2
*U8
 70
     1
 10
0.0
 20
0.0
 30
0.0
  3
*U8
  1

  0
TEXT
  5
1EE1
330
358E
100
AcDbEntity
  8
SIZE
 62
     0
100
AcDbText
 10
274.6432844803792
 20
-224.0571428571429
 30
0.0
 40
64.0
  1
300
 50
90.0
 41
0.9
100
AcDbText
  0
ENDBLK
  5
1EE3
330
358E
100
AcDbEntity
  8
0
100
AcDbBlockEnd
  0
BLOCK
  5
3591
330
3590
100
AcDbEntity
  8
0
100
AcDbBlockBegin
  2
*D9
 70
     1
 10
0.0
 20
0.0
 30
0.0
  3
*D9
  1

  0
LINE
  5
E7D
330
3590
100
AcDbEntity
  8
SIZE
 62
     0
100
AcDbLine
 10
-139.9999999999998
 20
32.46448280219375
 30
0.0
 11
-139.9999999999998
 21
136.4516878685508
 31
0.0
  0
LINE
  5
E7E
330
3590
100
AcDbEntity
  8
SIZE
 62
     0
100
AcDbLine
 10
140.0
 20
32.46448280219375
 30
0.0
 11
140.0
 21
136.4516878685508
 31
0.0
  0
LINE
  5
E7F
330
3590
100
AcDbEntity
  8
SIZE
 62
     0
100
AcDbLine
 10
-128.0
 20
116.4516878685508
 30
0.0
 11
128.0
 21
116.4516878685508
 31
0.0
  0
INSERT
  5
E80
330
3590
100
AcDbEntity
  8
SIZE
 62
     0
100
AcDbBlockReference
  2
_DOTBLANK
 10
-139.9999999999998
 20
116.4516878685508
 30
0.0
 41
12.0
 42
12.0
 43
12.0
 50
180.0
  0
INSERT
  5
E81
330
3590
100
AcDbEntity
  8
SIZE
 62
     0
100
AcDbBlockReference
  2
_DOTBLANK
 10
140.0
 20
116.4516878685508
 30
0.0
 41
12.0
 42
12.0
 43
12.0
  0
INSERT
  5
E82
330
3590
100
AcDbEntity
  8
0
100
AcDbBlockReference
  2
*U10
 10
0.0
 20
0.0
 30
0.0
  0
POINT
  5
E83
330
3590
100
AcDbEntity
  8
DEFPOINTS
 62
     0
100
AcDbPoint
 10
-139.9999999999998
 20
12.46448280219374
 30
0.0
  0
POINT
  5
E84
330
3590
100
AcDbEntity
  8
DEFPOINTS
 62
     0
100
AcDbPoint
 10
140.0
 20
12.46448280219374
 30
0.0
  0
POINT
  5
E85
330
3590
100
AcDbEntity
  8
DEFPOINTS
 62
     0
100
AcDbPoint
 10
140.0
 20
116.4516878685508
 30
0.0
  0
ENDBLK
  5
E7C
330
3590
100
AcDbEntity
  8
0
100
AcDbBlockEnd
  0
BLOCK
  5
3593
330
3592
100
AcDbEntity
  8
0
100
AcDbBlockBegin
  2
*U10
 70
     1
 10
0.0
 20
0.0
 30
0.0
  3
*U10
  1

  0
TEXT
  5
1ED8
330
3592
100
AcDbEntity
  8
SIZE
 62
     0
100
AcDbText
 10
-74.05714285714281
 20
126.4516878685508
 30
0.0
 40
64.0
  1
280
 41
0.9
100
AcDbText
  0
ENDBLK
  5
1EDA
330
3592
100
AcDbEntity
  8
0
100
AcDbBlockEnd
  0
BLOCK
  5
3595
330
3594
100
AcDbEntity
  8
0
100
AcDbBlockBegin
  2
GENAXEH
 70
     0
 10
0.0
 20
0.0
 30
0.0
  3
GENAXEH
  1

  0
LINE
  5
FDB
330
3594
100
AcDbEntity
  8
0
100
AcDbLine
 10
-1.0
 20
0.0
 30
0.0
 11
1.0
 21
0.0
 31
0.0
  0
ENDBLK
  5
FDD
330
3594
100
AcDbEntity
  8
0
100
AcDbBlockEnd
  0
BLOCK
  5
3597
330
3596
100
AcDbEntity
  8
0
100
AcDbBlockBegin
  2
*D12
 70
     1
 10
0.0
 20
0.0
 30
0.0
  3
*D12
  1

  0
LINE
  5
1120
330
3596
100
AcDbEntity
  8
SIZE
 62
     0
100
AcDbLine
 10
-157.5
 20
20.0
 30
0.0
 11
-157.5
 21
245.5794621189598
 31
0.0
  0
LINE
  5
1121
330
3596
100
AcDbEntity
  8
SIZE
 62
     0
100
AcDbLine
 10
157.5
 20
20.0
 30
0.0
 11
157.5
 21
245.5794621189598
 31
0.0
  0
LINE
  5
1122
330
3596
100
AcDbEntity
  8
SIZE
 62
     0
100
AcDbLine
 10
-145.5
 20
225.5794621189598
 30
0.0
 11
145.5
 21
225.5794621189598
 31
0.0
  0
INSERT
  5
1123
330
3596
100
AcDbEntity
  8
SIZE
 62
     0
100
AcDbBlockReference
  2
_DOTBLANK
 10
-157.5
 20
225.5794621189598
 30
0.0
 41
12.0
 42
12.0
 43
12.0
 50
180.0
  0
INSERT
  5
1124
330
3596
100
AcDbEntity
  8
SIZE
 62
     0
100
AcDbBlockReference
  2
_DOTBLANK
 10
157.5
 20
225.5794621189598
 30
0.0
 41
12.0
 42
12.0
 43
12.0
  0
INSERT
  5
1125
330
3596
100
AcDbEntity
  8
0
100
AcDbBlockReference
  2
*U13
 10
0.0
 20
0.0
 30
0.0
  0
POINT
  5
1126
330
3596
100
AcDbEntity
  8
DEFPOINTS
 62
     0
100
AcDbPoint
 10
-157.5
 20
0.0
 30
0.0
  0
POINT
  5
1127
330
3596
100
AcDbEntity
  8
DEFPOINTS
 62
     0
100
AcDbPoint
 10
157.5
 20
0.0
 30
0.0
  0
POINT
  5
1128
330
3596
100
AcDbEntity
  8
DEFPOINTS
 62
     0
100
AcDbPoint
 10
157.5
 20
225.5794621189598
 30
0.0
  0
ENDBLK
  5
111F
330
3596
100
AcDbEntity
  8
0
100
AcDbBlockEnd
  0
BLOCK
  5
3599
330
3598
100
AcDbEntity
  8
0
100
AcDbBlockBegin
  2
*U13
 70
     1
 10
0.0
 20
0.0
 30
0.0
  3
*U13
  1

  0
TEXT
  5
1EDD
330
3598
100
AcDbEntity
  8
SIZE
 62
     0
100
AcDbText
 10
-68.57142857142857
 20
235.5794621189599
 30
0.0
 40
64.0
  1
315
 41
0.9
100
AcDbText
  0
ENDBLK
  5
1EDF
330
3598
100
AcDbEntity
  8
0
100
AcDbBlockEnd
  0
BLOCK
  5
359B
330
359A
100
AcDbEntity
  8
0
100
AcDbBlockBegin
  2
*D14
 70
     1
 10
0.0
 20
0.0
 30
0.0
  3
*D14
  1

  0
LINE
  5
11BD
330
359A
100
AcDbEntity
  8
NOTE
 62
     0
100
AcDbLine
 10
-123.4999999999999
 20
-320.0
 30
0.0
 11
-123.4999999999999
 21
-354.9529861856111
 31
0.0
  0
LINE
  5
11BE
330
359A
100
AcDbEntity
  8
NOTE
 62
     0
100
AcDbLine
 10
-133.4999999999998
 20
-331.2126909923287
 30
0.0
 11
-133.4999999999998
 21
-354.9529861856111
 31
0.0
  0
LINE
  5
11BF
330
359A
100
AcDbEntity
  8
NOTE
 62
     0
100
AcDbLine
 10
-111.4999999999999
 20
-334.9529861856112
 30
0.0
 11
-99.4999999999999
 21
-334.9529861856112
 31
0.0
  0
LINE
  5
11C0
330
359A
100
AcDbEntity
  8
NOTE
 62
     0
100
AcDbLine
 10
-145.4999999999998
 20
-334.9529861856112
 30
0.0
 11
-157.4999999999998
 21
-334.9529861856112
 31
0.0
  0
LINE
  5
11C1
330
359A
100
AcDbEntity
  8
NOTE
 62
     0
100
AcDbLine
 10
-123.4999999999999
 20
-334.9529861856112
 30
0.0
 11
-133.4999999999998
 21
-334.9529861856112
 31
0.0
  0
INSERT
  5
11C2
330
359A
100
AcDbEntity
  8
NOTE
 62
     0
100
AcDbBlockReference
  2
_DOTBLANK
 10
-123.4999999999999
 20
-334.9529861856112
 30
0.0
 41
12.0
 42
12.0
 43
12.0
 50
180.0
  0
INSERT
  5
11C3
330
359A
100
AcDbEntity
  8
NOTE
 62
     0
100
AcDbBlockReference
  2
_DOTBLANK
 10
-133.4999999999998
 20
-334.9529861856112
 30
0.0
 41
12.0
 42
12.0
 43
12.0
  0
INSERT
  5
11C4
330
359A
100
AcDbEntity
  8
0
100
AcDbBlockReference
  2
*U15
 10
0.0
 20
0.0
 30
0.0
  0
POINT
  5
11C5
330
359A
100
AcDbEntity
  8
DEFPOINTS
 62
     0
100
AcDbPoint
 10
-123.4999999999999
 20
-300.0
 30
0.0
  0
POINT
  5
11C6
330
359A
100
AcDbEntity
  8
DEFPOINTS
 62
     0
100
AcDbPoint
 10
-133.4999999999998
 20
-311.2126909923287
 30
0.0
  0
POINT
  5
11C7
330
359A
100
AcDbEntity
  8
DEFPOINTS
 62
     0
100
AcDbPoint
 10
-133.4999999999998
 20
-334.9529861856112
 30
0.0
  0
ENDBLK
  5
11BC
330
359A
100
AcDbEntity
  8
0
100
AcDbBlockEnd
  0
BLOCK
  5
359D
330
359C
100
AcDbEntity
  8
0
100
AcDbBlockBegin
  2
*U15
 70
     1
 10
0.0
 20
0.0
 30
0.0
  3
*U15
  1

  0
TEXT
  5
1EE5
330
359C
100
AcDbEntity
  8
NOTE
 62
     0
100
AcDbText
 10
-169.642857142857
 20
-324.9529861856112
 30
0.0
 40
64.0
  1
10
 41
0.9
100
AcDbText
  0
ENDBLK
  5
1EE7
330
359C
100
AcDbEntity
  8
0
100
AcDbBlockEnd
  0
BLOCK
  5
359F
330
359E
100
AcDbEntity
  8
0
100
AcDbBlockBegin
  2
*D16
 70
     1
 10
0.0
 20
0.0
 30
0.0
  3
*D16
  1

  0
LINE
  5
11E7
330
359E
100
AcDbEntity
  8
NOTE
 62
     0
100
AcDbLine
 10
-135.5
 20
-333.2126909923287
 30
0.0
 11
-135.5
 21
-386.2569421441843
 31
0.0
  0
LINE
  5
11E8
330
359E
100
AcDbEntity
  8
NOTE
 62
     0
100
AcDbLine
 10
-123.4999999999999
 20
-320.0
 30
0.0
 11
-123.4999999999999
 21
-386.2569421441843
 31
0.0
  0
LINE
  5
11E9
330
359E
100
AcDbEntity
  8
NOTE
 62
     0
100
AcDbLine
 10
-147.5
 20
-366.2569421441844
 30
0.0
 11
-159.5
 21
-366.2569421441844
 31
0.0
  0
LINE
  5
11EA
330
359E
100
AcDbEntity
  8
NOTE
 62
     0
100
AcDbLine
 10
-111.4999999999999
 20
-366.2569421441844
 30
0.0
 11
-99.4999999999999
 21
-366.2569421441844
 31
0.0
  0
LINE
  5
11EB
330
359E
100
AcDbEntity
  8
NOTE
 62
     0
100
AcDbLine
 10
-135.5
 20
-366.2569421441844
 30
0.0
 11
-123.4999999999999
 21
-366.2569421441844
 31
0.0
  0
INSERT
  5
11EC
330
359E
100
AcDbEntity
  8
NOTE
 62
     0
100
AcDbBlockReference
  2
_DOTBLANK
 10
-135.5
 20
-366.2569421441844
 30
0.0
 41
12.0
 42
12.0
 43
12.0
  0
INSERT
  5
11ED
330
359E
100
AcDbEntity
  8
NOTE
 62
     0
100
AcDbBlockReference
  2
_DOTBLANK
 10
-123.4999999999999
 20
-366.2569421441844
 30
0.0
 41
12.0
 42
12.0
 43
12.0
 50
180.0
  0
INSERT
  5
11EE
330
359E
100
AcDbEntity
  8
0
100
AcDbBlockReference
  2
*U17
 10
0.0
 20
0.0
 30
0.0
  0
POINT
  5
11EF
330
359E
100
AcDbEntity
  8
DEFPOINTS
 62
     0
100
AcDbPoint
 10
-135.5
 20
-313.2126909923287
 30
0.0
  0
POINT
  5
11F0
330
359E
100
AcDbEntity
  8
DEFPOINTS
 62
     0
100
AcDbPoint
 10
-123.4999999999999
 20
-300.0
 30
0.0
  0
POINT
  5
11F1
330
359E
100
AcDbEntity
  8
DEFPOINTS
 62
     0
100
AcDbPoint
 10
-123.4999999999999
 20
-366.2569421441844
 30
0.0
  0
ENDBLK
  5
11E6
330
359E
100
AcDbEntity
  8
0
100
AcDbBlockEnd
  0
BLOCK
  5
35A1
330
35A0
100
AcDbEntity
  8
0
100
AcDbBlockBegin
  2
*U17
 70
     1
 10
0.0
 20
0.0
 30
0.0
  3
*U17
  1

  0
TEXT
  5
1EE9
330
35A0
100
AcDbEntity
  8
NOTE
 62
     0
100
AcDbText
 10
-170.642857142857
 20
-356.2569421441843
 30
0.0
 40
64.0
  1
12
 41
0.9
100
AcDbText
  0
ENDBLK
  5
1EEB
330
35A0
100
AcDbEntity
  8
0
100
AcDbBlockEnd
  0
BLOCK
  5
35A3
330
35A2
100
AcDbEntity
  8
0
100
AcDbBlockBegin
  2
*D18
 70
     1
 10
0.0
 20
0.0
 30
0.0
  3
*D18
  1

  0
LINE
  5
11F6
330
35A2
100
AcDbEntity
  8
NOTE
 62
     0
100
AcDbLine
 10
-123.4999999999999
 20
-320.0
 30
0.0
 11
-123.4999999999999
 21
-583.8286022818904
 31
0.0
  0
LINE
  5
11F7
330
35A2
100
AcDbEntity
  8
NOTE
 62
     0
100
AcDbLine
 10
123.5
 20
-320.0
 30
0.0
 11
123.5
 21
-583.8286022818904
 31
0.0
  0
LINE
  5
11F8
330
35A2
100
AcDbEntity
  8
NOTE
 62
     0
100
AcDbLine
 10
-111.4999999999999
 20
-563.8286022818904
 30
0.0
 11
111.5
 21
-563.8286022818904
 31
0.0
  0
INSERT
  5
11F9
330
35A2
100
AcDbEntity
  8
NOTE
 62
     0
100
AcDbBlockReference
  2
_DOTBLANK
 10
-123.4999999999999
 20
-563.8286022818904
 30
0.0
 41
12.0
 42
12.0
 43
12.0
 50
180.0
  0
INSERT
  5
11FA
330
35A2
100
AcDbEntity
  8
NOTE
 62
     0
100
AcDbBlockReference
  2
_DOTBLANK
 10
123.5
 20
-563.8286022818904
 30
0.0
 41
12.0
 42
12.0
 43
12.0
  0
INSERT
  5
11FB
330
35A2
100
AcDbEntity
  8
0
100
AcDbBlockReference
  2
*U19
 10
0.0
 20
0.0
 30
0.0
  0
POINT
  5
11FC
330
35A2
100
AcDbEntity
  8
DEFPOINTS
 62
     0
100
AcDbPoint
 10
-123.4999999999999
 20
-300.0
 30
0.0
  0
POINT
  5
11FD
330
35A2
100
AcDbEntity
  8
DEFPOINTS
 62
     0
100
AcDbPoint
 10
123.5
 20
-300.0
 30
0.0
  0
POINT
  5
11FE
330
35A2
100
AcDbEntity
  8
DEFPOINTS
 62
     0
100
AcDbPoint
 10
123.5
 20
-563.8286022818904
 30
0.0
  0
ENDBLK
  5
11F5
330
35A2
100
AcDbEntity
  8
0
100
AcDbBlockEnd
  0
BLOCK
  5
35A5
330
35A4
100
AcDbEntity
  8
0
100
AcDbBlockBegin
  2
*U19
 70
     1
 10
0.0
 20
0.0
 30
0.0
  3
*U19
  1

  0
TEXT
  5
1EED
330
35A4
100
AcDbEntity
  8
NOTE
 62
     0
100
AcDbText
 10
-74.05714285714281
 20
-553.8286022818904
 30
0.0
 40
64.0
  1
247
 41
0.9
100
AcDbText
  0
ENDBLK
  5
1EEF
330
35A4
100
AcDbEntity
  8
0
100
AcDbBlockEnd
  0
BLOCK
  5
35A7
330
35A6
100
AcDbEntity
  8
0
100
AcDbBlockBegin
  2
*D20
 70
     1
 10
0.0
 20
0.0
 30
0.0
  3
*D20
  1

  0
LINE
  5
1284
330
35A6
100
AcDbEntity
  8
NOTE
 62
     0
100
AcDbLine
 10
-123.5
 20
12.0
 30
0.0
 11
-123.5
 21
71.83630134534229
 31
0.0
  0
LINE
  5
1285
330
35A6
100
AcDbEntity
  8
NOTE
 62
     0
100
AcDbLine
 10
123.5
 20
12.0
 30
0.0
 11
123.5
 21
71.83630134534229
 31
0.0
  0
LINE
  5
1286
330
35A6
100
AcDbEntity
  8
NOTE
 62
     0
100
AcDbLine
 10
-111.5
 20
51.83630134534229
 30
0.0
 11
111.5
 21
51.83630134534229
 31
0.0
  0
INSERT
  5
1287
330
35A6
100
AcDbEntity
  8
NOTE
 62
     0
100
AcDbBlockReference
  2
_DOTBLANK
 10
-123.5
 20
51.83630134534229
 30
0.0
 41
12.0
 42
12.0
 43
12.0
 50
180.0
  0
INSERT
  5
1288
330
35A6
100
AcDbEntity
  8
NOTE
 62
     0
100
AcDbBlockReference
  2
_DOTBLANK
 10
123.5
 20
51.83630134534229
 30
0.0
 41
12.0
 42
12.0
 43
12.0
  0
INSERT
  5
1289
330
35A6
100
AcDbEntity
  8
0
100
AcDbBlockReference
  2
*U21
 10
0.0
 20
0.0
 30
0.0
  0
POINT
  5
128A
330
35A6
100
AcDbEntity
  8
DEFPOINTS
 62
     0
100
AcDbPoint
 10
-123.5
 20
-8.0
 30
0.0
  0
POINT
  5
128B
330
35A6
100
AcDbEntity
  8
DEFPOINTS
 62
     0
100
AcDbPoint
 10
123.5
 20
-8.0
 30
0.0
  0
POINT
  5
128C
330
35A6
100
AcDbEntity
  8
DEFPOINTS
 62
     0
100
AcDbPoint
 10
123.5
 20
51.83630134534229
 30
0.0
  0
ENDBLK
  5
1283
330
35A6
100
AcDbEntity
  8
0
100
AcDbBlockEnd
  0
BLOCK
  5
35A9
330
35A8
100
AcDbEntity
  8
0
100
AcDbBlockBegin
  2
*U21
 70
     1
 10
0.0
 20
0.0
 30
0.0
  3
*U21
  1

  0
TEXT
  5
1EF1
330
35A8
100
AcDbEntity
  8
NOTE
 62
     0
100
AcDbText
 10
-74.05714285714283
 20
61.83630134534229
 30
0.0
 40
64.0
  1
247
 41
0.9
100
AcDbText
  0
ENDBLK
  5
1EF3
330
35A8
100
AcDbEntity
  8
0
100
AcDbBlockEnd
  0
BLOCK
  5
35AB
330
35AA
100
AcDbEntity
  8
0
100
AcDbBlockBegin
  2
*D22
 70
     1
 10
0.0
 20
0.0
 30
0.0
  3
*D22
  1

  0
LINE
  5
1414
330
35AA
100
AcDbEntity
  8
SIZE
 62
     0
100
AcDbLine
 10
-22313.11521613997
 20
7365.702971374808
 30
0.0
 11
-22313.11521613997
 21
7217.685576144207
 31
0.0
  0
LINE
  5
1415
330
35AA
100
AcDbEntity
  8
SIZE
 62
     0
100
AcDbLine
 10
-22044.11521613997
 20
7365.702971374808
 30
0.0
 11
-22044.11521613997
 21
7217.685576144207
 31
0.0
  0
LINE
  5
1416
330
35AA
100
AcDbEntity
  8
SIZE
 62
     0
100
AcDbLine
 10
-22301.11521613997
 20
7237.685576144207
 30
0.0
 11
-22056.11521613997
 21
7237.685576144207
 31
0.0
  0
INSERT
  5
1417
330
35AA
100
AcDbEntity
  8
SIZE
 62
     0
100
AcDbBlockReference
  2
_DOTBLANK
 10
-22313.11521613997
 20
7237.685576144207
 30
0.0
 41
12.0
 42
12.0
 43
12.0
 50
180.0
  0
INSERT
  5
1418
330
35AA
100
AcDbEntity
  8
SIZE
 62
     0
100
AcDbBlockReference
  2
_DOTBLANK
 10
-22044.11521613997
 20
7237.685576144207
 30
0.0
 41
12.0
 42
12.0
 43
12.0
  0
INSERT
  5
1419
330
35AA
100
AcDbEntity
  8
0
100
AcDbBlockReference
  2
*U23
 10
0.0
 20
0.0
 30
0.0
  0
POINT
  5
141A
330
35AA
100
AcDbEntity
  8
DEFPOINTS
 62
     0
100
AcDbPoint
 10
-22313.11521613997
 20
7385.702971374808
 30
0.0
  0
POINT
  5
141B
330
35AA
100
AcDbEntity
  8
DEFPOINTS
 62
     0
100
AcDbPoint
 10
-22044.11521613997
 20
7385.702971374808
 30
0.0
  0
POINT
  5
141C
330
35AA
100
AcDbEntity
  8
DEFPOINTS
 62
     0
100
AcDbPoint
 10
-22044.11521613997
 20
7237.685576144207
 30
0.0
  0
ENDBLK
  5
141D
330
35AA
100
AcDbEntity
  8
0
100
AcDbBlockEnd
  0
BLOCK
  5
35AD
330
35AC
100
AcDbEntity
  8
0
100
AcDbBlockBegin
  2
*U23
 70
     1
 10
0.0
 20
0.0
 30
0.0
  3
*U23
  1

  0
TEXT
  5
1EF9
330
35AC
100
AcDbEntity
  8
SIZE
 62
     0
100
AcDbText
 10
-22251.30093042568
 20
7247.685576144205
 30
0.0
 40
64.0
  1
269
 41
0.9
100
AcDbText
  0
ENDBLK
  5
1EFB
330
35AC
100
AcDbEntity
  8
0
100
AcDbBlockEnd
  0
BLOCK
  5
35AF
330
35AE
100
AcDbEntity
  8
0
100
AcDbBlockBegin
  2
*D24
 70
     1
 10
0.0
 20
0.0
 30
0.0
  3
*D24
  1

  0
LINE
  5
1420
330
35AE
100
AcDbEntity
  8
SIZE
  6
Continuous
 62
     0
100
AcDbLine
 10
-22035.11521613997
 20
7385.702971374808
 30
0.0
 11
-21873.97193165959
 21
7385.702971374808
 31
0.0
  0
LINE
  5
1421
330
35AE
100
AcDbEntity
  8
SIZE
  6
Continuous
 62
     0
100
AcDbLine
 10
-22001.11521613997
 20
7685.702971374808
 30
0.0
 11
-21873.97193165959
 21
7685.702971374808
 31
0.0
  0
LINE
  5
1422
330
35AE
100
AcDbEntity
  8
SIZE
  6
Continuous
 62
     0
100
AcDbLine
 10
-21893.97193165959
 20
7397.702971374808
 30
0.0
 11
-21893.97193165959
 21
7673.702971374808
 31
0.0
  0
INSERT
  5
1423
330
35AE
100
AcDbEntity
  8
SIZE
  6
Continuous
 62
     0
100
AcDbBlockReference
  2
_DOTBLANK
 10
-21893.97193165959
 20
7385.702971374808
 30
0.0
 41
12.0
 42
12.0
 43
12.0
 50
270.0
  0
INSERT
  5
1424
330
35AE
100
AcDbEntity
  8
SIZE
  6
Continuous
 62
     0
100
AcDbBlockReference
  2
_DOTBLANK
 10
-21893.97193165959
 20
7685.702971374808
 30
0.0
 41
12.0
 42
12.0
 43
12.0
 50
90.0
  0
INSERT
  5
1425
330
35AE
100
AcDbEntity
  8
0
100
AcDbBlockReference
  2
*U25
 10
0.0
 20
0.0
 30
0.0
  0
POINT
  5
1426
330
35AE
100
AcDbEntity
  8
DEFPOINTS
  6
Continuous
 62
     0
100
AcDbPoint
 10
-22055.11521613997
 20
7385.702971374808
 30
0.0
  0
POINT
  5
1427
330
35AE
100
AcDbEntity
  8
DEFPOINTS
  6
Continuous
 62
     0
100
AcDbPoint
 10
-22021.11521613997
 20
7685.702971374808
 30
0.0
  0
POINT
  5
1428
330
35AE
100
AcDbEntity
  8
DEFPOINTS
  6
Continuous
 62
     0
100
AcDbPoint
 10
-21893.97193165959
 20
7685.702971374808
 30
0.0
  0
ENDBLK
  5
1429
330
35AE
100
AcDbEntity
  8
0
100
AcDbBlockEnd
  0
BLOCK
  5
35B1
330
35B0
100
AcDbEntity
  8
0
100
AcDbBlockBegin
  2
*U25
 70
     1
 10
0.0
 20
0.0
 30
0.0
  3
*U25
  1

  0
TEXT
  5
1EFD
330
35B0
100
AcDbEntity
  8
SIZE
 62
     0
100
AcDbText
 10
-21903.97193165959
 20
7461.645828517662
 30
0.0
 40
64.0
  1
300
 50
90.0
 41
0.9
100
AcDbText
  0
ENDBLK
  5
1EFF
330
35B0
100
AcDbEntity
  8
0
100
AcDbBlockEnd
  0
BLOCK
  5
35B3
330
35B2
100
AcDbEntity
  8
0
100
AcDbBlockBegin
  2
*D26
 70
     1
 10
0.0
 20
0.0
 30
0.0
  3
*D26
  1

  0
LINE
  5
142C
330
35B2
100
AcDbEntity
  8
SIZE
 62
     0
100
AcDbLine
 10
-22318.61521613997
 20
7718.167454177002
 30
0.0
 11
-22318.61521613997
 21
7822.154659243358
 31
0.0
  0
LINE
  5
142D
330
35B2
100
AcDbEntity
  8
SIZE
 62
     0
100
AcDbLine
 10
-22038.61521613997
 20
7718.167454177002
 30
0.0
 11
-22038.61521613997
 21
7822.154659243358
 31
0.0
  0
LINE
  5
142E
330
35B2
100
AcDbEntity
  8
SIZE
 62
     0
100
AcDbLine
 10
-22306.61521613997
 20
7802.154659243358
 30
0.0
 11
-22050.61521613997
 21
7802.154659243358
 31
0.0
  0
INSERT
  5
142F
330
35B2
100
AcDbEntity
  8
SIZE
 62
     0
100
AcDbBlockReference
  2
_DOTBLANK
 10
-22318.61521613997
 20
7802.154659243358
 30
0.0
 41
12.0
 42
12.0
 43
12.0
 50
180.0
  0
INSERT
  5
1430
330
35B2
100
AcDbEntity
  8
SIZE
 62
     0
100
AcDbBlockReference
  2
_DOTBLANK
 10
-22038.61521613997
 20
7802.154659243358
 30
0.0
 41
12.0
 42
12.0
 43
12.0
  0
INSERT
  5
1431
330
35B2
100
AcDbEntity
  8
0
100
AcDbBlockReference
  2
*U27
 10
0.0
 20
0.0
 30
0.0
  0
POINT
  5
1432
330
35B2
100
AcDbEntity
  8
DEFPOINTS
 62
     0
100
AcDbPoint
 10
-22318.61521613997
 20
7698.167454177002
 30
0.0
  0
POINT
  5
1433
330
35B2
100
AcDbEntity
  8
DEFPOINTS
 62
     0
100
AcDbPoint
 10
-22038.61521613997
 20
7698.167454177002
 30
0.0
  0
POINT
  5
1434
330
35B2
100
AcDbEntity
  8
DEFPOINTS
 62
     0
100
AcDbPoint
 10
-22038.61521613997
 20
7802.154659243358
 30
0.0
  0
ENDBLK
  5
1435
330
35B2
100
AcDbEntity
  8
0
100
AcDbBlockEnd
  0
BLOCK
  5
35B5
330
35B4
100
AcDbEntity
  8
0
100
AcDbBlockBegin
  2
*U27
 70
     1
 10
0.0
 20
0.0
 30
0.0
  3
*U27
  1

  0
TEXT
  5
1F01
330
35B4
100
AcDbEntity
  8
SIZE
 62
     0
100
AcDbText
 10
-22252.6723589971
 20
7812.154659243358
 30
0.0
 40
64.0
  1
280
 41
0.9
100
AcDbText
  0
ENDBLK
  5
1F03
330
35B4
100
AcDbEntity
  8
0
100
AcDbBlockEnd
  0
BLOCK
  5
35B7
330
35B6
100
AcDbEntity
  8
0
100
AcDbBlockBegin
  2
*D28
 70
     1
 10
0.0
 20
0.0
 30
0.0
  3
*D28
  1

  0
LINE
  5
1438
330
35B6
100
AcDbEntity
  8
SIZE
 62
     0
100
AcDbLine
 10
-22336.11521613997
 20
7705.702971374808
 30
0.0
 11
-22336.11521613997
 21
7931.282433493766
 31
0.0
  0
LINE
  5
1439
330
35B6
100
AcDbEntity
  8
SIZE
 62
     0
100
AcDbLine
 10
-22021.11521613997
 20
7705.702971374808
 30
0.0
 11
-22021.11521613997
 21
7931.282433493766
 31
0.0
  0
LINE
  5
143A
330
35B6
100
AcDbEntity
  8
SIZE
 62
     0
100
AcDbLine
 10
-22324.11521613997
 20
7911.282433493766
 30
0.0
 11
-22033.11521613997
 21
7911.282433493766
 31
0.0
  0
INSERT
  5
143B
330
35B6
100
AcDbEntity
  8
SIZE
 62
     0
100
AcDbBlockReference
  2
_DOTBLANK
 10
-22336.11521613997
 20
7911.282433493766
 30
0.0
 41
12.0
 42
12.0
 43
12.0
 50
180.0
  0
INSERT
  5
143C
330
35B6
100
AcDbEntity
  8
SIZE
 62
     0
100
AcDbBlockReference
  2
_DOTBLANK
 10
-22021.11521613997
 20
7911.282433493766
 30
0.0
 41
12.0
 42
12.0
 43
12.0
  0
INSERT
  5
143D
330
35B6
100
AcDbEntity
  8
0
100
AcDbBlockReference
  2
*U29
 10
0.0
 20
0.0
 30
0.0
  0
POINT
  5
143E
330
35B6
100
AcDbEntity
  8
DEFPOINTS
 62
     0
100
AcDbPoint
 10
-22336.11521613997
 20
7685.702971374808
 30
0.0
  0
POINT
  5
143F
330
35B6
100
AcDbEntity
  8
DEFPOINTS
 62
     0
100
AcDbPoint
 10
-22021.11521613997
 20
7685.702971374808
 30
0.0
  0
POINT
  5
1440
330
35B6
100
AcDbEntity
  8
DEFPOINTS
 62
     0
100
AcDbPoint
 10
-22021.11521613997
 20
7911.282433493766
 30
0.0
  0
ENDBLK
  5
1441
330
35B6
100
AcDbEntity
  8
0
100
AcDbBlockEnd
  0
BLOCK
  5
35B9
330
35B8
100
AcDbEntity
  8
0
100
AcDbBlockBegin
  2
*U29
 70
     1
 10
0.0
 20
0.0
 30
0.0
  3
*U29
  1

  0
TEXT
  5
1F05
330
35B8
100
AcDbEntity
  8
SIZE
 62
     0
100
AcDbText
 10
-22247.18664471139
 20
7921.282433493766
 30
0.0
 40
64.0
  1
315
 41
0.9
100
AcDbText
  0
ENDBLK
  5
1F07
330
35B8
100
AcDbEntity
  8
0
100
AcDbBlockEnd
  0
BLOCK
  5
35BB
330
35BA
100
AcDbEntity
  8
0
100
AcDbBlockBegin
  2
*D30
 70
     1
 10
0.0
 20
0.0
 30
0.0
  3
*D30
  1

  0
LINE
  5
166B
330
35BA
100
AcDbEntity
  8
SIZE
 62
     0
100
AcDbLine
 10
-134.5
 20
-320.0
 30
0.0
 11
-134.5
 21
-468.0173952306001
 31
0.0
  0
LINE
  5
166C
330
35BA
100
AcDbEntity
  8
SIZE
 62
     0
100
AcDbLine
 10
134.5
 20
-320.0
 30
0.0
 11
134.5
 21
-468.0173952306001
 31
0.0
  0
LINE
  5
166D
330
35BA
100
AcDbEntity
  8
SIZE
 62
     0
100
AcDbLine
 10
-122.5
 20
-448.0173952306
 30
0.0
 11
122.5
 21
-448.0173952306
 31
0.0
  0
INSERT
  5
166E
330
35BA
100
AcDbEntity
  8
SIZE
 62
     0
100
AcDbBlockReference
  2
_DOTBLANK
 10
-134.5
 20
-448.0173952306
 30
0.0
 41
12.0
 42
12.0
 43
12.0
 50
180.0
  0
INSERT
  5
166F
330
35BA
100
AcDbEntity
  8
SIZE
 62
     0
100
AcDbBlockReference
  2
_DOTBLANK
 10
134.5
 20
-448.0173952306
 30
0.0
 41
12.0
 42
12.0
 43
12.0
  0
INSERT
  5
1670
330
35BA
100
AcDbEntity
  8
0
100
AcDbBlockReference
  2
*U31
 10
0.0
 20
0.0
 30
0.0
  0
POINT
  5
1671
330
35BA
100
AcDbEntity
  8
DEFPOINTS
 62
     0
100
AcDbPoint
 10
-134.5
 20
-300.0
 30
0.0
  0
POINT
  5
1672
330
35BA
100
AcDbEntity
  8
DEFPOINTS
 62
     0
100
AcDbPoint
 10
134.5
 20
-300.0
 30
0.0
  0
POINT
  5
1673
330
35BA
100
AcDbEntity
  8
DEFPOINTS
 62
     0
100
AcDbPoint
 10
134.5
 20
-448.0173952306
 30
0.0
  0
ENDBLK
  5
14A7
330
35BA
100
AcDbEntity
  8
0
100
AcDbBlockEnd
  0
BLOCK
  5
35BD
330
35BC
100
AcDbEntity
  8
0
100
AcDbBlockBegin
  2
*U31
 70
     1
 10
0.0
 20
0.0
 30
0.0
  3
*U31
  1

  0
TEXT
  5
1F09
330
35BC
100
AcDbEntity
  8
SIZE
 62
     0
100
AcDbText
 10
-72.68571428571426
 20
-438.0173952306002
 30
0.0
 40
64.0
  1
269
 41
0.9
100
AcDbText
  0
ENDBLK
  5
1F0B
330
35BC
100
AcDbEntity
  8
0
100
AcDbBlockEnd
  0
BLOCK
  5
35BF
330
35BE
100
AcDbEntity
  8
0
100
AcDbBlockBegin
  2
*D32
 70
     1
 10
0.0
 20
0.0
 30
0.0
  3
*D32
  1

  0
LINE
  5
1674
330
35BE
100
AcDbEntity
  8
SIZE
  6
Continuous
 62
     0
100
AcDbLine
 10
143.5
 20
-300.0
 30
0.0
 11
304.6432844803784
 21
-300.0
 31
0.0
  0
LINE
  5
1675
330
35BE
100
AcDbEntity
  8
SIZE
  6
Continuous
 62
     0
100
AcDbLine
 10
177.5
 20
-0.0000000000000057
 30
0.0
 11
304.6432844803785
 21
-0.0000000000000417
 31
0.0
  0
LINE
  5
1676
330
35BE
100
AcDbEntity
  8
SIZE
  6
Continuous
 62
     0
100
AcDbLine
 10
284.6432844803784
 20
-288.0000000000001
 30
0.0
 11
284.6432844803785
 21
-12.00000000000003
 31
0.0
  0
INSERT
  5
1677
330
35BE
100
AcDbEntity
  8
SIZE
  6
Continuous
 62
     0
100
AcDbBlockReference
  2
_DOTBLANK
 10
284.6432844803784
 20
-300.0
 30
0.0
 41
12.0
 42
12.0
 43
12.0
 50
270.0
  0
INSERT
  5
1678
330
35BE
100
AcDbEntity
  8
SIZE
  6
Continuous
 62
     0
100
AcDbBlockReference
  2
_DOTBLANK
 10
284.6432844803785
 20
-0.000000000000036
 30
0.0
 41
12.0
 42
12.0
 43
12.0
 50
90.0
  0
INSERT
  5
1679
330
35BE
100
AcDbEntity
  8
0
100
AcDbBlockReference
  2
*U33
 10
0.0
 20
0.0
 30
0.0
  0
POINT
  5
167A
330
35BE
100
AcDbEntity
  8
DEFPOINTS
  6
Continuous
 62
     0
100
AcDbPoint
 10
123.5
 20
-300.0
 30
0.0
  0
POINT
  5
167B
330
35BE
100
AcDbEntity
  8
DEFPOINTS
  6
Continuous
 62
     0
100
AcDbPoint
 10
157.5
 20
0.0
 30
0.0
  0
POINT
  5
167C
330
35BE
100
AcDbEntity
  8
DEFPOINTS
  6
Continuous
 62
     0
100
AcDbPoint
 10
284.6432844803785
 20
-0.000000000000036
 30
0.0
  0
ENDBLK
  5
14B3
330
35BE
100
AcDbEntity
  8
0
100
AcDbBlockEnd
  0
BLOCK
  5
35C1
330
35C0
100
AcDbEntity
  8
0
100
AcDbBlockBegin
  2
*U33
 70
     1
 10
0.0
 20
0.0
 30
0.0
  3
*U33
  1

  0
TEXT
  5
1F0D
330
35C0
100
AcDbEntity
  8
SIZE
 62
     0
100
AcDbText
 10
274.6432844803785
 20
-224.0571428571429
 30
0.0
 40
64.0
  1
300
 50
90.0
 41
0.9
100
AcDbText
  0
ENDBLK
  5
1F0F
330
35C0
100
AcDbEntity
  8
0
100
AcDbBlockEnd
  0
BLOCK
  5
35C3
330
35C2
100
AcDbEntity
  8
0
100
AcDbBlockBegin
  2
*D34
 70
     1
 10
0.0
 20
0.0
 30
0.0
  3
*D34
  1

  0
LINE
  5
167D
330
35C2
100
AcDbEntity
  8
SIZE
 62
     0
100
AcDbLine
 10
-140.0
 20
32.46448280219375
 30
0.0
 11
-140.0
 21
136.4516878685507
 31
0.0
  0
LINE
  5
167E
330
35C2
100
AcDbEntity
  8
SIZE
 62
     0
100
AcDbLine
 10
140.0
 20
32.46448280219375
 30
0.0
 11
140.0
 21
136.4516878685507
 31
0.0
  0
LINE
  5
167F
330
35C2
100
AcDbEntity
  8
SIZE
 62
     0
100
AcDbLine
 10
-128.0
 20
116.4516878685508
 30
0.0
 11
128.0
 21
116.4516878685508
 31
0.0
  0
INSERT
  5
1680
330
35C2
100
AcDbEntity
  8
SIZE
 62
     0
100
AcDbBlockReference
  2
_DOTBLANK
 10
-140.0
 20
116.4516878685508
 30
0.0
 41
12.0
 42
12.0
 43
12.0
 50
180.0
  0
INSERT
  5
1681
330
35C2
100
AcDbEntity
  8
SIZE
 62
     0
100
AcDbBlockReference
  2
_DOTBLANK
 10
140.0
 20
116.4516878685508
 30
0.0
 41
12.0
 42
12.0
 43
12.0
  0
INSERT
  5
1682
330
35C2
100
AcDbEntity
  8
0
100
AcDbBlockReference
  2
*U35
 10
0.0
 20
0.0
 30
0.0
  0
POINT
  5
1683
330
35C2
100
AcDbEntity
  8
DEFPOINTS
 62
     0
100
AcDbPoint
 10
-140.0
 20
12.46448280219374
 30
0.0
  0
POINT
  5
1684
330
35C2
100
AcDbEntity
  8
DEFPOINTS
 62
     0
100
AcDbPoint
 10
140.0
 20
12.46448280219374
 30
0.0
  0
POINT
  5
1685
330
35C2
100
AcDbEntity
  8
DEFPOINTS
 62
     0
100
AcDbPoint
 10
140.0
 20
116.4516878685508
 30
0.0
  0
ENDBLK
  5
14BF
330
35C2
100
AcDbEntity
  8
0
100
AcDbBlockEnd
  0
BLOCK
  5
35C5
330
35C4
100
AcDbEntity
  8
0
100
AcDbBlockBegin
  2
*U35
 70
     1
 10
0.0
 20
0.0
 30
0.0
  3
*U35
  1

  0
TEXT
  5
1F11
330
35C4
100
AcDbEntity
  8
SIZE
 62
     0
100
AcDbText
 10
-74.05714285714283
 20
126.4516878685507
 30
0.0
 40
64.0
  1
280
 41
0.9
100
AcDbText
  0
ENDBLK
  5
1F13
330
35C4
100
AcDbEntity
  8
0
100
AcDbBlockEnd
  0
BLOCK
  5
35C7
330
35C6
100
AcDbEntity
  8
0
100
AcDbBlockBegin
  2
*D36
 70
     1
 10
0.0
 20
0.0
 30
0.0
  3
*D36
  1

  0
LINE
  5
1686
330
35C6
100
AcDbEntity
  8
SIZE
 62
     0
100
AcDbLine
 10
-157.5
 20
20.0
 30
0.0
 11
-157.5
 21
245.5794621189598
 31
0.0
  0
LINE
  5
1687
330
35C6
100
AcDbEntity
  8
SIZE
 62
     0
100
AcDbLine
 10
157.5
 20
20.0
 30
0.0
 11
157.5
 21
245.5794621189598
 31
0.0
  0
LINE
  5
1688
330
35C6
100
AcDbEntity
  8
SIZE
 62
     0
100
AcDbLine
 10
-145.5
 20
225.5794621189598
 30
0.0
 11
145.5
 21
225.5794621189598
 31
0.0
  0
INSERT
  5
1689
330
35C6
100
AcDbEntity
  8
SIZE
 62
     0
100
AcDbBlockReference
  2
_DOTBLANK
 10
-157.5
 20
225.5794621189598
 30
0.0
 41
12.0
 42
12.0
 43
12.0
 50
180.0
  0
INSERT
  5
168A
330
35C6
100
AcDbEntity
  8
SIZE
 62
     0
100
AcDbBlockReference
  2
_DOTBLANK
 10
157.5
 20
225.5794621189598
 30
0.0
 41
12.0
 42
12.0
 43
12.0
  0
INSERT
  5
168B
330
35C6
100
AcDbEntity
  8
0
100
AcDbBlockReference
  2
*U37
 10
0.0
 20
0.0
 30
0.0
  0
POINT
  5
168C
330
35C6
100
AcDbEntity
  8
DEFPOINTS
 62
     0
100
AcDbPoint
 10
-157.5
 20
0.0
 30
0.0
  0
POINT
  5
168D
330
35C6
100
AcDbEntity
  8
DEFPOINTS
 62
     0
100
AcDbPoint
 10
157.5
 20
0.0
 30
0.0
  0
POINT
  5
168E
330
35C6
100
AcDbEntity
  8
DEFPOINTS
 62
     0
100
AcDbPoint
 10
157.5
 20
225.5794621189598
 30
0.0
  0
ENDBLK
  5
14CB
330
35C6
100
AcDbEntity
  8
0
100
AcDbBlockEnd
  0
BLOCK
  5
35C9
330
35C8
100
AcDbEntity
  8
0
100
AcDbBlockBegin
  2
*U37
 70
     1
 10
0.0
 20
0.0
 30
0.0
  3
*U37
  1

  0
TEXT
  5
1F15
330
35C8
100
AcDbEntity
  8
SIZE
 62
     0
100
AcDbText
 10
-68.57142857142857
 20
235.5794621189598
 30
0.0
 40
64.0
  1
315
 41
0.9
100
AcDbText
  0
ENDBLK
  5
1F17
330
35C8
100
AcDbEntity
  8
0
100
AcDbBlockEnd
  0
BLOCK
  5
35CB
330
35CA
100
AcDbEntity
  8
0
100
AcDbBlockBegin
  2
*U38
 70
     1
 10
0.0
 20
0.0
 30
0.0
  3
*U38
  1

  0
ENDBLK
  5
15CF
330
35CA
100
AcDbEntity
  8
0
100
AcDbBlockEnd
  0
BLOCK
  5
35CD
330
35CC
100
AcDbEntity
  8
0
100
AcDbBlockBegin
  2
*D39
 70
     1
 10
0.0
 20
0.0
 30
0.0
  3
*D39
  1

  0
LINE
  5
1692
330
35CC
100
AcDbEntity
  8
SIZE
 62
     0
100
AcDbLine
 10
-25844.51823276502
 20
7685.702971374808
 30
0.0
 11
-25981.04465488371
 21
7685.702971374808
 31
0.0
  0
LINE
  5
1693
330
35CC
100
AcDbEntity
  8
SIZE
 62
     0
100
AcDbLine
 10
-25844.51823276502
 20
7677.702971374808
 30
0.0
 11
-25981.04465488371
 21
7677.702971374808
 31
0.0
  0
LINE
  5
1694
330
35CC
100
AcDbEntity
  8
SIZE
 62
     0
100
AcDbLine
 10
-25961.04465488371
 20
7697.702971374808
 30
0.0
 11
-25961.04465488371
 21
7709.702971374809
 31
0.0
  0
LINE
  5
1695
330
35CC
100
AcDbEntity
  8
SIZE
 62
     0
100
AcDbLine
 10
-25961.04465488371
 20
7665.70297137481
 30
0.0
 11
-25961.04465488371
 21
7595.302971374808
 31
0.0
  0
INSERT
  5
1696
330
35CC
100
AcDbEntity
  8
SIZE
 62
     0
100
AcDbBlockReference
  2
_DOTBLANK
 10
-25961.04465488371
 20
7685.702971374808
 30
0.0
 41
12.0
 42
12.0
 43
12.0
 50
270.0
  0
INSERT
  5
1697
330
35CC
100
AcDbEntity
  8
SIZE
 62
     0
100
AcDbBlockReference
  2
_DOTBLANK
 10
-25961.04465488371
 20
7677.702971374808
 30
0.0
 41
12.0
 42
12.0
 43
12.0
 50
90.0
  0
INSERT
  5
1698
330
35CC
100
AcDbEntity
  8
0
100
AcDbBlockReference
  2
*U40
 10
0.0
 20
0.0
 30
0.0
  0
POINT
  5
1699
330
35CC
100
AcDbEntity
  8
DEFPOINTS
 62
     0
100
AcDbPoint
 10
-25824.51823276501
 20
7685.702971374808
 30
0.0
  0
POINT
  5
169A
330
35CC
100
AcDbEntity
  8
DEFPOINTS
 62
     0
100
AcDbPoint
 10
-25824.51823276501
 20
7677.702971374808
 30
0.0
  0
POINT
  5
169B
330
35CC
100
AcDbEntity
  8
DEFPOINTS
 62
     0
100
AcDbPoint
 10
-25961.04465488371
 20
7677.702971374808
 30
0.0
  0
ENDBLK
  5
169C
330
35CC
100
AcDbEntity
  8
0
100
AcDbBlockEnd
  0
BLOCK
  5
35CF
330
35CE
100
AcDbEntity
  8
0
100
AcDbBlockBegin
  2
*U40
 70
     1
 10
0.0
 20
0.0
 30
0.0
  3
*U40
  1

  0
TEXT
  5
1F19
330
35CE
100
AcDbEntity
  8
SIZE
 62
     0
100
AcDbText
 10
-25971.04465488371
 20
7605.302971374804
 30
0.0
 40
64.0
  1
8
 50
90.0
 41
0.9
100
AcDbText
  0
ENDBLK
  5
1F1B
330
35CE
100
AcDbEntity
  8
0
100
AcDbBlockEnd
  0
BLOCK
  5
35D1
330
35D0
100
AcDbEntity
  8
0
100
AcDbBlockBegin
  2
*D41
 70
     1
 10
0.0
 20
0.0
 30
0.0
  3
*D41
  1

  0
LINE
  5
169F
330
35D0
100
AcDbEntity
  8
SIZE
 62
     0
100
AcDbLine
 10
-25512.51823276502
 20
7385.702971374808
 30
0.0
 11
-25362.37494828464
 21
7385.702971374808
 31
0.0
  0
LINE
  5
16A0
330
35D0
100
AcDbEntity
  8
SIZE
 62
     0
100
AcDbLine
 10
-25523.51823276501
 20
7373.702971374808
 30
0.0
 11
-25362.37494828464
 21
7373.702971374808
 31
0.0
  0
LINE
  5
16A1
330
35D0
100
AcDbEntity
  8
SIZE
 62
     0
100
AcDbLine
 10
-25382.37494828464
 20
7397.702971374808
 30
0.0
 11
-25382.37494828464
 21
7409.70297137481
 31
0.0
  0
LINE
  5
16A2
330
35D0
100
AcDbEntity
  8
SIZE
 62
     0
100
AcDbLine
 10
-25382.37494828464
 20
7361.702971374808
 30
0.0
 11
-25382.37494828464
 21
7244.674399946238
 31
0.0
  0
INSERT
  5
16A3
330
35D0
100
AcDbEntity
  8
SIZE
 62
     0
100
AcDbBlockReference
  2
_DOTBLANK
 10
-25382.37494828464
 20
7385.702971374808
 30
0.0
 41
12.0
 42
12.0
 43
12.0
 50
270.0
  0
INSERT
  5
16A4
330
35D0
100
AcDbEntity
  8
SIZE
 62
     0
100
AcDbBlockReference
  2
_DOTBLANK
 10
-25382.37494828464
 20
7373.702971374808
 30
0.0
 41
12.0
 42
12.0
 43
12.0
 50
90.0
  0
INSERT
  5
16A5
330
35D0
100
AcDbEntity
  8
0
100
AcDbBlockReference
  2
*U42
 10
0.0
 20
0.0
 30
0.0
  0
POINT
  5
16A6
330
35D0
100
AcDbEntity
  8
DEFPOINTS
 62
     0
100
AcDbPoint
 10
-25532.51823276502
 20
7385.702971374808
 30
0.0
  0
POINT
  5
16A7
330
35D0
100
AcDbEntity
  8
DEFPOINTS
 62
     0
100
AcDbPoint
 10
-25543.51823276502
 20
7373.702971374808
 30
0.0
  0
POINT
  5
16A8
330
35D0
100
AcDbEntity
  8
DEFPOINTS
 62
     0
100
AcDbPoint
 10
-25382.37494828464
 20
7373.702971374808
 30
0.0
  0
ENDBLK
  5
16A9
330
35D0
100
AcDbEntity
  8
0
100
AcDbBlockEnd
  0
BLOCK
  5
35D3
330
35D2
100
AcDbEntity
  8
0
100
AcDbBlockBegin
  2
*U42
 70
     1
 10
0.0
 20
0.0
 30
0.0
  3
*U42
  1

  0
TEXT
  5
1F1D
330
35D2
100
AcDbEntity
  8
SIZE
 62
     0
100
AcDbText
 10
-25392.37494828464
 20
7256.045828517662
 30
0.0
 40
64.0
  1
12
 50
90.0
 41
0.9
100
AcDbText
  0
ENDBLK
  5
1F1F
330
35D2
100
AcDbEntity
  8
0
100
AcDbBlockEnd
  0
BLOCK
  5
35D5
330
35D4
100
AcDbEntity
  8
0
100
AcDbBlockBegin
  2
*D43
 70
     1
 10
0.0
 20
0.0
 30
0.0
  3
*D43
  1

  0
LINE
  5
16AC
330
35D4
100
AcDbEntity
  8
SIZE
 62
     0
100
AcDbLine
 10
-25801.51823276501
 20
7365.702971374808
 30
0.0
 11
-25801.51823276501
 21
7217.685576144207
 31
0.0
  0
LINE
  5
16AD
330
35D4
100
AcDbEntity
  8
SIZE
 62
     0
100
AcDbLine
 10
-25532.51823276502
 20
7365.702971374808
 30
0.0
 11
-25532.51823276502
 21
7217.685576144207
 31
0.0
  0
LINE
  5
16AE
330
35D4
100
AcDbEntity
  8
SIZE
 62
     0
100
AcDbLine
 10
-25789.51823276502
 20
7237.685576144207
 30
0.0
 11
-25544.51823276501
 21
7237.685576144207
 31
0.0
  0
INSERT
  5
16AF
330
35D4
100
AcDbEntity
  8
SIZE
 62
     0
100
AcDbBlockReference
  2
_DOTBLANK
 10
-25801.51823276501
 20
7237.685576144207
 30
0.0
 41
12.0
 42
12.0
 43
12.0
 50
180.0
  0
INSERT
  5
16B0
330
35D4
100
AcDbEntity
  8
SIZE
 62
     0
100
AcDbBlockReference
  2
_DOTBLANK
 10
-25532.51823276502
 20
7237.685576144207
 30
0.0
 41
12.0
 42
12.0
 43
12.0
  0
INSERT
  5
16B1
330
35D4
100
AcDbEntity
  8
0
100
AcDbBlockReference
  2
*U44
 10
0.0
 20
0.0
 30
0.0
  0
POINT
  5
16B2
330
35D4
100
AcDbEntity
  8
DEFPOINTS
 62
     0
100
AcDbPoint
 10
-25801.51823276501
 20
7385.702971374808
 30
0.0
  0
POINT
  5
16B3
330
35D4
100
AcDbEntity
  8
DEFPOINTS
 62
     0
100
AcDbPoint
 10
-25532.51823276502
 20
7385.702971374808
 30
0.0
  0
POINT
  5
16B4
330
35D4
100
AcDbEntity
  8
DEFPOINTS
 62
     0
100
AcDbPoint
 10
-25532.51823276502
 20
7237.685576144207
 30
0.0
  0
ENDBLK
  5
16B5
330
35D4
100
AcDbEntity
  8
0
100
AcDbBlockEnd
  0
BLOCK
  5
35D7
330
35D6
100
AcDbEntity
  8
0
100
AcDbBlockBegin
  2
*U44
 70
     1
 10
0.0
 20
0.0
 30
0.0
  3
*U44
  1

  0
TEXT
  5
1F21
330
35D6
100
AcDbEntity
  8
SIZE
 62
     0
100
AcDbText
 10
-25739.70394705074
 20
7247.685576144205
 30
0.0
 40
64.0
  1
269
 41
0.9
100
AcDbText
  0
ENDBLK
  5
1F23
330
35D6
100
AcDbEntity
  8
0
100
AcDbBlockEnd
  0
BLOCK
  5
35D9
330
35D8
100
AcDbEntity
  8
0
100
AcDbBlockBegin
  2
*D45
 70
     1
 10
0.0
 20
0.0
 30
0.0
  3
*D45
  1

  0
LINE
  5
16B8
330
35D8
100
AcDbEntity
  8
SIZE
 62
     0
100
AcDbLine
 10
-25512.51823276502
 20
7385.702971374808
 30
0.0
 11
-25362.37494828464
 21
7385.702971374808
 31
0.0
  0
LINE
  5
16B9
330
35D8
100
AcDbEntity
  8
SIZE
 62
     0
100
AcDbLine
 10
-25489.51823276501
 20
7685.702971374808
 30
0.0
 11
-25362.37494828464
 21
7685.702971374808
 31
0.0
  0
LINE
  5
16BA
330
35D8
100
AcDbEntity
  8
SIZE
 62
     0
100
AcDbLine
 10
-25382.37494828464
 20
7397.702971374808
 30
0.0
 11
-25382.37494828464
 21
7673.702971374808
 31
0.0
  0
INSERT
  5
16BB
330
35D8
100
AcDbEntity
  8
SIZE
 62
     0
100
AcDbBlockReference
  2
_DOTBLANK
 10
-25382.37494828464
 20
7385.702971374808
 30
0.0
 41
12.0
 42
12.0
 43
12.0
 50
270.0
  0
INSERT
  5
16BC
330
35D8
100
AcDbEntity
  8
SIZE
 62
     0
100
AcDbBlockReference
  2
_DOTBLANK
 10
-25382.37494828464
 20
7685.702971374808
 30
0.0
 41
12.0
 42
12.0
 43
12.0
 50
90.0
  0
INSERT
  5
16BD
330
35D8
100
AcDbEntity
  8
0
100
AcDbBlockReference
  2
*U46
 10
0.0
 20
0.0
 30
0.0
  0
POINT
  5
16BE
330
35D8
100
AcDbEntity
  8
DEFPOINTS
 62
     0
100
AcDbPoint
 10
-25532.51823276502
 20
7385.702971374808
 30
0.0
  0
POINT
  5
16BF
330
35D8
100
AcDbEntity
  8
DEFPOINTS
 62
     0
100
AcDbPoint
 10
-25509.51823276502
 20
7685.702971374808
 30
0.0
  0
POINT
  5
16C0
330
35D8
100
AcDbEntity
  8
DEFPOINTS
 62
     0
100
AcDbPoint
 10
-25382.37494828464
 20
7685.702971374808
 30
0.0
  0
ENDBLK
  5
16C1
330
35D8
100
AcDbEntity
  8
0
100
AcDbBlockEnd
  0
BLOCK
  5
35DB
330
35DA
100
AcDbEntity
  8
0
100
AcDbBlockBegin
  2
*U46
 70
     1
 10
0.0
 20
0.0
 30
0.0
  3
*U46
  1

  0
TEXT
  5
1F25
330
35DA
100
AcDbEntity
  8
SIZE
 62
     0
100
AcDbText
 10
-25392.37494828464
 20
7461.645828517662
 30
0.0
 40
64.0
  1
300
 50
90.0
 41
0.9
100
AcDbText
  0
ENDBLK
  5
1F27
330
35DA
100
AcDbEntity
  8
0
100
AcDbBlockEnd
  0
BLOCK
  5
35DD
330
35DC
100
AcDbEntity
  8
0
100
AcDbBlockBegin
  2
*D47
 70
     1
 10
0.0
 20
0.0
 30
0.0
  3
*D47
  1

  0
LINE
  5
16C4
330
35DC
100
AcDbEntity
  8
SIZE
 62
     0
100
AcDbLine
 10
-25807.01823276501
 20
7718.167454177002
 30
0.0
 11
-25807.01823276501
 21
7822.154659243358
 31
0.0
  0
LINE
  5
16C5
330
35DC
100
AcDbEntity
  8
SIZE
 62
     0
100
AcDbLine
 10
-25527.01823276501
 20
7718.167454177002
 30
0.0
 11
-25527.01823276501
 21
7822.154659243358
 31
0.0
  0
LINE
  5
16C6
330
35DC
100
AcDbEntity
  8
SIZE
 62
     0
100
AcDbLine
 10
-25795.01823276502
 20
7802.154659243358
 30
0.0
 11
-25539.01823276501
 21
7802.154659243358
 31
0.0
  0
INSERT
  5
16C7
330
35DC
100
AcDbEntity
  8
SIZE
 62
     0
100
AcDbBlockReference
  2
_DOTBLANK
 10
-25807.01823276501
 20
7802.154659243358
 30
0.0
 41
12.0
 42
12.0
 43
12.0
 50
180.0
  0
INSERT
  5
16C8
330
35DC
100
AcDbEntity
  8
SIZE
 62
     0
100
AcDbBlockReference
  2
_DOTBLANK
 10
-25527.01823276501
 20
7802.154659243358
 30
0.0
 41
12.0
 42
12.0
 43
12.0
  0
INSERT
  5
16C9
330
35DC
100
AcDbEntity
  8
0
100
AcDbBlockReference
  2
*U48
 10
0.0
 20
0.0
 30
0.0
  0
POINT
  5
16CA
330
35DC
100
AcDbEntity
  8
DEFPOINTS
 62
     0
100
AcDbPoint
 10
-25807.01823276501
 20
7698.167454177002
 30
0.0
  0
POINT
  5
16CB
330
35DC
100
AcDbEntity
  8
DEFPOINTS
 62
     0
100
AcDbPoint
 10
-25527.01823276501
 20
7698.167454177002
 30
0.0
  0
POINT
  5
16CC
330
35DC
100
AcDbEntity
  8
DEFPOINTS
 62
     0
100
AcDbPoint
 10
-25527.01823276501
 20
7802.154659243358
 30
0.0
  0
ENDBLK
  5
16CD
330
35DC
100
AcDbEntity
  8
0
100
AcDbBlockEnd
  0
BLOCK
  5
35DF
330
35DE
100
AcDbEntity
  8
0
100
AcDbBlockBegin
  2
*U48
 70
     1
 10
0.0
 20
0.0
 30
0.0
  3
*U48
  1

  0
TEXT
  5
1F29
330
35DE
100
AcDbEntity
  8
SIZE
 62
     0
100
AcDbText
 10
-25741.07537562216
 20
7812.154659243358
 30
0.0
 40
64.0
  1
280
 41
0.9
100
AcDbText
  0
ENDBLK
  5
1F2B
330
35DE
100
AcDbEntity
  8
0
100
AcDbBlockEnd
  0
BLOCK
  5
35E1
330
35E0
100
AcDbEntity
  8
0
100
AcDbBlockBegin
  2
*D49
 70
     1
 10
0.0
 20
0.0
 30
0.0
  3
*D49
  1

  0
LINE
  5
16D0
330
35E0
100
AcDbEntity
  8
SIZE
 62
     0
100
AcDbLine
 10
-25824.51823276501
 20
7705.702971374808
 30
0.0
 11
-25824.51823276501
 21
7931.282433493766
 31
0.0
  0
LINE
  5
16D1
330
35E0
100
AcDbEntity
  8
SIZE
 62
     0
100
AcDbLine
 10
-25509.51823276502
 20
7705.702971374808
 30
0.0
 11
-25509.51823276502
 21
7931.282433493766
 31
0.0
  0
LINE
  5
16D2
330
35E0
100
AcDbEntity
  8
SIZE
 62
     0
100
AcDbLine
 10
-25812.51823276502
 20
7911.282433493766
 30
0.0
 11
-25521.51823276501
 21
7911.282433493766
 31
0.0
  0
INSERT
  5
16D3
330
35E0
100
AcDbEntity
  8
SIZE
 62
     0
100
AcDbBlockReference
  2
_DOTBLANK
 10
-25824.51823276501
 20
7911.282433493766
 30
0.0
 41
12.0
 42
12.0
 43
12.0
 50
180.0
  0
INSERT
  5
16D4
330
35E0
100
AcDbEntity
  8
SIZE
 62
     0
100
AcDbBlockReference
  2
_DOTBLANK
 10
-25509.51823276502
 20
7911.282433493766
 30
0.0
 41
12.0
 42
12.0
 43
12.0
  0
INSERT
  5
16D5
330
35E0
100
AcDbEntity
  8
0
100
AcDbBlockReference
  2
*U50
 10
0.0
 20
0.0
 30
0.0
  0
POINT
  5
16D6
330
35E0
100
AcDbEntity
  8
DEFPOINTS
 62
     0
100
AcDbPoint
 10
-25824.51823276501
 20
7685.702971374808
 30
0.0
  0
POINT
  5
16D7
330
35E0
100
AcDbEntity
  8
DEFPOINTS
 62
     0
100
AcDbPoint
 10
-25509.51823276502
 20
7685.702971374808
 30
0.0
  0
POINT
  5
16D8
330
35E0
100
AcDbEntity
  8
DEFPOINTS
 62
     0
100
AcDbPoint
 10
-25509.51823276502
 20
7911.282433493766
 30
0.0
  0
ENDBLK
  5
16D9
330
35E0
100
AcDbEntity
  8
0
100
AcDbBlockEnd
  0
BLOCK
  5
35E3
330
35E2
100
AcDbEntity
  8
0
100
AcDbBlockBegin
  2
*U50
 70
     1
 10
0.0
 20
0.0
 30
0.0
  3
*U50
  1

  0
TEXT
  5
1F2D
330
35E2
100
AcDbEntity
  8
SIZE
 62
     0
100
AcDbText
 10
-25735.58966133645
 20
7921.282433493766
 30
0.0
 40
64.0
  1
315
 41
0.9
100
AcDbText
  0
ENDBLK
  5
1F2F
330
35E2
100
AcDbEntity
  8
0
100
AcDbBlockEnd
  0
BLOCK
  5
35E5
330
35E4
100
AcDbEntity
  8
0
100
AcDbBlockBegin
  2
*D51
 70
     1
 10
0.0
 20
0.0
 30
0.0
  3
*D51
  1

  0
LINE
  5
1D83
330
35E4
100
AcDbEntity
  8
SIZE
 62
     0
100
AcDbLine
 10
-134.5
 20
-320.0
 30
0.0
 11
-134.5
 21
-468.0173952306001
 31
0.0
  0
LINE
  5
1D84
330
35E4
100
AcDbEntity
  8
SIZE
 62
     0
100
AcDbLine
 10
134.5
 20
-320.0
 30
0.0
 11
134.5
 21
-468.0173952306001
 31
0.0
  0
LINE
  5
1D85
330
35E4
100
AcDbEntity
  8
SIZE
 62
     0
100
AcDbLine
 10
-122.5
 20
-448.0173952306
 30
0.0
 11
122.5
 21
-448.0173952306
 31
0.0
  0
INSERT
  5
1D86
330
35E4
100
AcDbEntity
  8
SIZE
 62
     0
100
AcDbBlockReference
  2
_DOTBLANK
 10
-134.5
 20
-448.0173952306
 30
0.0
 41
12.0
 42
12.0
 43
12.0
 50
180.0
  0
INSERT
  5
1D87
330
35E4
100
AcDbEntity
  8
SIZE
 62
     0
100
AcDbBlockReference
  2
_DOTBLANK
 10
134.5
 20
-448.0173952306
 30
0.0
 41
12.0
 42
12.0
 43
12.0
  0
INSERT
  5
1D88
330
35E4
100
AcDbEntity
  8
0
100
AcDbBlockReference
  2
*U52
 10
0.0
 20
0.0
 30
0.0
  0
POINT
  5
1D89
330
35E4
100
AcDbEntity
  8
DEFPOINTS
 62
     0
100
AcDbPoint
 10
-134.5
 20
-300.0
 30
0.0
  0
POINT
  5
1D8A
330
35E4
100
AcDbEntity
  8
DEFPOINTS
 62
     0
100
AcDbPoint
 10
134.5
 20
-300.0
 30
0.0
  0
POINT
  5
1D8B
330
35E4
100
AcDbEntity
  8
DEFPOINTS
 62
     0
100
AcDbPoint
 10
134.5
 20
-448.0173952306
 30
0.0
  0
ENDBLK
  5
173D
330
35E4
100
AcDbEntity
  8
0
100
AcDbBlockEnd
  0
BLOCK
  5
35E7
330
35E6
100
AcDbEntity
  8
0
100
AcDbBlockBegin
  2
*U52
 70
     1
 10
0.0
 20
0.0
 30
0.0
  3
*U52
  1

  0
TEXT
  5
1F31
330
35E6
100
AcDbEntity
  8
SIZE
 62
     0
100
AcDbText
 10
-72.68571428571426
 20
-438.0173952306003
 30
0.0
 40
64.0
  1
269
 41
0.9
100
AcDbText
  0
ENDBLK
  5
1F33
330
35E6
100
AcDbEntity
  8
0
100
AcDbBlockEnd
  0
BLOCK
  5
35E9
330
35E8
100
AcDbEntity
  8
0
100
AcDbBlockBegin
  2
*D53
 70
     1
 10
0.0
 20
0.0
 30
0.0
  3
*D53
  1

  0
LINE
  5
1D8C
330
35E8
100
AcDbEntity
  8
SIZE
 62
     0
100
AcDbLine
 10
154.5
 20
-300.0
 30
0.0
 11
304.6432844803784
 21
-300.0
 31
0.0
  0
LINE
  5
1D8D
330
35E8
100
AcDbEntity
  8
SIZE
 62
     0
100
AcDbLine
 10
177.5
 20
-0.0000000000000057
 30
0.0
 11
304.6432844803785
 21
-0.0000000000000417
 31
0.0
  0
LINE
  5
1D8E
330
35E8
100
AcDbEntity
  8
SIZE
 62
     0
100
AcDbLine
 10
284.6432844803784
 20
-288.0
 30
0.0
 11
284.6432844803785
 21
-12.00000000000003
 31
0.0
  0
INSERT
  5
1D8F
330
35E8
100
AcDbEntity
  8
SIZE
 62
     0
100
AcDbBlockReference
  2
_DOTBLANK
 10
284.6432844803784
 20
-300.0
 30
0.0
 41
12.0
 42
12.0
 43
12.0
 50
270.0
  0
INSERT
  5
1D90
330
35E8
100
AcDbEntity
  8
SIZE
 62
     0
100
AcDbBlockReference
  2
_DOTBLANK
 10
284.6432844803785
 20
-0.000000000000036
 30
0.0
 41
12.0
 42
12.0
 43
12.0
 50
90.0
  0
INSERT
  5
1D91
330
35E8
100
AcDbEntity
  8
0
100
AcDbBlockReference
  2
*U54
 10
0.0
 20
0.0
 30
0.0
  0
POINT
  5
1D92
330
35E8
100
AcDbEntity
  8
DEFPOINTS
 62
     0
100
AcDbPoint
 10
134.5
 20
-300.0
 30
0.0
  0
POINT
  5
1D93
330
35E8
100
AcDbEntity
  8
DEFPOINTS
 62
     0
100
AcDbPoint
 10
157.5
 20
0.0
 30
0.0
  0
POINT
  5
1D94
330
35E8
100
AcDbEntity
  8
DEFPOINTS
 62
     0
100
AcDbPoint
 10
284.6432844803785
 20
-0.000000000000036
 30
0.0
  0
ENDBLK
  5
1749
330
35E8
100
AcDbEntity
  8
0
100
AcDbBlockEnd
  0
BLOCK
  5
35EB
330
35EA
100
AcDbEntity
  8
0
100
AcDbBlockBegin
  2
*U54
 70
     1
 10
0.0
 20
0.0
 30
0.0
  3
*U54
  1

  0
TEXT
  5
1F35
330
35EA
100
AcDbEntity
  8
SIZE
 62
     0
100
AcDbText
 10
274.6432844803785
 20
-224.0571428571429
 30
0.0
 40
64.0
  1
300
 50
90.0
 41
0.9
100
AcDbText
  0
ENDBLK
  5
1F37
330
35EA
100
AcDbEntity
  8
0
100
AcDbBlockEnd
  0
BLOCK
  5
35ED
330
35EC
100
AcDbEntity
  8
0
100
AcDbBlockBegin
  2
*D55
 70
     1
 10
0.0
 20
0.0
 30
0.0
  3
*D55
  1

  0
LINE
  5
1D95
330
35EC
100
AcDbEntity
  8
SIZE
 62
     0
100
AcDbLine
 10
-140.0
 20
32.46448280219375
 30
0.0
 11
-140.0
 21
136.4516878685508
 31
0.0
  0
LINE
  5
1D96
330
35EC
100
AcDbEntity
  8
SIZE
 62
     0
100
AcDbLine
 10
140.0
 20
32.46448280219375
 30
0.0
 11
140.0
 21
136.4516878685508
 31
0.0
  0
LINE
  5
1D97
330
35EC
100
AcDbEntity
  8
SIZE
 62
     0
100
AcDbLine
 10
-128.0
 20
116.4516878685508
 30
0.0
 11
128.0
 21
116.4516878685508
 31
0.0
  0
INSERT
  5
1D98
330
35EC
100
AcDbEntity
  8
SIZE
 62
     0
100
AcDbBlockReference
  2
_DOTBLANK
 10
-140.0
 20
116.4516878685508
 30
0.0
 41
12.0
 42
12.0
 43
12.0
 50
180.0
  0
INSERT
  5
1D99
330
35EC
100
AcDbEntity
  8
SIZE
 62
     0
100
AcDbBlockReference
  2
_DOTBLANK
 10
140.0
 20
116.4516878685508
 30
0.0
 41
12.0
 42
12.0
 43
12.0
  0
INSERT
  5
1D9A
330
35EC
100
AcDbEntity
  8
0
100
AcDbBlockReference
  2
*U56
 10
0.0
 20
0.0
 30
0.0
  0
POINT
  5
1D9B
330
35EC
100
AcDbEntity
  8
DEFPOINTS
 62
     0
100
AcDbPoint
 10
-140.0
 20
12.46448280219374
 30
0.0
  0
POINT
  5
1D9C
330
35EC
100
AcDbEntity
  8
DEFPOINTS
 62
     0
100
AcDbPoint
 10
140.0
 20
12.46448280219374
 30
0.0
  0
POINT
  5
1D9D
330
35EC
100
AcDbEntity
  8
DEFPOINTS
 62
     0
100
AcDbPoint
 10
140.0
 20
116.4516878685508
 30
0.0
  0
ENDBLK
  5
1755
330
35EC
100
AcDbEntity
  8
0
100
AcDbBlockEnd
  0
BLOCK
  5
35EF
330
35EE
100
AcDbEntity
  8
0
100
AcDbBlockBegin
  2
*U56
 70
     1
 10
0.0
 20
0.0
 30
0.0
  3
*U56
  1

  0
TEXT
  5
1F39
330
35EE
100
AcDbEntity
  8
SIZE
 62
     0
100
AcDbText
 10
-74.05714285714283
 20
126.4516878685508
 30
0.0
 40
64.0
  1
280
 41
0.9
100
AcDbText
  0
ENDBLK
  5
1F3B
330
35EE
100
AcDbEntity
  8
0
100
AcDbBlockEnd
  0
BLOCK
  5
35F1
330
35F0
100
AcDbEntity
  8
0
100
AcDbBlockBegin
  2
*D57
 70
     1
 10
0.0
 20
0.0
 30
0.0
  3
*D57
  1

  0
LINE
  5
1D9E
330
35F0
100
AcDbEntity
  8
SIZE
 62
     0
100
AcDbLine
 10
-157.5
 20
20.0
 30
0.0
 11
-157.5
 21
245.5794621189598
 31
0.0
  0
LINE
  5
1D9F
330
35F0
100
AcDbEntity
  8
SIZE
 62
     0
100
AcDbLine
 10
157.5
 20
20.0
 30
0.0
 11
157.5
 21
245.5794621189598
 31
0.0
  0
LINE
  5
1DA0
330
35F0
100
AcDbEntity
  8
SIZE
 62
     0
100
AcDbLine
 10
-145.5
 20
225.5794621189598
 30
0.0
 11
145.5
 21
225.5794621189598
 31
0.0
  0
INSERT
  5
1DA1
330
35F0
100
AcDbEntity
  8
SIZE
 62
     0
100
AcDbBlockReference
  2
_DOTBLANK
 10
-157.5
 20
225.5794621189598
 30
0.0
 41
12.0
 42
12.0
 43
12.0
 50
180.0
  0
INSERT
  5
1DA2
330
35F0
100
AcDbEntity
  8
SIZE
 62
     0
100
AcDbBlockReference
  2
_DOTBLANK
 10
157.5
 20
225.5794621189598
 30
0.0
 41
12.0
 42
12.0
 43
12.0
  0
INSERT
  5
1DA3
330
35F0
100
AcDbEntity
  8
0
100
AcDbBlockReference
  2
*U58
 10
0.0
 20
0.0
 30
0.0
  0
POINT
  5
1DA4
330
35F0
100
AcDbEntity
  8
DEFPOINTS
 62
     0
100
AcDbPoint
 10
-157.5
 20
0.0
 30
0.0
  0
POINT
  5
1DA5
330
35F0
100
AcDbEntity
  8
DEFPOINTS
 62
     0
100
AcDbPoint
 10
157.5
 20
0.0
 30
0.0
  0
POINT
  5
1DA6
330
35F0
100
AcDbEntity
  8
DEFPOINTS
 62
     0
100
AcDbPoint
 10
157.5
 20
225.5794621189598
 30
0.0
  0
ENDBLK
  5
1761
330
35F0
100
AcDbEntity
  8
0
100
AcDbBlockEnd
  0
BLOCK
  5
35F3
330
35F2
100
AcDbEntity
  8
0
100
AcDbBlockBegin
  2
*U58
 70
     1
 10
0.0
 20
0.0
 30
0.0
  3
*U58
  1

  0
TEXT
  5
1F3D
330
35F2
100
AcDbEntity
  8
SIZE
 62
     0
100
AcDbText
 10
-68.57142857142857
 20
235.5794621189599
 30
0.0
 40
64.0
  1
315
 41
0.9
100
AcDbText
  0
ENDBLK
  5
1F3F
330
35F2
100
AcDbEntity
  8
0
100
AcDbBlockEnd
  0
BLOCK
  5
35F5
330
35F4
100
AcDbEntity
  8
0
100
AcDbBlockBegin
  2
*D59
 70
     1
 10
0.0
 20
0.0
 30
0.0
  3
*D59
  1

  0
LINE
  5
1DA7
330
35F4
100
AcDbEntity
  8
SIZE
 62
     0
100
AcDbLine
 10
-177.5
 20
0.0000000000000057
 30
0.0
 11
-314.0264221186908
 21
0.0000000000000443
 31
0.0
  0
LINE
  5
1DA8
330
35F4
100
AcDbEntity
  8
SIZE
 62
     0
100
AcDbLine
 10
-177.5
 20
-7.999999999999992
 30
0.0
 11
-314.0264221186908
 21
-7.999999999999957
 31
0.0
  0
LINE
  5
1DA9
330
35F4
100
AcDbEntity
  8
SIZE
 62
     0
100
AcDbLine
 10
-294.0264221186908
 20
12.00000000000003
 30
0.0
 11
-294.0264221186908
 21
24.00000000000004
 31
0.0
  0
LINE
  5
1DAA
330
35F4
100
AcDbEntity
  8
SIZE
 62
     0
100
AcDbLine
 10
-294.0264221186908
 20
-19.99999999999996
 30
0.0
 11
-294.0264221186908
 21
-90.39999999999997
 31
0.0
  0
INSERT
  5
1DAB
330
35F4
100
AcDbEntity
  8
SIZE
 62
     0
100
AcDbBlockReference
  2
_DOTBLANK
 10
-294.0264221186908
 20
0.0000000000000387
 30
0.0
 41
12.0
 42
12.0
 43
12.0
 50
270.0
  0
INSERT
  5
1DAC
330
35F4
100
AcDbEntity
  8
SIZE
 62
     0
100
AcDbBlockReference
  2
_DOTBLANK
 10
-294.0264221186908
 20
-7.99999999999996
 30
0.0
 41
12.0
 42
12.0
 43
12.0
 50
90.0
  0
INSERT
  5
1DAD
330
35F4
100
AcDbEntity
  8
0
100
AcDbBlockReference
  2
*U60
 10
0.0
 20
0.0
 30
0.0
  0
POINT
  5
1DAE
330
35F4
100
AcDbEntity
  8
DEFPOINTS
 62
     0
100
AcDbPoint
 10
-157.5
 20
0.0
 30
0.0
  0
POINT
  5
1DAF
330
35F4
100
AcDbEntity
  8
DEFPOINTS
 62
     0
100
AcDbPoint
 10
-157.5
 20
-8.000000000000001
 30
0.0
  0
POINT
  5
1DB0
330
35F4
100
AcDbEntity
  8
DEFPOINTS
 62
     0
100
AcDbPoint
 10
-294.0264221186908
 20
-7.99999999999996
 30
0.0
  0
ENDBLK
  5
176D
330
35F4
100
AcDbEntity
  8
0
100
AcDbBlockEnd
  0
BLOCK
  5
35F7
330
35F6
100
AcDbEntity
  8
0
100
AcDbBlockBegin
  2
*U60
 70
     1
 10
0.0
 20
0.0
 30
0.0
  3
*U60
  1

  0
TEXT
  5
1F41
330
35F6
100
AcDbEntity
  8
SIZE
 62
     0
100
AcDbText
 10
-304.0264221186908
 20
-80.4
 30
0.0
 40
64.0
  1
8
 50
90.0
 41
0.9
100
AcDbText
  0
ENDBLK
  5
1F43
330
35F6
100
AcDbEntity
  8
0
100
AcDbBlockEnd
  0
BLOCK
  5
35F9
330
35F8
100
AcDbEntity
  8
0
100
AcDbBlockBegin
  2
*D61
 70
     1
 10
0.0
 20
0.0
 30
0.0
  3
*D61
  1

  0
LINE
  5
1DB1
330
35F8
100
AcDbEntity
  8
SIZE
 62
     0
100
AcDbLine
 10
154.5
 20
-300.0
 30
0.0
 11
304.6432844803785
 21
-300.0
 31
0.0
  0
LINE
  5
1DB2
330
35F8
100
AcDbEntity
  8
SIZE
 62
     0
100
AcDbLine
 10
143.5
 20
-312.0
 30
0.0
 11
304.6432844803785
 21
-312.0
 31
0.0
  0
LINE
  5
1DB3
330
35F8
100
AcDbEntity
  8
SIZE
 62
     0
100
AcDbLine
 10
284.6432844803785
 20
-288.0
 30
0.0
 11
284.6432844803785
 21
-276.0
 31
0.0
  0
LINE
  5
1DB4
330
35F8
100
AcDbEntity
  8
SIZE
 62
     0
100
AcDbLine
 10
284.6432844803785
 20
-324.0000000000001
 30
0.0
 11
284.6432844803784
 21
-438.2857142857143
 31
0.0
  0
INSERT
  5
1DB5
330
35F8
100
AcDbEntity
  8
SIZE
 62
     0
100
AcDbBlockReference
  2
_DOTBLANK
 10
284.6432844803785
 20
-300.0
 30
0.0
 41
12.0
 42
12.0
 43
12.0
 50
270.0
  0
INSERT
  5
1DB6
330
35F8
100
AcDbEntity
  8
SIZE
 62
     0
100
AcDbBlockReference
  2
_DOTBLANK
 10
284.6432844803785
 20
-312.0
 30
0.0
 41
12.0
 42
12.0
 43
12.0
 50
90.0
  0
INSERT
  5
1DB7
330
35F8
100
AcDbEntity
  8
0
100
AcDbBlockReference
  2
*U62
 10
0.0
 20
0.0
 30
0.0
  0
POINT
  5
1DB8
330
35F8
100
AcDbEntity
  8
DEFPOINTS
 62
     0
100
AcDbPoint
 10
134.5
 20
-300.0
 30
0.0
  0
POINT
  5
1DB9
330
35F8
100
AcDbEntity
  8
DEFPOINTS
 62
     0
100
AcDbPoint
 10
123.5
 20
-312.0
 30
0.0
  0
POINT
  5
1DBA
330
35F8
100
AcDbEntity
  8
DEFPOINTS
 62
     0
100
AcDbPoint
 10
284.6432844803785
 20
-312.0
 30
0.0
  0
ENDBLK
  5
177B
330
35F8
100
AcDbEntity
  8
0
100
AcDbBlockEnd
  0
BLOCK
  5
35FB
330
35FA
100
AcDbEntity
  8
0
100
AcDbBlockBegin
  2
*U62
 70
     1
 10
0.0
 20
0.0
 30
0.0
  3
*U62
  1

  0
TEXT
  5
1F45
330
35FA
100
AcDbEntity
  8
SIZE
 62
     0
100
AcDbText
 10
274.6432844803785
 20
-428.2857142857142
 30
0.0
 40
64.0
  1
12
 50
90.0
 41
0.9
100
AcDbText
  0
ENDBLK
  5
1F47
330
35FA
100
AcDbEntity
  8
0
100
AcDbBlockEnd
  0
BLOCK
  5
35FD
330
35FC
100
AcDbEntity
  8
0
100
AcDbBlockBegin
  2
*U63
 70
     1
 10
0.0
 20
0.0
 30
0.0
  3
*U63
  1

  0
ENDBLK
  5
1D57
330
35FC
100
AcDbEntity
  8
0
100
AcDbBlockEnd
  0
BLOCK
  5
35FF
330
35FE
100
AcDbEntity
  8
0
100
AcDbBlockBegin
  2
*U64
 70
     1
 10
0.0
 20
0.0
 30
0.0
  3
*U64
  1

  0
INSERT
  5
2164
330
35FE
100
AcDbEntity
  8
NOTE
100
AcDbBlockReference
  2
_OPEN30
 10
140.0
 20
0.0
 30
0.0
 41
12.0
 42
12.0
 43
12.0
 50
235.5417514112222
  0
POLYLINE
  5
2165
330
35FE
100
AcDbEntity
  8
NOTE
100
AcDb2dPolyline
 66
     1
 10
0.0
 20
0.0
 30
0.0
  0
VERTEX
  5
2166
330
2165
100
AcDbEntity
  8
NOTE
100
AcDbVertex
100
AcDb2dVertex
 10
146.7896665541345
 20
9.894464517277684
 30
0.0
  0
VERTEX
  5
2167
330
2165
100
AcDbEntity
  8
NOTE
100
AcDbVertex
100
AcDb2dVertex
 10
224.3910002644407
 20
122.9815560214237
 30
0.0
  0
VERTEX
  5
2168
330
2165
100
AcDbEntity
  8
NOTE
100
AcDbVertex
100
AcDb2dVertex
 10
484.5967145501549
 20
122.9815560214237
 30
0.0
  0
SEQEND
  5
2169
330
2165
100
AcDbEntity
  8
NOTE
  0
ENDBLK
  5
216A
330
35FE
100
AcDbEntity
  8
0
100
AcDbBlockEnd
  0
BLOCK
  5
3601
330
3600
100
AcDbEntity
  8
0
100
AcDbBlockBegin
  2
*U65
 70
     1
 10
0.0
 20
0.0
 30
0.0
  3
*U65
  1

  0
INSERT
  5
216D
330
3600
100
AcDbEntity
  8
NOTE
100
AcDbBlockReference
  2
_OPEN30
 10
136.5
 20
-52.0
 30
0.0
 41
12.0
 42
12.0
 43
12.0
 50
209.4351697182792
  0
POLYLINE
  5
216E
330
3600
100
AcDbEntity
  8
NOTE
100
AcDb2dPolyline
 66
     1
 10
0.0
 20
0.0
 30
0.0
  0
VERTEX
  5
216F
330
216E
100
AcDbEntity
  8
NOTE
100
AcDbVertex
100
AcDb2dVertex
 10
146.9509478021279
 20
-46.10273876810613
 30
0.0
  0
VERTEX
  5
2170
330
216E
100
AcDbEntity
  8
NOTE
100
AcDbVertex
100
AcDb2dVertex
 10
219.8910002644407
 20
-4.94412313032444
 30
0.0
  0
VERTEX
  5
2171
330
216E
100
AcDbEntity
  8
NOTE
100
AcDbVertex
100
AcDb2dVertex
 10
680.8738574072979
 20
-4.94412313032444
 30
0.0
  0
SEQEND
  5
2172
330
216E
100
AcDbEntity
  8
NOTE
  0
ENDBLK
  5
2173
330
3600
100
AcDbEntity
  8
0
100
AcDbBlockEnd
  0
BLOCK
  5
3603
330
3602
100
AcDbEntity
  8
0
100
AcDbBlockBegin
  2
*U66
 70
     1
 10
0.0
 20
0.0
 30
0.0
  3
*U66
  1

  0
INSERT
  5
24AD
330
3602
100
AcDbEntity
  8
NOTE
100
AcDbBlockReference
  2
_OPEN30
 10
135.5
 20
86.69999999999891
 30
0.0
 41
12.0
 42
12.0
 43
12.0
 50
234.8415519604024
  0
POLYLINE
  5
24AE
330
3602
100
AcDbEntity
  8
NOTE
100
AcDb2dPolyline
 66
     1
 10
0.0
 20
0.0
 30
0.0
  0
VERTEX
  5
24AF
330
24AE
100
AcDbEntity
  8
NOTE
100
AcDbVertex
100
AcDb2dVertex
 10
142.4100746722791
 20
96.51075267364873
 30
0.0
  0
VERTEX
  5
24B0
330
24AE
100
AcDbEntity
  8
NOTE
100
AcDbVertex
100
AcDb2dVertex
 10
209.2821771980816
 20
191.454105641963
 30
0.0
  0
VERTEX
  5
24B1
330
24AE
100
AcDbEntity
  8
NOTE
100
AcDbVertex
100
AcDb2dVertex
 10
670.2650343409388
 20
191.454105641963
 30
0.0
  0
SEQEND
  5
24B2
330
24AE
100
AcDbEntity
  8
NOTE
  0
ENDBLK
  5
24B3
330
3602
100
AcDbEntity
  8
0
100
AcDbBlockEnd
  0
BLOCK
  5
3605
330
3604
100
AcDbEntity
  8
0
100
AcDbBlockBegin
  2
*U67
 70
     1
 10
0.0
 20
0.0
 30
0.0
  3
*U67
  1

  0
INSERT
  5
24B6
330
3604
100
AcDbEntity
  8
NOTE
100
AcDbBlockReference
  2
_OPEN30
 10
-140.0
 20
-140.0
 30
0.0
 41
12.0
 42
12.0
 43
12.0
 50
65.2213823710505
  0
POLYLINE
  5
24B7
330
3604
100
AcDbEntity
  8
NOTE
100
AcDb2dPolyline
 66
     1
 10
0.0
 20
0.0
 30
0.0
  0
VERTEX
  5
24B8
330
24B7
100
AcDbEntity
  8
NOTE
100
AcDbVertex
100
AcDb2dVertex
 10
-145.0293593269645
 20
-150.8952074216269
 30
0.0
  0
VERTEX
  5
24B9
330
24B7
100
AcDbEntity
  8
NOTE
100
AcDbVertex
100
AcDb2dVertex
 10
-247.7496908473731
 20
-373.4204329176145
 30
0.0
  0
VERTEX
  5
24BA
330
24B7
100
AcDbEntity
  8
NOTE
100
AcDbVertex
100
AcDb2dVertex
 10
-507.9554051330871
 20
-373.4204329176145
 30
0.0
  0
SEQEND
  5
24BB
330
24B7
100
AcDbEntity
  8
NOTE
  0
ENDBLK
  5
24BC
330
3604
100
AcDbEntity
  8
0
100
AcDbBlockEnd
  0
BLOCK
  5
3607
330
3606
100
AcDbEntity
  8
0
100
AcDbBlockBegin
  2
*U68
 70
     1
 10
0.0
 20
0.0
 30
0.0
  3
*U68
  1

  0
INSERT
  5
27FF
330
3606
100
AcDbEntity
  8
NOTE
100
AcDbBlockReference
  2
_OPEN30
 10
-140.2688818878632
 20
140.0
 30
0.0
 41
12.0
 42
12.0
 43
12.0
 50
301.330018645256
  0
POLYLINE
  5
2800
330
3606
100
AcDbEntity
  8
NOTE
100
AcDb2dPolyline
 66
     1
 10
0.0
 20
0.0
 30
0.0
  0
VERTEX
  5
2801
330
2800
100
AcDbEntity
  8
NOTE
100
AcDbVertex
100
AcDb2dVertex
 10
-146.5084824344086
 20
150.2502382908667
 30
0.0
  0
VERTEX
  5
2802
330
2800
100
AcDbEntity
  8
NOTE
100
AcDbVertex
100
AcDb2dVertex
 10
-214.6811402733692
 20
262.2423414004079
 30
0.0
  0
VERTEX
  5
2803
330
2800
100
AcDbEntity
  8
NOTE
100
AcDbVertex
100
AcDb2dVertex
 10
-507.0811402733692
 20
262.2423414004079
 30
0.0
  0
SEQEND
  5
2804
330
2800
100
AcDbEntity
  8
NOTE
  0
ENDBLK
  5
2805
330
3606
100
AcDbEntity
  8
0
100
AcDbBlockEnd
  0
BLOCK
  5
3609
330
3608
100
AcDbEntity
  8
0
100
AcDbBlockBegin
  2
*U69
 70
     1
 10
0.0
 20
0.0
 30
0.0
  3
*U69
  1

  0
INSERT
  5
2B2D
330
3608
100
AcDbEntity
  8
NOTE
100
AcDbBlockReference
  2
_OPEN30
 10
0.0
 20
140.0
 30
0.0
 41
12.0
 42
12.0
 43
12.0
 50
294.9438248590654
  0
POLYLINE
  5
2B2E
330
3608
100
AcDbEntity
  8
NOTE
100
AcDb2dPolyline
 66
     1
 10
0.0
 20
0.0
 30
0.0
  0
VERTEX
  5
2B2F
330
2B2E
100
AcDbEntity
  8
NOTE
100
AcDbVertex
100
AcDb2dVertex
 10
-5.06075372753488
 20
150.8806604445337
 30
0.0
  0
VERTEX
  5
2B30
330
2B2E
100
AcDbEntity
  8
NOTE
100
AcDbVertex
100
AcDb2dVertex
 10
-97.13114095140923
 20
348.8327194291728
 30
0.0
  0
VERTEX
  5
2B31
330
2B2E
100
AcDbEntity
  8
NOTE
100
AcDbVertex
100
AcDb2dVertex
 10
-357.3368552371235
 20
348.8327194291728
 30
0.0
  0
SEQEND
  5
2B32
330
2B2E
100
AcDbEntity
  8
NOTE
  0
ENDBLK
  5
2B33
330
3608
100
AcDbEntity
  8
0
100
AcDbBlockEnd
  0
BLOCK
  5
360B
330
360A
100
AcDbEntity
  8
0
100
AcDbBlockBegin
  2
*U70
 70
     1
 10
0.0
 20
0.0
 30
0.0
  3
*U70
  1

  0
INSERT
  5
2B36
330
360A
100
AcDbEntity
  8
NOTE
100
AcDbBlockReference
  2
_OPEN30
 10
-52.0
 20
135.5
 30
0.0
 41
12.0
 42
12.0
 43
12.0
 50
317.3702775456434
  0
POLYLINE
  5
2B37
330
360A
100
AcDbEntity
  8
NOTE
100
AcDb2dPolyline
 66
     1
 10
0.0
 20
0.0
 30
0.0
  0
VERTEX
  5
2B38
330
2B37
100
AcDbEntity
  8
NOTE
100
AcDbVertex
100
AcDb2dVertex
 10
-60.82895026608682
 20
143.6270927888739
 30
0.0
  0
VERTEX
  5
2B39
330
2B37
100
AcDbEntity
  8
NOTE
100
AcDbVertex
100
AcDb2dVertex
 10
-157.0262880127629
 20
232.1772223453731
 30
0.0
  0
VERTEX
  5
2B3A
330
2B37
100
AcDbEntity
  8
NOTE
100
AcDbVertex
100
AcDb2dVertex
 10
-618.0091451556201
 20
232.1772223453731
 30
0.0
  0
SEQEND
  5
2B3B
330
2B37
100
AcDbEntity
  8
NOTE
  0
ENDBLK
  5
2B3C
330
360A
100
AcDbEntity
  8
0
100
AcDbBlockEnd
  0
BLOCK
  5
360D
330
360C
100
AcDbEntity
  8
0
100
AcDbBlockBegin
  2
*U71
 70
     1
 10
0.0
 20
0.0
 30
0.0
  3
*U71
  1

  0
TEXT
  5
2B3F
330
360C
100
AcDbEntity
  8
SIZE
100
AcDbText
 10
277.4081310227084
 20
-74.06436333937461
 30
0.0
 40
64.0
  1
280
 50
90.0
 41
0.9
100
AcDbText
  0
ENDBLK
  5
2B40
330
360C
100
AcDbEntity
  8
0
100
AcDbBlockEnd
  0
BLOCK
  5
360F
330
360E
100
AcDbEntity
  8
0
100
AcDbBlockBegin
  2
*U72
 70
     1
 10
0.0
 20
0.0
 30
0.0
  3
*U72
  1

  0
INSERT
  5
3220
330
360E
100
AcDbEntity
  8
NOTE
100
AcDbBlockReference
  2
_OPEN30
 10
-136.5
 20
-52.0
 30
0.0
 41
12.0
 42
12.0
 43
12.0
 50
305.9876127319031
  0
POLYLINE
  5
3221
330
360E
100
AcDbEntity
  8
NOTE
100
AcDb2dPolyline
 66
     1
 10
0.0
 20
0.0
 30
0.0
  0
VERTEX
  5
3222
330
3221
100
AcDbEntity
  8
NOTE
100
AcDbVertex
100
AcDb2dVertex
 10
-143.5513239624501
 20
-42.29027135412233
 30
0.0
  0
VERTEX
  5
3223
330
3221
100
AcDbEntity
  8
NOTE
100
AcDbVertex
100
AcDb2dVertex
 10
-241.0
 20
91.89732323993984
 30
0.0
  0
VERTEX
  5
3224
330
3221
100
AcDbEntity
  8
NOTE
100
AcDbVertex
100
AcDb2dVertex
 10
-701.9828571428572
 20
91.89732323993984
 30
0.0
  0
SEQEND
  5
3225
330
3221
100
AcDbEntity
  8
NOTE
  0
ENDBLK
  5
3226
330
360E
100
AcDbEntity
  8
0
100
AcDbBlockEnd
  0
BLOCK
  5
3611
330
3610
100
AcDbEntity
  8
0
100
AcDbBlockBegin
  2
*U73
 70
     1
 10
0.0
 20
0.0
 30
0.0
  3
*U73
  1

  0
INSERT
  5
3229
330
3610
100
AcDbEntity
  8
NOTE
100
AcDbBlockReference
  2
_OPEN30
 10
-140.0
 20
0.0
 30
0.0
 41
12.0
 42
12.0
 43
12.0
 50
296.1323340017244
  0
POLYLINE
  5
322A
330
3610
100
AcDbEntity
  8
NOTE
100
AcDb2dPolyline
 66
     1
 10
0.0
 20
0.0
 30
0.0
  0
VERTEX
  5
322B
330
322A
100
AcDbEntity
  8
NOTE
100
AcDbVertex
100
AcDb2dVertex
 10
-145.285350655739
 20
10.77334991754557
 30
0.0
  0
VERTEX
  5
322C
330
322A
100
AcDbEntity
  8
NOTE
100
AcDbVertex
100
AcDb2dVertex
 10
-249.8904122898856
 20
223.9941947648798
 30
0.0
  0
VERTEX
  5
322D
330
322A
100
AcDbEntity
  8
NOTE
100
AcDbVertex
100
AcDb2dVertex
 10
-510.0961265755999
 20
223.9941947648798
 30
0.0
  0
SEQEND
  5
322E
330
322A
100
AcDbEntity
  8
NOTE
  0
ENDBLK
  5
322F
330
3610
100
AcDbEntity
  8
0
100
AcDbBlockEnd
  0
BLOCK
  5
3613
330
3612
100
AcDbEntity
  8
0
100
AcDbBlockBegin
  2
*X74
 70
     1
 10
0.0
 20
0.0
 30
0.0
  3
*X74
  1

  0
LINE
  5
3232
330
3612
100
AcDbEntity
  8
0
 62
     0
100
AcDbLine
 10
108.5873193961615
 20
-451.4999999999998
 30
0.0
 11
111.4999999999909
 21
-449.5582178891815
 31
0.0
  0
LINE
  5
3233
330
3612
100
AcDbEntity
  8
0
 62
     0
100
AcDbLine
 10
104.0873581022733
 20
-451.4999999999998
 30
0.0
 11
111.4999999999891
 21
-446.5582513537665
 31
0.0
  0
LINE
  5
3234
330
3612
100
AcDbEntity
  8
0
 62
     0
100
AcDbLine
 10
99.58739680838881
 20
-451.4999999999998
 30
0.0
 11
111.4999999999909
 21
-443.5582848183476
 31
0.0
  0
LINE
  5
3235
330
3612
100
AcDbEntity
  8
0
 62
     0
100
AcDbLine
 10
95.08743551450242
 20
-451.5000000000017
 30
0.0
 11
111.4999999999909
 21
-440.558318282934
 31
0.0
  0
LINE
  5
3236
330
3612
100
AcDbEntity
  8
0
 62
     0
100
AcDbLine
 10
90.58747422061967
 20
-451.4999999999998
 30
0.0
 11
111.4999999999891
 21
-437.558351747517
 31
0.0
  0
LINE
  5
3237
330
3612
100
AcDbEntity
  8
0
 62
     0
100
AcDbLine
 10
86.08751292672787
 20
-451.5000000000036
 30
0.0
 11
111.4999999999891
 21
-434.5583852121015
 31
0.0
  0
LINE
  5
3238
330
3612
100
AcDbEntity
  8
0
 62
     0
100
AcDbLine
 10
81.58755163284878
 20
-451.4999999999981
 30
0.0
 11
111.4999999999909
 21
-431.5584186766828
 31
0.0
  0
LINE
  5
3239
330
3612
100
AcDbEntity
  8
0
 62
     0
100
AcDbLine
 10
77.0875903389624
 20
-451.4999999999998
 30
0.0
 11
111.4999999999909
 21
-428.5584521412671
 31
0.0
  0
LINE
  5
323A
330
3612
100
AcDbEntity
  8
0
 62
     0
100
AcDbLine
 10
72.58762904507602
 20
-451.5000000000017
 30
0.0
 11
111.4999999999891
 21
-425.558485605854
 31
0.0
  0
LINE
  5
323B
330
3612
100
AcDbEntity
  8
0
 62
     0
100
AcDbLine
 10
68.08766775118965
 20
-451.5000000000017
 30
0.0
 11
111.4999999999909
 21
-422.5585190704348
 31
0.0
  0
LINE
  5
323C
330
3612
100
AcDbEntity
  8
0
 62
     0
100
AcDbLine
 10
63.58770645730328
 20
-451.5000000000017
 30
0.0
 11
111.4999999999891
 21
-419.5585525350195
 31
0.0
  0
LINE
  5
323D
330
3612
100
AcDbEntity
  8
0
 62
     0
100
AcDbLine
 10
59.0877451634151
 20
-451.5000000000017
 30
0.0
 11
111.4999999999891
 21
-416.5585859996026
 31
0.0
  0
LINE
  5
323E
330
3612
100
AcDbEntity
  8
0
 62
     0
100
AcDbLine
 10
54.58778386953053
 20
-451.5000000000036
 30
0.0
 11
111.4999999999891
 21
-413.5586194641891
 31
0.0
  0
LINE
  5
323F
330
3612
100
AcDbEntity
  8
0
 62
     0
100
AcDbLine
 10
50.08782257565144
 20
-451.4999999999998
 30
0.0
 11
111.4999999999909
 21
-410.5586529287719
 31
0.0
  0
LINE
  5
3240
330
3612
100
AcDbEntity
  8
0
 62
     0
100
AcDbLine
 10
45.58786128176507
 20
-451.4999999999998
 30
0.0
 11
111.4999999999891
 21
-407.5586863933549
 31
0.0
  0
LINE
  5
3241
330
3612
100
AcDbEntity
  8
0
 62
     0
100
AcDbLine
 10
41.08789998787687
 20
-451.4999999999998
 30
0.0
 11
111.4999999999891
 21
-404.5587198579378
 31
0.0
  0
LINE
  5
3242
330
3612
100
AcDbEntity
  8
0
 62
     0
100
AcDbLine
 10
36.58793869399233
 20
-451.4999999999998
 30
0.0
 11
111.4999999999891
 21
-401.5587533225225
 31
0.0
  0
LINE
  5
3243
330
3612
100
AcDbEntity
  8
0
 62
     0
100
AcDbLine
 10
32.08797740010414
 20
-451.5000000000017
 30
0.0
 11
111.4999999999891
 21
-398.5587867871073
 31
0.0
  0
LINE
  5
3244
330
3612
100
AcDbEntity
  8
0
 62
     0
100
AcDbLine
 10
27.58801610621777
 20
-451.5000000000017
 30
0.0
 11
111.4999999999891
 21
-395.5588202516901
 31
0.0
  0
LINE
  5
3245
330
3612
100
AcDbEntity
  8
0
 62
     0
100
AcDbLine
 10
23.08805481233867
 20
-451.4999999999981
 30
0.0
 11
111.4999999999891
 21
-392.558853716273
 31
0.0
  0
LINE
  5
3246
330
3612
100
AcDbEntity
  8
0
 62
     0
100
AcDbLine
 10
18.58809351844684
 20
-451.5000000000036
 30
0.0
 11
111.4999999999909
 21
-389.5588871808577
 31
0.0
  0
LINE
  5
3247
330
3612
100
AcDbEntity
  8
0
 62
     0
100
AcDbLine
 10
14.0881322245641
 20
-451.4999999999998
 30
0.0
 11
111.4999999999872
 21
-386.5589206454424
 31
0.0
  0
LINE
  5
3248
330
3612
100
AcDbEntity
  8
0
 62
     0
100
AcDbLine
 10
9.588170930679552
 20
-451.4999999999998
 30
0.0
 11
111.4999999999891
 21
-383.5589541100254
 31
0.0
  0
LINE
  5
3249
330
3612
100
AcDbEntity
  8
0
 62
     0
100
AcDbLine
 10
5.088209636793179
 20
-451.4999999999998
 30
0.0
 11
111.4999999999891
 21
-380.55898757461
 31
0.0
  0
LINE
  5
324A
330
3612
100
AcDbEntity
  8
0
 62
     0
100
AcDbLine
 10
0.588248342906809
 20
-451.5000000000017
 30
0.0
 11
111.4999999999891
 21
-377.5590210391929
 31
0.0
  0
LINE
  5
324B
330
3612
100
AcDbEntity
  8
0
 62
     0
100
AcDbLine
 10
-3.911712950981382
 20
-451.5000000000036
 30
0.0
 11
111.4999999999872
 21
-374.5590545037793
 31
0.0
  0
LINE
  5
324C
330
3612
100
AcDbEntity
  8
0
 62
     0
100
AcDbLine
 10
-8.411674244860478
 20
-451.4999999999981
 30
0.0
 11
111.4999999999891
 21
-371.5590879683605
 31
0.0
  0
LINE
  5
324D
330
3612
100
AcDbEntity
  8
0
 62
     0
100
AcDbLine
 10
-12.91163553875231
 20
-451.5000000000017
 30
0.0
 11
111.4999999999909
 21
-368.5591214329434
 31
0.0
  0
LINE
  5
324E
330
3612
100
AcDbEntity
  8
0
 62
     0
100
AcDbLine
 10
-17.41159683263322
 20
-451.4999999999981
 30
0.0
 11
111.4999999999872
 21
-365.5591548975282
 31
0.0
  0
LINE
  5
324F
330
3612
100
AcDbEntity
  8
0
 62
     0
100
AcDbLine
 10
-21.91155812651961
 20
-451.4999999999998
 30
0.0
 11
111.4999999999909
 21
-362.559188362111
 31
0.0
  0
LINE
  5
3250
330
3612
100
AcDbEntity
  8
0
 62
     0
100
AcDbLine
 10
-26.41151942040415
 20
-451.5000000000017
 30
0.0
 11
111.4999999999872
 21
-359.5592218266992
 31
0.0
  0
LINE
  5
3251
330
3612
100
AcDbEntity
  8
0
 62
     0
100
AcDbLine
 10
-30.91148071429234
 20
-451.4999999999998
 30
0.0
 11
111.4999999999872
 21
-356.5592552912804
 31
0.0
  0
LINE
  5
3252
330
3612
100
AcDbEntity
  8
0
 62
     0
100
AcDbLine
 10
-35.41144200817871
 20
-451.4999999999998
 30
0.0
 11
111.4999999999854
 21
-353.559288755865
 31
0.0
  0
LINE
  5
3253
330
3612
100
AcDbEntity
  8
0
 62
     0
100
AcDbLine
 10
-39.91140330206508
 20
-451.5000000000017
 30
0.0
 11
111.4999999999872
 21
-350.5593222204498
 31
0.0
  0
LINE
  5
3254
330
3612
100
AcDbEntity
  8
0
 62
     0
100
AcDbLine
 10
-44.41136459594599
 20
-451.4999999999998
 30
0.0
 11
111.4999999999854
 21
-347.5593556850345
 31
0.0
  0
LINE
  5
3255
330
3612
100
AcDbEntity
  8
0
 62
     0
100
AcDbLine
 10
-48.91132588983783
 20
-451.5000000000036
 30
0.0
 11
111.4999999999854
 21
-344.5593891496173
 31
0.0
  0
LINE
  5
3256
330
3612
100
AcDbEntity
  8
0
 62
     0
100
AcDbLine
 10
-53.41128718371693
 20
-451.4999999999981
 30
0.0
 11
111.4999999999854
 21
-341.5594226142002
 31
0.0
  0
LINE
  5
3257
330
3612
100
AcDbEntity
  8
0
 62
     0
100
AcDbLine
 10
-57.91124847760329
 20
-451.4999999999998
 30
0.0
 11
111.4999999999872
 21
-338.5594560787849
 31
0.0
  0
LINE
  5
3258
330
3612
100
AcDbEntity
  8
0
 62
     0
100
AcDbLine
 10
-62.41120977148966
 20
-451.5000000000017
 30
0.0
 11
111.4999999999872
 21
-335.5594895433696
 31
0.0
  0
LINE
  5
3259
330
3612
100
AcDbEntity
  8
0
 62
     0
100
AcDbLine
 10
-66.91117106537785
 20
-451.5000000000017
 30
0.0
 11
111.4999999999854
 21
-332.5595230079525
 31
0.0
  0
LINE
  5
325A
330
3612
100
AcDbEntity
  8
0
 62
     0
100
AcDbLine
 10
-71.41113235926241
 20
-451.5000000000017
 30
0.0
 11
111.4999999999872
 21
-329.5595564725354
 31
0.0
  0
LINE
  5
325B
330
3612
100
AcDbEntity
  8
0
 62
     0
100
AcDbLine
 10
-75.91109365314331
 20
-451.4999999999964
 30
0.0
 11
111.4999999999854
 21
-326.5595899371183
 31
0.0
  0
LINE
  5
325C
330
3612
100
AcDbEntity
  8
0
 62
     0
100
AcDbLine
 10
-80.41105494703698
 20
-451.5000000000017
 30
0.0
 11
111.4999999999854
 21
-323.5596234017029
 31
0.0
  0
LINE
  5
325D
330
3612
100
AcDbEntity
  8
0
 62
     0
100
AcDbLine
 10
-84.91101624091609
 20
-451.4999999999998
 30
0.0
 11
111.4999999999854
 21
-320.5596568662893
 31
0.0
  0
LINE
  5
325E
330
3612
100
AcDbEntity
  8
0
 62
     0
100
AcDbLine
 10
-89.41097753480063
 20
-451.4999999999998
 30
0.0
 11
111.4999999999872
 21
-317.5596903308705
 31
0.0
  0
LINE
  5
325F
330
3612
100
AcDbEntity
  8
0
 62
     0
100
AcDbLine
 10
-93.91093882869059
 20
-451.4999999999998
 30
0.0
 11
111.4999999999872
 21
-314.5597237954535
 31
0.0
  0
LINE
  5
3260
330
3612
100
AcDbEntity
  8
0
 62
     0
100
AcDbLine
 10
-98.41090012257518
 20
-451.4999999999998
 30
0.0
 11
111.4999999999854
 21
-311.5597572600383
 31
0.0
  0
LINE
  5
3261
330
3612
100
AcDbEntity
  8
0
 62
     0
100
AcDbLine
 10
-102.9108614164615
 20
-451.5000000000017
 30
0.0
 11
111.4999999999854
 21
-308.5597907246247
 31
0.0
  0
LINE
  5
3262
330
3612
100
AcDbEntity
  8
0
 62
     0
100
AcDbLine
 10
-104.3000000000138
 20
-449.4261234888198
 30
0.0
 11
111.4999999999854
 21
-305.5598241892076
 31
0.0
  0
LINE
  5
3263
330
3612
100
AcDbEntity
  8
0
 62
     0
100
AcDbLine
 10
-107.4108227103443
 20
-451.4999999999998
 30
0.0
 11
-104.3000000000138
 21
-449.4261234888198
 31
0.0
  0
LINE
  5
3264
330
3612
100
AcDbEntity
  8
0
 62
     0
100
AcDbLine
 10
-104.3000000000138
 20
-446.4261569534027
 30
0.0
 11
111.4999999999872
 21
-302.5598576537886
 31
0.0
  0
LINE
  5
3265
330
3612
100
AcDbEntity
  8
0
 62
     0
100
AcDbLine
 10
-111.5000000000091
 20
-451.2261446964821
 30
0.0
 11
-104.3000000000138
 21
-446.4261569534027
 31
0.0
  0
LINE
  5
3266
330
3612
100
AcDbEntity
  8
0
 62
     0
100
AcDbLine
 10
-104.3000000000138
 20
-443.4261904179892
 30
0.0
 11
111.4999999999854
 21
-299.5598911183752
 31
0.0
  0
LINE
  5
3267
330
3612
100
AcDbEntity
  8
0
 62
     0
100
AcDbLine
 10
-111.5000000000091
 20
-448.2261781610686
 30
0.0
 11
-104.3000000000138
 21
-443.4261904179892
 31
0.0
  0
LINE
  5
3268
330
3612
100
AcDbEntity
  8
0
 62
     0
100
AcDbLine
 10
-104.3000000000138
 20
-440.4262238825721
 30
0.0
 11
111.4999999999872
 21
-296.559924582958
 31
0.0
  0
LINE
  5
3269
330
3612
100
AcDbEntity
  8
0
 62
     0
100
AcDbLine
 10
-111.5000000000091
 20
-445.2262116256513
 30
0.0
 11
-104.3000000000138
 21
-440.4262238825721
 31
0.0
  0
LINE
  5
326A
330
3612
100
AcDbEntity
  8
0
 62
     0
100
AcDbLine
 10
-104.3000000000156
 20
-437.4262573471569
 30
0.0
 11
111.4999999999836
 21
-293.5599580475427
 31
0.0
  0
LINE
  5
326B
330
3612
100
AcDbEntity
  8
0
 62
     0
100
AcDbLine
 10
-111.5000000000109
 20
-442.2262450902362
 30
0.0
 11
-104.3000000000156
 21
-437.4262573471569
 31
0.0
  0
LINE
  5
326C
330
3612
100
AcDbEntity
  8
0
 62
     0
100
AcDbLine
 10
-104.3000000000138
 20
-434.426290811738
 30
0.0
 11
111.4999999999854
 21
-290.5599915121257
 31
0.0
  0
LINE
  5
326D
330
3612
100
AcDbEntity
  8
0
 62
     0
100
AcDbLine
 10
-111.5000000000091
 20
-439.2262785548188
 30
0.0
 11
-104.3000000000138
 21
-434.426290811738
 31
0.0
  0
LINE
  5
326E
330
3612
100
AcDbEntity
  8
0
 62
     0
100
AcDbLine
 10
-104.3000000000102
 20
-431.4263242763209
 30
0.0
 11
111.4999999999854
 21
-287.5600249767085
 31
0.0
  0
LINE
  5
326F
330
3612
100
AcDbEntity
  8
0
 62
     0
100
AcDbLine
 10
-111.5000000000091
 20
-436.226312019402
 30
0.0
 11
-104.3000000000138
 21
-431.4263242763225
 31
0.0
  0
LINE
  5
3270
330
3612
100
AcDbEntity
  8
0
 62
     0
100
AcDbLine
 10
-104.3000000000138
 20
-428.4263577409055
 30
0.0
 11
111.4999999999854
 21
-284.5600584412931
 31
0.0
  0
LINE
  5
3271
330
3612
100
AcDbEntity
  8
0
 62
     0
100
AcDbLine
 10
-111.5000000000091
 20
-433.2263454839865
 30
0.0
 11
-104.3000000000138
 21
-428.4263577409055
 31
0.0
  0
LINE
  5
3272
330
3612
100
AcDbEntity
  8
0
 62
     0
100
AcDbLine
 10
-104.300000000012
 20
-425.4263912054899
 30
0.0
 11
111.4999999999836
 21
-281.5600919058779
 31
0.0
  0
LINE
  5
3273
330
3612
100
AcDbEntity
  8
0
 62
     0
100
AcDbLine
 10
-111.5000000000091
 20
-430.2263789485696
 30
0.0
 11
-104.300000000012
 21
-425.4263912054899
 31
0.0
  0
LINE
  5
3274
330
3612
100
AcDbEntity
  8
0
 62
     0
100
AcDbLine
 10
-104.3000000000138
 20
-422.4264246700748
 30
0.0
 11
111.4999999999854
 21
-278.5601253704608
 31
0.0
  0
LINE
  5
3275
330
3612
100
AcDbEntity
  8
0
 62
     0
100
AcDbLine
 10
-111.5000000000091
 20
-427.2264124131543
 30
0.0
 11
-104.3000000000138
 21
-422.4264246700748
 31
0.0
  0
LINE
  5
3276
330
3612
100
AcDbEntity
  8
0
 62
     0
100
AcDbLine
 10
-104.300000000012
 20
-419.4264581346557
 30
0.0
 11
111.4999999999872
 21
-275.5601588350419
 31
0.0
  0
LINE
  5
3277
330
3612
100
AcDbEntity
  8
0
 62
     0
100
AcDbLine
 10
-111.5000000000091
 20
-424.2264458777354
 30
0.0
 11
-104.300000000012
 21
-419.4264581346557
 31
0.0
  0
LINE
  5
3278
330
3612
100
AcDbEntity
  8
0
 62
     0
100
AcDbLine
 10
-104.3000000000156
 20
-416.4264915992426
 30
0.0
 11
111.4999999999836
 21
-272.5601922996284
 31
0.0
  0
LINE
  5
3279
330
3612
100
AcDbEntity
  8
0
 62
     0
100
AcDbLine
 10
-111.5000000000109
 20
-421.2264793423218
 30
0.0
 11
-104.3000000000156
 21
-416.4264915992426
 31
0.0
  0
LINE
  5
327A
330
3612
100
AcDbEntity
  8
0
 62
     0
100
AcDbLine
 10
-104.300000000012
 20
-413.4265250638255
 30
0.0
 11
109.3403331315403
 21
-271.0000000000018
 31
0.0
  0
LINE
  5
327B
330
3612
100
AcDbEntity
  8
0
 62
     0
100
AcDbLine
 10
-111.5000000000091
 20
-418.2265128069066
 30
0.0
 11
-104.300000000012
 21
-413.4265250638255
 31
0.0
  0
LINE
  5
327C
330
3612
100
AcDbEntity
  8
0
 62
     0
100
AcDbLine
 10
-104.3000000000138
 20
-410.4265585284101
 30
0.0
 11
104.8403718376539
 21
-271.0000000000018
 31
0.0
  0
LINE
  5
327D
330
3612
100
AcDbEntity
  8
0
 62
     0
100
AcDbLine
 10
-111.5000000000091
 20
-415.2265462714892
 30
0.0
 11
-104.3000000000138
 21
-410.4265585284101
 31
0.0
  0
LINE
  5
327E
330
3612
100
AcDbEntity
  8
0
 62
     0
100
AcDbLine
 10
-104.3000000000138
 20
-407.426591992993
 30
0.0
 11
100.3404105437694
 21
-271.0
 31
0.0
  0
LINE
  5
327F
330
3612
100
AcDbEntity
  8
0
 62
     0
100
AcDbLine
 10
-111.5000000000109
 20
-412.2265797360723
 30
0.0
 11
-104.3000000000138
 21
-407.426591992993
 31
0.0
  0
LINE
  5
3280
330
3612
100
AcDbEntity
  8
0
 62
     0
100
AcDbLine
 10
-104.300000000012
 20
-404.4266254575759
 30
0.0
 11
95.84044924988303
 21
-271.0000000000018
 31
0.0
  0
LINE
  5
3281
330
3612
100
AcDbEntity
  8
0
 62
     0
100
AcDbLine
 10
-111.5000000000109
 20
-409.2266132006588
 30
0.0
 11
-104.300000000012
 21
-404.4266254575759
 31
0.0
  0
LINE
  5
3282
330
3612
100
AcDbEntity
  8
0
 62
     0
100
AcDbLine
 10
-104.300000000012
 20
-401.4266589221624
 30
0.0
 11
91.34048795599849
 21
-271.0000000000018
 31
0.0
  0
LINE
  5
3283
330
3612
100
AcDbEntity
  8
0
 62
     0
100
AcDbLine
 10
-111.5000000000091
 20
-406.2266466652418
 30
0.0
 11
-104.300000000012
 21
-401.4266589221624
 31
0.0
  0
LINE
  5
3284
330
3612
100
AcDbEntity
  8
0
 62
     0
100
AcDbLine
 10
-104.300000000012
 20
-398.4266923867435
 30
0.0
 11
86.8405266621121
 21
-271.0000000000018
 31
0.0
  0
LINE
  5
3285
330
3612
100
AcDbEntity
  8
0
 62
     0
100
AcDbLine
 10
-111.5000000000109
 20
-403.2266801298264
 30
0.0
 11
-104.300000000012
 21
-398.4266923867435
 31
0.0
  0
LINE
  5
3286
330
3612
100
AcDbEntity
  8
0
 62
     0
100
AcDbLine
 10
-104.3000000000138
 20
-395.4267258513283
 30
0.0
 11
82.34056536822754
 21
-271.0
 31
0.0
  0
LINE
  5
3287
330
3612
100
AcDbEntity
  8
0
 62
     0
100
AcDbLine
 10
-111.5000000000109
 20
-400.2267135944075
 30
0.0
 11
-104.3000000000138
 21
-395.4267258513283
 31
0.0
  0
LINE
  5
3288
330
3612
100
AcDbEntity
  8
0
 62
     0
100
AcDbLine
 10
-104.300000000012
 20
-392.4267593159111
 30
0.0
 11
77.84060407434117
 21
-271.0
 31
0.0
  0
LINE
  5
3289
330
3612
100
AcDbEntity
  8
0
 62
     0
100
AcDbLine
 10
-111.5000000000073
 20
-397.2267470589904
 30
0.0
 11
-104.300000000012
 21
-392.4267593159111
 31
0.0
  0
LINE
  5
328A
330
3612
100
AcDbEntity
  8
0
 62
     0
100
AcDbLine
 10
-104.3000000000156
 20
-389.4267927804958
 30
0.0
 11
73.3406427804548
 21
-271.0000000000018
 31
0.0
  0
LINE
  5
328B
330
3612
100
AcDbEntity
  8
0
 62
     0
100
AcDbLine
 10
-111.5000000000109
 20
-394.2267805235752
 30
0.0
 11
-104.3000000000156
 21
-389.4267927804958
 31
0.0
  0
LINE
  5
328C
330
3612
100
AcDbEntity
  8
0
 62
     0
100
AcDbLine
 10
-104.3000000000138
 20
-386.4268262450805
 30
0.0
 11
68.84068148656843
 21
-271.0000000000018
 31
0.0
  0
LINE
  5
328D
330
3612
100
AcDbEntity
  8
0
 62
     0
100
AcDbLine
 10
-111.5000000000091
 20
-391.2268139881597
 30
0.0
 11
-104.3000000000138
 21
-386.4268262450805
 31
0.0
  0
LINE
  5
328E
330
3612
100
AcDbEntity
  8
0
 62
     0
100
AcDbLine
 10
-104.300000000012
 20
-383.4268597096616
 30
0.0
 11
64.34072019268569
 21
-271.0
 31
0.0
  0
LINE
  5
328F
330
3612
100
AcDbEntity
  8
0
 62
     0
100
AcDbLine
 10
-111.5000000000109
 20
-388.2268474527446
 30
0.0
 11
-104.300000000012
 21
-383.4268597096616
 31
0.0
  0
LINE
  5
3290
330
3612
100
AcDbEntity
  8
0
 62
     0
100
AcDbLine
 10
-104.300000000012
 20
-380.4268931742463
 30
0.0
 11
59.84075889879932
 21
-271.0
 31
0.0
  0
LINE
  5
3291
330
3612
100
AcDbEntity
  8
0
 62
     0
100
AcDbLine
 10
-111.5000000000073
 20
-385.2268809173256
 30
0.0
 11
-104.300000000012
 21
-380.4268931742463
 31
0.0
  0
LINE
  5
3292
330
3612
100
AcDbEntity
  8
0
 62
     0
100
AcDbLine
 10
-104.300000000012
 20
-377.4269266388309
 30
0.0
 11
55.34079760491295
 21
-271.0000000000018
 31
0.0
  0
LINE
  5
3293
330
3612
100
AcDbEntity
  8
0
 62
     0
100
AcDbLine
 10
-111.5000000000109
 20
-382.2269143819121
 30
0.0
 11
-104.300000000012
 21
-377.4269266388309
 31
0.0
  0
LINE
  5
3294
330
3612
100
AcDbEntity
  8
0
 62
     0
100
AcDbLine
 10
-104.3000000000138
 20
-374.4269601034157
 30
0.0
 11
50.84083631102839
 21
-271.0000000000018
 31
0.0
  0
LINE
  5
3295
330
3612
100
AcDbEntity
  8
0
 62
     0
100
AcDbLine
 10
-111.5000000000091
 20
-379.2269478464951
 30
0.0
 11
-104.3000000000138
 21
-374.4269601034157
 31
0.0
  0
LINE
  5
3296
330
3612
100
AcDbEntity
  8
0
 62
     0
100
AcDbLine
 10
-104.300000000012
 20
-371.4269935679987
 30
0.0
 11
46.34087501714384
 21
-271.0
 31
0.0
  0
LINE
  5
3297
330
3612
100
AcDbEntity
  8
0
 62
     0
100
AcDbLine
 10
-111.5000000000073
 20
-376.226981311078
 30
0.0
 11
-104.300000000012
 21
-371.4269935679987
 31
0.0
  0
LINE
  5
3298
330
3612
100
AcDbEntity
  8
0
 62
     0
100
AcDbLine
 10
-104.3000000000138
 20
-368.4270270325815
 30
0.0
 11
41.84091372325563
 21
-271.0
 31
0.0
  0
LINE
  5
3299
330
3612
100
AcDbEntity
  8
0
 62
     0
100
AcDbLine
 10
-111.5000000000091
 20
-373.2270147756626
 30
0.0
 11
-104.3000000000138
 21
-368.4270270325815
 31
0.0
  0
LINE
  5
329A
330
3612
100
AcDbEntity
  8
0
 62
     0
100
AcDbLine
 10
-104.3000000000138
 20
-365.4270604971662
 30
0.0
 11
37.34095242936928
 21
-271.0000000000018
 31
0.0
  0
LINE
  5
329B
330
3612
100
AcDbEntity
  8
0
 62
     0
100
AcDbLine
 10
-111.5000000000091
 20
-370.2270482402455
 30
0.0
 11
-104.3000000000138
 21
-365.4270604971662
 31
0.0
  0
LINE
  5
329C
330
3612
100
AcDbEntity
  8
0
 62
     0
100
AcDbLine
 10
-104.300000000012
 20
-362.4270939617491
 30
0.0
 11
32.84099113548655
 21
-271.0000000000018
 31
0.0
  0
LINE
  5
329D
330
3612
100
AcDbEntity
  8
0
 62
     0
100
AcDbLine
 10
-111.5000000000091
 20
-367.227081704832
 30
0.0
 11
-104.300000000012
 21
-362.4270939617491
 31
0.0
  0
LINE
  5
329E
330
3612
100
AcDbEntity
  8
0
 62
     0
100
AcDbLine
 10
-104.3000000000083
 20
-359.427127426332
 30
0.0
 11
28.341029841602
 21
-271.0000000000018
 31
0.0
  0
LINE
  5
329F
330
3612
100
AcDbEntity
  8
0
 62
     0
100
AcDbLine
 10
-111.5000000000073
 20
-364.2271151694131
 30
0.0
 11
-104.3000000000083
 21
-359.427127426332
 31
0.0
  0
LINE
  5
32A0
330
3612
100
AcDbEntity
  8
0
 62
     0
100
AcDbLine
 10
-104.3000000000083
 20
-356.4271608909148
 30
0.0
 11
23.84106854771561
 21
-271.0
 31
0.0
  0
LINE
  5
32A1
330
3612
100
AcDbEntity
  8
0
 62
     0
100
AcDbLine
 10
-111.5000000000109
 20
-361.2271486339977
 30
0.0
 11
-104.3000000000083
 21
-356.4271608909148
 31
0.0
  0
LINE
  5
32A2
330
3612
100
AcDbEntity
  8
0
 62
     0
100
AcDbLine
 10
-104.3000000000102
 20
-353.4271943554995
 30
0.0
 11
19.34110725382742
 21
-271.0000000000018
 31
0.0
  0
LINE
  5
32A3
330
3612
100
AcDbEntity
  8
0
 62
     0
100
AcDbLine
 10
-111.5000000000091
 20
-358.2271820985825
 30
0.0
 11
-104.3000000000102
 21
-353.4271943554995
 31
0.0
  0
LINE
  5
32A4
330
3612
100
AcDbEntity
  8
0
 62
     0
100
AcDbLine
 10
-104.3000000000083
 20
-350.4272278200824
 30
0.0
 11
14.84114595994469
 21
-271.0
 31
0.0
  0
LINE
  5
32A5
330
3612
100
AcDbEntity
  8
0
 62
     0
100
AcDbLine
 10
-111.5000000000109
 20
-355.2272155631654
 30
0.0
 11
-104.3000000000083
 21
-350.4272278200824
 31
0.0
  0
LINE
  5
32A6
330
3612
100
AcDbEntity
  8
0
 62
     0
100
AcDbLine
 10
-104.3000000000102
 20
-347.4272612846671
 30
0.0
 11
10.34118466605832
 21
-271.0000000000018
 31
0.0
  0
LINE
  5
32A7
330
3612
100
AcDbEntity
  8
0
 62
     0
100
AcDbLine
 10
-111.5000000000091
 20
-352.2272490277501
 30
0.0
 11
-104.3000000000102
 21
-347.4272612846671
 31
0.0
  0
LINE
  5
32A8
330
3612
100
AcDbEntity
  8
0
 62
     0
100
AcDbLine
 10
-104.3000000000102
 20
-344.4272947492501
 30
0.0
 11
5.841223372171953
 21
-271.0000000000018
 31
0.0
  0
LINE
  5
32A9
330
3612
100
AcDbEntity
  8
0
 62
     0
100
AcDbLine
 10
-111.5000000000127
 20
-349.2272824923329
 30
0.0
 11
-104.3000000000102
 21
-344.4272947492501
 31
0.0
  0
LINE
  5
32AA
330
3612
100
AcDbEntity
  8
0
 62
     0
100
AcDbLine
 10
-104.3000000000102
 20
-341.4273282138347
 30
0.0
 11
1.341262078289219
 21
-270.9999999999982
 31
0.0
  0
LINE
  5
32AB
330
3612
100
AcDbEntity
  8
0
 62
     0
100
AcDbLine
 10
-111.5000000000091
 20
-346.2273159569158
 30
0.0
 11
-104.3000000000102
 21
-341.4273282138347
 31
0.0
  0
LINE
  5
32AC
330
3612
100
AcDbEntity
  8
0
 62
     0
100
AcDbLine
 10
-104.3000000000083
 20
-338.4273616784176
 30
0.0
 11
-3.158699215597152
 21
-271.0
 31
0.0
  0
LINE
  5
32AD
330
3612
100
AcDbEntity
  8
0
 62
     0
100
AcDbLine
 10
-111.5000000000073
 20
-343.2273494215006
 30
0.0
 11
-104.3000000000083
 21
-338.4273616784176
 31
0.0
  0
LINE
  5
32AE
330
3612
100
AcDbEntity
  8
0
 62
     0
100
AcDbLine
 10
-104.3000000000102
 20
-335.4273951430022
 30
0.0
 11
-7.658660509485342
 21
-271.0000000000018
 31
0.0
  0
LINE
  5
32AF
330
3612
100
AcDbEntity
  8
0
 62
     0
100
AcDbLine
 10
-111.5000000000109
 20
-340.2273828860852
 30
0.0
 11
-104.3000000000102
 21
-335.4273951430022
 31
0.0
  0
LINE
  5
32B0
330
3612
100
AcDbEntity
  8
0
 62
     0
100
AcDbLine
 10
-104.3000000000102
 20
-332.4274286075853
 30
0.0
 11
-12.1586218033699
 21
-271.0000000000018
 31
0.0
  0
LINE
  5
32B1
330
3612
100
AcDbEntity
  8
0
 62
     0
100
AcDbLine
 10
-111.5000000000091
 20
-337.2274163506681
 30
0.0
 11
-104.3000000000102
 21
-332.4274286075853
 31
0.0
  0
LINE
  5
32B2
330
3612
100
AcDbEntity
  8
0
 62
     0
100
AcDbLine
 10
-104.3000000000083
 20
-329.427462072168
 30
0.0
 11
-16.65858309725263
 21
-271.0
 31
0.0
  0
LINE
  5
32B3
330
3612
100
AcDbEntity
  8
0
 62
     0
100
AcDbLine
 10
-111.5000000000091
 20
-334.227449815251
 30
0.0
 11
-104.3000000000083
 21
-329.427462072168
 31
0.0
  0
LINE
  5
32B4
330
3612
100
AcDbEntity
  8
0
 62
     0
100
AcDbLine
 10
-104.3000000000102
 20
-326.4274955367546
 30
0.0
 11
-21.15854439114264
 21
-271.0000000000036
 31
0.0
  0
LINE
  5
32B5
330
3612
100
AcDbEntity
  8
0
 62
     0
100
AcDbLine
 10
-111.5000000000091
 20
-331.2274832798357
 30
0.0
 11
-104.3000000000102
 21
-326.4274955367546
 31
0.0
  0
LINE
  5
32B6
330
3612
100
AcDbEntity
  8
0
 62
     0
100
AcDbLine
 10
-104.3000000000102
 20
-323.4275290013375
 30
0.0
 11
-25.6585056850272
 21
-271.0000000000018
 31
0.0
  0
LINE
  5
32B7
330
3612
100
AcDbEntity
  8
0
 62
     0
100
AcDbLine
 10
-111.5000000000109
 20
-328.2275167444222
 30
0.0
 11
-104.3000000000102
 21
-323.4275290013375
 31
0.0
  0
LINE
  5
32B8
330
3612
100
AcDbEntity
  8
0
 62
     0
100
AcDbLine
 10
-104.3000000000102
 20
-320.4275624659222
 30
0.0
 11
-30.15846697891175
 21
-271.0000000000018
 31
0.0
  0
LINE
  5
32B9
330
3612
100
AcDbEntity
  8
0
 62
     0
100
AcDbLine
 10
-111.5000000000091
 20
-325.2275502090033
 30
0.0
 11
-104.3000000000102
 21
-320.4275624659222
 31
0.0
  0
LINE
  5
32BA
330
3612
100
AcDbEntity
  8
0
 62
     0
100
AcDbLine
 10
-104.3000000000102
 20
-317.4275959305032
 30
0.0
 11
-34.6584282727963
 21
-271.0
 31
0.0
  0
LINE
  5
32BB
330
3612
100
AcDbEntity
  8
0
 62
     0
100
AcDbLine
 10
-111.5000000000091
 20
-322.2275836735862
 30
0.0
 11
-104.3000000000102
 21
-317.4275959305032
 31
0.0
  0
LINE
  5
32BC
330
3612
100
AcDbEntity
  8
0
 62
     0
100
AcDbLine
 10
-104.3000000000083
 20
-314.4276293950879
 30
0.0
 11
-39.15838956668631
 21
-271.0000000000036
 31
0.0
  0
LINE
  5
32BD
330
3612
100
AcDbEntity
  8
0
 62
     0
100
AcDbLine
 10
-111.5000000000109
 20
-319.2276171381709
 30
0.0
 11
-104.3000000000083
 21
-314.4276293950879
 31
0.0
  0
LINE
  5
32BE
330
3612
100
AcDbEntity
  8
0
 62
     0
100
AcDbLine
 10
-104.3000000000102
 20
-311.4276628596725
 30
0.0
 11
-43.65835086056903
 21
-271.0000000000018
 31
0.0
  0
LINE
  5
32BF
330
3612
100
AcDbEntity
  8
0
 62
     0
100
AcDbLine
 10
-111.5000000000091
 20
-316.2276506027537
 30
0.0
 11
-104.3000000000102
 21
-311.4276628596725
 31
0.0
  0
LINE
  5
32C0
330
3612
100
AcDbEntity
  8
0
 62
     0
100
AcDbLine
 10
-104.3000000000065
 20
-308.4276963242555
 30
0.0
 11
-48.1583121544536
 21
-271.0000000000018
 31
0.0
  0
LINE
  5
32C1
330
3612
100
AcDbEntity
  8
0
 62
     0
100
AcDbLine
 10
-111.5000000000091
 20
-313.2276840673403
 30
0.0
 11
-104.3000000000065
 21
-308.4276963242555
 31
0.0
  0
LINE
  5
32C2
330
3612
100
AcDbEntity
  8
0
 62
     0
100
AcDbLine
 10
-104.3000000000102
 20
-305.4277297888403
 30
0.0
 11
-52.65827344833813
 21
-271.0
 31
0.0
  0
LINE
  5
32C3
330
3612
100
AcDbEntity
  8
0
 62
     0
100
AcDbLine
 10
-111.5000000000091
 20
-310.2277175319214
 30
0.0
 11
-104.3000000000102
 21
-305.4277297888403
 31
0.0
  0
LINE
  5
32C4
330
3612
100
AcDbEntity
  8
0
 62
     0
100
AcDbLine
 10
-104.3000000000083
 20
-302.4277632534212
 30
0.0
 11
-57.15823474222452
 21
-271.0
 31
0.0
  0
LINE
  5
32C5
330
3612
100
AcDbEntity
  8
0
 62
     0
100
AcDbLine
 10
-111.5000000000109
 20
-307.2277509965061
 30
0.0
 11
-104.3000000000083
 21
-302.4277632534212
 31
0.0
  0
LINE
  5
32C6
330
3612
100
AcDbEntity
  8
0
 62
     0
100
AcDbLine
 10
-104.3000000000102
 20
-299.4277967180078
 30
0.0
 11
-61.65819603611089
 21
-271.0000000000018
 31
0.0
  0
LINE
  5
32C7
330
3612
100
AcDbEntity
  8
0
 62
     0
100
AcDbLine
 10
-111.5000000000091
 20
-304.2277844610891
 30
0.0
 11
-104.3000000000102
 21
-299.4277967180078
 31
0.0
  0
LINE
  5
32C8
330
3612
100
AcDbEntity
  8
0
 62
     0
100
AcDbLine
 10
-104.3000000000083
 20
-296.4278301825907
 30
0.0
 11
-66.15815732999545
 21
-271.0
 31
0.0
  0
LINE
  5
32C9
330
3612
100
AcDbEntity
  8
0
 62
     0
100
AcDbLine
 10
-111.5000000000109
 20
-301.2278179256755
 30
0.0
 11
-104.3000000000083
 21
-296.4278301825907
 31
0.0
  0
LINE
  5
32CA
330
3612
100
AcDbEntity
  8
0
 62
     0
100
AcDbLine
 10
-104.300000000012
 20
-293.4278636471752
 30
0.0
 11
-70.65811862388182
 21
-271.0
 31
0.0
  0
LINE
  5
32CB
330
3612
100
AcDbEntity
  8
0
 62
     0
100
AcDbLine
 10
-111.5000000000109
 20
-298.2278513902565
 30
0.0
 11
-104.300000000012
 21
-293.4278636471752
 31
0.0
  0
LINE
  5
32CC
330
3612
100
AcDbEntity
  8
0
 62
     0
100
AcDbLine
 10
-104.3000000000083
 20
-290.4278971117582
 30
0.0
 11
-75.15807991776637
 21
-271.0
 31
0.0
  0
LINE
  5
32CD
330
3612
100
AcDbEntity
  8
0
 62
     0
100
AcDbLine
 10
-111.5000000000073
 20
-295.2278848548394
 30
0.0
 11
-104.3000000000083
 21
-290.4278971117582
 31
0.0
  0
LINE
  5
32CE
330
3612
100
AcDbEntity
  8
0
 62
     0
100
AcDbLine
 10
-104.3000000000065
 20
-287.4279305763412
 30
0.0
 11
-79.65804121165273
 21
-271.0000000000018
 31
0.0
  0
LINE
  5
32CF
330
3612
100
AcDbEntity
  8
0
 62
     0
100
AcDbLine
 10
-111.5000000000091
 20
-292.2279183194259
 30
0.0
 11
-104.3000000000065
 21
-287.4279305763412
 31
0.0
  0
LINE
  5
32D0
330
3612
100
AcDbEntity
  8
0
 62
     0
100
AcDbLine
 10
-104.3000000000102
 20
-284.4279640409277
 30
0.0
 11
-84.15800250553905
 21
-271.0000000000018
 31
0.0
  0
LINE
  5
32D1
330
3612
100
AcDbEntity
  8
0
 62
     0
100
AcDbLine
 10
-111.5000000000091
 20
-289.2279517840088
 30
0.0
 11
-104.3000000000102
 21
-284.4279640409277
 31
0.0
  0
LINE
  5
32D2
330
3612
100
AcDbEntity
  8
0
 62
     0
100
AcDbLine
 10
-104.3000000000083
 20
-281.4279975055088
 30
0.0
 11
-88.65796379942729
 21
-271.0000000000036
 31
0.0
  0
LINE
  5
32D3
330
3612
100
AcDbEntity
  8
0
 62
     0
100
AcDbLine
 10
-111.5000000000109
 20
-286.2279852485936
 30
0.0
 11
-104.3000000000083
 21
-281.4279975055088
 31
0.0
  0
LINE
  5
32D4
330
3612
100
AcDbEntity
  8
0
 62
     0
100
AcDbLine
 10
-104.3000000000083
 20
-278.4280309700934
 30
0.0
 11
-93.15792509330822
 21
-271.0
 31
0.0
  0
LINE
  5
32D5
330
3612
100
AcDbEntity
  8
0
 62
     0
100
AcDbLine
 10
-111.5000000000073
 20
-283.2280187131746
 30
0.0
 11
-104.3000000000083
 21
-278.4280309700934
 31
0.0
  0
LINE
  5
32D6
330
3612
100
AcDbEntity
  8
0
 62
     0
100
AcDbLine
 10
-104.3000000000083
 20
-275.4280644346783
 30
0.0
 11
-97.65788638719641
 21
-271.0000000000018
 31
0.0
  0
LINE
  5
32D7
330
3612
100
AcDbEntity
  8
0
 62
     0
100
AcDbLine
 10
-111.5000000000109
 20
-280.228052177761
 30
0.0
 11
-104.3000000000083
 21
-275.4280644346783
 31
0.0
  0
LINE
  5
32D8
330
3612
100
AcDbEntity
  8
0
 62
     0
100
AcDbLine
 10
-104.300000000012
 20
-272.428097899261
 30
0.0
 11
-102.1578476810791
 21
-271.0
 31
0.0
  0
LINE
  5
32D9
330
3612
100
AcDbEntity
  8
0
 62
     0
100
AcDbLine
 10
-111.5000000000091
 20
-277.228085642344
 30
0.0
 11
-104.300000000012
 21
-272.428097899261
 31
0.0
  0
LINE
  5
32DA
330
3612
100
AcDbEntity
  8
0
 62
     0
100
AcDbLine
 10
-111.5000000000109
 20
-274.2281191069287
 30
0.0
 11
-106.6578089749655
 21
-271.0000000000018
 31
0.0
  0
LINE
  5
32DB
330
3612
100
AcDbEntity
  8
0
 62
     0
100
AcDbLine
 10
-111.5000000000091
 20
-271.2281525715116
 30
0.0
 11
-111.1577702688519
 21
-271.0000000000018
 31
0.0
  0
ENDBLK
  5
32DC
330
3612
100
AcDbEntity
  8
0
100
AcDbBlockEnd
  0
BLOCK
  5
3615
330
3614
100
AcDbEntity
  8
0
100
AcDbBlockBegin
  2
*X75
 70
     1
 10
0.0
 20
0.0
 30
0.0
  3
*X75
  1

  0
LINE
  5
32DF
330
3614
100
AcDbEntity
  8
0
 62
     0
100
AcDbLine
 10
-111.5000000000035
 20
-448.5866827033968
 30
0.0
 11
-107.1300128962284
 21
-451.5000000000017
 31
0.0
  0
LINE
  5
32E0
330
3614
100
AcDbEntity
  8
0
 62
     0
100
AcDbLine
 10
-104.3000000000011
 20
-450.3867039110628
 30
0.0
 11
-102.6300516023384
 21
-451.5000000000017
 31
0.0
  0
LINE
  5
32E1
330
3614
100
AcDbEntity
  8
0
 62
     0
100
AcDbLine
 10
-111.5000000000018
 20
-445.5867161679797
 30
0.0
 11
-104.3000000000029
 21
-450.3867039110628
 31
0.0
  0
LINE
  5
32E2
330
3614
100
AcDbEntity
  8
0
 62
     0
100
AcDbLine
 10
-104.3000000000011
 20
-447.3867373756457
 30
0.0
 11
-98.13009030845751
 21
-451.4999999999998
 31
0.0
  0
LINE
  5
32E3
330
3614
100
AcDbEntity
  8
0
 62
     0
100
AcDbLine
 10
-111.5000000000018
 20
-442.5867496325627
 30
0.0
 11
-104.3000000000029
 21
-447.3867373756457
 31
0.0
  0
LINE
  5
32E4
330
3614
100
AcDbEntity
  8
0
 62
     0
100
AcDbLine
 10
-104.3000000000029
 20
-444.3867708402287
 30
0.0
 11
-93.63012901457114
 21
-451.4999999999998
 31
0.0
  0
LINE
  5
32E5
330
3614
100
AcDbEntity
  8
0
 62
     0
100
AcDbLine
 10
-111.5000000000035
 20
-439.5867830971472
 30
0.0
 11
-104.3000000000047
 21
-444.3867708402287
 31
0.0
  0
LINE
  5
32E6
330
3614
100
AcDbEntity
  8
0
 62
     0
100
AcDbLine
 10
-104.3000000000011
 20
-441.3868043048169
 30
0.0
 11
-89.13016772068475
 21
-451.5000000000017
 31
0.0
  0
LINE
  5
32E7
330
3614
100
AcDbEntity
  8
0
 62
     0
100
AcDbLine
 10
-111.5000000000018
 20
-436.5868165617337
 30
0.0
 11
-104.3000000000029
 21
-441.3868043048148
 31
0.0
  0
LINE
  5
32E8
330
3614
100
AcDbEntity
  8
0
 62
     0
100
AcDbLine
 10
-104.3000000000011
 20
-438.3868377693997
 30
0.0
 11
-84.63020642679657
 21
-451.5000000000017
 31
0.0
  0
LINE
  5
32E9
330
3614
100
AcDbEntity
  8
0
 62
     0
100
AcDbLine
 10
-111.5000000000018
 20
-433.5868500263168
 30
0.0
 11
-104.3000000000029
 21
-438.3868377693978
 31
0.0
  0
LINE
  5
32EA
330
3614
100
AcDbEntity
  8
0
 62
     0
100
AcDbLine
 10
-104.3000000000011
 20
-435.3868712339823
 30
0.0
 11
-80.13024513291201
 21
-451.5000000000017
 31
0.0
  0
LINE
  5
32EB
330
3614
100
AcDbEntity
  8
0
 62
     0
100
AcDbLine
 10
-111.5000000000018
 20
-430.5868834908996
 30
0.0
 11
-104.3000000000029
 21
-435.3868712339806
 31
0.0
  0
LINE
  5
32EC
330
3614
100
AcDbEntity
  8
0
 62
     0
100
AcDbLine
 10
-104.3000000000029
 20
-432.3869046985636
 30
0.0
 11
-75.63028383902747
 21
-451.4999999999998
 31
0.0
  0
LINE
  5
32ED
330
3614
100
AcDbEntity
  8
0
 62
     0
100
AcDbLine
 10
-111.5000000000018
 20
-427.5869169554824
 30
0.0
 11
-104.3000000000029
 21
-432.3869046985636
 31
0.0
  0
LINE
  5
32EE
330
3614
100
AcDbEntity
  8
0
 62
     0
100
AcDbLine
 10
-104.3000000000011
 20
-429.3869381631465
 30
0.0
 11
-71.13032254514109
 21
-451.4999999999998
 31
0.0
  0
LINE
  5
32EF
330
3614
100
AcDbEntity
  8
0
 62
     0
100
AcDbLine
 10
-111.5000000000018
 20
-424.5869504200653
 30
0.0
 11
-104.3000000000011
 21
-429.3869381631465
 31
0.0
  0
LINE
  5
32F0
330
3614
100
AcDbEntity
  8
0
 62
     0
100
AcDbLine
 10
-104.3000000000029
 20
-426.3869716277331
 30
0.0
 11
-66.63036125125836
 21
-451.4999999999998
 31
0.0
  0
LINE
  5
32F1
330
3614
100
AcDbEntity
  8
0
 62
     0
100
AcDbLine
 10
-111.5000000000018
 20
-421.5869838846519
 30
0.0
 11
-104.3000000000029
 21
-426.3869716277331
 31
0.0
  0
LINE
  5
32F2
330
3614
100
AcDbEntity
  8
0
 62
     0
100
AcDbLine
 10
-104.3000000000029
 20
-423.3870050923177
 30
0.0
 11
-62.13039995737017
 21
-451.5000000000017
 31
0.0
  0
LINE
  5
32F3
330
3614
100
AcDbEntity
  8
0
 62
     0
100
AcDbLine
 10
-111.5000000000035
 20
-418.5870173492348
 30
0.0
 11
-104.3000000000029
 21
-423.3870050923177
 31
0.0
  0
LINE
  5
32F4
330
3614
100
AcDbEntity
  8
0
 62
     0
100
AcDbLine
 10
-104.3000000000029
 20
-420.3870385569008
 30
0.0
 11
-57.63043866348561
 21
-451.4999999999998
 31
0.0
  0
LINE
  5
32F5
330
3614
100
AcDbEntity
  8
0
 62
     0
100
AcDbLine
 10
-111.5000000000018
 20
-415.5870508138177
 30
0.0
 11
-104.3000000000029
 21
-420.3870385569008
 31
0.0
  0
LINE
  5
32F6
330
3614
100
AcDbEntity
  8
0
 62
     0
100
AcDbLine
 10
-104.3000000000011
 20
-417.3870720214836
 30
0.0
 11
-53.13047736959925
 21
-451.4999999999998
 31
0.0
  0
LINE
  5
32F7
330
3614
100
AcDbEntity
  8
0
 62
     0
100
AcDbLine
 10
-111.5000000000018
 20
-412.5870842784006
 30
0.0
 11
-104.3000000000029
 21
-417.3870720214818
 31
0.0
  0
LINE
  5
32F8
330
3614
100
AcDbEntity
  8
0
 62
     0
100
AcDbLine
 10
-104.3000000000029
 20
-414.38710548607
 30
0.0
 11
-48.63051607571652
 21
-451.4999999999998
 31
0.0
  0
LINE
  5
32F9
330
3614
100
AcDbEntity
  8
0
 62
     0
100
AcDbLine
 10
-111.5000000000018
 20
-409.5871177429871
 30
0.0
 11
-104.3000000000029
 21
-414.3871054860682
 31
0.0
  0
LINE
  5
32FA
330
3614
100
AcDbEntity
  8
0
 62
     0
100
AcDbLine
 10
-104.3000000000029
 20
-411.3871389506511
 30
0.0
 11
-44.13055478182649
 21
-451.5000000000017
 31
0.0
  0
LINE
  5
32FB
330
3614
100
AcDbEntity
  8
0
 62
     0
100
AcDbLine
 10
-111.5000000000018
 20
-406.58715120757
 30
0.0
 11
-104.3000000000029
 21
-411.3871389506511
 31
0.0
  0
LINE
  5
32FC
330
3614
100
AcDbEntity
  8
0
 62
     0
100
AcDbLine
 10
-104.3000000000011
 20
-408.3871724152358
 30
0.0
 11
-39.63059348794195
 21
-451.4999999999998
 31
0.0
  0
LINE
  5
32FD
330
3614
100
AcDbEntity
  8
0
 62
     0
100
AcDbLine
 10
-111.5
 20
-403.5871846721526
 30
0.0
 11
-104.3000000000011
 21
-408.3871724152358
 31
0.0
  0
LINE
  5
32FE
330
3614
100
AcDbEntity
  8
0
 62
     0
100
AcDbLine
 10
-104.3000000000029
 20
-405.3872058798186
 30
0.0
 11
-35.1306321940574
 21
-451.4999999999998
 31
0.0
  0
LINE
  5
32FF
330
3614
100
AcDbEntity
  8
0
 62
     0
100
AcDbLine
 10
-111.5000000000018
 20
-400.5872181367358
 30
0.0
 11
-104.3000000000029
 21
-405.3872058798186
 31
0.0
  0
LINE
  5
3300
330
3614
100
AcDbEntity
  8
0
 62
     0
100
AcDbLine
 10
-104.3000000000029
 20
-402.3872393444052
 30
0.0
 11
-30.63067090017284
 21
-451.5000000000036
 31
0.0
  0
LINE
  5
3301
330
3614
100
AcDbEntity
  8
0
 62
     0
100
AcDbLine
 10
-111.5000000000035
 20
-397.5872516013224
 30
0.0
 11
-104.3000000000029
 21
-402.3872393444052
 31
0.0
  0
LINE
  5
3302
330
3614
100
AcDbEntity
  8
0
 62
     0
100
AcDbLine
 10
-104.3000000000029
 20
-399.3872728089882
 30
0.0
 11
-26.13070960628829
 21
-451.5000000000017
 31
0.0
  0
LINE
  5
3303
330
3614
100
AcDbEntity
  8
0
 62
     0
100
AcDbLine
 10
-111.5000000000035
 20
-394.5872850659053
 30
0.0
 11
-104.3000000000029
 21
-399.3872728089882
 31
0.0
  0
LINE
  5
3304
330
3614
100
AcDbEntity
  8
0
 62
     0
100
AcDbLine
 10
-104.3000000000011
 20
-396.3873062735711
 30
0.0
 11
-21.6307483124001
 21
-451.4999999999998
 31
0.0
  0
LINE
  5
3305
330
3614
100
AcDbEntity
  8
0
 62
     0
100
AcDbLine
 10
-111.5000000000018
 20
-391.5873185304881
 30
0.0
 11
-104.3000000000011
 21
-396.3873062735711
 31
0.0
  0
LINE
  5
3306
330
3614
100
AcDbEntity
  8
0
 62
     0
100
AcDbLine
 10
-104.3000000000029
 20
-393.387339738154
 30
0.0
 11
-17.13078701851918
 21
-451.4999999999981
 31
0.0
  0
LINE
  5
3307
330
3614
100
AcDbEntity
  8
0
 62
     0
100
AcDbLine
 10
-111.5000000000035
 20
-388.587351995071
 30
0.0
 11
-104.3000000000029
 21
-393.387339738154
 31
0.0
  0
LINE
  5
3308
330
3614
100
AcDbEntity
  8
0
 62
     0
100
AcDbLine
 10
-104.3000000000011
 20
-390.3873732027368
 30
0.0
 11
-12.63082572462917
 21
-451.4999999999998
 31
0.0
  0
LINE
  5
3309
330
3614
100
AcDbEntity
  8
0
 62
     0
100
AcDbLine
 10
-111.5000000000018
 20
-385.5873854596538
 30
0.0
 11
-104.3000000000029
 21
-390.3873732027368
 31
0.0
  0
LINE
  5
330A
330
3614
100
AcDbEntity
  8
0
 62
     0
100
AcDbLine
 10
-104.3000000000011
 20
-387.3874066673234
 30
0.0
 11
-8.130864430744621
 21
-451.5000000000017
 31
0.0
  0
LINE
  5
330B
330
3614
100
AcDbEntity
  8
0
 62
     0
100
AcDbLine
 10
-111.5000000000018
 20
-382.5874189242404
 30
0.0
 11
-104.3000000000011
 21
-387.3874066673234
 31
0.0
  0
LINE
  5
330C
330
3614
100
AcDbEntity
  8
0
 62
     0
100
AcDbLine
 10
-104.3000000000029
 20
-384.3874401319063
 30
0.0
 11
-3.630903136858248
 21
-451.5000000000017
 31
0.0
  0
LINE
  5
330D
330
3614
100
AcDbEntity
  8
0
 62
     0
100
AcDbLine
 10
-111.5000000000018
 20
-379.5874523888232
 30
0.0
 11
-104.3000000000029
 21
-384.3874401319063
 31
0.0
  0
LINE
  5
330E
330
3614
100
AcDbEntity
  8
0
 62
     0
100
AcDbLine
 10
-104.3000000000047
 20
-381.3874735964891
 30
0.0
 11
0.869058157022664
 21
-451.4999999999981
 31
0.0
  0
LINE
  5
330F
330
3614
100
AcDbEntity
  8
0
 62
     0
100
AcDbLine
 10
-111.5000000000035
 20
-376.5874858534062
 30
0.0
 11
-104.3000000000047
 21
-381.3874735964891
 31
0.0
  0
LINE
  5
3310
330
3614
100
AcDbEntity
  8
0
 62
     0
100
AcDbLine
 10
-104.3000000000011
 20
-378.387507061072
 30
0.0
 11
5.369019450914492
 21
-451.4999999999998
 31
0.0
  0
LINE
  5
3311
330
3614
100
AcDbEntity
  8
0
 62
     0
100
AcDbLine
 10
-111.5000000000018
 20
-373.5875193179891
 30
0.0
 11
-104.3000000000011
 21
-378.387507061072
 31
0.0
  0
LINE
  5
3312
330
3614
100
AcDbEntity
  8
0
 62
     0
100
AcDbLine
 10
-104.3000000000029
 20
-375.3875405256585
 30
0.0
 11
9.86898074479723
 21
-451.5000000000017
 31
0.0
  0
LINE
  5
3313
330
3614
100
AcDbEntity
  8
0
 62
     0
100
AcDbLine
 10
-111.5000000000018
 20
-370.5875527825756
 30
0.0
 11
-104.3000000000029
 21
-375.3875405256585
 31
0.0
  0
LINE
  5
3314
330
3614
100
AcDbEntity
  8
0
 62
     0
100
AcDbLine
 10
-104.3000000000029
 20
-372.3875739902414
 30
0.0
 11
14.3689420386836
 21
-451.5000000000017
 31
0.0
  0
LINE
  5
3315
330
3614
100
AcDbEntity
  8
0
 62
     0
100
AcDbLine
 10
-111.5000000000035
 20
-367.5875862471585
 30
0.0
 11
-104.3000000000029
 21
-372.3875739902414
 31
0.0
  0
LINE
  5
3316
330
3614
100
AcDbEntity
  8
0
 62
     0
100
AcDbLine
 10
-104.3000000000029
 20
-369.3876074548243
 30
0.0
 11
18.86890333256997
 21
-451.5000000000017
 31
0.0
  0
LINE
  5
3317
330
3614
100
AcDbEntity
  8
0
 62
     0
100
AcDbLine
 10
-111.5000000000018
 20
-364.5876197117413
 30
0.0
 11
-104.3000000000029
 21
-369.3876074548243
 31
0.0
  0
LINE
  5
3318
330
3614
100
AcDbEntity
  8
0
 62
     0
100
AcDbLine
 10
-104.3000000000011
 20
-366.3876409194072
 30
0.0
 11
23.36886462645452
 21
-451.4999999999981
 31
0.0
  0
LINE
  5
3319
330
3614
100
AcDbEntity
  8
0
 62
     0
100
AcDbLine
 10
-111.5000000000018
 20
-361.5876531763261
 30
0.0
 11
-104.3000000000011
 21
-366.3876409194072
 31
0.0
  0
LINE
  5
331A
330
3614
100
AcDbEntity
  8
0
 62
     0
100
AcDbLine
 10
-104.3000000000029
 20
-363.3876743839937
 30
0.0
 11
27.86882592033908
 21
-451.5000000000017
 31
0.0
  0
LINE
  5
331B
330
3614
100
AcDbEntity
  8
0
 62
     0
100
AcDbLine
 10
-111.5000000000018
 20
-358.5876866409126
 30
0.0
 11
-104.3000000000029
 21
-363.3876743839937
 31
0.0
  0
LINE
  5
331C
330
3614
100
AcDbEntity
  8
0
 62
     0
100
AcDbLine
 10
-104.3000000000011
 20
-360.3877078485783
 30
0.0
 11
32.36878721422545
 21
-451.5000000000017
 31
0.0
  0
LINE
  5
331D
330
3614
100
AcDbEntity
  8
0
 62
     0
100
AcDbLine
 10
-111.5000000000018
 20
-355.5877201054955
 30
0.0
 11
-104.3000000000011
 21
-360.3877078485783
 31
0.0
  0
LINE
  5
331E
330
3614
100
AcDbEntity
  8
0
 62
     0
100
AcDbLine
 10
-104.3000000000011
 20
-357.3877413131612
 30
0.0
 11
36.86874850811364
 21
-451.5000000000017
 31
0.0
  0
LINE
  5
331F
330
3614
100
AcDbEntity
  8
0
 62
     0
100
AcDbLine
 10
-111.5
 20
-352.5877535700784
 30
0.0
 11
-104.3000000000011
 21
-357.3877413131595
 31
0.0
  0
LINE
  5
3320
330
3614
100
AcDbEntity
  8
0
 62
     0
100
AcDbLine
 10
-104.3000000000011
 20
-354.3877747777442
 30
0.0
 11
41.36870980199637
 21
-451.4999999999998
 31
0.0
  0
LINE
  5
3321
330
3614
100
AcDbEntity
  8
0
 62
     0
100
AcDbLine
 10
-111.5000000000035
 20
-349.5877870346594
 30
0.0
 11
-104.3000000000029
 21
-354.3877747777424
 31
0.0
  0
LINE
  5
3322
330
3614
100
AcDbEntity
  8
0
 62
     0
100
AcDbLine
 10
-104.3000000000029
 20
-351.3878082423253
 30
0.0
 11
45.86867109588093
 21
-451.4999999999981
 31
0.0
  0
LINE
  5
3323
330
3614
100
AcDbEntity
  8
0
 62
     0
100
AcDbLine
 10
-111.5000000000035
 20
-346.5878204992423
 30
0.0
 11
-104.3000000000029
 21
-351.3878082423253
 31
0.0
  0
LINE
  5
3324
330
3614
100
AcDbEntity
  8
0
 62
     0
100
AcDbLine
 10
-104.3000000000029
 20
-348.3878417069119
 30
0.0
 11
50.36863238976547
 21
-451.4999999999998
 31
0.0
  0
LINE
  5
3325
330
3614
100
AcDbEntity
  8
0
 62
     0
100
AcDbLine
 10
-111.5000000000035
 20
-343.5878539638306
 30
0.0
 11
-104.3000000000029
 21
-348.3878417069119
 31
0.0
  0
LINE
  5
3326
330
3614
100
AcDbEntity
  8
0
 62
     0
100
AcDbLine
 10
-104.3000000000011
 20
-345.3878751714965
 30
0.0
 11
54.86859368365549
 21
-451.5000000000017
 31
0.0
  0
LINE
  5
3327
330
3614
100
AcDbEntity
  8
0
 62
     0
100
AcDbLine
 10
-111.5000000000018
 20
-340.5878874284135
 30
0.0
 11
-104.3000000000011
 21
-345.3878751714965
 31
0.0
  0
LINE
  5
3328
330
3614
100
AcDbEntity
  8
0
 62
     0
100
AcDbLine
 10
-104.3000000000029
 20
-342.3879086360794
 30
0.0
 11
59.36855497753822
 21
-451.4999999999998
 31
0.0
  0
LINE
  5
3329
330
3614
100
AcDbEntity
  8
0
 62
     0
100
AcDbLine
 10
-111.5000000000035
 20
-337.5879208929962
 30
0.0
 11
-104.3000000000029
 21
-342.3879086360794
 31
0.0
  0
LINE
  5
332A
330
3614
100
AcDbEntity
  8
0
 62
     0
100
AcDbLine
 10
-104.3000000000011
 20
-339.3879421006622
 30
0.0
 11
63.86851627142458
 21
-451.4999999999998
 31
0.0
  0
LINE
  5
332B
330
3614
100
AcDbEntity
  8
0
 62
     0
100
AcDbLine
 10
-111.5000000000018
 20
-334.5879543575792
 30
0.0
 11
-104.3000000000011
 21
-339.3879421006622
 31
0.0
  0
LINE
  5
332C
330
3614
100
AcDbEntity
  8
0
 62
     0
100
AcDbLine
 10
-104.3000000000011
 20
-336.3879755652488
 30
0.0
 11
68.36847756531096
 21
-451.5000000000017
 31
0.0
  0
LINE
  5
332D
330
3614
100
AcDbEntity
  8
0
 62
     0
100
AcDbLine
 10
-111.5000000000018
 20
-331.5879878221658
 30
0.0
 11
-104.3000000000011
 21
-336.3879755652488
 31
0.0
  0
LINE
  5
332E
330
3614
100
AcDbEntity
  8
0
 62
     0
100
AcDbLine
 10
-104.3000000000011
 20
-333.3880090298317
 30
0.0
 11
72.86843885919734
 21
-451.5000000000017
 31
0.0
  0
LINE
  5
332F
330
3614
100
AcDbEntity
  8
0
 62
     0
100
AcDbLine
 10
-111.5000000000018
 20
-328.5880212867487
 30
0.0
 11
-104.3000000000011
 21
-333.3880090298317
 31
0.0
  0
LINE
  5
3330
330
3614
100
AcDbEntity
  8
0
 62
     0
100
AcDbLine
 10
-104.3000000000029
 20
-330.3880424944148
 30
0.0
 11
77.36840015308006
 21
-451.4999999999998
 31
0.0
  0
LINE
  5
3331
330
3614
100
AcDbEntity
  8
0
 62
     0
100
AcDbLine
 10
-111.5000000000035
 20
-325.5880547513316
 30
0.0
 11
-104.3000000000047
 21
-330.3880424944148
 31
0.0
  0
LINE
  5
3332
330
3614
100
AcDbEntity
  8
0
 62
     0
100
AcDbLine
 10
-104.2999999999993
 20
-327.3880759589975
 30
0.0
 11
81.86836144696826
 21
-451.4999999999998
 31
0.0
  0
LINE
  5
3333
330
3614
100
AcDbEntity
  8
0
 62
     0
100
AcDbLine
 10
-111.5000000000018
 20
-322.5880882159145
 30
0.0
 11
-104.3000000000011
 21
-327.3880759589975
 31
0.0
  0
LINE
  5
3334
330
3614
100
AcDbEntity
  8
0
 62
     0
100
AcDbLine
 10
-104.3000000000011
 20
-324.388109423584
 30
0.0
 11
86.36832274085284
 21
-451.5000000000036
 31
0.0
  0
LINE
  5
3335
330
3614
100
AcDbEntity
  8
0
 62
     0
100
AcDbLine
 10
-111.5000000000018
 20
-319.5881216805009
 30
0.0
 11
-104.3000000000029
 21
-324.388109423584
 31
0.0
  0
LINE
  5
3336
330
3614
100
AcDbEntity
  8
0
 62
     0
100
AcDbLine
 10
-104.3000000000011
 20
-321.3881428881669
 30
0.0
 11
90.86828403473557
 21
-451.4999999999998
 31
0.0
  0
LINE
  5
3337
330
3614
100
AcDbEntity
  8
0
 62
     0
100
AcDbLine
 10
-111.5000000000035
 20
-316.5881551450839
 30
0.0
 11
-104.3000000000029
 21
-321.3881428881669
 31
0.0
  0
LINE
  5
3338
330
3614
100
AcDbEntity
  8
0
 62
     0
100
AcDbLine
 10
-104.3000000000029
 20
-318.3881763527497
 30
0.0
 11
95.36824532862192
 21
-451.4999999999998
 31
0.0
  0
LINE
  5
3339
330
3614
100
AcDbEntity
  8
0
 62
     0
100
AcDbLine
 10
-111.5000000000018
 20
-313.5881886096667
 30
0.0
 11
-104.3000000000029
 21
-318.3881763527497
 31
0.0
  0
LINE
  5
333A
330
3614
100
AcDbEntity
  8
0
 62
     0
100
AcDbLine
 10
-104.2999999999974
 20
-315.3882098173344
 30
0.0
 11
99.8682066225065
 21
-451.4999999999981
 31
0.0
  0
LINE
  5
333B
330
3614
100
AcDbEntity
  8
0
 62
     0
100
AcDbLine
 10
-111.5000000000018
 20
-310.5882220742496
 30
0.0
 11
-104.3000000000011
 21
-315.3882098173326
 31
0.0
  0
LINE
  5
333C
330
3614
100
AcDbEntity
  8
0
 62
     0
100
AcDbLine
 10
-104.2999999999993
 20
-312.3882432819172
 30
0.0
 11
104.3681679163946
 21
-451.4999999999998
 31
0.0
  0
LINE
  5
333D
330
3614
100
AcDbEntity
  8
0
 62
     0
100
AcDbLine
 10
-111.5000000000018
 20
-307.5882555388326
 30
0.0
 11
-104.3000000000029
 21
-312.3882432819155
 31
0.0
  0
LINE
  5
333E
330
3614
100
AcDbEntity
  8
0
 62
     0
100
AcDbLine
 10
-104.2999999999974
 20
-309.3882767465038
 30
0.0
 11
108.8681292102792
 21
-451.5000000000017
 31
0.0
  0
LINE
  5
333F
330
3614
100
AcDbEntity
  8
0
 62
     0
100
AcDbLine
 10
-111.5000000000018
 20
-304.5882890034189
 30
0.0
 11
-104.3000000000011
 21
-309.388276746502
 31
0.0
  0
LINE
  5
3340
330
3614
100
AcDbEntity
  8
0
 62
     0
100
AcDbLine
 10
-104.2999999999974
 20
-306.3883102110867
 30
0.0
 11
111.4999999999982
 21
-450.254609510697
 31
0.0
  0
LINE
  5
3341
330
3614
100
AcDbEntity
  8
0
 62
     0
100
AcDbLine
 10
-111.5
 20
-301.588322468002
 30
0.0
 11
-104.3000000000011
 21
-306.3883102110848
 31
0.0
  0
LINE
  5
3342
330
3614
100
AcDbEntity
  8
0
 62
     0
100
AcDbLine
 10
-104.2999999999974
 20
-303.3883436756714
 30
0.0
 11
111.4999999999963
 21
-447.2546429752819
 31
0.0
  0
LINE
  5
3343
330
3614
100
AcDbEntity
  8
0
 62
     0
100
AcDbLine
 10
-111.5000000000018
 20
-298.5883559325866
 30
0.0
 11
-104.3000000000029
 21
-303.3883436756678
 31
0.0
  0
LINE
  5
3344
330
3614
100
AcDbEntity
  8
0
 62
     0
100
AcDbLine
 10
-104.2999999999993
 20
-300.3883771402543
 30
0.0
 11
111.4999999999963
 21
-444.2546764398648
 31
0.0
  0
LINE
  5
3345
330
3614
100
AcDbEntity
  8
0
 62
     0
100
AcDbLine
 10
-111.5000000000035
 20
-295.5883893971677
 30
0.0
 11
-104.3000000000029
 21
-300.3883771402507
 31
0.0
  0
LINE
  5
3346
330
3614
100
AcDbEntity
  8
0
 62
     0
100
AcDbLine
 10
-104.2999999999974
 20
-297.3884106048408
 30
0.0
 11
111.4999999999963
 21
-441.2547099044512
 31
0.0
  0
LINE
  5
3347
330
3614
100
AcDbEntity
  8
0
 62
     0
100
AcDbLine
 10
-111.5000000000035
 20
-292.5884228617543
 30
0.0
 11
-104.3000000000029
 21
-297.3884106048372
 31
0.0
  0
LINE
  5
3348
330
3614
100
AcDbEntity
  8
0
 62
     0
100
AcDbLine
 10
-104.2999999999974
 20
-294.3884440694237
 30
0.0
 11
111.4999999999963
 21
-438.2547433690324
 31
0.0
  0
LINE
  5
3349
330
3614
100
AcDbEntity
  8
0
 62
     0
100
AcDbLine
 10
-111.5000000000018
 20
-289.5884563263371
 30
0.0
 11
-104.3000000000011
 21
-294.3884440694201
 31
0.0
  0
LINE
  5
334A
330
3614
100
AcDbEntity
  8
0
 62
     0
100
AcDbLine
 10
-104.2999999999993
 20
-291.3884775340047
 30
0.0
 11
111.4999999999945
 21
-435.2547768336152
 31
0.0
  0
LINE
  5
334B
330
3614
100
AcDbEntity
  8
0
 62
     0
100
AcDbLine
 10
-111.5000000000035
 20
-286.5884897909201
 30
0.0
 11
-104.3000000000029
 21
-291.3884775340029
 31
0.0
  0
LINE
  5
334C
330
3614
100
AcDbEntity
  8
0
 62
     0
100
AcDbLine
 10
-104.2999999999993
 20
-288.3885109985877
 30
0.0
 11
111.4999999999963
 21
-432.2548102982
 31
0.0
  0
LINE
  5
334D
330
3614
100
AcDbEntity
  8
0
 62
     0
100
AcDbLine
 10
-111.5000000000018
 20
-283.5885232555029
 30
0.0
 11
-104.3000000000011
 21
-288.3885109985858
 31
0.0
  0
LINE
  5
334E
330
3614
100
AcDbEntity
  8
0
 62
     0
100
AcDbLine
 10
-104.2999999999974
 20
-285.388544463176
 30
0.0
 11
111.4999999999963
 21
-429.2548437627863
 31
0.0
  0
LINE
  5
334F
330
3614
100
AcDbEntity
  8
0
 62
     0
100
AcDbLine
 10
-111.5000000000018
 20
-280.5885567200911
 30
0.0
 11
-104.3000000000011
 21
-285.3885444631724
 31
0.0
  0
LINE
  5
3350
330
3614
100
AcDbEntity
  8
0
 62
     0
100
AcDbLine
 10
-104.2999999999993
 20
-282.3885779277589
 30
0.0
 11
111.4999999999963
 21
-426.2548772273691
 31
0.0
  0
LINE
  5
3351
330
3614
100
AcDbEntity
  8
0
 62
     0
100
AcDbLine
 10
-111.5000000000018
 20
-277.5885901846741
 30
0.0
 11
-104.3000000000011
 21
-282.3885779277572
 31
0.0
  0
LINE
  5
3352
330
3614
100
AcDbEntity
  8
0
 62
     0
100
AcDbLine
 10
-104.2999999999993
 20
-279.3886113923418
 30
0.0
 11
111.4999999999945
 21
-423.2549106919521
 31
0.0
  0
LINE
  5
3353
330
3614
100
AcDbEntity
  8
0
 62
     0
100
AcDbLine
 10
-111.5000000000035
 20
-274.5886236492553
 30
0.0
 11
-104.3000000000047
 21
-279.3886113923381
 31
0.0
  0
LINE
  5
3354
330
3614
100
AcDbEntity
  8
0
 62
     0
100
AcDbLine
 10
-104.2999999999993
 20
-276.3886448569246
 30
0.0
 11
111.4999999999963
 21
-420.2549441565349
 31
0.0
  0
LINE
  5
3355
330
3614
100
AcDbEntity
  8
0
 62
     0
100
AcDbLine
 10
-111.5000000000018
 20
-271.5886571138399
 30
0.0
 11
-104.3000000000029
 21
-276.388644856921
 31
0.0
  0
LINE
  5
3356
330
3614
100
AcDbEntity
  8
0
 62
     0
100
AcDbLine
 10
-104.2999999999974
 20
-273.3886783215074
 30
0.0
 11
111.4999999999963
 21
-417.2549776211161
 31
0.0
  0
LINE
  5
3357
330
3614
100
AcDbEntity
  8
0
 62
     0
100
AcDbLine
 10
-107.8830266316054
 20
-271.0
 30
0.0
 11
-104.3000000000029
 21
-273.3886783215039
 31
0.0
  0
LINE
  5
3358
330
3614
100
AcDbEntity
  8
0
 62
     0
100
AcDbLine
 10
-103.3830653377226
 20
-271.0000000000018
 30
0.0
 11
111.4999999999945
 21
-414.2550110857047
 31
0.0
  0
LINE
  5
3359
330
3614
100
AcDbEntity
  8
0
 62
     0
100
AcDbLine
 10
-98.88310404383629
 20
-271.0
 30
0.0
 11
111.4999999999963
 21
-411.2550445502875
 31
0.0
  0
LINE
  5
335A
330
3614
100
AcDbEntity
  8
0
 62
     0
100
AcDbLine
 10
-94.38314274994992
 20
-271.0
 30
0.0
 11
111.4999999999963
 21
-408.2550780148704
 31
0.0
  0
LINE
  5
335B
330
3614
100
AcDbEntity
  8
0
 62
     0
100
AcDbLine
 10
-89.88318145606355
 20
-271.0
 30
0.0
 11
111.4999999999963
 21
-405.2551114794532
 31
0.0
  0
LINE
  5
335C
330
3614
100
AcDbEntity
  8
0
 62
     0
100
AcDbLine
 10
-85.3832201621808
 20
-271.0000000000018
 30
0.0
 11
111.4999999999945
 21
-402.2551449440395
 31
0.0
  0
LINE
  5
335D
330
3614
100
AcDbEntity
  8
0
 62
     0
100
AcDbLine
 10
-80.88325886829261
 20
-271.0000000000018
 30
0.0
 11
111.4999999999982
 21
-399.2551784086227
 31
0.0
  0
LINE
  5
335E
330
3614
100
AcDbEntity
  8
0
 62
     0
100
AcDbLine
 10
-76.38329757440806
 20
-271.0
 30
0.0
 11
111.4999999999963
 21
-396.2552118732057
 31
0.0
  0
LINE
  5
335F
330
3614
100
AcDbEntity
  8
0
 62
     0
100
AcDbLine
 10
-71.88333628052169
 20
-271.0
 30
0.0
 11
111.4999999999963
 21
-393.2552453377884
 31
0.0
  0
LINE
  5
3360
330
3614
100
AcDbEntity
  8
0
 62
     0
100
AcDbLine
 10
-67.38337498663715
 20
-271.0000000000018
 30
0.0
 11
111.4999999999963
 21
-390.255278802375
 31
0.0
  0
LINE
  5
3361
330
3614
100
AcDbEntity
  8
0
 62
     0
100
AcDbLine
 10
-62.88341369275078
 20
-271.0000000000018
 30
0.0
 11
111.4999999999982
 21
-387.2553122669597
 31
0.0
  0
LINE
  5
3362
330
3614
100
AcDbEntity
  8
0
 62
     0
100
AcDbLine
 10
-58.38345239886621
 20
-271.0000000000018
 30
0.0
 11
111.4999999999945
 21
-384.2553457315407
 31
0.0
  0
LINE
  5
3363
330
3614
100
AcDbEntity
  8
0
 62
     0
100
AcDbLine
 10
-53.88349110497802
 20
-271.0000000000018
 30
0.0
 11
111.4999999999963
 21
-381.2553791961237
 31
0.0
  0
LINE
  5
3364
330
3614
100
AcDbEntity
  8
0
 62
     0
100
AcDbLine
 10
-49.38352981109346
 20
-270.9999999999982
 30
0.0
 11
111.4999999999963
 21
-378.2554126607065
 31
0.0
  0
LINE
  5
3365
330
3614
100
AcDbEntity
  8
0
 62
     0
100
AcDbLine
 10
-44.88356851720889
 20
-271.0000000000018
 30
0.0
 11
111.4999999999963
 21
-375.255446125293
 31
0.0
  0
LINE
  5
3366
330
3614
100
AcDbEntity
  8
0
 62
     0
100
AcDbLine
 10
-40.38360722332436
 20
-271.0000000000018
 30
0.0
 11
111.4999999999945
 21
-372.2554795898759
 31
0.0
  0
LINE
  5
3367
330
3614
100
AcDbEntity
  8
0
 62
     0
100
AcDbLine
 10
-35.88364592943981
 20
-271.0
 30
0.0
 11
111.4999999999963
 21
-369.2555130544606
 31
0.0
  0
LINE
  5
3368
330
3614
100
AcDbEntity
  8
0
 62
     0
100
AcDbLine
 10
-31.38368463555344
 20
-270.9999999999982
 30
0.0
 11
111.4999999999963
 21
-366.2555465190434
 31
0.0
  0
LINE
  5
3369
330
3614
100
AcDbEntity
  8
0
 62
     0
100
AcDbLine
 10
-26.88372334166706
 20
-271.0000000000018
 30
0.0
 11
111.4999999999963
 21
-363.25557998363
 31
0.0
  0
LINE
  5
336A
330
3614
100
AcDbEntity
  8
0
 62
     0
100
AcDbLine
 10
-22.38376204778068
 20
-271.0000000000018
 30
0.0
 11
111.4999999999963
 21
-360.2556134482129
 31
0.0
  0
LINE
  5
336B
330
3614
100
AcDbEntity
  8
0
 62
     0
100
AcDbLine
 10
-17.88380075389614
 20
-271.0
 30
0.0
 11
111.4999999999963
 21
-357.255646912794
 31
0.0
  0
LINE
  5
336C
330
3614
100
AcDbEntity
  8
0
 62
     0
100
AcDbLine
 10
-13.38383946001158
 20
-271.0
 30
0.0
 11
111.4999999999963
 21
-354.2556803773788
 31
0.0
  0
LINE
  5
336D
330
3614
100
AcDbEntity
  8
0
 62
     0
100
AcDbLine
 10
-8.883878166125212
 20
-271.0000000000036
 30
0.0
 11
111.4999999999945
 21
-351.2557138419652
 31
0.0
  0
LINE
  5
336E
330
3614
100
AcDbEntity
  8
0
 62
     0
100
AcDbLine
 10
-4.383916872237023
 20
-271.0000000000018
 30
0.0
 11
111.4999999999982
 21
-348.2557473065481
 31
0.0
  0
LINE
  5
336F
330
3614
100
AcDbEntity
  8
0
 62
     0
100
AcDbLine
 10
0.1160444216457108
 20
-271.0
 30
0.0
 11
111.4999999999963
 21
-345.2557807711309
 31
0.0
  0
LINE
  5
3370
330
3614
100
AcDbEntity
  8
0
 62
     0
100
AcDbLine
 10
4.616005715530262
 20
-271.0
 30
0.0
 11
111.4999999999963
 21
-342.2558142357138
 31
0.0
  0
LINE
  5
3371
330
3614
100
AcDbEntity
  8
0
 62
     0
100
AcDbLine
 10
9.115967009418453
 20
-271.0
 30
0.0
 11
111.4999999999963
 21
-339.2558477002967
 31
0.0
  0
LINE
  5
3372
330
3614
100
AcDbEntity
  8
0
 62
     0
100
AcDbLine
 10
13.61592830330119
 20
-271.0
 30
0.0
 11
111.4999999999982
 21
-336.2558811648832
 31
0.0
  0
LINE
  5
3373
330
3614
100
AcDbEntity
  8
0
 62
     0
100
AcDbLine
 10
18.11588959718756
 20
-271.0
 30
0.0
 11
111.4999999999963
 21
-333.2559146294661
 31
0.0
  0
LINE
  5
3374
330
3614
100
AcDbEntity
  8
0
 62
     0
100
AcDbLine
 10
22.61585089107393
 20
-271.0
 30
0.0
 11
111.4999999999963
 21
-330.2559480940491
 31
0.0
  0
LINE
  5
3375
330
3614
100
AcDbEntity
  8
0
 62
     0
100
AcDbLine
 10
27.11581218496212
 20
-271.0
 30
0.0
 11
111.4999999999963
 21
-327.2559815586319
 31
0.0
  0
LINE
  5
3376
330
3614
100
AcDbEntity
  8
0
 62
     0
100
AcDbLine
 10
31.61577347884304
 20
-271.0000000000018
 30
0.0
 11
111.4999999999963
 21
-324.2560150232184
 31
0.0
  0
LINE
  5
3377
330
3614
100
AcDbEntity
  8
0
 62
     0
100
AcDbLine
 10
36.11573477272941
 20
-271.0
 30
0.0
 11
111.4999999999945
 21
-321.2560484878013
 31
0.0
  0
LINE
  5
3378
330
3614
100
AcDbEntity
  8
0
 62
     0
100
AcDbLine
 10
40.61569606661577
 20
-271.0
 30
0.0
 11
111.4999999999963
 21
-318.2560819523842
 31
0.0
  0
LINE
  5
3379
330
3614
100
AcDbEntity
  8
0
 62
     0
100
AcDbLine
 10
45.11565736050395
 20
-271.0
 30
0.0
 11
111.4999999999963
 21
-315.256115416967
 31
0.0
  0
LINE
  5
337A
330
3614
100
AcDbEntity
  8
0
 62
     0
100
AcDbLine
 10
49.61561865438489
 20
-271.0000000000018
 30
0.0
 11
111.4999999999963
 21
-312.2561488815536
 31
0.0
  0
LINE
  5
337B
330
3614
100
AcDbEntity
  8
0
 62
     0
100
AcDbLine
 10
54.11557994827489
 20
-271.0000000000036
 30
0.0
 11
111.4999999999963
 21
-309.2561823461366
 31
0.0
  0
LINE
  5
337C
330
3614
100
AcDbEntity
  8
0
 62
     0
100
AcDbLine
 10
58.61554124215945
 20
-271.0000000000018
 30
0.0
 11
111.4999999999982
 21
-306.2562158107212
 31
0.0
  0
LINE
  5
337D
330
3614
100
AcDbEntity
  8
0
 62
     0
100
AcDbLine
 10
63.11550253604583
 20
-271.0
 30
0.0
 11
111.4999999999963
 21
-303.2562492753023
 31
0.0
  0
LINE
  5
337E
330
3614
100
AcDbEntity
  8
0
 62
     0
100
AcDbLine
 10
67.61546382992674
 20
-271.0000000000018
 30
0.0
 11
111.4999999999945
 21
-300.2562827398888
 31
0.0
  0
LINE
  5
337F
330
3614
100
AcDbEntity
  8
0
 62
     0
100
AcDbLine
 10
72.11542512381493
 20
-271.0000000000018
 30
0.0
 11
111.4999999999963
 21
-297.2563162044717
 31
0.0
  0
LINE
  5
3380
330
3614
100
AcDbEntity
  8
0
 62
     0
100
AcDbLine
 10
76.6153864177013
 20
-271.0000000000018
 30
0.0
 11
111.4999999999963
 21
-294.2563496690545
 31
0.0
  0
LINE
  5
3381
330
3614
100
AcDbEntity
  8
0
 62
     0
100
AcDbLine
 10
81.11534771158403
 20
-270.9999999999982
 30
0.0
 11
111.4999999999963
 21
-291.2563831336393
 31
0.0
  0
LINE
  5
3382
330
3614
100
AcDbEntity
  8
0
 62
     0
100
AcDbLine
 10
85.61530900547037
 20
-270.9999999999982
 30
0.0
 11
111.4999999999963
 21
-288.2564165982221
 31
0.0
  0
LINE
  5
3383
330
3614
100
AcDbEntity
  8
0
 62
     0
100
AcDbLine
 10
90.1152702993586
 20
-271.0000000000018
 30
0.0
 11
111.4999999999982
 21
-285.2564500628087
 31
0.0
  0
LINE
  5
3384
330
3614
100
AcDbEntity
  8
0
 62
     0
100
AcDbLine
 10
94.61523159324316
 20
-271.0000000000018
 30
0.0
 11
111.4999999999963
 21
-282.2564835273915
 31
0.0
  0
LINE
  5
3385
330
3614
100
AcDbEntity
  8
0
 62
     0
100
AcDbLine
 10
99.11519288712593
 20
-271.0
 30
0.0
 11
111.4999999999963
 21
-279.2565169919744
 31
0.0
  0
LINE
  5
3386
330
3614
100
AcDbEntity
  8
0
 62
     0
100
AcDbLine
 10
103.6151541810177
 20
-271.0000000000018
 30
0.0
 11
111.4999999999982
 21
-276.2565504565572
 31
0.0
  0
LINE
  5
3387
330
3614
100
AcDbEntity
  8
0
 62
     0
100
AcDbLine
 10
108.1151154749004
 20
-271.0000000000018
 30
0.0
 11
111.4999999999982
 21
-273.2565839211438
 31
0.0
  0
ENDBLK
  5
3388
330
3614
100
AcDbEntity
  8
0
100
AcDbBlockEnd
  0
ENDSEC
  0
SECTION
  2
ENTITIES
  0
TEXT
  5
953
330
3530
100
AcDbEntity
  8
OUTLINE
  6
Continuous
 62
     3
100
AcDbText
 10
-418.231467
 20
13.715189
 30
0.0
 40
64.0
  1
 
 41
0.9
100
AcDbText
  0
TEXT
  5
954
330
3530
100
AcDbEntity
  8
OUTLINE
  6
Continuous
 62
     3
100
AcDbText
 10
-418.231467
 20
13.715189
 30
0.0
 40
64.0
  1
 
 41
0.9
100
AcDbText
  0
TEXT
  5
955
330
3530
100
AcDbEntity
  8
OUTLINE
  6
Continuous
 62
     3
100
AcDbText
 10
1341.41903
 20
-706.0588199999997
 30
0.0
 40
64.0
  1
 
 41
0.9
100
AcDbText
  0
TEXT
  5
956
330
3530
100
AcDbEntity
  8
OUTLINE
  6
Continuous
 62
     3
100
AcDbText
 10
1341.41903
 20
-706.0588199999997
 30
0.0
 40
64.0
  1
 
 41
0.9
100
AcDbText
  0
TEXT
  5
957
330
3530
100
AcDbEntity
  8
OUTLINE
  6
Continuous
 62
     3
100
AcDbText
 10
1341.41903
 20
-706.0588199999997
 30
0.0
 40
64.0
  1
 
 41
0.9
100
AcDbText
  0
TEXT
  5
958
330
3530
100
AcDbEntity
  8
OUTLINE
  6
Continuous
 62
     3
100
AcDbText
 10
1341.41903
 20
-706.0588199999997
 30
0.0
 40
64.0
  1
 
 41
0.9
100
AcDbText
  0
TEXT
  5
38B8
330
3530
100
AcDbEntity
  8
ETC
100
AcDbText
 10
256.2468308916505
 20
525.2365512745857
 30
0.0
 40
64.0
  1
システム部材
 41
0.9
100
AcDbText
  0
TEXT
  5
38B9
330
3530
100
AcDbEntity
  8
ETC
100
AcDbText
 10
262.4548288916485
 20
626.1198772745856
 30
0.0
 40
64.0
  1
W-20SKL_6
 41
0.9
100
AcDbText
  0
TEXT
  5
38BA
330
3530
100
AcDbEntity
  8
ETC
100
AcDbText
 10
262.4548288916485
 20
426.1198772745856
 30
0.0
 40
64.0
  1
W-20SKL
 41
0.9
100
AcDbText
  0
POINT
  5
38BB
330
3530
100
AcDbEntity
  8
ARRANGE
100
AcDbPoint
 10
0.0
 20
0.0
 30
0.0
 39
50.0
  0
CIRCLE
  5
38BC
330
3530
100
AcDbEntity
  8
ARRANGE
100
AcDbCircle
 10
0.0
 20
0.0
 30
0.0
 40
40.0
  0
LINE
  5
38BD
330
3530
100
AcDbEntity
  8
DETAIL
100
AcDbLine
 10
-127.5
 20
-51.0
 30
0.0
 11
-127.5
 21
-471.0
 31
0.0
  0
LINE
  5
38BE
330
3530
100
AcDbEntity
  8
DETAIL
100
AcDbLine
 10
127.5
 20
-51.0
 30
0.0
 11
127.5
 21
-471.0
 31
0.0
  0
LINE
  5
38BF
330
3530
100
AcDbEntity
  8
SIZE
100
AcDbLine
 10
157.5
 20
20.0
 30
0.0
 11
157.5
 21
308.2368771207612
 31
0.0
  0
LINE
  5
38C0
330
3530
100
AcDbEntity
  8
SIZE
100
AcDbLine
 10
-157.5
 20
20.0
 30
0.0
 11
-157.5
 21
308.2368771207612
 31
0.0
  0
LINE
  5
38C1
330
3530
100
AcDbEntity
  8
SIZE
100
AcDbLine
 10
145.5
 20
288.2368771207612
 30
0.0
 11
-145.5
 21
288.2368771207612
 31
0.0
  0
INSERT
  5
38C2
330
3530
100
AcDbEntity
  8
SIZE
100
AcDbBlockReference
  2
_DOTBLANK
 10
157.5
 20
288.2368771207612
 30
0.0
 41
12.0
 42
12.0
 43
12.0
  0
INSERT
  5
38C3
330
3530
100
AcDbEntity
  8
SIZE
100
AcDbBlockReference
  2
_DOTBLANK
 10
-157.5
 20
288.2368771207612
 30
0.0
 41
12.0
 42
12.0
 43
12.0
 50
180.0
  0
TEXT
  5
38C4
330
3530
100
AcDbEntity
  8
SIZE
100
AcDbText
 10
-68.57142857142844
 20
298.2368771207612
 30
0.0
 40
64.0
  1
315
 41
0.9
100
AcDbText
  0
LINE
  5
38C5
330
3530
100
AcDbEntity
  8
SIZE
100
AcDbLine
 10
140.0
 20
32.50000126408304
 30
0.0
 11
140.0
 21
201.1654238486208
 31
0.0
  0
LINE
  5
38C6
330
3530
100
AcDbEntity
  8
SIZE
100
AcDbLine
 10
-140.0
 20
32.50000126408304
 30
0.0
 11
-140.0
 21
201.1654238486208
 31
0.0
  0
LINE
  5
38C7
330
3530
100
AcDbEntity
  8
SIZE
100
AcDbLine
 10
128.0
 20
181.1654238486206
 30
0.0
 11
-128.0
 21
181.1654238486206
 31
0.0
  0
INSERT
  5
38C8
330
3530
100
AcDbEntity
  8
SIZE
100
AcDbBlockReference
  2
_DOTBLANK
 10
140.0
 20
181.1654238486206
 30
0.0
 41
12.0
 42
12.0
 43
12.0
  0
INSERT
  5
38C9
330
3530
100
AcDbEntity
  8
SIZE
100
AcDbBlockReference
  2
_DOTBLANK
 10
-140.0
 20
181.1654238486206
 30
0.0
 41
12.0
 42
12.0
 43
12.0
 50
180.0
  0
TEXT
  5
38CA
330
3530
100
AcDbEntity
  8
SIZE
100
AcDbText
 10
-74.05714285714293
 20
191.1654238486208
 30
0.0
 40
64.0
  1
280
 41
0.9
100
AcDbText
  0
LINE
  5
38CB
330
3530
100
AcDbEntity
  8
SIZE
100
AcDbLine
 10
127.5
 20
-491.0
 30
0.0
 11
127.5
 21
-710.8614158978276
 31
0.0
  0
LINE
  5
38CC
330
3530
100
AcDbEntity
  8
SIZE
100
AcDbLine
 10
-127.5
 20
-491.0
 30
0.0
 11
-127.5
 21
-710.8614158978276
 31
0.0
  0
LINE
  5
38CD
330
3530
100
AcDbEntity
  8
SIZE
100
AcDbLine
 10
115.5
 20
-690.8614158978273
 30
0.0
 11
-115.5
 21
-690.8614158978273
 31
0.0
  0
INSERT
  5
38CE
330
3530
100
AcDbEntity
  8
SIZE
100
AcDbBlockReference
  2
_DOTBLANK
 10
127.5
 20
-690.8614158978273
 30
0.0
 41
12.0
 42
12.0
 43
12.0
  0
INSERT
  5
38CF
330
3530
100
AcDbEntity
  8
SIZE
100
AcDbBlockReference
  2
_DOTBLANK
 10
-127.5
 20
-690.8614158978273
 30
0.0
 41
12.0
 42
12.0
 43
12.0
 50
180.0
  0
TEXT
  5
38D0
330
3530
100
AcDbEntity
  8
SIZE
100
AcDbText
 10
-74.05714285714293
 20
-680.8614158978275
 30
0.0
 40
64.0
  1
255
 41
0.9
100
AcDbText
  0
LINE
  5
38D1
330
3530
100
AcDbEntity
  8
DETAIL
100
AcDbLine
 10
-146.5
 20
-52.0
 30
0.0
 11
-127.5
 21
-52.0
 31
0.0
  0
LINE
  5
38D2
330
3530
100
AcDbEntity
  8
DETAIL
100
AcDbLine
 10
127.5
 20
-52.0
 30
0.0
 11
146.5
 21
-52.0
 31
0.0
  0
LINE
  5
38D3
330
3530
100
AcDbEntity
  8
DETAIL
100
AcDbLine
 10
-146.5
 20
-53.0
 30
0.0
 11
-127.5
 21
-53.0
 31
0.0
  0
LINE
  5
38D4
330
3530
100
AcDbEntity
  8
DETAIL
100
AcDbLine
 10
127.5
 20
-53.0
 30
0.0
 11
146.5
 21
-53.0
 31
0.0
  0
LINE
  5
38D5
330
3530
100
AcDbEntity
  8
DETAIL
100
AcDbLine
 10
-157.5
 20
-1.199999999999818
 30
0.0
 11
157.5
 21
-1.199999999999818
 31
0.0
  0
LINE
  5
38D6
330
3530
100
AcDbEntity
  8
DETAIL
100
AcDbLine
 10
-157.5
 20
0.0
 30
0.0
 11
157.5
 21
0.0
 31
0.0
  0
LINE
  5
38D7
330
3530
100
AcDbEntity
  8
NOTE
100
AcDbLine
 10
-140.0
 20
12.50000126408304
 30
0.0
 11
-140.0
 21
-12.50000126408304
 31
0.0
  0
LINE
  5
38D8
330
3530
100
AcDbEntity
  8
NOTE
100
AcDbLine
 10
-136.5
 20
-39.49997860818076
 30
0.0
 11
-136.5
 21
-64.50002139181925
 31
0.0
  0
LINE
  5
38D9
330
3530
100
AcDbEntity
  8
DETAIL
100
AcDbLine
 10
-146.5
 20
-52.0
 30
0.0
 11
-146.5
 21
-53.0
 31
0.0
  0
LINE
  5
38DA
330
3530
100
AcDbEntity
  8
DETAIL
100
AcDbLine
 10
-157.5
 20
0.0
 30
0.0
 11
-157.5
 21
-1.199999999999818
 31
0.0
  0
LINE
  5
38DB
330
3530
100
AcDbEntity
  8
DETAIL
100
AcDbLine
 10
-127.5
 20
-1.199999999999818
 30
0.0
 11
-127.5
 21
-51.0
 31
0.0
  0
LINE
  5
38DC
330
3530
100
AcDbEntity
  8
NOTE
100
AcDbLine
 10
140.0
 20
12.50000126408304
 30
0.0
 11
140.0
 21
-12.50000126408304
 31
0.0
  0
LINE
  5
38DD
330
3530
100
AcDbEntity
  8
NOTE
100
AcDbLine
 10
136.5
 20
-39.49997860818076
 30
0.0
 11
136.5
 21
-64.50002139181925
 31
0.0
  0
LINE
  5
38DE
330
3530
100
AcDbEntity
  8
DETAIL
100
AcDbLine
 10
157.5
 20
0.0
 30
0.0
 11
157.5
 21
-1.199999999999818
 31
0.0
  0
LINE
  5
38DF
330
3530
100
AcDbEntity
  8
DETAIL
100
AcDbLine
 10
146.5
 20
-52.0
 30
0.0
 11
146.5
 21
-53.0
 31
0.0
  0
LINE
  5
38E0
330
3530
100
AcDbEntity
  8
DETAIL
100
AcDbLine
 10
127.5
 20
-1.199999999999818
 30
0.0
 11
127.5
 21
-51.0
 31
0.0
  0
LINE
  5
38E1
330
3530
100
AcDbEntity
  8
DETAIL
100
AcDbLine
 10
-127.5
 20
-211.0
 30
0.0
 11
127.5
 21
-211.0
 31
0.0
  0
LINE
  5
38E2
330
3530
100
AcDbEntity
  8
DETAIL
100
AcDbLine
 10
-127.5
 20
-471.0
 30
0.0
 11
127.5
 21
-471.0
 31
0.0
  0
LINE
  5
38E3
330
3530
100
AcDbEntity
  8
DETAIL
100
AcDbLine
 10
127.5
 20
-271.0
 30
0.0
 11
-127.5
 21
-271.0
 31
0.0
  0
LINE
  5
38E4
330
3530
100
AcDbEntity
  8
DETAIL
100
AcDbLine
 10
111.5
 20
-271.0
 30
0.0
 11
-111.5
 21
-271.0
 31
0.0
  0
LINE
  5
38E5
330
3530
100
AcDbEntity
  8
DETAIL
100
AcDbLine
 10
-111.5
 20
-451.4999999999997
 30
0.0
 11
111.5
 21
-451.4999999999997
 31
0.0
  0
LINE
  5
38E6
330
3530
100
AcDbEntity
  8
DETAIL
100
AcDbLine
 10
-111.5
 20
-271.0
 30
0.0
 11
-111.5
 21
-451.4999999999997
 31
0.0
  0
LINE
  5
38E7
330
3530
100
AcDbEntity
  8
DETAIL
100
AcDbLine
 10
111.5
 20
-271.0
 30
0.0
 11
111.5
 21
-451.4999999999997
 31
0.0
  0
LINE
  5
38E8
330
3530
100
AcDbEntity
  8
BASIS
100
AcDbLine
 39
50.0
 10
0.0
 20
25.0
 30
0.0
 11
0.0
 21
-496.0
 31
0.0
  0
INSERT
  5
38E9
330
3530
100
AcDbEntity
  8
NOTE
100
AcDbBlockReference
  2
_OPEN30
 10
-136.5
 20
-52.0
 30
0.0
 41
11.99999999999995
 42
12.0
 43
12.0
 50
305.9876127319022
1001
ACAD
1000
DSTYLE
1002
{
1070
    41
1040
12.0
1070
   341
1005
3586
1070
   147
1040
20.0
1070
    77
1070
     1
1002
}
  0
LWPOLYLINE
  5
38EA
330
3530
100
AcDbEntity
  8
NOTE
100
AcDbPolyline
 90
        3
 70
     0
 43
0.0
 10
-143.5513239624501
 20
-42.2902713541223
 10
-241.0
 20
91.89732323993984
 10
-712.9542857142857
 20
91.89732323993984
1001
ACAD
1000
DSTYLE
1002
{
1070
    41
1040
12.0
1070
   341
1005
3586
1070
   147
1040
20.0
1070
    77
1070
     1
1002
}
  0
TEXT
  5
38EB
330
3530
100
AcDbEntity
  8
NOTE
100
AcDbText
 10
-712.9542857142857
 20
111.8973232399398
 30
0.0
 40
64.0
  1
6×φ7取付穴
 41
0.9
100
AcDbText
1001
ACAD
1000
ACAD_MTEXT_DEFINED_HEIGHT_BEGIN
1070
    46
1040
0.0
1000
ACAD_MTEXT_DEFINED_HEIGHT_END
  0
INSERT
  5
38EC
330
3530
100
AcDbEntity
  8
NOTE
100
AcDbBlockReference
  2
_OPEN30
 10
-140.0
 20
0.0
 30
0.0
 41
12.0
 42
12.0
 43
12.0
 50
296.1323340017242
1001
ACAD
1000
DSTYLE
1002
{
1070
    41
1040
12.0
1070
   341
1005
3586
1070
   147
1040
20.0
1070
    77
1070
     1
1002
}
  0
LWPOLYLINE
  5
38ED
330
3530
100
AcDbEntity
  8
NOTE
100
AcDbPolyline
 90
        3
 70
     0
 43
0.0
 10
-145.2853506557389
 20
10.7733499175456
 10
-249.8904122898857
 20
223.9941947648799
 10
-510.0961265756
 20
223.9941947648799
1001
ACAD
1000
DSTYLE
1002
{
1070
    41
1040
12.0
1070
   341
1005
3586
1070
   147
1040
20.0
1070
    77
1070
     1
1002
}
  0
TEXT
  5
38EE
330
3530
100
AcDbEntity
  8
NOTE
100
AcDbText
 10
-510.0961265756
 20
243.9941947648799
 30
0.0
 40
64.0
  1
4×M8
 41
0.9
100
AcDbText
1001
ACAD
1000
ACAD_MTEXT_DEFINED_HEIGHT_BEGIN
1070
    46
1040
0.0
1000
ACAD_MTEXT_DEFINED_HEIGHT_END
  0
LINE
  5
38EF
330
3530
100
AcDbEntity
  8
DETAIL
100
AcDbLine
 10
-144.0
 20
23.0
 30
0.0
 11
-144.0
 21
0.0
 31
0.0
  0
LINE
  5
38F0
330
3530
100
AcDbEntity
  8
DETAIL
100
AcDbLine
 10
-135.9999999999963
 20
23.0
 30
0.0
 11
-135.9999999999963
 21
0.0
 31
0.0
  0
LINE
  5
38F1
330
3530
100
AcDbEntity
  8
DETAIL
100
AcDbLine
 10
-144.0
 20
23.0
 30
0.0
 11
-135.9999999999963
 21
23.0
 31
0.0
  0
LINE
  5
38F2
330
3530
100
AcDbEntity
  8
DETAIL
100
AcDbLine
 10
136.0
 20
23.0
 30
0.0
 11
136.0
 21
0.0
 31
0.0
  0
LINE
  5
38F3
330
3530
100
AcDbEntity
  8
DETAIL
100
AcDbLine
 10
144.0
 20
23.0
 30
0.0
 11
144.0
 21
0.0000000000004547
 31
0.0
  0
LINE
  5
38F4
330
3530
100
AcDbEntity
  8
DETAIL
100
AcDbLine
 10
136.0
 20
23.0
 30
0.0
 11
144.0
 21
23.0
 31
0.0
  0
LINE
  5
38F5
330
3530
100
AcDbEntity
  8
SIZE
100
AcDbLine
 10
-146.5
 20
-73.0
 30
0.0
 11
-146.5
 21
-177.0690731673353
 31
0.0
  0
LINE
  5
38F6
330
3530
100
AcDbEntity
  8
SIZE
100
AcDbLine
 10
146.5
 20
-73.0
 30
0.0
 11
146.5
 21
-177.0690731673353
 31
0.0
  0
LINE
  5
38F7
330
3530
100
AcDbEntity
  8
SIZE
100
AcDbLine
 10
-134.5
 20
-157.0690731673353
 30
0.0
 11
134.5
 21
-157.0690731673353
 31
0.0
  0
INSERT
  5
38F8
330
3530
100
AcDbEntity
  8
SIZE
100
AcDbBlockReference
  2
_DOTBLANK
 10
-146.5
 20
-157.0690731673353
 30
0.0
 41
12.0
 42
12.0
 43
12.0
 50
180.0
  0
INSERT
  5
38F9
330
3530
100
AcDbEntity
  8
SIZE
100
AcDbBlockReference
  2
_DOTBLANK
 10
146.5
 20
-157.0690731673353
 30
0.0
 41
12.0
 42
12.0
 43
12.0
  0
TEXT
  5
38FA
330
3530
100
AcDbEntity
  8
SIZE
100
AcDbText
 10
-74.05714285714293
 20
-147.0690731673353
 30
0.0
 40
64.0
  1
293
 41
0.9
100
AcDbText
  0
LINE
  5
38FB
330
3530
100
AcDbEntity
  8
SIZE
100
AcDbLine
 10
164.0
 20
23.0
 30
0.0
 11
399.8806550064364
 21
22.99999999999989
 31
0.0
  0
LINE
  5
38FC
330
3530
100
AcDbEntity
  8
SIZE
100
AcDbLine
 10
164.0
 20
0.0000000000004547
 30
0.0
 11
399.8806550064364
 21
0.0000000000003411
 31
0.0
  0
LINE
  5
38FD
330
3530
100
AcDbEntity
  8
SIZE
100
AcDbLine
 10
379.8806550064364
 20
-11.99999999999966
 30
0.0
 11
379.8806550064364
 21
-23.99999999999966
 31
0.0
  0
LINE
  5
38FE
330
3530
100
AcDbEntity
  8
SIZE
100
AcDbLine
 10
379.8806550064364
 20
34.99999999999989
 30
0.0
 11
379.8806550064364
 21
160.2571428571459
 31
0.0
  0
LINE
  5
38FF
330
3530
100
AcDbEntity
  8
SIZE
100
AcDbLine
 10
379.8806550064364
 20
0.0000000000003411
 30
0.0
 11
379.8806550064364
 21
22.99999999999989
 31
0.0
  0
INSERT
  5
3900
330
3530
100
AcDbEntity
  8
SIZE
100
AcDbBlockReference
  2
_DOTBLANK
 10
379.8806550064364
 20
0.0000000000003411
 30
0.0
 41
12.0
 42
12.0
 43
12.0
 50
90.0
  0
INSERT
  5
3901
330
3530
100
AcDbEntity
  8
SIZE
100
AcDbBlockReference
  2
_DOTBLANK
 10
379.8806550064364
 20
22.99999999999989
 30
0.0
 41
12.0
 42
12.0
 43
12.0
 50
270.0
  0
TEXT
  5
3902
330
3530
100
AcDbEntity
  8
SIZE
100
AcDbText
 10
369.8806550064364
 20
57.00000000000319
 30
0.0
 40
64.0
  1
23
 50
90.0
 41
0.9
100
AcDbText
  0
LINE
  5
3903
330
3530
100
AcDbEntity
  8
NOTE
100
AcDbLine
 39
50.0
 10
-146.5
 20
-52.0
 30
0.0
 11
-127.5
 21
-52.0
 31
0.0
  0
LINE
  5
3904
330
3530
100
AcDbEntity
  8
OUTLINE
100
AcDbLine
 39
50.0
 10
-146.5
 20
-52.0
 30
0.0
 11
-127.5
 21
-52.0
 31
0.0
  0
LINE
  5
3905
330
3530
100
AcDbEntity
  8
NOTE
100
AcDbLine
 39
50.0
 10
127.5
 20
-52.0
 30
0.0
 11
146.5
 21
-52.0
 31
0.0
  0
LINE
  5
3906
330
3530
100
AcDbEntity
  8
OUTLINE
100
AcDbLine
 39
50.0
 10
127.5
 20
-52.0
 30
0.0
 11
146.5
 21
-52.0
 31
0.0
  0
LINE
  5
3907
330
3530
100
AcDbEntity
  8
NOTE
100
AcDbLine
 39
50.0
 10
-152.5
 20
0.0
 30
0.0
 11
-127.5
 21
0.0
 31
0.0
  0
LINE
  5
3908
330
3530
100
AcDbEntity
  8
NOTE
100
AcDbLine
 39
50.0
 10
127.5
 20
0.0
 30
0.0
 11
152.5
 21
0.0
 31
0.0
  0
LINE
  5
3909
330
3530
100
AcDbEntity
  8
OUTLINE
100
AcDbLine
 39
50.0
 10
-157.5
 20
0.0
 30
0.0
 11
157.5
 21
0.0
 31
0.0
  0
LINE
  5
390A
330
3530
100
AcDbEntity
  8
OUTLINE
100
AcDbLine
 10
-127.5
 20
-51.0
 30
0.0
 11
-127.5
 21
-471.0
 31
0.0
  0
LINE
  5
390B
330
3530
100
AcDbEntity
  8
OUTLINE
100
AcDbLine
 10
127.5
 20
-51.0
 30
0.0
 11
127.5
 21
-471.0
 31
0.0
  0
LINE
  5
390C
330
3530
100
AcDbEntity
  8
OUTLINE
100
AcDbLine
 10
-146.5
 20
-53.0
 30
0.0
 11
-127.5
 21
-53.0
 31
0.0
  0
LINE
  5
390D
330
3530
100
AcDbEntity
  8
OUTLINE
100
AcDbLine
 10
127.5
 20
-53.0
 30
0.0
 11
146.5
 21
-53.0
 31
0.0
  0
LINE
  5
390E
330
3530
100
AcDbEntity
  8
OUTLINE
100
AcDbLine
 10
-157.5
 20
-1.199999999999818
 30
0.0
 11
157.5
 21
-1.199999999999818
 31
0.0
  0
LINE
  5
390F
330
3530
100
AcDbEntity
  8
OUTLINE
100
AcDbLine
 10
-146.5
 20
-52.0
 30
0.0
 11
-146.5
 21
-53.0
 31
0.0
  0
LINE
  5
3910
330
3530
100
AcDbEntity
  8
OUTLINE
100
AcDbLine
 10
-127.5
 20
-1.199999999999818
 30
0.0
 11
-127.5
 21
-51.0
 31
0.0
  0
LINE
  5
3911
330
3530
100
AcDbEntity
  8
OUTLINE
100
AcDbLine
 10
146.5
 20
-52.0
 30
0.0
 11
146.5
 21
-53.0
 31
0.0
  0
LINE
  5
3912
330
3530
100
AcDbEntity
  8
OUTLINE
100
AcDbLine
 10
127.5
 20
-1.199999999999818
 30
0.0
 11
127.5
 21
-51.0
 31
0.0
  0
LINE
  5
3913
330
3530
100
AcDbEntity
  8
OUTLINE
100
AcDbLine
 10
-127.5
 20
-211.0
 30
0.0
 11
127.5
 21
-211.0
 31
0.0
  0
LINE
  5
3914
330
3530
100
AcDbEntity
  8
OUTLINE
100
AcDbLine
 10
-127.5
 20
-471.0
 30
0.0
 11
127.5
 21
-471.0
 31
0.0
  0
LINE
  5
3915
330
3530
100
AcDbEntity
  8
OUTLINE
100
AcDbLine
 10
-144.0
 20
23.0
 30
0.0
 11
-144.0
 21
0.0
 31
0.0
  0
LINE
  5
3916
330
3530
100
AcDbEntity
  8
OUTLINE
100
AcDbLine
 10
-135.9999999999963
 20
23.0
 30
0.0
 11
-135.9999999999963
 21
0.0
 31
0.0
  0
LINE
  5
3917
330
3530
100
AcDbEntity
  8
OUTLINE
100
AcDbLine
 10
-144.0
 20
23.0
 30
0.0
 11
-135.9999999999963
 21
23.0
 31
0.0
  0
LINE
  5
3918
330
3530
100
AcDbEntity
  8
OUTLINE
100
AcDbLine
 10
136.0
 20
23.0
 30
0.0
 11
136.0
 21
0.0
 31
0.0
  0
LINE
  5
3919
330
3530
100
AcDbEntity
  8
OUTLINE
100
AcDbLine
 10
144.0
 20
23.0
 30
0.0
 11
144.0
 21
0.0000000000004547
 31
0.0
  0
LINE
  5
391A
330
3530
100
AcDbEntity
  8
OUTLINE
100
AcDbLine
 10
136.0
 20
23.0
 30
0.0
 11
144.0
 21
23.0
 31
0.0
  0
LINE
  5
391B
330
3530
100
AcDbEntity
  8
OUTLINE
100
AcDbLine
 10
-157.5
 20
0.0
 30
0.0
 11
-157.5
 21
-1.199999999999818
 31
0.0
  0
LINE
  5
391C
330
3530
100
AcDbEntity
  8
OUTLINE
100
AcDbLine
 10
157.5
 20
0.0
 30
0.0
 11
157.5
 21
-1.199999999999818
 31
0.0
  0
LINE
  5
391D
330
3530
100
AcDbEntity
  8
SIZE
100
AcDbLine
 10
177.5
 20
0.0
 30
0.0
 11
291.5931937957103
 21
0.0
 31
0.0
  0
LINE
  5
391E
330
3530
100
AcDbEntity
  8
SIZE
100
AcDbLine
 10
177.5
 20
-1.199999999999818
 30
0.0
 11
291.5931937957103
 21
-1.199999999999818
 31
0.0
  0
LINE
  5
391F
330
3530
100
AcDbEntity
  8
SIZE
100
AcDbLine
 10
271.5931937957102
 20
12.0
 30
0.0
 11
271.5931937957102
 21
24.0
 31
0.0
  0
LINE
  5
3920
330
3530
100
AcDbEntity
  8
SIZE
100
AcDbLine
 10
271.5931937957102
 20
-13.19999999999982
 30
0.0
 11
271.5931937957102
 21
-156.2857142857181
 31
0.0
  0
LINE
  5
3921
330
3530
100
AcDbEntity
  8
SIZE
100
AcDbLine
 10
271.5931937957102
 20
0.0
 30
0.0
 11
271.5931937957102
 21
-1.199999999999818
 31
0.0
  0
INSERT
  5
3922
330
3530
100
AcDbEntity
  8
SIZE
100
AcDbBlockReference
  2
_DOTBLANK
 10
271.5931937957102
 20
0.0
 30
0.0
 41
12.0
 42
12.0
 43
12.0
 50
270.0
  0
INSERT
  5
3923
330
3530
100
AcDbEntity
  8
SIZE
100
AcDbBlockReference
  2
_DOTBLANK
 10
271.5931937957102
 20
-1.199999999999818
 30
0.0
 41
12.0
 42
12.0
 43
12.0
 50
90.0
  0
TEXT
  5
3924
330
3530
100
AcDbEntity
  8
SIZE
100
AcDbText
 10
261.5931937957102
 20
-146.2857142857181
 30
0.0
 40
64.0
  1
1.2
 50
90.0
 41
0.9
100
AcDbText
  0
HATCH
  5
3925
102
{ACAD_XDICTIONARY
360
3926
102
}
330
3530
100
AcDbEntity
  8
DETAIL @ 1
100
AcDbHatch
 10
0.0
 20
0.0
 30
0.0
210
0.0
220
0.0
230
1.0
  2
LINE
 70
     0
 71
     0
 91
        2
 92
        7
 72
     0
 73
     1
 93
        4
 10
-104.2999999999993
 20
-271.0
 10
-111.5
 20
-271.0000000000004
 10
-111.5
 20
-451.4999999999997
 10
-104.3000000000029
 20
-451.5000000000005
 97
        0
 92
        1
 93
        4
 72
     1
 10
-104.3000000000029
 20
-451.5000000000005
 11
111.5
 21
-451.5000000000005
 72
     1
 10
111.5
 20
-451.5000000000005
 11
111.4999999999963
 21
-270.9999999999999
 72
     1
 10
111.4999999999963
 20
-271.0
 11
-104.2999999999993
 21
-271.0
 72
     1
 10
-104.2999999999993
 20
-271.0
 11
-104.3000000000029
 21
-451.5000000000005
 97
        0
 75
     0
 76
     1
 52
33.69
 41
19.969
 77
     0
 78
     1
 53
33.69
 43
20394.55323713928
 44
2281.563116796514
 45
-1.384598579568018
 46
2.076903172775085
 79
     0
 47
0.4531575905072275
 98
        2
 10
-106.9941637797637
 20
-316.394502570322
 10
42.0833088850486
 20
-389.7214214842228
1001
ACAD
1010
0.0
1020
0.0
1030
0.0
1001
ACADANNOTATIVE
1000
AnnotativeData
1002
{
1070
     1
1070
     0
1002
}
  0
HATCH
  5
392B
102
{ACAD_XDICTIONARY
360
392C
102
}
330
3530
100
AcDbEntity
  8
DETAIL @ 1
100
AcDbHatch
 10
0.0
 20
0.0
 30
0.0
210
0.0
220
0.0
230
1.0
  2
LINE
 70
     0
 71
     0
 91
        2
 92
        7
 72
     0
 73
     1
 93
        4
 10
-104.2999999999956
 20
-271.0
 10
-111.5
 20
-271.0
 10
-111.5
 20
-451.4999999999997
 10
-104.3000000000029
 20
-451.5000000000005
 97
        0
 92
        1
 93
        4
 72
     1
 10
-104.2999999999993
 20
-451.4999999999997
 11
111.4999999999963
 21
-451.5000000000005
 72
     1
 10
111.4999999999963
 20
-451.5000000000005
 11
111.5
 21
-270.9999999999999
 72
     1
 10
111.5
 20
-271.0
 11
-104.2999999999993
 21
-271.0
 72
     1
 10
-104.2999999999993
 20
-271.0
 11
-104.2999999999993
 21
-451.4999999999998
 97
        0
 75
     0
 76
     1
 52
326.31
 41
19.969
 77
     0
 78
     1
 53
326.31
 43
20394.55323713928
 44
2281.563116796514
 45
1.384598579568018
 46
2.076903172775085
 79
     0
 47
0.3501528263558984
 98
        2
 10
-107.0085764662544
 20
-319.6955683043057
 10
7.07801823268528
 20
-316.3693230282429
1001
ACAD
1010
0.0
1020
0.0
1030
0.0
1001
ACADANNOTATIVE
1000
AnnotativeData
1002
{
1070
     1
1070
     0
1002
}
  0
LINE
  5
3931
330
3530
100
AcDbEntity
  8
SIZE
100
AcDbLine
 10
177.5
 20
0.0
 30
0.0
 11
399.8806550064369
 21
-0.0000000000001137
 31
0.0
  0
LINE
  5
3932
330
3530
100
AcDbEntity
  8
SIZE
100
AcDbLine
 10
147.5
 20
-471.0
 30
0.0
 11
399.8806550064364
 21
-471.0
 31
0.0
  0
LINE
  5
3933
330
3530
100
AcDbEntity
  8
SIZE
100
AcDbLine
 10
379.8806550064364
 20
-12.00000000000011
 30
0.0
 11
379.8806550064364
 21
-459.0
 31
0.0
  0
INSERT
  5
3934
330
3530
100
AcDbEntity
  8
SIZE
100
AcDbBlockReference
  2
_DOTBLANK
 10
379.8806550064364
 20
-0.0000000000001137
 30
0.0
 41
12.0
 42
12.0
 43
12.0
 50
90.0
  0
INSERT
  5
3935
330
3530
100
AcDbEntity
  8
SIZE
100
AcDbBlockReference
  2
_DOTBLANK
 10
379.8806550064364
 20
-471.0
 30
0.0
 41
12.0
 42
12.0
 43
12.0
 50
270.0
  0
TEXT
  5
3936
330
3530
100
AcDbEntity
  8
SIZE
100
AcDbText
 10
369.8806550064369
 20
-427.5
 30
0.0
 40
64.0
  1
471（最小）
 50
90.0
 41
0.9
100
AcDbText
  0
LINE
  5
3937
330
3530
100
AcDbEntity
  8
OUTLINE
100
AcDbLine
 39
50.0
 10
-127.5
 20
-271.0
 30
0.0
 11
127.5
 21
-271.0
 31
0.0
  0
LINE
  5
3938
330
3530
100
AcDbEntity
  8
DETAIL
  6
DASHED
100
AcDbLine
 10
-127.5
 20
-171.0
 30
0.0
 11
-127.5
 21
-591.0
 31
0.0
  0
LINE
  5
3939
330
3530
100
AcDbEntity
  8
DETAIL
  6
DASHED
100
AcDbLine
 10
127.5
 20
-171.0
 30
0.0
 11
127.5
 21
-591.0
 31
0.0
  0
LINE
  5
393A
330
3530
100
AcDbEntity
  8
DETAIL
  6
DASHED
100
AcDbLine
 10
-146.5
 20
-172.0
 30
0.0
 11
-127.5
 21
-172.0
 31
0.0
  0
LINE
  5
393B
330
3530
100
AcDbEntity
  8
DETAIL
  6
DASHED
100
AcDbLine
 10
127.5
 20
-172.0
 30
0.0
 11
146.5
 21
-172.0
 31
0.0
  0
LINE
  5
393C
330
3530
100
AcDbEntity
  8
DETAIL
  6
DASHED
100
AcDbLine
 10
-146.5
 20
-173.0
 30
0.0
 11
-127.5
 21
-173.0
 31
0.0
  0
LINE
  5
393D
330
3530
100
AcDbEntity
  8
DETAIL
  6
DASHED
100
AcDbLine
 10
127.5
 20
-173.0
 30
0.0
 11
146.5
 21
-173.0
 31
0.0
  0
LINE
  5
393E
330
3530
100
AcDbEntity
  8
DETAIL
  6
DASHED
100
AcDbLine
 10
-146.5
 20
-172.0
 30
0.0
 11
-146.5
 21
-173.0
 31
0.0
  0
LINE
  5
393F
330
3530
100
AcDbEntity
  8
DETAIL
  6
DASHED
100
AcDbLine
 10
-127.5
 20
-121.1999999999998
 30
0.0
 11
-127.5
 21
-171.0
 31
0.0
  0
LINE
  5
3940
330
3530
100
AcDbEntity
  8
DETAIL
  6
DASHED
100
AcDbLine
 10
146.5
 20
-172.0
 30
0.0
 11
146.5
 21
-173.0
 31
0.0
  0
LINE
  5
3941
330
3530
100
AcDbEntity
  8
DETAIL
  6
DASHED
100
AcDbLine
 10
127.5
 20
-121.1999999999998
 30
0.0
 11
127.5
 21
-171.0
 31
0.0
  0
LINE
  5
3942
330
3530
100
AcDbEntity
  8
DETAIL
  6
DASHED
100
AcDbLine
 10
-127.5
 20
-331.0
 30
0.0
 11
127.5
 21
-331.0
 31
0.0
  0
LINE
  5
3943
330
3530
100
AcDbEntity
  8
DETAIL
  6
DASHED
100
AcDbLine
 10
-127.5
 20
-591.0
 30
0.0
 11
127.5
 21
-591.0
 31
0.0
  0
LINE
  5
3944
330
3530
100
AcDbEntity
  8
DETAIL
  6
DASHED
100
AcDbLine
 10
127.5
 20
-391.0
 30
0.0
 11
-127.5
 21
-391.0
 31
0.0
  0
LINE
  5
3945
330
3530
100
AcDbEntity
  8
DETAIL
  6
DASHED
100
AcDbLine
 10
111.5
 20
-391.0
 30
0.0
 11
-111.5
 21
-391.0
 31
0.0
  0
LINE
  5
3946
330
3530
100
AcDbEntity
  8
DETAIL
  6
DASHED
100
AcDbLine
 10
-111.5
 20
-571.4999999999998
 30
0.0
 11
111.5
 21
-571.4999999999998
 31
0.0
  0
LINE
  5
3947
330
3530
100
AcDbEntity
  8
DETAIL
  6
DASHED
100
AcDbLine
 10
-111.5
 20
-391.0
 30
0.0
 11
-111.5
 21
-571.4999999999998
 31
0.0
  0
LINE
  5
3948
330
3530
100
AcDbEntity
  8
DETAIL
  6
DASHED
100
AcDbLine
 10
111.5
 20
-391.0
 30
0.0
 11
111.5
 21
-571.4999999999998
 31
0.0
  0
ENDSEC
  0
SECTION
  2
OBJECTS
  0
DICTIONARY
  5
34C8
330
0
100
AcDbDictionary
281
     1
  3
ACAD_2007HEADERVARS_RT
350
3952
  3
ACAD_COLOR
350
3526
  3
ACAD_GROUP
350
34C9
  3
ACAD_LAYOUT
350
3525
  3
ACAD_MATERIAL
350
34CC
  3
ACAD_MLEADERSTYLE
350
3529
  3
ACAD_MLINESTYLE
350
3522
  3
ACAD_PLOTSETTINGS
350
3524
  3
ACAD_PLOTSTYLENAME
350
34CA
  3
ACAD_SCALELIST
350
34F6
  3
ACAD_TABLESTYLE
350
3527
  3
ACAD_VISUALSTYLE
350
34E5
  3
ACDB_RECOMPOSE_DATA
350
3722
  3
AcDbVariableDictionary
350
3719
  3
AcmDictionary
350
36C9
  3
AMG
350
3616
  3
AMGSNAPSETTINGS
350
38B0
  3
DWGPROPS
350
3951
  0
DICTIONARY
  5
3817
330
34BE
100
AcDbDictionary
280
     1
281
     1
  3
ACAD_LAYERSTATES
360
3818
  0
DICTIONARY
  5
36F1
330
3518
100
AcDbDictionary
280
     1
281
     1
  3
ADSK_XREC_LAYER_RECONCILED
360
36F2
  0
DICTIONARY
  5
36F3
330
3547
100
AcDbDictionary
280
     1
281
     1
  3
ADSK_XREC_LAYER_RECONCILED
360
36F4
  0
DICTIONARY
  5
36F5
330
3548
100
AcDbDictionary
280
     1
281
     1
  3
ADSK_XREC_LAYER_RECONCILED
360
36F6
  0
DICTIONARY
  5
36F7
330
3549
100
AcDbDictionary
280
     1
281
     1
  3
ADSK_XREC_LAYER_RECONCILED
360
36F8
  0
DICTIONARY
  5
36F9
330
354A
100
AcDbDictionary
280
     1
281
     1
  3
ADSK_XREC_LAYER_RECONCILED
360
36FA
  0
DICTIONARY
  5
36FB
330
354B
100
AcDbDictionary
280
     1
281
     1
  3
ADSK_XREC_LAYER_RECONCILED
360
36FC
  0
DICTIONARY
  5
36FD
330
354D
100
AcDbDictionary
280
     1
281
     1
  3
ADSK_XREC_LAYER_RECONCILED
360
36FE
  0
DICTIONARY
  5
36FF
330
354E
100
AcDbDictionary
280
     1
281
     1
  3
ADSK_XREC_LAYER_RECONCILED
360
3700
  0
DICTIONARY
  5
3701
330
354F
100
AcDbDictionary
280
     1
281
     1
  3
ADSK_XREC_LAYER_RECONCILED
360
3702
  0
DICTIONARY
  5
3703
330
3550
100
AcDbDictionary
280
     1
281
     1
  3
ADSK_XREC_LAYER_RECONCILED
360
3704
  0
DICTIONARY
  5
3705
330
3551
100
AcDbDictionary
280
     1
281
     1
  3
ADSK_XREC_LAYER_RECONCILED
360
3706
  0
DICTIONARY
  5
3707
330
3552
100
AcDbDictionary
280
     1
281
     1
  3
ADSK_XREC_LAYER_RECONCILED
360
3708
  0
DICTIONARY
  5
394F
330
394E
100
AcDbDictionary
280
     1
281
     1
  3
ASDK_XREC_ANNO_SCALE_INFO
360
3950
  0
DICTIONARY
  5
3709
330
3530
100
AcDbDictionary
280
     1
281
     1
  3
ACAD_INDEX
360
370A
  0
DICTIONARY
  5
3926
330
3925
100
AcDbDictionary
280
     1
281
     1
  3
AcDbContextDataManager
360
3927
  0
DICTIONARY
  5
392C
330
392B
100
AcDbDictionary
280
     1
281
     1
  3
AcDbContextDataManager
360
392D
  0
DICTIONARY
  5
3952
102
{ACAD_REACTORS
330
34C8
102
}
330
34C8
100
AcDbDictionary
281
     1
  3
DIMARCSYM
350
3953
  3
DIMLTEX1
350
3955
  3
DIMLTEX2
350
3956
  3
DIMLTYPE
350
3954
  0
DICTIONARY
  5
3526
102
{ACAD_REACTORS
330
34C8
102
}
330
34C8
100
AcDbDictionary
281
     1
  0
DICTIONARY
  5
34C9
102
{ACAD_REACTORS
330
34C8
102
}
330
34C8
100
AcDbDictionary
281
     1
  0
DICTIONARY
  5
3525
102
{ACAD_REACTORS
330
34C8
102
}
330
34C8
100
AcDbDictionary
281
     1
  3
Model
350
3533
  3
レイアウト1
350
352F
  0
DICTIONARY
  5
34CC
102
{ACAD_REACTORS
330
34C8
102
}
330
34C8
100
AcDbDictionary
281
     1
  3
ByBlock
350
34D5
  3
ByLayer
350
34CD
  3
Global
350
34DD
  0
DICTIONARY
  5
3529
102
{ACAD_REACTORS
330
34C8
102
}
330
34C8
100
AcDbDictionary
281
     1
  3
Standard
350
352A
  0
DICTIONARY
  5
3522
102
{ACAD_REACTORS
330
34C8
102
}
330
34C8
100
AcDbDictionary
281
     1
  3
Standard
350
3523
  0
DICTIONARY
  5
3524
102
{ACAD_REACTORS
330
34C8
102
}
330
34C8
100
AcDbDictionary
281
     1
  0
ACDBDICTIONARYWDFLT
  5
34CA
102
{ACAD_REACTORS
330
34C8
102
}
330
34C8
100
AcDbDictionary
281
     1
  3
Normal
350
34CB
100
AcDbDictionaryWithDefault
340
34CB
  0
DICTIONARY
  5
34F6
102
{ACAD_REACTORS
330
34C8
102
}
330
34C8
100
AcDbDictionary
281
     1
  3
A0
350
34F7
  3
A1
350
34F8
  3
A2
350
34F9
  3
A3
350
34FA
  3
A4
350
34FB
  3
A5
350
34FC
  3
A6
350
34FD
  3
A7
350
34FE
  3
A8
350
34FF
  3
A9
350
3500
  3
B0
350
3501
  3
B1
350
3502
  3
B2
350
3503
  3
B3
350
3504
  3
B4
350
3505
  3
B5
350
3506
  3
B6
350
3507
  3
B7
350
3508
  3
B8
350
3509
  3
B9
350
350A
  3
C0
350
350B
  3
C1
350
350C
  3
C2
350
350D
  3
C3
350
350E
  3
C4
350
350F
  3
C5
350
3510
  3
C6
350
3511
  3
C7
350
3512
  3
C8
350
3513
  3
C9
350
3514
  3
D0
350
3515
  3
D1
350
3516
  3
D2
350
3517
  0
DICTIONARY
  5
3527
102
{ACAD_REACTORS
330
34C8
102
}
330
34C8
100
AcDbDictionary
281
     1
  3
Standard
350
3528
  0
DICTIONARY
  5
34E5
102
{ACAD_REACTORS
330
34C8
102
}
330
34C8
100
AcDbDictionary
281
     1
  3
2dWireframe
350
34EB
  3
3D Hidden
350
34ED
  3
3dWireframe
350
34EC
  3
Basic
350
34EA
  3
Brighten
350
34F1
  3
ColorChange
350
34F5
  3
Conceptual
350
34EE
  3
Dim
350
34F0
  3
Facepattern
350
34F4
  3
Flat
350
34E6
  3
FlatWithEdges
350
34E7
  3
Gouraud
350
34E8
  3
GouraudWithEdges
350
34E9
  3
Linepattern
350
34F3
  3
Realistic
350
34EF
  3
Thicken
350
34F2
  0
XRECORD
  5
3722
102
{ACAD_REACTORS
330
34C8
102
}
330
34C8
100
AcDbXrecord
280
     1
 90
        1
330
3528
330
3925
330
392B
  0
DICTIONARY
  5
3719
102
{ACAD_REACTORS
330
34C8
102
}
330
34C8
100
AcDbDictionary
281
     1
  3
CANNOSCALE
350
371C
  3
CMLEADERSTYLE
350
371B
  3
CTABLESTYLE
350
371A
  3
DIMASSOC
350
371F
  3
INDEXCTL
350
371E
  3
SORTENTS
350
371D
  0
DICTIONARY
  5
36C9
102
{ACAD_REACTORS
330
34C8
102
}
330
34C8
100
AcDbDictionary
281
     1
  3
AcmStdDictionary
350
36D7
  0
DICTIONARY
  5
3616
102
{ACAD_REACTORS
330
34C8
102
}
330
34C8
100
AcDbDictionary
281
     1
  3
AcMgSettings
350
3617
  0
DICTIONARY
  5
38B0
102
{ACAD_REACTORS
330
34C8
102
}
330
34C8
100
AcDbDictionary
281
     1
  3
DIMENSION
350
38B5
  3
FEA
350
38B4
  3
HATCH (1)
350
38B1
  3
HATCH (2)
350
38B2
  3
SIMPLE WELD
350
38B6
  3
SYMBOLS
350
38B3
  0
XRECORD
  5
3951
102
{ACAD_REACTORS
330
34C8
102
}
330
34C8
100
AcDbXrecord
280
     1
  1
DWGPROPS COOKIE
  2

  3

  4

  6

  7

  8
A090053
  9

300
AmdtFileType=84
301
=
302
=
303
=
304
=
305
=
306
=
307
=
308
=
309
=
 40
1.044906215277777
 41
2452321.396199653
 42
2456217.473077511
  1

 90
        1
  0
DICTIONARY
  5
3818
102
{ACAD_REACTORS
330
3817
102
}
330
3817
100
AcDbDictionary
281
     1
  0
XRECORD
  5
36F2
102
{ACAD_REACTORS
330
36F1
102
}
330
36F1
100
AcDbXrecord
280
     1
290
     1
  0
XRECORD
  5
36F4
102
{ACAD_REACTORS
330
36F3
102
}
330
36F3
100
AcDbXrecord
280
     1
290
     1
  0
XRECORD
  5
36F6
102
{ACAD_REACTORS
330
36F5
102
}
330
36F5
100
AcDbXrecord
280
     1
290
     1
  0
XRECORD
  5
36F8
102
{ACAD_REACTORS
330
36F7
102
}
330
36F7
100
AcDbXrecord
280
     1
290
     1
  0
XRECORD
  5
36FA
102
{ACAD_REACTORS
330
36F9
102
}
330
36F9
100
AcDbXrecord
280
     1
290
     1
  0
XRECORD
  5
36FC
102
{ACAD_REACTORS
330
36FB
102
}
330
36FB
100
AcDbXrecord
280
     1
290
     1
  0
XRECORD
  5
36FE
102
{ACAD_REACTORS
330
36FD
102
}
330
36FD
100
AcDbXrecord
280
     1
290
     1
  0
XRECORD
  5
3700
102
{ACAD_REACTORS
330
36FF
102
}
330
36FF
100
AcDbXrecord
280
     1
290
     1
  0
XRECORD
  5
3702
102
{ACAD_REACTORS
330
3701
102
}
330
3701
100
AcDbXrecord
280
     1
290
     1
  0
XRECORD
  5
3704
102
{ACAD_REACTORS
330
3703
102
}
330
3703
100
AcDbXrecord
280
     1
290
     1
  0
XRECORD
  5
3706
102
{ACAD_REACTORS
330
3705
102
}
330
3705
100
AcDbXrecord
280
     1
290
     1
  0
XRECORD
  5
3708
102
{ACAD_REACTORS
330
3707
102
}
330
3707
100
AcDbXrecord
280
     1
290
     1
  0
XRECORD
  5
3950
102
{ACAD_REACTORS
330
394F
102
}
330
394F
100
AcDbXrecord
280
     1
 70
     1
340
34F7
340
354A
 70
    -1
  0
DICTIONARY
  5
370A
102
{ACAD_REACTORS
330
3709
102
}
330
3709
100
AcDbDictionary
281
     1
  3
*A1
350
370B
  0
DICTIONARY
  5
3927
102
{ACAD_REACTORS
330
3926
102
}
330
3926
100
AcDbDictionary
281
     1
  3
ACDB_ANNOTATIONSCALE_VIEW_COLLECTION
350
3928
  3
ACDB_ANNOTATIONSCALES
350
3929
  0
DICTIONARY
  5
392D
102
{ACAD_REACTORS
330
392C
102
}
330
392C
100
AcDbDictionary
281
     1
  3
ACDB_ANNOTATIONSCALE_VIEW_COLLECTION
350
392E
  3
ACDB_ANNOTATIONSCALES
350
392F
  0
XRECORD
  5
3953
102
{ACAD_REACTORS
330
3952
102
}
330
3952
100
AcDbXrecord
280
     1
 70
     1
  0
XRECORD
  5
3955
102
{ACAD_REACTORS
330
3952
102
}
330
3952
100
AcDbXrecord
280
     1
340
351E
  0
XRECORD
  5
3956
102
{ACAD_REACTORS
330
3952
102
}
330
3952
100
AcDbXrecord
280
     1
340
351E
  0
XRECORD
  5
3954
102
{ACAD_REACTORS
330
3952
102
}
330
3952
100
AcDbXrecord
280
     1
340
351E
  0
LAYOUT
  5
3533
102
{ACAD_XDICTIONARY
360
395A
102
}
102
{ACAD_REACTORS
330
3525
102
}
330
3525
100
AcDbPlotSettings
  1

  2
自動 EPSON LP-9600S (W2450527 上)
  4

  6

 40
0.0
 41
0.0
 42
0.0
 43
0.0
 44
0.0
 45
0.0
 46
0.0
 47
0.0
 48
0.0
 49
0.0
140
0.0
141
0.0
142
1.0
143
1.0
 70
  1712
 72
     0
 73
     0
 74
     0
  7

 75
     0
147
1.0
148
0.0
149
0.0
100
AcDbLayout
  1
Model
 70
     1
 71
     0
 10
0.0
 20
0.0
 11
12.0
 21
9.0
 12
0.0
 22
0.0
 32
0.0
 14
0.0
 24
0.0
 34
0.0
 15
0.0
 25
0.0
 35
0.0
146
0.0
 13
0.0
 23
0.0
 33
0.0
 16
1.0
 26
0.0
 36
0.0
 17
0.0
 27
1.0
 37
0.0
 76
     0
330
3530
331
3534
  0
LAYOUT
  5
352F
102
{ACAD_XDICTIONARY
360
3958
102
}
102
{ACAD_REACTORS
330
3525
102
}
330
3525
100
AcDbPlotSettings
  1

  2
自動 EPSON LP-9600S (W2450527 上)
  4

  6

 40
0.0
 41
0.0
 42
0.0
 43
0.0
 44
0.0
 45
0.0
 46
0.0
 47
0.0
 48
0.0
 49
0.0
140
0.0
141
0.0
142
1.0
143
1.0
 70
   688
 72
     0
 73
     0
 74
     5
  7

 75
    16
147
1.0
148
0.0
149
0.0
100
AcDbLayout
  1
レイアウト1
 70
     1
 71
     1
 10
0.0
 20
0.0
 11
12.0
 21
9.0
 12
0.0
 22
0.0
 32
0.0
 14
1.000000000000000E+20
 24
1.000000000000000E+20
 34
1.000000000000000E+20
 15
-1.000000000000000E+20
 25
-1.000000000000000E+20
 35
-1.000000000000000E+20
146
0.0
 13
0.0
 23
0.0
 33
0.0
 16
1.0
 26
0.0
 36
0.0
 17
0.0
 27
1.0
 37
0.0
 76
     0
330
352C
  0
MATERIAL
  5
34D5
102
{ACAD_XDICTIONARY
360
34D6
102
}
102
{ACAD_REACTORS
330
34CC
102
}
330
34CC
100
AcDbMaterial
  1
ByBlock
 72
     0
 43
0.0208333333333333
 43
0.0
 43
0.0
 43
0.0
 43
0.0
 43
0.0208333333333333
 43
0.0
 43
0.0
 43
0.0
 43
0.0
 43
1.0
 43
0.0
 43
0.0
 43
0.0
 43
0.0
 43
1.0
 77
     0
 47
0.0208333333333333
 47
0.0
 47
0.0
 47
0.0
 47
0.0
 47
0.0208333333333333
 47
0.0
 47
0.0
 47
0.0
 47
0.0
 47
1.0
 47
0.0
 47
0.0
 47
0.0
 47
0.0
 47
1.0
171
     0
 49
0.0208333333333333
 49
0.0
 49
0.0
 49
0.0
 49
0.0
 49
0.0208333333333333
 49
0.0
 49
0.0
 49
0.0
 49
0.0
 49
1.0
 49
0.0
 49
0.0
 49
0.0
 49
0.0
 49
1.0
175
     0
142
0.0208333333333333
142
0.0
142
0.0
142
0.0
142
0.0
142
0.0208333333333333
142
0.0
142
0.0
142
0.0
142
0.0
142
1.0
142
0.0
142
0.0
142
0.0
142
0.0
142
1.0
179
     0
144
0.0208333333333333
144
0.0
144
0.0
144
0.0
144
0.0
144
0.0208333333333333
144
0.0
144
0.0
144
0.0
144
0.0
144
1.0
144
0.0
144
0.0
144
0.0
144
0.0
144
1.0
147
0.0208333333333333
147
0.0
147
0.0
147
0.0
147
0.0
147
0.0208333333333333
147
0.0
147
0.0
147
0.0
147
0.0
147
1.0
147
0.0
147
0.0
147
0.0
147
0.0
147
1.0
  0
MATERIAL
  5
34CD
102
{ACAD_XDICTIONARY
360
34CE
102
}
102
{ACAD_REACTORS
330
34CC
102
}
330
34CC
100
AcDbMaterial
  1
ByLayer
 72
     0
 43
0.0208333333333333
 43
0.0
 43
0.0
 43
0.0
 43
0.0
 43
0.0208333333333333
 43
0.0
 43
0.0
 43
0.0
 43
0.0
 43
1.0
 43
0.0
 43
0.0
 43
0.0
 43
0.0
 43
1.0
 77
     0
 47
0.0208333333333333
 47
0.0
 47
0.0
 47
0.0
 47
0.0
 47
0.0208333333333333
 47
0.0
 47
0.0
 47
0.0
 47
0.0
 47
1.0
 47
0.0
 47
0.0
 47
0.0
 47
0.0
 47
1.0
171
     0
 49
0.0208333333333333
 49
0.0
 49
0.0
 49
0.0
 49
0.0
 49
0.0208333333333333
 49
0.0
 49
0.0
 49
0.0
 49
0.0
 49
1.0
 49
0.0
 49
0.0
 49
0.0
 49
0.0
 49
1.0
175
     0
142
0.0208333333333333
142
0.0
142
0.0
142
0.0
142
0.0
142
0.0208333333333333
142
0.0
142
0.0
142
0.0
142
0.0
142
1.0
142
0.0
142
0.0
142
0.0
142
0.0
142
1.0
179
     0
144
0.0208333333333333
144
0.0
144
0.0
144
0.0
144
0.0
144
0.0208333333333333
144
0.0
144
0.0
144
0.0
144
0.0
144
1.0
144
0.0
144
0.0
144
0.0
144
0.0
144
1.0
147
0.0208333333333333
147
0.0
147
0.0
147
0.0
147
0.0
147
0.0208333333333333
147
0.0
147
0.0
147
0.0
147
0.0
147
1.0
147
0.0
147
0.0
147
0.0
147
0.0
147
1.0
  0
MATERIAL
  5
34DD
102
{ACAD_XDICTIONARY
360
34DE
102
}
102
{ACAD_REACTORS
330
34CC
102
}
330
34CC
100
AcDbMaterial
  1
Global
 72
     0
 43
0.0208333333333333
 43
0.0
 43
0.0
 43
0.0
 43
0.0
 43
0.0208333333333333
 43
0.0
 43
0.0
 43
0.0
 43
0.0
 43
1.0
 43
0.0
 43
0.0
 43
0.0
 43
0.0
 43
1.0
 77
     0
 47
0.0208333333333333
 47
0.0
 47
0.0
 47
0.0
 47
0.0
 47
0.0208333333333333
 47
0.0
 47
0.0
 47
0.0
 47
0.0
 47
1.0
 47
0.0
 47
0.0
 47
0.0
 47
0.0
 47
1.0
171
     0
 49
0.0208333333333333
 49
0.0
 49
0.0
 49
0.0
 49
0.0
 49
0.0208333333333333
 49
0.0
 49
0.0
 49
0.0
 49
0.0
 49
1.0
 49
0.0
 49
0.0
 49
0.0
 49
0.0
 49
1.0
175
     0
142
0.0208333333333333
142
0.0
142
0.0
142
0.0
142
0.0
142
0.0208333333333333
142
0.0
142
0.0
142
0.0
142
0.0
142
1.0
142
0.0
142
0.0
142
0.0
142
0.0
142
1.0
179
     0
144
0.0208333333333333
144
0.0
144
0.0
144
0.0
144
0.0
144
0.0208333333333333
144
0.0
144
0.0
144
0.0
144
0.0
144
1.0
144
0.0
144
0.0
144
0.0
144
0.0
144
1.0
147
0.0208333333333333
147
0.0
147
0.0
147
0.0
147
0.0
147
0.0208333333333333
147
0.0
147
0.0
147
0.0
147
0.0
147
1.0
147
0.0
147
0.0
147
0.0
147
0.0
147
1.0
  0
MLEADERSTYLE
  5
352A
102
{ACAD_REACTORS
330
3529
102
}
330
3529
100
AcDbMLeaderStyle
170
     2
171
     1
172
     0
 90
        2
 40
0.0
 41
0.0
173
     1
 91
-1056964608
340
351E
 92
       -2
290
     1
 42
0.09
291
     1
 43
0.36
  3
Standard
 44
0.18
300

342
3519
174
     1
178
     6
175
     1
176
     0
 93
-1056964608
 45
0.18
292
     0
297
     0
 46
0.18
 94
-1056964608
 47
1.0
 49
1.0
140
1.0
293
     1
141
0.0
294
     1
177
     0
142
1.0
295
     0
296
     0
143
0.125
1001
ACAD_MLEADERVER
1070
     2
  0
MLINESTYLE
  5
3523
102
{ACAD_REACTORS
330
3522
102
}
330
3522
100
AcDbMlineStyle
  2
STANDARD
 70
     0
  3

 62
   256
 51
90.0
 52
90.0
 71
     2
 49
0.5
 62
   256
  6
BYLAYER
 49
-0.5
 62
   256
  6
BYLAYER
  0
ACDBPLACEHOLDER
  5
34CB
102
{ACAD_REACTORS
330
34CA
102
}
330
34CA
  0
SCALE
  5
34F7
102
{ACAD_REACTORS
330
34F6
102
}
330
34F6
100
AcDbScale
 70
     0
300
1:1
140
1.0
141
1.0
290
     1
  0
SCALE
  5
34F8
102
{ACAD_REACTORS
330
34F6
102
}
330
34F6
100
AcDbScale
 70
     0
300
1:2
140
1.0
141
2.0
290
     0
  0
SCALE
  5
34F9
102
{ACAD_REACTORS
330
34F6
102
}
330
34F6
100
AcDbScale
 70
     0
300
1:4
140
1.0
141
4.0
290
     0
  0
SCALE
  5
34FA
102
{ACAD_REACTORS
330
34F6
102
}
330
34F6
100
AcDbScale
 70
     0
300
1:5
140
1.0
141
5.0
290
     0
  0
SCALE
  5
34FB
102
{ACAD_REACTORS
330
34F6
102
}
330
34F6
100
AcDbScale
 70
     0
300
1:8
140
1.0
141
8.0
290
     0
  0
SCALE
  5
34FC
102
{ACAD_REACTORS
330
34F6
102
}
330
34F6
100
AcDbScale
 70
     0
300
1:10
140
1.0
141
10.0
290
     0
  0
SCALE
  5
34FD
102
{ACAD_REACTORS
330
34F6
102
}
330
34F6
100
AcDbScale
 70
     0
300
1:16
140
1.0
141
16.0
290
     0
  0
SCALE
  5
34FE
102
{ACAD_REACTORS
330
34F6
102
}
330
34F6
100
AcDbScale
 70
     0
300
1:20
140
1.0
141
20.0
290
     0
  0
SCALE
  5
34FF
102
{ACAD_REACTORS
330
34F6
102
}
330
34F6
100
AcDbScale
 70
     0
300
1:30
140
1.0
141
30.0
290
     0
  0
SCALE
  5
3500
102
{ACAD_REACTORS
330
34F6
102
}
330
34F6
100
AcDbScale
 70
     0
300
1:40
140
1.0
141
40.0
290
     0
  0
SCALE
  5
3501
102
{ACAD_REACTORS
330
34F6
102
}
330
34F6
100
AcDbScale
 70
     0
300
1:50
140
1.0
141
50.0
290
     0
  0
SCALE
  5
3502
102
{ACAD_REACTORS
330
34F6
102
}
330
34F6
100
AcDbScale
 70
     0
300
1:100
140
1.0
141
100.0
290
     0
  0
SCALE
  5
3503
102
{ACAD_REACTORS
330
34F6
102
}
330
34F6
100
AcDbScale
 70
     0
300
2:1
140
2.0
141
1.0
290
     0
  0
SCALE
  5
3504
102
{ACAD_REACTORS
330
34F6
102
}
330
34F6
100
AcDbScale
 70
     0
300
4:1
140
4.0
141
1.0
290
     0
  0
SCALE
  5
3505
102
{ACAD_REACTORS
330
34F6
102
}
330
34F6
100
AcDbScale
 70
     0
300
8:1
140
8.0
141
1.0
290
     0
  0
SCALE
  5
3506
102
{ACAD_REACTORS
330
34F6
102
}
330
34F6
100
AcDbScale
 70
     0
300
10:1
140
10.0
141
1.0
290
     0
  0
SCALE
  5
3507
102
{ACAD_REACTORS
330
34F6
102
}
330
34F6
100
AcDbScale
 70
     0
300
100:1
140
100.0
141
1.0
290
     0
  0
SCALE
  5
3508
102
{ACAD_REACTORS
330
34F6
102
}
330
34F6
100
AcDbScale
 70
     0
300
1/128" = 1'-0"
140
0.0078125
141
12.0
290
     0
  0
SCALE
  5
3509
102
{ACAD_REACTORS
330
34F6
102
}
330
34F6
100
AcDbScale
 70
     0
300
1/64" = 1'-0"
140
0.015625
141
12.0
290
     0
  0
SCALE
  5
350A
102
{ACAD_REACTORS
330
34F6
102
}
330
34F6
100
AcDbScale
 70
     0
300
1/32" = 1'-0"
140
0.03125
141
12.0
290
     0
  0
SCALE
  5
350B
102
{ACAD_REACTORS
330
34F6
102
}
330
34F6
100
AcDbScale
 70
     0
300
1/16" = 1'-0"
140
0.0625
141
12.0
290
     0
  0
SCALE
  5
350C
102
{ACAD_REACTORS
330
34F6
102
}
330
34F6
100
AcDbScale
 70
     0
300
3/32" = 1'-0"
140
0.09375
141
12.0
290
     0
  0
SCALE
  5
350D
102
{ACAD_REACTORS
330
34F6
102
}
330
34F6
100
AcDbScale
 70
     0
300
1/8" = 1'-0"
140
0.125
141
12.0
290
     0
  0
SCALE
  5
350E
102
{ACAD_REACTORS
330
34F6
102
}
330
34F6
100
AcDbScale
 70
     0
300
3/16" = 1'-0"
140
0.1875
141
12.0
290
     0
  0
SCALE
  5
350F
102
{ACAD_REACTORS
330
34F6
102
}
330
34F6
100
AcDbScale
 70
     0
300
1/4" = 1'-0"
140
0.25
141
12.0
290
     0
  0
SCALE
  5
3510
102
{ACAD_REACTORS
330
34F6
102
}
330
34F6
100
AcDbScale
 70
     0
300
3/8" = 1'-0"
140
0.375
141
12.0
290
     0
  0
SCALE
  5
3511
102
{ACAD_REACTORS
330
34F6
102
}
330
34F6
100
AcDbScale
 70
     0
300
1/2" = 1'-0"
140
0.5
141
12.0
290
     0
  0
SCALE
  5
3512
102
{ACAD_REACTORS
330
34F6
102
}
330
34F6
100
AcDbScale
 70
     0
300
3/4" = 1'-0"
140
0.75
141
12.0
290
     0
  0
SCALE
  5
3513
102
{ACAD_REACTORS
330
34F6
102
}
330
34F6
100
AcDbScale
 70
     0
300
1" = 1'-0"
140
1.0
141
12.0
290
     0
  0
SCALE
  5
3514
102
{ACAD_REACTORS
330
34F6
102
}
330
34F6
100
AcDbScale
 70
     0
300
1-1/2" = 1'-0"
140
1.5
141
12.0
290
     0
  0
SCALE
  5
3515
102
{ACAD_REACTORS
330
34F6
102
}
330
34F6
100
AcDbScale
 70
     0
300
3" = 1'-0"
140
3.0
141
12.0
290
     0
  0
SCALE
  5
3516
102
{ACAD_REACTORS
330
34F6
102
}
330
34F6
100
AcDbScale
 70
     0
300
6" = 1'-0"
140
6.0
141
12.0
290
     0
  0
SCALE
  5
3517
102
{ACAD_REACTORS
330
34F6
102
}
330
34F6
100
AcDbScale
 70
     0
300
1'-0" = 1'-0"
140
12.0
141
12.0
290
     0
  0
TABLESTYLE
  5
3528
102
{ACAD_XDICTIONARY
360
3720
102
}
102
{ACAD_REACTORS
330
3527
102
}
330
3527
100
AcDbTableStyle
  3
Standard
 70
     0
 71
     0
 40
0.06
 41
0.06
280
     0
281
     0
  7
STANDARD
140
0.18
170
     2
 62
     0
 63
     7
283
     0
274
    -2
284
     1
 64
     0
275
    -2
285
     1
 65
     0
276
    -2
286
     1
 66
     0
277
    -2
287
     1
 67
     0
278
    -2
288
     1
 68
     0
279
    -2
289
     1
 69
     0
  7
STANDARD
140
0.25
170
     5
 62
     0
 63
     7
283
     0
274
    -2
284
     1
 64
     0
275
    -2
285
     1
 65
     0
276
    -2
286
     1
 66
     0
277
    -2
287
     1
 67
     0
278
    -2
288
     1
 68
     0
279
    -2
289
     1
 69
     0
  7
STANDARD
140
0.18
170
     5
 62
     0
 63
     7
283
     0
274
    -2
284
     1
 64
     0
275
    -2
285
     1
 65
     0
276
    -2
286
     1
 66
     0
277
    -2
287
     1
 67
     0
278
    -2
288
     1
 68
     0
279
    -2
289
     1
 69
     0
  0
VISUALSTYLE
  5
34EB
102
{ACAD_REACTORS
330
34E5
102
}
330
34E5
100
AcDbVisualStyle
  2
2dWireframe
 70
     4
 71
     0
 72
     2
 73
     0
 90
        0
 40
-0.6
 41
-30.0
 62
     5
 63
     7
 74
     1
 91
        4
 64
     7
 65
   257
 75
     1
175
     1
 42
1.0
 92
        0
 66
   257
 43
1.0
 76
     1
 77
     6
 78
     2
 67
     7
 79
     5
170
     0
171
     0
290
     0
174
     0
 93
        1
 44
0.0
173
     0
291
     0
 45
0.0
1001
ACAD
1000
AcDbSavedByObjectVersion
1070
     0
1000
AcDbSavedByObjectVersion
1070
     0
  0
VISUALSTYLE
  5
34ED
102
{ACAD_REACTORS
330
34E5
102
}
330
34E5
100
AcDbVisualStyle
  2
3D Hidden
 70
     6
 71
     1
 72
     2
 73
     2
 90
        0
 40
-0.6
 41
-30.0
 62
     5
 63
     7
 74
     2
 91
        2
 64
     7
 65
   257
 75
     2
175
     1
 42
40.0
 92
        0
 66
   257
 43
1.0
 76
     1
 77
     6
 78
     2
 67
     7
 79
     3
170
     0
171
     0
290
     0
174
     0
 93
        1
 44
0.0
173
     0
291
     0
 45
0.0
1001
ACAD
1000
AcDbSavedByObjectVersion
1070
     0
1000
AcDbSavedByObjectVersion
1070
     0
  0
VISUALSTYLE
  5
34EC
102
{ACAD_REACTORS
330
34E5
102
}
330
34E5
100
AcDbVisualStyle
  2
3dWireframe
 70
     5
 71
     0
 72
     2
 73
     0
 90
        0
 40
-0.6
 41
-30.0
 62
     5
 63
     7
 74
     1
 91
        4
 64
     7
 65
   257
 75
     1
175
     1
 42
1.0
 92
        0
 66
   257
 43
1.0
 76
     1
 77
     6
 78
     2
 67
     7
 79
     5
170
     0
171
     0
290
     0
174
     0
 93
        1
 44
0.0
173
     0
291
     0
 45
0.0
1001
ACAD
1000
AcDbSavedByObjectVersion
1070
     0
1000
AcDbSavedByObjectVersion
1070
     0
  0
VISUALSTYLE
  5
34EA
102
{ACAD_REACTORS
330
34E5
102
}
330
34E5
100
AcDbVisualStyle
  2
Basic
 70
     7
 71
     1
 72
     0
 73
     1
 90
        0
 40
-0.6
 41
-30.0
 62
     5
 63
     7
 74
     0
 91
        4
 64
     7
 65
   257
 75
     1
175
     1
 42
1.0
 92
        8
 66
     7
 43
1.0
 76
     1
 77
     6
 78
     2
 67
     7
 79
     5
170
     0
171
     0
290
     0
174
     0
 93
        1
 44
0.0
173
     0
291
     1
 45
0.0
1001
ACAD
1000
AcDbSavedByObjectVersion
1070
     0
1000
AcDbSavedByObjectVersion
1070
     0
  0
VISUALSTYLE
  5
34F1
102
{ACAD_REACTORS
330
34E5
102
}
330
34E5
100
AcDbVisualStyle
  2
Brighten
 70
    12
 71
     2
 72
     2
 73
     0
 90
        0
 40
-0.6
 41
-30.0
 62
     5
 63
     7
 74
     1
 91
        4
 64
     7
 65
   257
 75
     1
175
     1
 42
1.0
 92
        8
 66
     7
 43
1.0
 76
     1
 77
     6
 78
     2
 67
     7
 79
     5
170
     0
171
     0
290
     0
174
     0
 93
        1
 44
50.0
173
     0
291
     1
 45
0.0
1001
ACAD
1000
AcDbSavedByObjectVersion
1070
     0
1000
AcDbSavedByObjectVersion
1070
     0
  0
VISUALSTYLE
  5
34F5
102
{ACAD_REACTORS
330
34E5
102
}
330
34E5
100
AcDbVisualStyle
  2
ColorChange
 70
    16
 71
     2
 72
     2
 73
     3
 90
        0
 40
-0.6
 41
-30.0
 62
     5
 63
     8
 74
     1
 91
        4
 64
     7
 65
   257
 75
     1
175
     1
 42
1.0
 92
        8
 66
     8
 43
1.0
 76
     1
 77
     6
 78
     2
 67
     7
 79
     5
170
     0
171
     0
290
     0
174
     0
 93
        1
 44
0.0
173
     0
291
     1
 45
0.0
1001
ACAD
1000
AcDbSavedByObjectVersion
1070
     0
1000
AcDbSavedByObjectVersion
1070
     0
  0
VISUALSTYLE
  5
34EE
102
{ACAD_REACTORS
330
34E5
102
}
330
34E5
100
AcDbVisualStyle
  2
Conceptual
 70
     9
 71
     3
 72
     2
 73
     0
 90
        0
 40
-0.6
 41
-30.0
 62
     5
 63
     7
 74
     2
 91
        2
 64
     7
 65
   257
 75
     1
175
     1
 42
40.0
 92
        8
 66
     7
 43
1.0
 76
     1
 77
     6
 78
     2
 67
     7
 79
     3
170
     0
171
     0
290
     0
174
     0
 93
        1
 44
0.0
173
     0
291
     0
 45
0.0
1001
ACAD
1000
AcDbSavedByObjectVersion
1070
     0
1000
AcDbSavedByObjectVersion
1070
     0
  0
VISUALSTYLE
  5
34F0
102
{ACAD_REACTORS
330
34E5
102
}
330
34E5
100
AcDbVisualStyle
  2
Dim
 70
    11
 71
     2
 72
     2
 73
     0
 90
        0
 40
-0.6
 41
-30.0
 62
     5
 63
     7
 74
     1
 91
        4
 64
     7
 65
   257
 75
     1
175
     1
 42
1.0
 92
        8
 66
     7
 43
1.0
 76
     1
 77
     6
 78
     2
 67
     7
 79
     5
170
     0
171
     0
290
     0
174
     0
 93
        1
 44
-50.0
173
     0
291
     1
 45
0.0
1001
ACAD
1000
AcDbSavedByObjectVersion
1070
     0
1000
AcDbSavedByObjectVersion
1070
     0
  0
VISUALSTYLE
  5
34F4
102
{ACAD_REACTORS
330
34E5
102
}
330
34E5
100
AcDbVisualStyle
  2
Facepattern
 70
    15
 71
     2
 72
     2
 73
     0
 90
        0
 40
-0.6
 41
-30.0
 62
     5
 63
     7
 74
     1
 91
        4
 64
     7
 65
   257
 75
     1
175
     1
 42
1.0
 92
        8
 66
     7
 43
1.0
 76
     1
 77
     6
 78
     2
 67
     7
 79
     5
170
     0
171
     0
290
     0
174
     0
 93
        1
 44
0.0
173
     0
291
     1
 45
0.0
1001
ACAD
1000
AcDbSavedByObjectVersion
1070
     0
1000
AcDbSavedByObjectVersion
1070
     0
  0
VISUALSTYLE
  5
34E6
102
{ACAD_REACTORS
330
34E5
102
}
330
34E5
100
AcDbVisualStyle
  2
Flat
 70
     0
 71
     2
 72
     1
 73
     1
 90
        2
 40
-0.6
 41
30.0
 62
     5
 63
     7
 74
     0
 91
        4
 64
     7
 65
   257
 75
     1
175
     1
 42
1.0
 92
        8
 66
     7
 43
1.0
 76
     1
 77
     6
 78
     2
 67
     7
 79
     5
170
     0
171
     0
290
     0
174
     0
 93
       13
 44
0.0
173
     0
291
     1
 45
0.0
1001
ACAD
1000
AcDbSavedByObjectVersion
1070
     0
1000
AcDbSavedByObjectVersion
1070
     0
  0
VISUALSTYLE
  5
34E7
102
{ACAD_REACTORS
330
34E5
102
}
330
34E5
100
AcDbVisualStyle
  2
FlatWithEdges
 70
     1
 71
     2
 72
     1
 73
     1
 90
        2
 40
-0.6
 41
30.0
 62
     5
 63
     7
 74
     1
 91
        4
 64
     7
 65
   257
 75
     1
175
     1
 42
1.0
 92
        0
 66
   257
 43
1.0
 76
     1
 77
     6
 78
     2
 67
     7
 79
     5
170
     0
171
     0
290
     0
174
     0
 93
       13
 44
0.0
173
     0
291
     1
 45
0.0
1001
ACAD
1000
AcDbSavedByObjectVersion
1070
     0
1000
AcDbSavedByObjectVersion
1070
     0
  0
VISUALSTYLE
  5
34E8
102
{ACAD_REACTORS
330
34E5
102
}
330
34E5
100
AcDbVisualStyle
  2
Gouraud
 70
     2
 71
     2
 72
     2
 73
     1
 90
        2
 40
-0.6
 41
30.0
 62
     5
 63
     7
 74
     0
 91
        4
 64
     7
 65
   257
 75
     1
175
     1
 42
1.0
 92
        0
 66
     7
 43
1.0
 76
     1
 77
     6
 78
     2
 67
     7
 79
     5
170
     0
171
     0
290
     0
174
     0
 93
       13
 44
0.0
173
     0
291
     1
 45
0.0
1001
ACAD
1000
AcDbSavedByObjectVersion
1070
     0
1000
AcDbSavedByObjectVersion
1070
     0
  0
VISUALSTYLE
  5
34E9
102
{ACAD_REACTORS
330
34E5
102
}
330
34E5
100
AcDbVisualStyle
  2
GouraudWithEdges
 70
     3
 71
     2
 72
     2
 73
     1
 90
        2
 40
-0.6
 41
30.0
 62
     5
 63
     7
 74
     1
 91
        4
 64
     7
 65
   257
 75
     1
175
     1
 42
1.0
 92
        0
 66
   257
 43
1.0
 76
     1
 77
     6
 78
     2
 67
     7
 79
     5
170
     0
171
     0
290
     0
174
     0
 93
       13
 44
0.0
173
     0
291
     1
 45
0.0
1001
ACAD
1000
AcDbSavedByObjectVersion
1070
     0
1000
AcDbSavedByObjectVersion
1070
     0
  0
VISUALSTYLE
  5
34F3
102
{ACAD_REACTORS
330
34E5
102
}
330
34E5
100
AcDbVisualStyle
  2
Linepattern
 70
    14
 71
     2
 72
     2
 73
     0
 90
        0
 40
-0.6
 41
-30.0
 62
     5
 63
     7
 74
     1
 91
        4
 64
     7
 65
   257
 75
     7
175
     7
 42
1.0
 92
        8
 66
     7
 43
1.0
 76
     1
 77
     6
 78
     2
 67
     7
 79
     5
170
     0
171
     0
290
     0
174
     0
 93
        1
 44
0.0
173
     0
291
     1
 45
0.0
1001
ACAD
1000
AcDbSavedByObjectVersion
1070
     0
1000
AcDbSavedByObjectVersion
1070
     0
  0
VISUALSTYLE
  5
34EF
102
{ACAD_REACTORS
330
34E5
102
}
330
34E5
100
AcDbVisualStyle
  2
Realistic
 70
     8
 71
     2
 72
     2
 73
     0
 90
        0
 40
-0.6
 41
-30.0
 62
     5
 63
     7
 74
     1
 91
        0
 64
     7
 65
   257
 75
     1
175
     1
 42
1.0
 92
        8
 66
     8
 43
1.0
 76
     1
 77
     6
 78
     2
 67
     7
 79
     5
170
     0
171
     0
290
     0
174
     0
 93
       13
 44
0.0
173
     0
291
     0
 45
0.0
1001
ACAD
1000
AcDbSavedByObjectVersion
1070
     0
1000
AcDbSavedByObjectVersion
1070
     0
  0
VISUALSTYLE
  5
34F2
102
{ACAD_REACTORS
330
34E5
102
}
330
34E5
100
AcDbVisualStyle
  2
Thicken
 70
    13
 71
     2
 72
     2
 73
     0
 90
        0
 40
-0.6
 41
-30.0
 62
     5
 63
     7
 74
     1
 91
        4
 64
     7
 65
   257
 75
     1
175
     1
 42
1.0
 92
       12
 66
     7
 43
1.0
 76
     1
 77
     6
 78
     2
 67
     7
 79
     5
170
     0
171
     0
290
     0
174
     0
 93
        1
 44
0.0
173
     0
291
     1
 45
0.0
1001
ACAD
1000
AcDbSavedByObjectVersion
1070
     0
1000
AcDbSavedByObjectVersion
1070
     0
  0
DICTIONARYVAR
  5
371C
102
{ACAD_REACTORS
330
3719
102
}
330
3719
100
DictionaryVariables
280
     0
  1
1:1
  0
DICTIONARYVAR
  5
371B
102
{ACAD_REACTORS
330
3719
102
}
330
3719
100
DictionaryVariables
280
     0
  1
STANDARD
  0
DICTIONARYVAR
  5
371A
102
{ACAD_REACTORS
330
3719
102
}
330
3719
100
DictionaryVariables
280
     0
  1
STANDARD
  0
DICTIONARYVAR
  5
371F
102
{ACAD_REACTORS
330
3719
102
}
330
3719
100
DictionaryVariables
280
     0
  1
1
  0
DICTIONARYVAR
  5
371E
102
{ACAD_REACTORS
330
3719
102
}
330
3719
100
DictionaryVariables
280
     0
  1
1
  0
DICTIONARYVAR
  5
371D
102
{ACAD_REACTORS
330
3719
102
}
330
3719
100
DictionaryVariables
280
     0
  1
127
  0
DICTIONARY
  5
36D7
102
{ACAD_REACTORS
330
36C9
102
}
330
36C9
100
AcDbDictionary
281
     1
  0
DICTIONARY
  5
3617
102
{ACAD_REACTORS
330
3616
102
}
330
3616
100
AcDbDictionary
281
     1
  3
DWGSETTINGS
350
373E
  3
TRANSSETTINGS
350
373F
  0
ACAMGFILTERDAT
  5
38B5
102
{ACAD_REACTORS
330
38B0
102
}
330
38B0
100
AcAmgFilterDat
 70
    15
  1
DIMENSION,AMDT_*_DIM
  2
*
  3
*
  4
*
  5
*
290
     1
  0
ACAMGFILTERDAT
  5
38B4
102
{ACAD_REACTORS
330
38B0
102
}
330
38B0
100
AcAmgFilterDat
 70
    15
  1
*
  2
AM_FEA-AM_*
  3
*
  4
*
  5
*
290
     1
  0
ACAMGFILTERDAT
  5
38B1
102
{ACAD_REACTORS
330
38B0
102
}
330
38B0
100
AcAmgFilterDat
 70
    15
  1
HATCH
  2
*
  3
*
  4
*
  5
*
290
     1
  0
ACAMGFILTERDAT
  5
38B2
102
{ACAD_REACTORS
330
38B0
102
}
330
38B0
100
AcAmgFilterDat
 70
    15
  1
LINE
  2
8,8N,*-8,*-8N,AM_8,AM_8N,*-AM_8,*-AM_8N
  3
*
  4
*
  5
INSERT,STDPART2D
290
     1
  0
ACAMGFILTERDAT
  5
38B6
102
{ACAD_REACTORS
330
38B0
102
}
330
38B0
100
AcAmgFilterDat
 70
    15
  1
ARC
  2
AM_5
  3
*
  4
2
  5
INSERT
290
     0
  0
ACAMGFILTERDAT
  5
38B3
102
{ACAD_REACTORS
330
38B0
102
}
330
38B0
100
AcAmgFilterDat
 70
    15
  1
ACMFCFRAME,ACMDATUMTARGET,ACMDATUMID,ACMWELDSYM,ACMSURFSYM,ACMFEATID,ACMPARTREF,ACMBALLOON,AMDTEDGESYM,AMGSCREWCALCTABLE,ACMMARKSTAMP
  2
*
  3
*
  4
*
  5
*
290
     1
  0
LAYER_INDEX
  5
370B
102
{ACAD_REACTORS
330
370A
102
}
330
370A
100
AcDbIndex
 40
2456217.473077511
100
AcDbLayerIndex
  8
0
360
370C
 90
        0
  8
OUTLINE
360
370D
 90
       29
  8
SIZE
360
370E
 90
       46
  8
BASIS
360
370F
 90
        1
  8
DETAIL
360
3710
 90
       46
  8
ARRANGE
360
3711
 90
        2
  8
DEFPOINTS
360
3712
 90
        0
  8
ETC
360
3713
 90
        3
  8
FIX
360
3714
 90
        0
  8
NOTE
360
3715
 90
       14
  8
SERVICESPACE
360
3716
 90
        0
  8
SYMBOLLINE
360
3717
 90
        0
  8
DETAIL___1
360
3718
 90
        0
  0
DICTIONARY
  5
3928
102
{ACAD_REACTORS
330
3927
102
}
330
3927
100
AcDbDictionary
281
     1
  0
DICTIONARY
  5
3929
102
{ACAD_REACTORS
330
3927
102
}
330
3927
100
AcDbDictionary
281
     1
  0
DICTIONARY
  5
392E
102
{ACAD_REACTORS
330
392D
102
}
330
392D
100
AcDbDictionary
281
     1
  0
DICTIONARY
  5
392F
102
{ACAD_REACTORS
330
392D
102
}
330
392D
100
AcDbDictionary
281
     1
  0
DICTIONARY
  5
395A
330
3533
100
AcDbDictionary
280
     1
281
     1
  3
ACAD_XREC_ROUNDTRIP
360
395B
  0
DICTIONARY
  5
3958
330
352F
100
AcDbDictionary
280
     1
281
     1
  3
ACAD_XREC_ROUNDTRIP
360
3959
  0
DICTIONARY
  5
34D6
330
34D5
100
AcDbDictionary
280
     1
281
     1
  3
ACAD_XREC_ROUNDTRIP
360
372A
  3
BUMPTILE
360
34D8
  3
DIFFUSETILE
360
34D7
  3
OPACITYTILE
360
34DB
  3
REFLECTIONTILE
360
34DA
  3
REFRACTIONTILE
360
34DC
  3
SPECULARTILE
360
34D9
  0
DICTIONARY
  5
34CE
330
34CD
100
AcDbDictionary
280
     1
281
     1
  3
ACAD_XREC_ROUNDTRIP
360
3729
  3
BUMPTILE
360
34D0
  3
DIFFUSETILE
360
34CF
  3
OPACITYTILE
360
34D3
  3
REFLECTIONTILE
360
34D2
  3
REFRACTIONTILE
360
34D4
  3
SPECULARTILE
360
34D1
  0
DICTIONARY
  5
34DE
330
34DD
100
AcDbDictionary
280
     1
281
     1
  3
ACAD_XREC_ROUNDTRIP
360
372B
  3
BUMPTILE
360
34E0
  3
DIFFUSETILE
360
34DF
  3
OPACITYTILE
360
34E3
  3
REFLECTIONTILE
360
34E2
  3
REFRACTIONTILE
360
34E4
  3
SPECULARTILE
360
34E1
  0
DICTIONARY
  5
3720
330
3528
100
AcDbDictionary
280
     1
281
     1
  3
ACAD_ROUNDTRIP_2008_TABLESTYLE_CELLSTYLEMAP
360
394D
  3
ACAD_XREC_ROUNDTRIP
360
3957
  0
IDBUFFER
  5
370C
330
0
100
AcDbIdBuffer
  0
IDBUFFER
  5
370D
330
0
100
AcDbIdBuffer
330
953
330
954
330
955
330
956
330
957
330
958
330
3904
330
3906
330
3909
330
390A
330
390B
330
390C
330
390D
330
390E
330
390F
330
3910
330
3911
330
3912
330
3913
330
3914
330
3915
330
3916
330
3917
330
3918
330
3919
330
391A
330
391B
330
391C
330
3937
  0
IDBUFFER
  5
370E
330
0
100
AcDbIdBuffer
330
38BF
330
38C0
330
38C1
330
38C2
330
38C3
330
38C4
330
38C5
330
38C6
330
38C7
330
38C8
330
38C9
330
38CA
330
38CB
330
38CC
330
38CD
330
38CE
330
38CF
330
38D0
330
38F5
330
38F6
330
38F7
330
38F8
330
38F9
330
38FA
330
38FB
330
38FC
330
38FD
330
38FE
330
38FF
330
3900
330
3901
330
3902
330
391D
330
391E
330
391F
330
3920
330
3921
330
3922
330
3923
330
3924
330
3931
330
3932
330
3933
330
3934
330
3935
330
3936
  0
IDBUFFER
  5
370F
330
0
100
AcDbIdBuffer
330
38E8
  0
IDBUFFER
  5
3710
330
0
100
AcDbIdBuffer
330
3925
330
392B
330
3938
330
3939
330
393A
330
393B
330
393C
330
393D
330
393E
330
393F
330
3940
330
3941
330
3942
330
3943
330
3944
330
3945
330
3946
330
3947
330
3948
330
38BD
330
38BE
330
38D1
330
38D2
330
38D3
330
38D4
330
38D5
330
38D6
330
38D9
330
38DA
330
38DB
330
38DE
330
38DF
330
38E0
330
38E1
330
38E2
330
38E3
330
38E4
330
38E5
330
38E6
330
38E7
330
38EF
330
38F0
330
38F1
330
38F2
330
38F3
330
38F4
  0
IDBUFFER
  5
3711
330
0
100
AcDbIdBuffer
330
38BB
330
38BC
  0
IDBUFFER
  5
3712
330
0
100
AcDbIdBuffer
  0
IDBUFFER
  5
3713
330
0
100
AcDbIdBuffer
330
38B8
330
38B9
330
38BA
  0
IDBUFFER
  5
3714
330
0
100
AcDbIdBuffer
  0
IDBUFFER
  5
3715
330
0
100
AcDbIdBuffer
330
3903
330
3905
330
3907
330
3908
330
38D7
330
38D8
330
38DC
330
38DD
330
38E9
330
38EA
330
38EB
330
38EC
330
38ED
330
38EE
  0
IDBUFFER
  5
3716
330
0
100
AcDbIdBuffer
  0
IDBUFFER
  5
3717
330
0
100
AcDbIdBuffer
  0
IDBUFFER
  5
3718
330
0
100
AcDbIdBuffer
  0
XRECORD
  5
395B
102
{ACAD_REACTORS
330
395A
102
}
330
395A
100
AcDbXrecord
280
     1
102
SHADEPLOT
 70
     0
102
SHADEPLOTRESLEVEL
 70
     2
102
SHADEPLOTCUSTOMDPI
 70
   300
  0
XRECORD
  5
3959
102
{ACAD_REACTORS
330
3958
102
}
330
3958
100
AcDbXrecord
280
     1
102
SHADEPLOT
 70
     0
102
SHADEPLOTRESLEVEL
 70
     2
102
SHADEPLOTCUSTOMDPI
 70
   300
  0
XRECORD
  5
372A
102
{ACAD_REACTORS
330
34D6
102
}
330
34D6
100
AcDbXrecord
280
     1
102
MATERIAL
148
0.0
149
0.0
149
0.0
 93
        0
 94
      127
282
     0
 72
     0
 77
     0
171
     0
175
     0
179
     0
273
     0
  0
XRECORD
  5
34D8
102
{ACAD_REACTORS
330
34D6
102
}
330
34D6
100
AcDbXrecord
280
     1
270
     1
271
     1
  0
XRECORD
  5
34D7
102
{ACAD_REACTORS
330
34D6
102
}
330
34D6
100
AcDbXrecord
280
     1
270
     1
271
     1
  0
XRECORD
  5
34DB
102
{ACAD_REACTORS
330
34D6
102
}
330
34D6
100
AcDbXrecord
280
     1
270
     1
271
     1
  0
XRECORD
  5
34DA
102
{ACAD_REACTORS
330
34D6
102
}
330
34D6
100
AcDbXrecord
280
     1
270
     1
271
     1
  0
XRECORD
  5
34DC
102
{ACAD_REACTORS
330
34D6
102
}
330
34D6
100
AcDbXrecord
280
     1
270
     1
271
     1
  0
XRECORD
  5
34D9
102
{ACAD_REACTORS
330
34D6
102
}
330
34D6
100
AcDbXrecord
280
     1
270
     1
271
     1
  0
XRECORD
  5
3729
102
{ACAD_REACTORS
330
34CE
102
}
330
34CE
100
AcDbXrecord
280
     1
102
MATERIAL
148
0.0
149
0.0
149
0.0
 93
        0
 94
      127
282
     0
 72
     0
 77
     0
171
     0
175
     0
179
     0
273
     0
  0
XRECORD
  5
34D0
102
{ACAD_REACTORS
330
34CE
102
}
330
34CE
100
AcDbXrecord
280
     1
270
     1
271
     1
  0
XRECORD
  5
34CF
102
{ACAD_REACTORS
330
34CE
102
}
330
34CE
100
AcDbXrecord
280
     1
270
     1
271
     1
  0
XRECORD
  5
34D3
102
{ACAD_REACTORS
330
34CE
102
}
330
34CE
100
AcDbXrecord
280
     1
270
     1
271
     1
  0
XRECORD
  5
34D2
102
{ACAD_REACTORS
330
34CE
102
}
330
34CE
100
AcDbXrecord
280
     1
270
     1
271
     1
  0
XRECORD
  5
34D4
102
{ACAD_REACTORS
330
34CE
102
}
330
34CE
100
AcDbXrecord
280
     1
270
     1
271
     1
  0
XRECORD
  5
34D1
102
{ACAD_REACTORS
330
34CE
102
}
330
34CE
100
AcDbXrecord
280
     1
270
     1
271
     1
  0
XRECORD
  5
372B
102
{ACAD_REACTORS
330
34DE
102
}
330
34DE
100
AcDbXrecord
280
     1
102
MATERIAL
148
0.0
149
0.0
149
0.0
 93
        0
 94
      127
282
     0
 72
     0
 77
     0
171
     0
175
     0
179
     0
273
     0
  0
XRECORD
  5
34E0
102
{ACAD_REACTORS
330
34DE
102
}
330
34DE
100
AcDbXrecord
280
     1
270
     1
271
     1
  0
XRECORD
  5
34DF
102
{ACAD_REACTORS
330
34DE
102
}
330
34DE
100
AcDbXrecord
280
     1
270
     1
271
     1
  0
XRECORD
  5
34E3
102
{ACAD_REACTORS
330
34DE
102
}
330
34DE
100
AcDbXrecord
280
     1
270
     1
271
     1
  0
XRECORD
  5
34E2
102
{ACAD_REACTORS
330
34DE
102
}
330
34DE
100
AcDbXrecord
280
     1
270
     1
271
     1
  0
XRECORD
  5
34E4
102
{ACAD_REACTORS
330
34DE
102
}
330
34DE
100
AcDbXrecord
280
     1
270
     1
271
     1
  0
XRECORD
  5
34E1
102
{ACAD_REACTORS
330
34DE
102
}
330
34DE
100
AcDbXrecord
280
     1
270
     1
271
     1
  0
CELLSTYLEMAP
  5
394D
102
{ACAD_REACTORS
330
3720
102
}
330
3720
100
AcDbCellStyleMap
 90
        3
300
CELLSTYLE
  1
TABLEFORMAT_BEGIN
 90
        5
170
     1
 91
        0
 92
    32768
 62
   257
 93
        1
300
CONTENTFORMAT
  1
CONTENTFORMAT_BEGIN
 90
        0
 91
        0
 92
      512
 93
        0
300

 40
0.0
140
1.0
 94
        5
 62
     0
340
3519
144
0.25
309
CONTENTFORMAT_END
171
     1
301
MARGIN
  1
CELLMARGIN_BEGIN
 40
0.06
 40
0.06
 40
0.06
 40
0.06
 40
0.18
 40
0.18
309
CELLMARGIN_END
 94
        6
 95
        1
302
GRIDFORMAT
  1
GRIDFORMAT_BEGIN
 90
        0
 91
        1
 62
     0
 92
       -2
340
0
 93
        0
 40
0.045
309
GRIDFORMAT_END
 95
        2
302
GRIDFORMAT
  1
GRIDFORMAT_BEGIN
 90
        0
 91
        1
 62
     0
 92
       -2
340
0
 93
        0
 40
0.045
309
GRIDFORMAT_END
 95
        4
302
GRIDFORMAT
  1
GRIDFORMAT_BEGIN
 90
        0
 91
        1
 62
     0
 92
       -2
340
0
 93
        0
 40
0.045
309
GRIDFORMAT_END
 95
        8
302
GRIDFORMAT
  1
GRIDFORMAT_BEGIN
 90
        0
 91
        1
 62
     0
 92
       -2
340
0
 93
        0
 40
0.045
309
GRIDFORMAT_END
 95
       16
302
GRIDFORMAT
  1
GRIDFORMAT_BEGIN
 90
        0
 91
        1
 62
     0
 92
       -2
340
0
 93
        0
 40
0.045
309
GRIDFORMAT_END
 95
       32
302
GRIDFORMAT
  1
GRIDFORMAT_BEGIN
 90
        0
 91
        1
 62
     0
 92
       -2
340
0
 93
        0
 40
0.045
309
GRIDFORMAT_END
309
TABLEFORMAT_END
  1
CELLSTYLE_BEGIN
 90
        1
 91
        1
300
_TITLE
309
CELLSTYLE_END
300
CELLSTYLE
  1
TABLEFORMAT_BEGIN
 90
        5
170
     1
 91
        0
 92
        0
 62
   257
 93
        1
300
CONTENTFORMAT
  1
CONTENTFORMAT_BEGIN
 90
        0
 91
        0
 92
      512
 93
        0
300

 40
0.0
140
1.0
 94
        5
 62
     0
340
3519
144
0.18
309
CONTENTFORMAT_END
171
     1
301
MARGIN
  1
CELLMARGIN_BEGIN
 40
0.06
 40
0.06
 40
0.06
 40
0.06
 40
0.18
 40
0.18
309
CELLMARGIN_END
 94
        6
 95
        1
302
GRIDFORMAT
  1
GRIDFORMAT_BEGIN
 90
        0
 91
        1
 62
     0
 92
       -2
340
0
 93
        0
 40
0.045
309
GRIDFORMAT_END
 95
        2
302
GRIDFORMAT
  1
GRIDFORMAT_BEGIN
 90
        0
 91
        1
 62
     0
 92
       -2
340
0
 93
        0
 40
0.045
309
GRIDFORMAT_END
 95
        4
302
GRIDFORMAT
  1
GRIDFORMAT_BEGIN
 90
        0
 91
        1
 62
     0
 92
       -2
340
0
 93
        0
 40
0.045
309
GRIDFORMAT_END
 95
        8
302
GRIDFORMAT
  1
GRIDFORMAT_BEGIN
 90
        0
 91
        1
 62
     0
 92
       -2
340
0
 93
        0
 40
0.045
309
GRIDFORMAT_END
 95
       16
302
GRIDFORMAT
  1
GRIDFORMAT_BEGIN
 90
        0
 91
        1
 62
     0
 92
       -2
340
0
 93
        0
 40
0.045
309
GRIDFORMAT_END
 95
       32
302
GRIDFORMAT
  1
GRIDFORMAT_BEGIN
 90
        0
 91
        1
 62
     0
 92
       -2
340
0
 93
        0
 40
0.045
309
GRIDFORMAT_END
309
TABLEFORMAT_END
  1
CELLSTYLE_BEGIN
 90
        2
 91
        1
300
_HEADER
309
CELLSTYLE_END
300
CELLSTYLE
  1
TABLEFORMAT_BEGIN
 90
        5
170
     1
 91
        0
 92
        0
 62
   257
 93
        1
300
CONTENTFORMAT
  1
CONTENTFORMAT_BEGIN
 90
        0
 91
        0
 92
      512
 93
        0
300

 40
0.0
140
1.0
 94
        2
 62
     0
340
3519
144
0.18
309
CONTENTFORMAT_END
171
     1
301
MARGIN
  1
CELLMARGIN_BEGIN
 40
0.06
 40
0.06
 40
0.06
 40
0.06
 40
0.18
 40
0.18
309
CELLMARGIN_END
 94
        6
 95
        1
302
GRIDFORMAT
  1
GRIDFORMAT_BEGIN
 90
        0
 91
        1
 62
     0
 92
       -2
340
0
 93
        0
 40
0.045
309
GRIDFORMAT_END
 95
        2
302
GRIDFORMAT
  1
GRIDFORMAT_BEGIN
 90
        0
 91
        1
 62
     0
 92
       -2
340
0
 93
        0
 40
0.045
309
GRIDFORMAT_END
 95
        4
302
GRIDFORMAT
  1
GRIDFORMAT_BEGIN
 90
        0
 91
        1
 62
     0
 92
       -2
340
0
 93
        0
 40
0.045
309
GRIDFORMAT_END
 95
        8
302
GRIDFORMAT
  1
GRIDFORMAT_BEGIN
 90
        0
 91
        1
 62
     0
 92
       -2
340
0
 93
        0
 40
0.045
309
GRIDFORMAT_END
 95
       16
302
GRIDFORMAT
  1
GRIDFORMAT_BEGIN
 90
        0
 91
        1
 62
     0
 92
       -2
340
0
 93
        0
 40
0.045
309
GRIDFORMAT_END
 95
       32
302
GRIDFORMAT
  1
GRIDFORMAT_BEGIN
 90
        0
 91
        1
 62
     0
 92
       -2
340
0
 93
        0
 40
0.045
309
GRIDFORMAT_END
309
TABLEFORMAT_END
  1
CELLSTYLE_BEGIN
 90
        3
 91
        2
300
_DATA
309
CELLSTYLE_END
  0
XRECORD
  5
3957
102
{ACAD_REACTORS
330
3720
102
}
330
3720
100
AcDbXrecord
280
     1
102
ACAD_ROUNDTRIP_PRE2007_TABLESTYLE
 90
      512
 91
        0
  1

 92
      512
 93
        0
  2

 94
      512
 95
        0
  3

  0
ENDSEC
  0
EOF
