  0
SECTION
  2
HEADER
  9
$ACADVER
  1
AC1018
  9
$ACADMAINTVER
 70
   104
  9
$DWGCODEPAGE
  3
ANSI_932
  9
$LASTSAVEDBY
  1
a080061
  9
$CUSTOMPROPERTYTAG
  1
AmdtFileType
  9
$CUSTOMPROPERTY
  1
84
  9
$INSBASE
 10
0.0
 20
0.0
 30
0.0
  9
$EXTMIN
 10
213.9038261304413
 20
-547.3022345072859
 30
-0.0038141151294866
  9
$EXTMAX
 10
1747.485363969445
 20
564.6057208820766
 30
50.00000023285908
  9
$LIMMIN
 10
-2970.0
 20
-2100.0
  9
$LIMMAX
 10
2970.0
 20
2100.0
  9
$ORTHOMODE
 70
     1
  9
$REGENMODE
 70
     0
  9
$FILLMODE
 70
     1
  9
$QTEXTMODE
 70
     0
  9
$MIRRTEXT
 70
     0
  9
$LTSCALE
 40
20.0
  9
$ATTMODE
 70
     1
  9
$TEXTSIZE
 40
64.0
  9
$TRACEWID
 40
0.05
  9
$TEXTSTYLE
  7
STANDARD
  9
$CLAYER
  8
0
  9
$CELTYPE
  6
ByLayer
  9
$CECOLOR
 62
   256
  9
$CELTSCALE
 40
1.0
  9
$DISPSILH
 70
     0
  9
$DIMSCALE
 40
1.0
  9
$DIMASZ
 40
0.12
  9
$DIMEXO
 40
0.05
  9
$DIMDLI
 40
0.5
  9
$DIMRND
 40
0.0
  9
$DIMDLE
 40
0.0
  9
$DIMEXE
 40
0.1
  9
$DIMTP
 40
0.1
  9
$DIMTM
 40
0.1
  9
$DIMTXT
 40
0.12
  9
$DIMCEN
 40
0.0
  9
$DIMTSZ
 40
0.0
  9
$DIMTOL
 70
     0
  9
$DIMLIM
 70
     0
  9
$DIMTIH
 70
     1
  9
$DIMTOH
 70
     1
  9
$DIMSE1
 70
     0
  9
$DIMSE2
 70
     0
  9
$DIMTAD
 70
     0
  9
$DIMZIN
 70
     7
  9
$DIMBLK
  1

  9
$DIMASO
 70
     1
  9
$DIMSHO
 70
     0
  9
$DIMPOST
  1

  9
$DIMAPOST
  1
mm
  9
$DIMALT
 70
     0
  9
$DIMALTD
 70
     2
  9
$DIMALTF
 40
25.4
  9
$DIMLFAC
 40
1.0
  9
$DIMTOFL
 70
     0
  9
$DIMTVP
 40
0.0
  9
$DIMTIX
 70
     0
  9
$DIMSOXD
 70
     0
  9
$DIMSAH
 70
     0
  9
$DIMBLK1
  1

  9
$DIMBLK2
  1

  9
$DIMSTYLE
  2
AM_ANSI
  9
$DIMCLRD
 70
   256
  9
$DIMCLRE
 70
   256
  9
$DIMCLRT
 70
     2
  9
$DIMTFAC
 40
0.71
  9
$DIMGAP
 40
0.06
  9
$DIMJUST
 70
     0
  9
$DIMSD1
 70
     0
  9
$DIMSD2
 70
     0
  9
$DIMTOLJ
 70
     1
  9
$DIMTZIN
 70
     7
  9
$DIMALTZ
 70
     0
  9
$DIMALTTZ
 70
     0
  9
$DIMUPT
 70
     0
  9
$DIMDEC
 70
     4
  9
$DIMTDEC
 70
     4
  9
$DIMALTU
 70
     2
  9
$DIMALTTD
 70
     4
  9
$DIMTXSTY
  7
STANDARD
  9
$DIMAUNIT
 70
     0
  9
$DIMADEC
 70
     0
  9
$DIMALTRND
 40
0.0
  9
$DIMAZIN
 70
     2
  9
$DIMDSEP
 70
    46
  9
$DIMATFIT
 70
     3
  9
$DIMFRAC
 70
     0
  9
$DIMLDRBLK
  1

  9
$DIMLUNIT
 70
     2
  9
$DIMLWD
 70
    -1
  9
$DIMLWE
 70
    -1
  9
$DIMTMOVE
 70
     0
  9
$LUNITS
 70
     2
  9
$LUPREC
 70
     4
  9
$SKETCHINC
 40
0.1
  9
$FILLETRAD
 40
4.0
  9
$AUNITS
 70
     1
  9
$AUPREC
 70
     3
  9
$MENU
  1
ACAD
  9
$ELEVATION
 40
0.0
  9
$PELEVATION
 40
0.0
  9
$THICKNESS
 40
50.0
  9
$LIMCHECK
 70
     0
  9
$CHAMFERA
 40
0.0
  9
$CHAMFERB
 40
0.0
  9
$CHAMFERC
 40
0.0
  9
$CHAMFERD
 40
0.0
  9
$SKPOLY
 70
     0
  9
$TDCREATE
 40
2452321.396199653
  9
$TDUCREATE
 40
2452321.021199653
  9
$TDUPDATE
 40
2457491.641692801
  9
$TDUUPDATE
 40
2457491.266692801
  9
$TDINDWG
 40
1.0449716898
  9
$TDUSRTIMER
 40
1.0449655903
  9
$USRTIMER
 70
     1
  9
$ANGBASE
 50
0.0
  9
$ANGDIR
 70
     0
  9
$PDMODE
 70
     3
  9
$PDSIZE
 40
-2.0
  9
$PLINEWID
 40
0.0
  9
$SPLFRAME
 70
     0
  9
$SPLINETYPE
 70
     6
  9
$SPLINESEGS
 70
     8
  9
$HANDSEED
  5
3F18
  9
$SURFTAB1
 70
     6
  9
$SURFTAB2
 70
     6
  9
$SURFTYPE
 70
     6
  9
$SURFU
 70
     6
  9
$SURFV
 70
     6
  9
$UCSBASE
  2

  9
$UCSNAME
  2

  9
$UCSORG
 10
0.0
 20
0.0
 30
0.0
  9
$UCSXDIR
 10
1.0
 20
0.0
 30
0.0
  9
$UCSYDIR
 10
0.0
 20
1.0
 30
0.0
  9
$UCSORTHOREF
  2

  9
$UCSORTHOVIEW
 70
     0
  9
$UCSORGTOP
 10
0.0
 20
0.0
 30
0.0
  9
$UCSORGBOTTOM
 10
0.0
 20
0.0
 30
0.0
  9
$UCSORGLEFT
 10
0.0
 20
0.0
 30
0.0
  9
$UCSORGRIGHT
 10
0.0
 20
0.0
 30
0.0
  9
$UCSORGFRONT
 10
0.0
 20
0.0
 30
0.0
  9
$UCSORGBACK
 10
0.0
 20
0.0
 30
0.0
  9
$PUCSBASE
  2

  9
$PUCSNAME
  2

  9
$PUCSORG
 10
0.0
 20
0.0
 30
0.0
  9
$PUCSXDIR
 10
1.0
 20
0.0
 30
0.0
  9
$PUCSYDIR
 10
0.0
 20
1.0
 30
0.0
  9
$PUCSORTHOREF
  2

  9
$PUCSORTHOVIEW
 70
     0
  9
$PUCSORGTOP
 10
0.0
 20
0.0
 30
0.0
  9
$PUCSORGBOTTOM
 10
0.0
 20
0.0
 30
0.0
  9
$PUCSORGLEFT
 10
0.0
 20
0.0
 30
0.0
  9
$PUCSORGRIGHT
 10
0.0
 20
0.0
 30
0.0
  9
$PUCSORGFRONT
 10
0.0
 20
0.0
 30
0.0
  9
$PUCSORGBACK
 10
0.0
 20
0.0
 30
0.0
  9
$USERI1
 70
     0
  9
$USERI2
 70
     0
  9
$USERI3
 70
     0
  9
$USERI4
 70
     0
  9
$USERI5
 70
     0
  9
$USERR1
 40
20.0
  9
$USERR2
 40
0.0
  9
$USERR3
 40
0.0
  9
$USERR4
 40
0.0
  9
$USERR5
 40
0.0
  9
$WORLDVIEW
 70
     1
  9
$SHADEDGE
 70
     3
  9
$SHADEDIF
 70
    70
  9
$TILEMODE
 70
     1
  9
$MAXACTVP
 70
    64
  9
$PINSBASE
 10
0.0
 20
0.0
 30
0.0
  9
$PLIMCHECK
 70
     0
  9
$PEXTMIN
 10
1.000000000000000E+20
 20
1.000000000000000E+20
 30
1.000000000000000E+20
  9
$PEXTMAX
 10
-1.000000000000000E+20
 20
-1.000000000000000E+20
 30
-1.000000000000000E+20
  9
$PLIMMIN
 10
0.0
 20
0.0
  9
$PLIMMAX
 10
12.0
 20
9.0
  9
$UNITMODE
 70
     0
  9
$VISRETAIN
 70
     1
  9
$PLINEGEN
 70
     0
  9
$PSLTSCALE
 70
     1
  9
$TREEDEPTH
 70
  3020
  9
$CMLSTYLE
  2
Standard
  9
$CMLJUST
 70
     0
  9
$CMLSCALE
 40
1.0
  9
$PROXYGRAPHICS
 70
     1
  9
$MEASUREMENT
 70
     0
  9
$CELWEIGHT
370
    -1
  9
$ENDCAPS
280
     0
  9
$JOINSTYLE
280
     0
  9
$LWDISPLAY
290
     0
  9
$INSUNITS
 70
     0
  9
$HYPERLINKBASE
  1

  9
$STYLESHEET
  1

  9
$XEDIT
290
     1
  9
$CEPSNTYPE
380
     0
  9
$PSTYLEMODE
290
     1
  9
$FINGERPRINTGUID
  2
{6F0B258A-5B9A-4876-8993-56BE75CDC5D1}
  9
$VERSIONGUID
  2
{97F4BC25-A6A5-49FC-A362-46A0EBACAB5C}
  9
$EXTNAMES
290
     1
  9
$PSVPSCALE
 40
0.0
  9
$OLESTARTUP
290
     0
  9
$SORTENTS
280
   127
  9
$INDEXCTL
280
     1
  9
$HIDETEXT
280
     0
  9
$XCLIPFRAME
290
     0
  9
$HALOGAP
280
     0
  9
$OBSCOLOR
 70
   257
  9
$OBSLTYPE
280
     0
  9
$INTERSECTIONDISPLAY
280
     0
  9
$INTERSECTIONCOLOR
 70
   257
  9
$DIMASSOC
280
     1
  9
$PROJECTNAME
  1

  0
ENDSEC
  0
SECTION
  2
CLASSES
  0
CLASS
  1
ACDBDICTIONARYWDFLT
  2
AcDbDictionaryWithDefault
  3
ObjectDBX Classes
 90
        0
 91
        1
280
     0
281
     0
  0
CLASS
  1
MATERIAL
  2
AcDbMaterial
  3
ObjectDBX Classes
 90
     1153
 91
        3
280
     0
281
     0
  0
CLASS
  1
VISUALSTYLE
  2
AcDbVisualStyle
  3
ObjectDBX Classes
 90
     4095
 91
       16
280
     0
281
     0
  0
CLASS
  1
SCALE
  2
AcDbScale
  3
ObjectDBX Classes
 90
     1153
 91
       33
280
     0
281
     0
  0
CLASS
  1
TABLESTYLE
  2
AcDbTableStyle
  3
ObjectDBX Classes
 90
     4095
 91
        1
280
     0
281
     0
  0
CLASS
  1
MLEADERSTYLE
  2
AcDbMLeaderStyle
  3
ACDB_MLEADERSTYLE_CLASS
 90
     4095
 91
        1
280
     0
281
     0
  0
CLASS
  1
AMGSETTINGSOBJ
  2
AmgSettingsObj
  3
"AcadM|Product Description: AutoCAD Mechanical|Company: Autodesk, Inc."
 90
     1024
 91
        2
280
     0
281
     0
  0
CLASS
  1
ACME_DOCUMENT
  2
AcMeDbDoc
  3
AcMeServices
 90
     1024
 91
        1
280
     0
281
     0
  0
CLASS
  1
ACMESCOPE
  2
AcMeScope
  3
AcMeServices
 90
     1024
 91
        1
280
     0
281
     0
  0
CLASS
  1
ACMECOMMANDHISTORY
  2
AcMeCommandHistory
  3
AcMeServices
 90
     1024
 91
        1
280
     0
281
     0
  0
CLASS
  1
ACIMSYSVARMAN
  2
AcImSysVarManager
  3
AcMeServices
 90
     1024
 91
        6
280
     0
281
     0
  0
CLASS
  1
ACIMREALSYSVAR
  2
AcImRealSysVar
  3
AcMeServices
 90
     1024
 91
       16
280
     0
281
     0
  0
CLASS
  1
ACIMINTSYSVAR
  2
AcImIntSysVar
  3
AcMeServices
 90
     1024
 91
       45
280
     0
281
     0
  0
CLASS
  1
ACMEDRAWINGMAN
  2
AcMeDrawingMan
  3
AcMeServices
 90
     1024
 91
        1
280
     0
281
     0
  0
CLASS
  1
ACMEVIEW
  2
AcMeView
  3
AcMeServices
 90
     1024
 91
        1
280
     0
281
     0
  0
CLASS
  1
ACDBENTITYCACHE
  2
AcMeEntityCache
  3
AcMeServices
 90
     1024
 91
        1
280
     0
281
     0
  0
CLASS
  1
GSMANAGER
  2
AcMeGSManager
  3
AcMeServices
 90
     1024
 91
        1
280
     0
281
     0
  0
CLASS
  1
AMDTINTERNALREACTOR
  2
AmdtInternalReactor
  3
AcMeServices
 90
     1024
 91
        2
280
     0
281
     0
  0
CLASS
  1
ACMESTATEMGR
  2
AcMeStateMgr
  3
AcMeServices
 90
     1024
 91
        1
280
     0
281
     0
  0
CLASS
  1
ACGREFMASTER
  2
AcGrefMaster
  3
AcAttribServices
 90
     1024
 91
        1
280
     0
281
     0
  0
CLASS
  1
AM_DRAWING_MGR
  2
AcDmDwgMgr
  3
AcMechDwgViewMgmt
 90
     1024
 91
        1
280
     0
281
     0
  0
CLASS
  1
AM_DWG_DOCUMENT
  2
AcDmDwgDocument
  3
AcMechDwgViewMgmt
 90
     1024
 91
        1
280
     0
281
     0
  0
CLASS
  1
AM_DWG_SHEET
  2
AcDmSheet
  3
AcMechDwgViewMgmt
 90
     1024
 91
        1
280
     0
281
     0
  0
CLASS
  1
AM_VIEWDIMPARMAP
  2
AcDmViewDimParMap
  3
AcMechDwgViewMgmt
 90
     1024
 91
        1
280
     0
281
     0
  0
CLASS
  1
AM_DWGMGR_NAME
  2
AcDmDwgMgrName
  3
AcMechDwgViewMgmt
 90
     1024
 91
        1
280
     0
281
     0
  0
CLASS
  1
ACME_DATABASE
  2
AcMeDbDatabase
  3
AcMeServices
 90
     1024
 91
        1
280
     0
281
     0
  0
CLASS
  1
ACRFINSADJUSTERMGR
  2
AcRfInsAdjusterMgr
  3
AcMeServices
 90
     1024
 91
        1
280
     0
281
     0
  0
CLASS
  1
ACGREFACADMASTER
  2
AcGrefacadMaster
  3
AcGrefServices
 90
     1024
 91
        1
280
     0
281
     0
  0
CLASS
  1
AMDTMENUSTATEMGR
  2
AmdtMenuStateMgr
  3
McadcomServices
 90
     1024
 91
        1
280
     0
281
     0
  0
CLASS
  1
AMDTMCOMMENUSTATE
  2
AmdtMcomMenuState
  3
McadcomServices
 90
     1024
 91
        1
280
     0
281
     0
  0
CLASS
  1
AMIMASTER
  2
AmiMaster
  3
AmiServices
 90
     1024
 91
        1
280
     0
281
     0
  0
CLASS
  1
ASAPP
  2
AcAsAppObject
  3
AutoSurfServices
 90
     1024
 91
        1
280
     0
281
     0
  0
CLASS
  1
IM_STATIC_MAN
  2
AcImStaticVarManager
  3
AcMeServices
 90
     1024
 91
        1
280
     0
281
     0
  0
CLASS
  1
ACIMSTRSYSVAR
  2
AcImStrSysVar
  3
AcMeServices
 90
     1024
 91
       11
280
     0
281
     0
  0
CLASS
  1
ACIMDBLSTATICVAR
  2
AcImDblStaticVar
  3
AcMeServices
 90
     1024
 91
       20
280
     0
281
     0
  0
CLASS
  1
ACIMSTRSTATICVAR
  2
AcImStrStaticVar
  3
AcMeServices
 90
     1024
 91
       12
280
     0
281
     0
  0
CLASS
  1
ACIMINTSTATICVAR
  2
AcImIntStaticVar
  3
AcMeServices
 90
     1024
 91
       17
280
     0
281
     0
  0
CLASS
  1
ACASGREFMASTER
  2
AcAsGrefMaster
  3
AutoSurfResolverServices
 90
     1024
 91
        1
280
     0
281
     0
  0
CLASS
  1
ACADGREFMODULE
  2
AcAdGrefModule
  3
AdGrefServices
 90
     1024
 91
        1
280
     0
281
     0
  0
CLASS
  1
AMDTMAPISURFMOUDULE
  2
AmdtMApiSurfModule
  3
MApiSurfServices
 90
     1024
 91
        1
280
     0
281
     0
  0
CLASS
  1
MAPIAMMOUDLE
  2
MApiAmModule
  3
MApiAmServices
 90
     1024
 91
        1
280
     0
281
     0
  0
CLASS
  1
AMDTADMENUSTATE
  2
AmdtAdMenuState
  3
DesignerServices
 90
     1024
 91
        1
280
     0
281
     0
  0
CLASS
  1
ADAPPL
  2
AcAdAppl
  3
DesignerServices
 90
     1024
 91
        1
280
     0
281
     0
  0
CLASS
  1
DEPMGR
  2
AcAdDepMgr
  3
DesignerServices
 90
     1024
 91
        1
280
     0
281
     0
  0
CLASS
  1
PARAMMGR
  2
AcAdParamMgr
  3
DesignerServices
 90
     1024
 91
        1
280
     0
281
     0
  0
CLASS
  1
PARAMSCOPE
  2
AcAdParamScope
  3
DesignerServices
 90
     1024
 91
        1
280
     0
281
     0
  0
CLASS
  1
NAMEDAPPL
  2
AcAdNamedAppl
  3
DesignerServices
 90
     1024
 91
        1
280
     0
281
     0
  0
CLASS
  1
AMDTDMMENUSTATE
  2
AmdtDmMenuState
  3
AcMechDwgViewMgmt
 90
     1024
 91
        1
280
     0
281
     0
  0
CLASS
  1
MAPIADMODULE
  2
MApiAdModule
  3
MApiAdServices
 90
     1024
 91
        1
280
     0
281
     0
  0
CLASS
  1
AMDTAMMENUSTATE
  2
AmdtAmMenuState
  3
DesignerAssemblies
 90
     1024
 91
        1
280
     0
281
     0
  0
CLASS
  1
ACAMPROJECT
  2
AcAmProject
  3
DesignerAssemblies
 90
     1024
 91
        1
280
     0
281
     0
  0
CLASS
  1
ACAMGRCOMPDEF
  2
AcAmGrCompDef
  3
DesignerAssemblies
 90
     1024
 91
        1
280
     0
281
     0
  0
CLASS
  1
ACCMCONTEXT
  2
AcCmContext
  3
DesignerAssemblies
 90
     1024
 91
        1
280
     0
281
     0
  0
CLASS
  1
ACAMCOMPDEF
  2
AcAmCompDef
  3
DesignerAssemblies
 90
     1024
 91
        1
280
     0
281
     0
  0
CLASS
  1
ACAMCOMPDEFMGR
  2
AcAmCompDefMgr
  3
DesignerAssemblies
 90
     1024
 91
        1
280
     0
281
     0
  0
CLASS
  1
AMCONTEXTMGR
  2
AcAmContextMgr
  3
DesignerAssemblies
 90
     1024
 91
        1
280
     0
281
     0
  0
CLASS
  1
ACAMCONTEXTMODELER
  2
AcAmContextModeler
  3
DesignerAssemblies
 90
     1024
 91
        1
280
     0
281
     0
  0
CLASS
  1
ACMDATADICTIONARY
  2
AcmDataDictionary
  3
"AcmSymBB|Product Description: AutoCAD Mechanical|Company: Autodesk, Inc."
 90
     1024
 91
        1
280
     0
281
     0
  0
CLASS
  1
ACMDATAENTRYBLOCK
  2
AcmDataEntryBlock
  3
AcmSymBB|Product Description: AutoCAD Mechanical|Company: Autodesk, Inc.
 90
     1024
 91
        1
280
     0
281
     0
  0
CLASS
  1
ACRFATTGENMGR
  2
AcRfAttGeneralMgr
  3
AcAttribServices
 90
     1024
 91
        1
280
     0
281
     0
  0
CLASS
  1
ACRFOBJATTMGR
  2
AcRfObjAttGroupMgr
  3
AcAttribServices
 90
     1024
 91
        1
280
     0
281
     0
  0
CLASS
  1
ACRFMCADAPIATTHOLDER
  2
AcRfMCADAPIAttHolder
  3
AcAttribServices
 90
     1024
 91
        1
280
     0
281
     0
  0
CLASS
  1
AMDTSYSATTR
  2
AmdtSystemAttribute
  3
AcAttribServices
 90
     1024
 91
        1
280
     0
281
     0
  0
CLASS
  1
CATALOGSTATE
  2
AcAmCatalogState
  3
DesignerAssemblies
 90
     1024
 91
        1
280
     0
281
     0
  0
CLASS
  1
ACAMGRCOMPDEFSET
  2
AcAmGrCompDefSet
  3
DesignerAssemblies
 90
     1024
 91
        1
280
     0
281
     0
  0
CLASS
  1
AMDTBROWSERDBTAB
  2
AmdtBrowserDbTab
  3
McadcomServices
 90
     1024
 91
        1
280
     0
281
     0
  0
CLASS
  1
CBROWSERAPPOBJECT
  2
CBrowserAppObject
  3
McadcomServices
 90
     1024
 91
        3
280
     0
281
     0
  0
CLASS
  1
DM_PLACEHOLDER
  2
AcDmSelsetPlaceholder
  3
AcMechDwgViewMgmt
 90
     1024
 91
        1
280
     0
281
     0
  0
CLASS
  1
ACMSTANDARDANSI
  2
AcmStandardANSI
  3
"Amdt_StdImp|Product Description: AutoCAD Mechanical|Company: Autodesk, Inc."
 90
     1024
 91
        1
280
     0
281
     0
  0
CLASS
  1
ACMSURFSTANDARDANSI
  2
AcmSurfTextStdANSI
  3
"Amdt_StdImp|Product Description: AutoCAD Mechanical|Company: Autodesk, Inc."
 90
     1024
 91
        1
280
     0
281
     0
  0
CLASS
  1
ACMFCFSTANDARDANSI
  2
AcmFCFStdANSI
  3
"Amdt_StdImp|Product Description: AutoCAD Mechanical|Company: Autodesk, Inc."
 90
     1024
 91
        1
280
     0
281
     0
  0
CLASS
  1
ACMWELDSTANDARDANSI
  2
AcmWeldingStdANSI
  3
"Amdt_StdImp|Product Description: AutoCAD Mechanical|Company: Autodesk, Inc."
 90
     1024
 91
        1
280
     0
281
     0
  0
CLASS
  1
ACMIDSTANDARDANSI
  2
AcmIdStdANSI
  3
"Amdt_StdImp|Product Description: AutoCAD Mechanical|Company: Autodesk, Inc."
 90
     1024
 91
        1
280
     0
281
     0
  0
CLASS
  1
ACMDATUMSTANDARDANSI
  2
AcmDatumStdANSI
  3
"Amdt_StdImp|Product Description: AutoCAD Mechanical|Company: Autodesk, Inc."
 90
     1024
 91
        1
280
     0
281
     0
  0
CLASS
  1
ACMBOMSTANDARDANSI
  2
AcmBOMStdANSI
  3
"Amdt_StdImp|Product Description: AutoCAD Mechanical|Company: Autodesk, Inc."
 90
     1024
 91
        1
280
     0
281
     0
  0
CLASS
  1
ACMDETAILSTANDARDANSI
  2
AmdtDetailSymStdANSI
  3
"Amdt_StdImp|Product Description: AutoCAD Mechanical|Company: Autodesk, Inc."
 90
     1024
 91
        1
280
     0
281
     0
  0
CLASS
  1
ACMSECTIONSTANDARDANSI
  2
AmdtSectionSymStdANSI
  3
"Amdt_StdImp|Product Description: AutoCAD Mechanical|Company: Autodesk, Inc."
 90
     1024
 91
        1
280
     0
281
     0
  0
CLASS
  1
ACMCENTERLINESTANDARDANSI
  2
AmdtCenterLineStdANSI
  3
"Amdt_StdImp|Product Description: AutoCAD Mechanical|Company: Autodesk, Inc."
 90
     1024
 91
        1
280
     0
281
     0
  0
CLASS
  1
ACMTHREADLINESTANDARDANSI
  2
AmdtThreadLineStdANSI
  3
"Amdt_StdImp|Product Description: AutoCAD Mechanical|Company: Autodesk, Inc."
 90
     1024
 91
        1
280
     0
281
     0
  0
CLASS
  1
ACMNOTESTANDARDANSI
  2
AmdtNoteStdANSI
  3
"Amdt_StdImp|Product Description: AutoCAD Mechanical|Company: Autodesk, Inc."
 90
     1024
 91
        1
280
     0
281
     0
  0
CLASS
  1
ACMTAPERSTANDARDANSI
  2
AcmTaperStdANSI
  3
"Amdt_StdImp|Product Description: AutoCAD Mechanical|Company: Autodesk, Inc."
 90
     1024
 91
        1
280
     0
281
     0
  0
CLASS
  1
ACMANOOTATIONVIEWSTANDARDANSI
  2
AmdtAnViewStdANSI
  3
"Amdt_StdImp|Product Description: AutoCAD Mechanical|Company: Autodesk, Inc."
 90
     1024
 91
        1
280
     0
281
     0
  0
CLASS
  1
ACAMGLAYSTD
  2
AcAmgLayStd
  3
"AmgLay|Product Description: AutoCAD Mechanical|Company: Autodesk, Inc."
 90
     1024
 91
        1
280
     0
281
     0
  0
CLASS
  1
ACAMGDIMSTD
  2
AcAmgDimStd
  3
"AmgDim|Product Description: AutoCAD Mechanical|Company: Autodesk, Inc."
 90
     1024
 91
        1
280
     0
281
     0
  0
CLASS
  1
ACAMGHOLECHARTSTDANSI
  2
AcAmgHoleChartStdANSI
  3
AmgDim|Product Description: AutoCAD Mechanical|Company: Autodesk, Inc.
 90
     1024
 91
        1
280
     0
281
     0
  0
CLASS
  1
AMGOBJPROPCFG
  2
AmgObjPropCfg
  3
"AmgLay|Product Description: AutoCAD Mechanical|Company: Autodesk, Inc."
 90
     1025
 91
        1
280
     0
281
     0
  0
CLASS
  1
ACAMGTITLESTD
  2
AcAmgTitleStd
  3
"AmgTitle|Product Description: AutoCAD Mechanical|Company: Autodesk, Inc."
 90
     4095
 91
        1
280
     0
281
     0
  0
CLASS
  1
AMDTNOTETEMPLATEDB
  2
AmdtNoteTemplateDB
  3
AcmSymBB|Product Description: AutoCAD Mechanical|Company: Autodesk, Inc.
 90
     1024
 91
        6
280
     0
281
     0
  0
CLASS
  1
ACAMGFILTERDAT
  2
AcAmgFilterDat
  3
"AcadM|Product Description: AutoCAD Mechanical|Company: Autodesk, Inc."
 90
     1024
 91
        6
280
     0
281
     0
  0
CLASS
  1
LAYER_INDEX
  2
AcDbLayerIndex
  3
ObjectDBX Classes
 90
        0
 91
        1
280
     0
281
     0
  0
CLASS
  1
IDBUFFER
  2
AcDbIdBuffer
  3
ObjectDBX Classes
 90
        0
 91
       12
280
     0
281
     0
  0
CLASS
  1
DICTIONARYVAR
  2
AcDbDictionaryVar
  3
ObjectDBX Classes
 90
        0
 91
       13
280
     0
281
     0
  0
CLASS
  1
CELLSTYLEMAP
  2
AcDbCellStyleMap
  3
ObjectDBX Classes
 90
     1152
 91
        2
280
     0
281
     0
  0
CLASS
  1
SORTENTSTABLE
  2
AcDbSortentsTable
  3
ObjectDBX Classes
 90
        0
 91
        0
280
     0
281
     0
  0
ENDSEC
  0
SECTION
  2
TABLES
  0
TABLE
  2
VPORT
  5
3929
330
0
100
AcDbSymbolTable
 70
     1
  0
VPORT
  5
3999
330
3929
100
AcDbSymbolTableRecord
100
AcDbViewportTableRecord
  2
*ACTIVE
 70
     0
 10
0.0
 20
0.0
 11
1.0
 21
1.0
 12
-606.0986440440822
 22
-0.0000001020504214
 13
0.0
 23
0.0
 14
1.0
 24
1.0
 15
0.0
 25
0.0
 16
0.0
 26
0.0
 36
1.0
 17
1586.793239094025
 27
8.651743289445818
 37
0.0
 40
1144.147957002764
 41
1.348675034867503
 42
50.0
 43
0.0
 44
0.0
 50
0.0
 51
0.0
 71
     0
 72
   100
 73
     1
 74
     0
 75
     0
 76
     0
 77
     0
 78
     0
281
     0
 65
     0
110
0.0
120
0.0
130
0.0
111
1.0
121
0.0
131
0.0
112
0.0
122
1.0
132
0.0
 79
     0
146
0.0
  0
ENDTAB
  0
TABLE
  2
LTYPE
  5
3926
330
0
100
AcDbSymbolTable
 70
    19
  0
LTYPE
  5
3983
330
3926
100
AcDbSymbolTableRecord
100
AcDbLinetypeTableRecord
  2
ByBlock
 70
     0
  3

 72
    65
 73
     0
 40
0.0
  0
LTYPE
  5
3984
330
3926
100
AcDbSymbolTableRecord
100
AcDbLinetypeTableRecord
  2
ByLayer
 70
     0
  3

 72
    65
 73
     0
 40
0.0
  0
LTYPE
  5
3985
330
3926
100
AcDbSymbolTableRecord
100
AcDbLinetypeTableRecord
  2
CONTINUOUS
 70
     0
  3
実線
 72
    65
 73
     0
 40
0.0
  0
LTYPE
  5
399A
330
3926
100
AcDbSymbolTableRecord
100
AcDbLinetypeTableRecord
  2
DASHDOT
 70
     0
  3
____ _ ____ _ ____ _ ____ _ ____ _ ____ _ ____
 72
    65
 73
     4
 40
5.5
 49
4.0
 74
     0
 49
-0.6
 74
     0
 49
0.3
 74
     0
 49
-0.6
 74
     0
  0
LTYPE
  5
399B
330
3926
100
AcDbSymbolTableRecord
100
AcDbLinetypeTableRecord
  2
HIDDEN
 70
     0
  3
Hidden __ __ __ __ __ __ __ __ __ __ __ __ __ _
 72
    65
 73
     2
 40
0.375
 49
0.25
 74
     0
 49
-0.125
 74
     0
  0
LTYPE
  5
399C
330
3926
100
AcDbSymbolTableRecord
100
AcDbLinetypeTableRecord
  2
PHANTOM2
 70
     0
  3
Phantom (.5x) ___ _ _ ___ _ _ ___ _ _ ___ _ _
 72
    65
 73
     6
 40
1.25
 49
0.625
 74
     0
 49
-0.125
 74
     0
 49
0.125
 74
     0
 49
-0.125
 74
     0
 49
0.125
 74
     0
 49
-0.125
 74
     0
  0
LTYPE
  5
399D
330
3926
100
AcDbSymbolTableRecord
100
AcDbLinetypeTableRecord
  2
CENTER
 70
     0
  3
Center ____ _ ____ _ ____ _ ____ _ ____ _ ____
 72
    65
 73
     4
 40
2.0
 49
1.25
 74
     0
 49
-0.25
 74
     0
 49
0.25
 74
     0
 49
-0.25
 74
     0
  0
LTYPE
  5
399E
330
3926
100
AcDbSymbolTableRecord
100
AcDbLinetypeTableRecord
  2
ASULTYPE
 70
     0
  3
実線
 72
    65
 73
     2
 40
3.0
 49
2.5
 74
     0
 49
0.5
 74
     0
  0
LTYPE
  5
399F
330
3926
100
AcDbSymbolTableRecord
100
AcDbLinetypeTableRecord
  2
ASVLTYPE
 70
     0
  3
__ __ __ __ __ __ __ __ __ __ __ __ __ __ __ __ __ __ __ __ __
 72
    65
 73
     2
 40
0.75
 49
0.5
 74
     0
 49
-0.25
 74
     0
  0
LTYPE
  5
39A0
330
3926
100
AcDbSymbolTableRecord
100
AcDbLinetypeTableRecord
  2
AM_ISO02W050
 70
     0
  3
__ __ __ __ __ __ __ __ __ __ __ __ __ __ __
 72
    65
 73
     2
 40
7.5
 49
6.0
 74
     0
 49
-1.5
 74
     0
  0
LTYPE
  5
39A1
330
3926
100
AcDbSymbolTableRecord
100
AcDbLinetypeTableRecord
  2
AM_ISO08W050
 70
     0
  3
____ . ____ . ____ . ____ . ____ . ____ . ____
 72
    65
 73
     4
 40
18.0
 49
12.0
 74
     0
 49
-1.5
 74
     0
 49
3.0
 74
     0
 49
-1.5
 74
     0
  0
LTYPE
  5
39A2
330
3926
100
AcDbSymbolTableRecord
100
AcDbLinetypeTableRecord
  2
AM_ISO09W050
 70
     0
  3
_____ . . _____ . . _____ . . ____ .. ____
 72
    65
 73
     6
 40
22.5
 49
12.0
 74
     0
 49
-1.5
 74
     0
 49
3.0
 74
     0
 49
-1.5
 74
     0
 49
3.0
 74
     0
 49
-1.5
 74
     0
  0
LTYPE
  5
39A3
330
3926
100
AcDbSymbolTableRecord
100
AcDbLinetypeTableRecord
  2
AMCONSTR
 70
     0
  3
_______________________
 72
    65
 73
     2
 40
9999.0
 49
9999.0
 74
     0
 49
0.0
 74
     0
  0
LTYPE
  5
39A4
330
3926
100
AcDbSymbolTableRecord
100
AcDbLinetypeTableRecord
  2
AM_ISO08W050X2
 70
     0
  3
__ . __ . __ . __ . __ . __
 72
    65
 73
     4
 40
9.0
 49
6.0
 74
     0
 49
-0.75
 74
     0
 49
1.5
 74
     0
 49
-0.75
 74
     0
  0
LTYPE
  5
39A5
330
3926
100
AcDbSymbolTableRecord
100
AcDbLinetypeTableRecord
  2
AM_ISO02W050X2
 70
     0
  3
 _ _ _ _ _ _ _ _ _ _ _ _
 72
    65
 73
     2
 40
3.75
 49
3.0
 74
     0
 49
-0.75
 74
     0
  0
LTYPE
  5
39A6
330
3926
100
AcDbSymbolTableRecord
100
AcDbLinetypeTableRecord
  2
AMZIGZAG
 70
     0
  3
/\/-/\/-/\/-/\/-/\/-/\/
 72
    65
 73
     2
 40
11.0001
 49
0.0001
 74
     0
 49
-11.0
 74
     0
  0
LTYPE
  5
39A7
330
3926
100
AcDbSymbolTableRecord
100
AcDbLinetypeTableRecord
  2
CENTER2
 70
     0
  3
Center (.5x) ___ _ ___ _ ___ _ ___ _ ___ _ ___
 72
    65
 73
     4
 40
1.125
 49
0.75
 74
     0
 49
-0.125
 74
     0
 49
0.125
 74
     0
 49
-0.125
 74
     0
  0
LTYPE
  5
39A8
330
3926
100
AcDbSymbolTableRecord
100
AcDbLinetypeTableRecord
  2
HIDDEN2
 70
     0
  3
Hidden (.5x) _ _ _ _ _ _ _ _ _ _ _ _ _ _ _ _ _
 72
    65
 73
     2
 40
0.1875
 49
0.125
 74
     0
 49
-0.0625
 74
     0
  0
LTYPE
  5
39A9
330
3926
100
AcDbSymbolTableRecord
100
AcDbLinetypeTableRecord
  2
AMZIGZAG2
 70
     0
  3
/\/-/\/-/\/-/\/-/\/-/\/
 72
    65
 73
     2
 40
0.4401
 49
0.0001
 74
     0
 49
-0.4400000000000003
 74
     0
  0
LTYPE
  5
39AA
330
3926
100
AcDbSymbolTableRecord
100
AcDbLinetypeTableRecord
  2
ACANSTGB
 70
     0
  3
__ . . __ . .
 72
    65
 73
     6
 40
0.35433070866
 49
0.15748031496
 74
     0
 49
-0.03937007874
 74
     0
 49
0.03937007874
 74
     0
 49
-0.03937007874
 74
     0
 49
0.03937007874
 74
     0
 49
-0.03937007874
 74
     0
  0
LTYPE
  5
39AB
330
3926
100
AcDbSymbolTableRecord
100
AcDbLinetypeTableRecord
  2
ACANSTGL
 70
     0
  3
_ _ _ _ _
 72
    65
 73
     2
 40
0.11811023622
 49
0.07874015748
 74
     0
 49
-0.03937007874
 74
     0
  0
ENDTAB
  0
TABLE
  2
LAYER
  5
3923
102
{ACAD_XDICTIONARY
360
3C87
102
}
330
0
100
AcDbSymbolTable
 70
    12
  0
LAYER
  5
397D
102
{ACAD_XDICTIONARY
360
3B66
102
}
330
3923
100
AcDbSymbolTableRecord
100
AcDbLayerTableRecord
  2
0
 70
     0
 62
     7
  6
CONTINUOUS
370
    -3
390
3930
  0
LAYER
  5
39AC
102
{ACAD_XDICTIONARY
360
3B68
102
}
330
3923
100
AcDbSymbolTableRecord
100
AcDbLayerTableRecord
  2
OUTLINE
 70
     0
 62
     3
  6
CONTINUOUS
370
    -3
390
3930
  0
LAYER
  5
39AD
102
{ACAD_XDICTIONARY
360
3B6A
102
}
330
3923
100
AcDbSymbolTableRecord
100
AcDbLayerTableRecord
  2
SIZE
 70
     0
 62
    30
  6
CONTINUOUS
370
    -3
390
3930
  0
LAYER
  5
39AE
102
{ACAD_XDICTIONARY
360
3B6C
102
}
330
3923
100
AcDbSymbolTableRecord
100
AcDbLayerTableRecord
  2
BASIS
 70
     0
 62
     6
  6
DASHDOT
370
    -3
390
3930
  0
LAYER
  5
39AF
102
{ACAD_XDICTIONARY
360
3B6E
102
}
330
3923
100
AcDbSymbolTableRecord
100
AcDbLayerTableRecord
  2
DETAIL
 70
     0
 62
     5
  6
CONTINUOUS
370
    -3
390
3930
  0
LAYER
  5
39B0
102
{ACAD_XDICTIONARY
360
3B70
102
}
330
3923
100
AcDbSymbolTableRecord
100
AcDbLayerTableRecord
  2
ARRANGE
 70
     0
 62
     1
  6
CONTINUOUS
370
    -3
390
3930
  0
LAYER
  5
39B1
330
3923
100
AcDbSymbolTableRecord
100
AcDbLayerTableRecord
  2
DEFPOINTS
 70
     0
 62
     7
  6
CONTINUOUS
290
     0
370
    -3
390
3930
  0
LAYER
  5
39B2
102
{ACAD_XDICTIONARY
360
3B72
102
}
330
3923
100
AcDbSymbolTableRecord
100
AcDbLayerTableRecord
  2
ETC
 70
     0
 62
    61
  6
CONTINUOUS
370
    -3
390
3930
  0
LAYER
  5
39B3
102
{ACAD_XDICTIONARY
360
3B74
102
}
330
3923
100
AcDbSymbolTableRecord
100
AcDbLayerTableRecord
  2
FIX
 70
     0
 62
    11
  6
CONTINUOUS
370
    -3
390
3930
  0
LAYER
  5
39B4
102
{ACAD_XDICTIONARY
360
3B76
102
}
330
3923
100
AcDbSymbolTableRecord
100
AcDbLayerTableRecord
  2
NOTE
 70
     0
 62
     4
  6
CONTINUOUS
370
    -3
390
3930
  0
LAYER
  5
39B5
102
{ACAD_XDICTIONARY
360
3B78
102
}
330
3923
100
AcDbSymbolTableRecord
100
AcDbLayerTableRecord
  2
SERVICESPACE
 70
     0
 62
     2
  6
DASHDOT
370
    -3
390
3930
  0
LAYER
  5
39B6
102
{ACAD_XDICTIONARY
360
3B7A
102
}
330
3923
100
AcDbSymbolTableRecord
100
AcDbLayerTableRecord
  2
SYMBOLLINE
 70
     0
 62
    15
  6
CONTINUOUS
370
    -3
390
3930
  0
ENDTAB
  0
TABLE
  2
STYLE
  5
3924
330
0
100
AcDbSymbolTable
 70
     5
  0
STYLE
  5
397E
330
3924
100
AcDbSymbolTableRecord
100
AcDbTextStyleTableRecord
  2
STANDARD
 70
     0
 40
64.0
 41
0.9
 50
0.0
 71
     0
 42
64.0
  3
SIMPLEX.shx
  4
BIGFONT.shx
  0
STYLE
  5
3982
330
3924
100
AcDbSymbolTableRecord
100
AcDbTextStyleTableRecord
  2
ANNOTATIVE
 70
     0
 40
0.0
 41
1.0
 50
0.0
 71
     0
 42
0.2
  3
txt
  4

1001
ACADANNOTATIVE
1000
AnnotativeData
1002
{
1070
     1
1070
     1
1002
}
  0
STYLE
  5
39B7
330
3924
100
AcDbSymbolTableRecord
100
AcDbTextStyleTableRecord
  2

 70
     1
 40
0.0
 41
1.0
 50
0.0
 71
     0
 42
64.0
  3
genltshp.shx
  4

  0
STYLE
  5
39B8
330
3924
100
AcDbSymbolTableRecord
100
AcDbTextStyleTableRecord
  2
ACANSTS
 70
     0
 40
1.0
 41
1.0
 50
0.0
 71
     0
 42
64.0
  3
romans.shx
  4
extfont.shx
  0
STYLE
  5
39B9
330
3924
100
AcDbSymbolTableRecord
100
AcDbTextStyleTableRecord
  2
ACANSGDT
 70
     0
 40
0.0
 41
1.0
 50
0.0
 71
     0
 42
64.0
  3
amgdt.shx
  4

  0
ENDTAB
  0
TABLE
  2
VIEW
  5
3927
330
0
100
AcDbSymbolTable
 70
     1
  0
VIEW
  5
39BA
330
3927
100
AcDbSymbolTableRecord
100
AcDbViewTableRecord
  2
ALL
 70
     0
 40
4282.619807999997
 10
0.0
 20
41.30990399999999
 41
5940.0
 11
0.0
 21
0.0
 31
1.0
 12
0.0
 22
0.0
 32
0.0
 42
50.0
 43
0.0
 44
0.0
 50
0.0
 71
     0
281
     0
 72
     1
110
0.0
120
0.0
130
0.0
111
1.0
121
0.0
131
0.0
112
0.0
122
1.0
132
0.0
 79
     0
146
0.0
  0
ENDTAB
  0
TABLE
  2
UCS
  5
3928
330
0
100
AcDbSymbolTable
 70
     0
  0
ENDTAB
  0
TABLE
  2
APPID
  5
392A
330
0
100
AcDbSymbolTable
 70
    35
  0
APPID
  5
397F
330
392A
100
AcDbSymbolTableRecord
100
AcDbRegAppTableRecord
  2
ACAD
 70
     0
  0
APPID
  5
3986
330
392A
100
AcDbSymbolTableRecord
100
AcDbRegAppTableRecord
  2
ACADANNOTATIVE
 70
     0
  0
APPID
  5
3990
330
392A
100
AcDbSymbolTableRecord
100
AcDbRegAppTableRecord
  2
ACAD_MLEADERVER
 70
     0
  0
APPID
  5
39BB
330
392A
100
AcDbSymbolTableRecord
100
AcDbRegAppTableRecord
  2
GENIUS_GENDIM_13
 70
     0
  0
APPID
  5
39BC
330
392A
100
AcDbSymbolTableRecord
100
AcDbRegAppTableRecord
  2
GENIUS_GENDTOL_13
 70
     0
  0
APPID
  5
39BD
330
392A
100
AcDbSymbolTableRecord
100
AcDbRegAppTableRecord
  2
GENIUS_GE3DTOL_13
 70
     0
  0
APPID
  5
39BE
330
392A
100
AcDbSymbolTableRecord
100
AcDbRegAppTableRecord
  2
MCAD_NO_VIS
 70
     0
  0
APPID
  5
39BF
330
392A
100
AcDbSymbolTableRecord
100
AcDbRegAppTableRecord
  2
ACAD_TEMP_GRAPHIC
 70
     0
  0
APPID
  5
39C0
330
392A
100
AcDbSymbolTableRecord
100
AcDbRegAppTableRecord
  2
AD_DRAW
 70
     0
  0
APPID
  5
39C1
330
392A
100
AcDbSymbolTableRecord
100
AcDbRegAppTableRecord
  2
ACATTRIBSERVICES
 70
     0
  0
APPID
  5
39C2
330
392A
100
AcDbSymbolTableRecord
100
AcDbRegAppTableRecord
  2
ASURF_PCURVE_APPNAME
 70
     0
  0
APPID
  5
39C3
330
392A
100
AcDbSymbolTableRecord
100
AcDbRegAppTableRecord
  2
AMG_3D2D_5_0
 70
     0
  0
APPID
  5
39C4
330
392A
100
AcDbSymbolTableRecord
100
AcDbRegAppTableRecord
  2
DESIGNERASSEMBLIES
 70
     0
  0
APPID
  5
39C5
330
392A
100
AcDbSymbolTableRecord
100
AcDbRegAppTableRecord
  2
ACADM_DIM_EDIT
 70
     0
  0
APPID
  5
39C6
330
392A
100
AcDbSymbolTableRecord
100
AcDbRegAppTableRecord
  2
AMDT_DM_ADJ
 70
     0
  0
APPID
  5
39C7
330
392A
100
AcDbSymbolTableRecord
100
AcDbRegAppTableRecord
  2
ACAD_DSTYLE_DIMARC_LENGTH_
 70
     0
  0
APPID
  5
39C8
330
392A
100
AcDbSymbolTableRecord
100
AcDbRegAppTableRecord
  2
ACAD_DSTYLE_DIMJOGGED_JOGA
 70
     0
  0
APPID
  5
39C9
330
392A
100
AcDbSymbolTableRecord
100
AcDbRegAppTableRecord
  2
ACAD_PSEXT
 70
     0
  0
APPID
  5
39CA
330
392A
100
AcDbSymbolTableRecord
100
AcDbRegAppTableRecord
  2
ACAD_EXEMPT_FROM_CAD_STANDARDS
 70
     0
  0
APPID
  5
39CB
330
392A
100
AcDbSymbolTableRecord
100
AcDbRegAppTableRecord
  2
ACAD_DSTYLE_DIMJAG
 70
     0
  0
APPID
  5
39CC
330
392A
100
AcDbSymbolTableRecord
100
AcDbRegAppTableRecord
  2
ACAD_DSTYLE_DIMTALN
 70
     0
  0
APPID
  5
39CD
330
392A
100
AcDbSymbolTableRecord
100
AcDbRegAppTableRecord
  2
AMG_3D2D_5_00
 70
     0
  0
APPID
  5
39CE
330
392A
100
AcDbSymbolTableRecord
100
AcDbRegAppTableRecord
  2
AMG_3D2D_5_01
 70
     0
  0
APPID
  5
39CF
330
392A
100
AcDbSymbolTableRecord
100
AcDbRegAppTableRecord
  2
AMG_3D2D_5_02
 70
     0
  0
APPID
  5
39D0
330
392A
100
AcDbSymbolTableRecord
100
AcDbRegAppTableRecord
  2
AMG_3D2D_5_03
 70
     0
  0
APPID
  5
39D1
330
392A
100
AcDbSymbolTableRecord
100
AcDbRegAppTableRecord
  2
AMG_3D2D_5_04
 70
     0
  0
APPID
  5
39D2
330
392A
100
AcDbSymbolTableRecord
100
AcDbRegAppTableRecord
  2
AMG_3D2D_5_05
 70
     0
  0
APPID
  5
39D3
330
392A
100
AcDbSymbolTableRecord
100
AcDbRegAppTableRecord
  2
AMG_3D2D_5_06
 70
     0
  0
APPID
  5
39D4
330
392A
100
AcDbSymbolTableRecord
100
AcDbRegAppTableRecord
  2
AMG_3D2D_5_07
 70
     0
  0
APPID
  5
3B06
330
392A
100
AcDbSymbolTableRecord
100
AcDbRegAppTableRecord
  2
AMG_3D2D_5.0
 70
     0
  0
APPID
  5
3BA3
330
392A
100
AcDbSymbolTableRecord
100
AcDbRegAppTableRecord
  2
ACAD_DSTYLE_DIMARC_LENGTH_SYMBOL
 70
     0
  0
APPID
  5
3BA4
330
392A
100
AcDbSymbolTableRecord
100
AcDbRegAppTableRecord
  2
ACAD_DSTYLE_DIM_LINETYPE
 70
     0
  0
APPID
  5
3BA5
330
392A
100
AcDbSymbolTableRecord
100
AcDbRegAppTableRecord
  2
ACAD_DSTYLE_DIM_EXT1_LINETYPE
 70
     0
  0
APPID
  5
3BA6
330
392A
100
AcDbSymbolTableRecord
100
AcDbRegAppTableRecord
  2
ACAD_DSTYLE_DIM_EXT2_LINETYPE
 70
     0
  0
APPID
  5
3C86
330
392A
100
AcDbSymbolTableRecord
100
AcDbRegAppTableRecord
  2
ACAD_DSTYLE_DIMJOGGED_JOGANGLE_SYMBOL
 70
     0
  0
ENDTAB
  0
TABLE
  2
DIMSTYLE
  5
392B
330
0
100
AcDbSymbolTable
 70
    10
100
AcDbDimStyleTable
 71
     1
340
39D5
  0
DIMSTYLE
105
3980
330
392B
100
AcDbSymbolTableRecord
100
AcDbDimStyleTableRecord
  2
STANDARD
 70
     0
 41
12.0
 42
20.0
 44
20.0
 77
     1
 78
     8
140
64.0
141
0.0
147
10.0
275
     1
279
     2
284
     7
285
     7
286
     7
340
397E
  0
DIMSTYLE
105
3981
330
392B
100
AcDbSymbolTableRecord
100
AcDbDimStyleTableRecord
  2
ANNOTATIVE
 70
     0
275
     1
279
     2
284
     7
285
     7
286
     7
340
397E
1001
ACADANNOTATIVE
1000
AnnotativeData
1002
{
1070
     1
1070
     1
1002
}
  0
DIMSTYLE
105
39D5
330
392B
100
AcDbSymbolTableRecord
100
AcDbDimStyleTableRecord
  2
AM_ANSI
 70
     0
  4
mm
 41
0.12
 42
0.05
 43
0.5
 44
0.1
 47
0.1
 48
0.1
 78
     7
 79
     2
140
0.12
141
0.0
146
0.71
147
0.06
176
   256
177
   256
178
     2
274
     4
284
     7
340
397E
371
    -1
372
    -1
1001
ACAD_DSTYLE_DIMARC_LENGTH_SYMBOL
1070
   379
1070
     1
1001
ACAD_DSTYLE_DIM_LINETYPE
1070
   380
1005
3983
1001
ACAD_DSTYLE_DIM_EXT1_LINETYPE
1070
   381
1005
3983
1001
ACAD_DSTYLE_DIM_EXT2_LINETYPE
1070
   382
1005
3983
  0
DIMSTYLE
105
39D6
330
392B
100
AcDbSymbolTableRecord
100
AcDbDimStyleTableRecord
  2
AM_ANSI$3
 70
     0
  4
mm
 41
0.12
 42
0.05
 43
0.5
 44
0.1
 47
0.1
 48
0.1
 78
     7
 79
     2
140
0.12
141
0.0
146
0.71
147
0.06
176
   256
177
   256
178
     2
274
     4
284
     7
288
     1
289
     0
340
397E
371
    -1
372
    -1
1001
ACAD_DSTYLE_DIMARC_LENGTH_SYMBOL
1070
   379
1070
     1
1001
ACAD_DSTYLE_DIM_LINETYPE
1070
   380
1005
3983
1001
ACAD_DSTYLE_DIM_EXT1_LINETYPE
1070
   381
1005
3983
1001
ACAD_DSTYLE_DIM_EXT2_LINETYPE
1070
   382
1005
3983
  0
DIMSTYLE
105
39D7
330
392B
100
AcDbSymbolTableRecord
100
AcDbDimStyleTableRecord
  2
AM_ANSI$4
 70
     0
  4
mm
 41
0.12
 42
0.05
 43
0.5
 44
0.1
 47
0.1
 48
0.1
 78
     7
 79
     2
140
0.12
141
0.0
146
0.71
147
0.06
176
   256
177
   256
178
     2
274
     4
284
     7
340
397E
371
    -1
372
    -1
1001
ACAD_DSTYLE_DIMARC_LENGTH_SYMBOL
1070
   379
1070
     1
1001
ACAD_DSTYLE_DIM_LINETYPE
1070
   380
1005
3983
1001
ACAD_DSTYLE_DIM_EXT1_LINETYPE
1070
   381
1005
3983
1001
ACAD_DSTYLE_DIM_EXT2_LINETYPE
1070
   382
1005
3983
  0
DIMSTYLE
105
39D8
330
392B
100
AcDbSymbolTableRecord
100
AcDbDimStyleTableRecord
  2
AM_ANSI$7
 70
     0
  4
mm
 41
0.12
 42
0.05
 43
0.5
 44
0.1
 47
0.1
 48
0.1
 78
     7
 79
     2
140
0.12
141
0.0
146
0.71
147
0.06
176
   256
177
   256
178
     2
274
     4
284
     7
340
397E
371
    -1
372
    -1
1001
ACAD_DSTYLE_DIMARC_LENGTH_SYMBOL
1070
   379
1070
     1
1001
ACAD_DSTYLE_DIM_LINETYPE
1070
   380
1005
3983
1001
ACAD_DSTYLE_DIM_EXT1_LINETYPE
1070
   381
1005
3983
1001
ACAD_DSTYLE_DIM_EXT2_LINETYPE
1070
   382
1005
3983
  0
DIMSTYLE
105
39D9
330
392B
100
AcDbSymbolTableRecord
100
AcDbDimStyleTableRecord
  2
AM_ANSI$SF
 70
     0
  4
mm
 41
0.12
 42
0.05
 43
0.5
 44
0.1
 47
0.1
 48
0.1
 75
     1
 76
     1
 78
     7
 79
     2
140
0.12
141
0.0
146
0.71
147
0.06
176
   256
177
   256
178
     2
274
     4
284
     7
340
397E
371
    -1
372
    -1
1001
ACAD_DSTYLE_DIMARC_LENGTH_SYMBOL
1070
   379
1070
     1
1001
ACAD_DSTYLE_DIM_LINETYPE
1070
   380
1005
3983
1001
ACAD_DSTYLE_DIM_EXT1_LINETYPE
1070
   381
1005
3983
1001
ACAD_DSTYLE_DIM_EXT2_LINETYPE
1070
   382
1005
3983
  0
DIMSTYLE
105
39DA
330
392B
100
AcDbSymbolTableRecord
100
AcDbDimStyleTableRecord
  2
AM_ANSI$SH
 70
     0
  4
mm
 41
0.12
 42
0.05
 43
0.5
 44
0.1
 47
0.1
 48
0.1
 75
     1
 76
     1
 78
     7
 79
     2
140
0.12
141
0.0
146
0.71
147
0.06
173
     1
176
   256
177
   256
178
     2
274
     4
284
     7
340
397E
343
39FA
371
    -1
372
    -1
1001
ACAD_DSTYLE_DIMARC_LENGTH_SYMBOL
1070
   379
1070
     1
1001
ACAD_DSTYLE_DIM_LINETYPE
1070
   380
1005
3983
1001
ACAD_DSTYLE_DIM_EXT1_LINETYPE
1070
   381
1005
3983
1001
ACAD_DSTYLE_DIM_EXT2_LINETYPE
1070
   382
1005
3983
  0
DIMSTYLE
105
39DB
330
392B
100
AcDbSymbolTableRecord
100
AcDbDimStyleTableRecord
  2
STANDARD1
 70
     0
 40
6.0
 41
2.5
 42
0.625
 43
6.0
 44
1.25
 47
1.0
 48
0.5
 77
     1
 78
     8
140
2.5
141
0.0
146
0.6
147
1.0
173
     1
275
     1
279
     2
284
     7
285
     7
286
     7
340
397E
  0
DIMSTYLE
105
39DC
330
392B
100
AcDbSymbolTableRecord
100
AcDbDimStyleTableRecord
  2
STANDARD$0
 70
     0
 41
12.0
 42
20.0
 44
20.0
 73
     0
 74
     0
 77
     1
 78
     8
140
64.0
141
0.0
147
10.0
275
     1
279
     2
284
     7
285
     7
286
     7
340
397E
  0
ENDTAB
  0
TABLE
  2
BLOCK_RECORD
  5
3922
330
0
100
AcDbSymbolTable
 70
    82
  0
BLOCK_RECORD
  5
3995
102
{ACAD_XDICTIONARY
360
3B7C
102
}
330
3922
100
AcDbSymbolTableRecord
100
AcDbBlockTableRecord
  2
*Model_Space
340
3998
  0
BLOCK_RECORD
  5
3991
330
3922
100
AcDbSymbolTableRecord
100
AcDbBlockTableRecord
  2
*Paper_Space
340
3994
  0
BLOCK_RECORD
  5
39E4
330
3922
100
AcDbSymbolTableRecord
100
AcDbBlockTableRecord
  2
$MODEL_SPACE
340
0
  0
BLOCK_RECORD
  5
39E6
330
3922
100
AcDbSymbolTableRecord
100
AcDbBlockTableRecord
  2
$PAPER_SPACE
340
0
  0
BLOCK_RECORD
  5
39E8
330
3922
100
AcDbSymbolTableRecord
100
AcDbBlockTableRecord
  2
_ORIGIN
340
0
  0
BLOCK_RECORD
  5
39EA
330
3922
100
AcDbSymbolTableRecord
100
AcDbBlockTableRecord
  2
_DOTBLANK
340
0
102
{BLKREFS
331
1299
331
129A
331
11AA
331
11AB
331
E80
331
E81
331
1123
331
1124
331
11C2
331
11C3
331
11EC
331
11ED
331
11F9
331
11FA
331
1287
331
1288
331
1417
331
1418
331
1423
331
1424
331
142F
331
1430
331
143B
331
143C
331
166E
331
166F
331
1677
331
1678
331
1680
331
1681
331
1689
331
168A
331
1696
331
1697
331
16A3
331
16A4
331
16AF
331
16B0
331
16BB
331
16BC
331
16C7
331
16C8
331
16D3
331
16D4
331
1D86
331
1D87
331
1D8F
331
1D90
331
1D98
331
1D99
331
1DA1
331
1DA2
331
1DAB
331
1DAC
331
1DB5
331
1DB6
331
3E27
331
3E28
331
3D63
331
3D64
331
3D69
331
3D6A
331
3D6F
331
3D70
331
3D75
331
3D76
102
}
  0
BLOCK_RECORD
  5
39EC
330
3922
100
AcDbSymbolTableRecord
100
AcDbBlockTableRecord
  2
_OPEN30
340
0
102
{BLKREFS
331
2088
331
27FE
331
2AED
331
2E2B
331
3150
331
347C
331
37AD
331
3D8B
102
}
  0
BLOCK_RECORD
  5
39EE
330
3922
100
AcDbSymbolTableRecord
100
AcDbBlockTableRecord
  2
*D5
340
0
  0
BLOCK_RECORD
  5
39F0
330
3922
100
AcDbSymbolTableRecord
100
AcDbBlockTableRecord
  2
*U6
340
0
102
{BLKREFS
331
129B
102
}
  0
BLOCK_RECORD
  5
39F2
330
3922
100
AcDbSymbolTableRecord
100
AcDbBlockTableRecord
  2
*D7
340
0
  0
BLOCK_RECORD
  5
39F4
330
3922
100
AcDbSymbolTableRecord
100
AcDbBlockTableRecord
  2
*U8
340
0
102
{BLKREFS
331
11AC
102
}
  0
BLOCK_RECORD
  5
39F6
330
3922
100
AcDbSymbolTableRecord
100
AcDbBlockTableRecord
  2
*D9
340
0
  0
BLOCK_RECORD
  5
39F8
330
3922
100
AcDbSymbolTableRecord
100
AcDbBlockTableRecord
  2
*U10
340
0
102
{BLKREFS
331
E82
102
}
  0
BLOCK_RECORD
  5
39FA
330
3922
100
AcDbSymbolTableRecord
100
AcDbBlockTableRecord
  2
GENAXEH
340
0
  0
BLOCK_RECORD
  5
39FC
330
3922
100
AcDbSymbolTableRecord
100
AcDbBlockTableRecord
  2
*D12
340
0
  0
BLOCK_RECORD
  5
39FE
330
3922
100
AcDbSymbolTableRecord
100
AcDbBlockTableRecord
  2
*U13
340
0
102
{BLKREFS
331
1125
102
}
  0
BLOCK_RECORD
  5
3A00
330
3922
100
AcDbSymbolTableRecord
100
AcDbBlockTableRecord
  2
*D14
340
0
  0
BLOCK_RECORD
  5
3A02
330
3922
100
AcDbSymbolTableRecord
100
AcDbBlockTableRecord
  2
*U15
340
0
102
{BLKREFS
331
11C4
102
}
  0
BLOCK_RECORD
  5
3A04
330
3922
100
AcDbSymbolTableRecord
100
AcDbBlockTableRecord
  2
*D16
340
0
  0
BLOCK_RECORD
  5
3A06
330
3922
100
AcDbSymbolTableRecord
100
AcDbBlockTableRecord
  2
*U17
340
0
102
{BLKREFS
331
11EE
102
}
  0
BLOCK_RECORD
  5
3A08
330
3922
100
AcDbSymbolTableRecord
100
AcDbBlockTableRecord
  2
*D18
340
0
  0
BLOCK_RECORD
  5
3A0A
330
3922
100
AcDbSymbolTableRecord
100
AcDbBlockTableRecord
  2
*U19
340
0
102
{BLKREFS
331
11FB
102
}
  0
BLOCK_RECORD
  5
3A0C
330
3922
100
AcDbSymbolTableRecord
100
AcDbBlockTableRecord
  2
*D20
340
0
  0
BLOCK_RECORD
  5
3A0E
330
3922
100
AcDbSymbolTableRecord
100
AcDbBlockTableRecord
  2
*U21
340
0
102
{BLKREFS
331
1289
102
}
  0
BLOCK_RECORD
  5
3A10
330
3922
100
AcDbSymbolTableRecord
100
AcDbBlockTableRecord
  2
*D22
340
0
  0
BLOCK_RECORD
  5
3A12
330
3922
100
AcDbSymbolTableRecord
100
AcDbBlockTableRecord
  2
*U23
340
0
102
{BLKREFS
331
1419
102
}
  0
BLOCK_RECORD
  5
3A14
330
3922
100
AcDbSymbolTableRecord
100
AcDbBlockTableRecord
  2
*D24
340
0
  0
BLOCK_RECORD
  5
3A16
330
3922
100
AcDbSymbolTableRecord
100
AcDbBlockTableRecord
  2
*U25
340
0
102
{BLKREFS
331
1425
102
}
  0
BLOCK_RECORD
  5
3A18
330
3922
100
AcDbSymbolTableRecord
100
AcDbBlockTableRecord
  2
*D26
340
0
  0
BLOCK_RECORD
  5
3A1A
330
3922
100
AcDbSymbolTableRecord
100
AcDbBlockTableRecord
  2
*U27
340
0
102
{BLKREFS
331
1431
102
}
  0
BLOCK_RECORD
  5
3A1C
330
3922
100
AcDbSymbolTableRecord
100
AcDbBlockTableRecord
  2
*D28
340
0
  0
BLOCK_RECORD
  5
3A1E
330
3922
100
AcDbSymbolTableRecord
100
AcDbBlockTableRecord
  2
*U29
340
0
102
{BLKREFS
331
143D
102
}
  0
BLOCK_RECORD
  5
3A20
330
3922
100
AcDbSymbolTableRecord
100
AcDbBlockTableRecord
  2
*D30
340
0
  0
BLOCK_RECORD
  5
3A22
330
3922
100
AcDbSymbolTableRecord
100
AcDbBlockTableRecord
  2
*U31
340
0
102
{BLKREFS
331
1670
102
}
  0
BLOCK_RECORD
  5
3A24
330
3922
100
AcDbSymbolTableRecord
100
AcDbBlockTableRecord
  2
*D32
340
0
  0
BLOCK_RECORD
  5
3A26
330
3922
100
AcDbSymbolTableRecord
100
AcDbBlockTableRecord
  2
*U33
340
0
102
{BLKREFS
331
1679
102
}
  0
BLOCK_RECORD
  5
3A28
330
3922
100
AcDbSymbolTableRecord
100
AcDbBlockTableRecord
  2
*D34
340
0
  0
BLOCK_RECORD
  5
3A2A
330
3922
100
AcDbSymbolTableRecord
100
AcDbBlockTableRecord
  2
*U35
340
0
102
{BLKREFS
331
1682
102
}
  0
BLOCK_RECORD
  5
3A2C
330
3922
100
AcDbSymbolTableRecord
100
AcDbBlockTableRecord
  2
*D36
340
0
  0
BLOCK_RECORD
  5
3A2E
330
3922
100
AcDbSymbolTableRecord
100
AcDbBlockTableRecord
  2
*U37
340
0
102
{BLKREFS
331
168B
102
}
  0
BLOCK_RECORD
  5
3A30
330
3922
100
AcDbSymbolTableRecord
100
AcDbBlockTableRecord
  2
*U38
340
0
  0
BLOCK_RECORD
  5
3A32
330
3922
100
AcDbSymbolTableRecord
100
AcDbBlockTableRecord
  2
*D39
340
0
  0
BLOCK_RECORD
  5
3A34
330
3922
100
AcDbSymbolTableRecord
100
AcDbBlockTableRecord
  2
*U40
340
0
102
{BLKREFS
331
1698
102
}
  0
BLOCK_RECORD
  5
3A36
330
3922
100
AcDbSymbolTableRecord
100
AcDbBlockTableRecord
  2
*D41
340
0
  0
BLOCK_RECORD
  5
3A38
330
3922
100
AcDbSymbolTableRecord
100
AcDbBlockTableRecord
  2
*U42
340
0
102
{BLKREFS
331
16A5
102
}
  0
BLOCK_RECORD
  5
3A3A
330
3922
100
AcDbSymbolTableRecord
100
AcDbBlockTableRecord
  2
*D43
340
0
  0
BLOCK_RECORD
  5
3A3C
330
3922
100
AcDbSymbolTableRecord
100
AcDbBlockTableRecord
  2
*U44
340
0
102
{BLKREFS
331
16B1
102
}
  0
BLOCK_RECORD
  5
3A3E
330
3922
100
AcDbSymbolTableRecord
100
AcDbBlockTableRecord
  2
*D45
340
0
  0
BLOCK_RECORD
  5
3A40
330
3922
100
AcDbSymbolTableRecord
100
AcDbBlockTableRecord
  2
*U46
340
0
102
{BLKREFS
331
16BD
102
}
  0
BLOCK_RECORD
  5
3A42
330
3922
100
AcDbSymbolTableRecord
100
AcDbBlockTableRecord
  2
*D47
340
0
  0
BLOCK_RECORD
  5
3A44
330
3922
100
AcDbSymbolTableRecord
100
AcDbBlockTableRecord
  2
*U48
340
0
102
{BLKREFS
331
16C9
102
}
  0
BLOCK_RECORD
  5
3A46
330
3922
100
AcDbSymbolTableRecord
100
AcDbBlockTableRecord
  2
*D49
340
0
  0
BLOCK_RECORD
  5
3A48
330
3922
100
AcDbSymbolTableRecord
100
AcDbBlockTableRecord
  2
*U50
340
0
102
{BLKREFS
331
16D5
102
}
  0
BLOCK_RECORD
  5
3A4A
330
3922
100
AcDbSymbolTableRecord
100
AcDbBlockTableRecord
  2
*D51
340
0
  0
BLOCK_RECORD
  5
3A4C
330
3922
100
AcDbSymbolTableRecord
100
AcDbBlockTableRecord
  2
*U52
340
0
102
{BLKREFS
331
1D88
102
}
  0
BLOCK_RECORD
  5
3A4E
330
3922
100
AcDbSymbolTableRecord
100
AcDbBlockTableRecord
  2
*D53
340
0
  0
BLOCK_RECORD
  5
3A50
330
3922
100
AcDbSymbolTableRecord
100
AcDbBlockTableRecord
  2
*U54
340
0
102
{BLKREFS
331
1D91
102
}
  0
BLOCK_RECORD
  5
3A52
330
3922
100
AcDbSymbolTableRecord
100
AcDbBlockTableRecord
  2
*D55
340
0
  0
BLOCK_RECORD
  5
3A54
330
3922
100
AcDbSymbolTableRecord
100
AcDbBlockTableRecord
  2
*U56
340
0
102
{BLKREFS
331
1D9A
102
}
  0
BLOCK_RECORD
  5
3A56
330
3922
100
AcDbSymbolTableRecord
100
AcDbBlockTableRecord
  2
*D57
340
0
  0
BLOCK_RECORD
  5
3A58
330
3922
100
AcDbSymbolTableRecord
100
AcDbBlockTableRecord
  2
*U58
340
0
102
{BLKREFS
331
1DA3
102
}
  0
BLOCK_RECORD
  5
3A5A
330
3922
100
AcDbSymbolTableRecord
100
AcDbBlockTableRecord
  2
*D59
340
0
  0
BLOCK_RECORD
  5
3A5C
330
3922
100
AcDbSymbolTableRecord
100
AcDbBlockTableRecord
  2
*U60
340
0
102
{BLKREFS
331
1DAD
102
}
  0
BLOCK_RECORD
  5
3A5E
330
3922
100
AcDbSymbolTableRecord
100
AcDbBlockTableRecord
  2
*D61
340
0
  0
BLOCK_RECORD
  5
3A60
330
3922
100
AcDbSymbolTableRecord
100
AcDbBlockTableRecord
  2
*U62
340
0
102
{BLKREFS
331
1DB7
102
}
  0
BLOCK_RECORD
  5
3A62
330
3922
100
AcDbSymbolTableRecord
100
AcDbBlockTableRecord
  2
*U63
340
0
  0
BLOCK_RECORD
  5
3A64
330
3922
100
AcDbSymbolTableRecord
100
AcDbBlockTableRecord
  2
*U64
340
0
  0
BLOCK_RECORD
  5
3A66
330
3922
100
AcDbSymbolTableRecord
100
AcDbBlockTableRecord
  2
*U65
340
0
  0
BLOCK_RECORD
  5
3A68
330
3922
100
AcDbSymbolTableRecord
100
AcDbBlockTableRecord
  2
*U66
340
0
  0
BLOCK_RECORD
  5
3A6A
330
3922
100
AcDbSymbolTableRecord
100
AcDbBlockTableRecord
  2
*U67
340
0
  0
BLOCK_RECORD
  5
3A6C
330
3922
100
AcDbSymbolTableRecord
100
AcDbBlockTableRecord
  2
*U68
340
0
  0
BLOCK_RECORD
  5
3A6E
330
3922
100
AcDbSymbolTableRecord
100
AcDbBlockTableRecord
  2
*U69
340
0
  0
BLOCK_RECORD
  5
3A70
330
3922
100
AcDbSymbolTableRecord
100
AcDbBlockTableRecord
  2
*U70
340
0
  0
BLOCK_RECORD
  5
3A72
330
3922
100
AcDbSymbolTableRecord
100
AcDbBlockTableRecord
  2
*U71
340
0
  0
BLOCK_RECORD
  5
3A74
330
3922
100
AcDbSymbolTableRecord
100
AcDbBlockTableRecord
  2
*U72
340
0
  0
BLOCK_RECORD
  5
3A76
330
3922
100
AcDbSymbolTableRecord
100
AcDbBlockTableRecord
  2
*U73
340
0
  0
BLOCK_RECORD
  5
3A78
330
3922
100
AcDbSymbolTableRecord
100
AcDbBlockTableRecord
  2
*U74
340
0
  0
BLOCK_RECORD
  5
3A7A
330
3922
100
AcDbSymbolTableRecord
100
AcDbBlockTableRecord
  2
*U75
340
0
  0
BLOCK_RECORD
  5
3A7C
330
3922
100
AcDbSymbolTableRecord
100
AcDbBlockTableRecord
  2
*U76
340
0
  0
BLOCK_RECORD
  5
3A7E
330
3922
100
AcDbSymbolTableRecord
100
AcDbBlockTableRecord
  2
*U77
340
0
  0
BLOCK_RECORD
  5
3A80
330
3922
100
AcDbSymbolTableRecord
100
AcDbBlockTableRecord
  2
*X78
340
0
  0
BLOCK_RECORD
  5
3A82
330
3922
100
AcDbSymbolTableRecord
100
AcDbBlockTableRecord
  2
*X79
340
0
  0
BLOCK_RECORD
  5
3C56
330
3922
100
AcDbSymbolTableRecord
100
AcDbBlockTableRecord
  2
*U80
340
0
  0
ENDTAB
  0
ENDSEC
  0
SECTION
  2
BLOCKS
  0
BLOCK
  5
3996
330
3995
100
AcDbEntity
  8
0
100
AcDbBlockBegin
  2
*Model_Space
 70
     0
 10
0.0
 20
0.0
 30
0.0
  3
*Model_Space
  1

  0
ENDBLK
  5
3997
330
3995
100
AcDbEntity
  8
0
100
AcDbBlockEnd
  0
BLOCK
  5
3992
330
3991
100
AcDbEntity
 67
     1
  8
0
100
AcDbBlockBegin
  2
*Paper_Space
 70
     0
 10
0.0
 20
0.0
 30
0.0
  3
*Paper_Space
  1

  0
ENDBLK
  5
3993
330
3991
100
AcDbEntity
 67
     1
  8
0
100
AcDbBlockEnd
  0
BLOCK
  5
39E5
330
39E4
100
AcDbEntity
  8
0
100
AcDbBlockBegin
  2
$MODEL_SPACE
 70
     0
 10
0.0
 20
0.0
 30
0.0
  3
$MODEL_SPACE
  1

  0
ENDBLK
  5
35EB
330
39E4
100
AcDbEntity
  8
0
100
AcDbBlockEnd
  0
BLOCK
  5
39E7
330
39E6
100
AcDbEntity
  8
0
100
AcDbBlockBegin
  2
$PAPER_SPACE
 70
     0
 10
0.0
 20
0.0
 30
0.0
  3
$PAPER_SPACE
  1

  0
ENDBLK
  5
35E7
330
39E6
100
AcDbEntity
  8
0
100
AcDbBlockEnd
  0
BLOCK
  5
39E9
330
39E8
100
AcDbEntity
  8
0
100
AcDbBlockBegin
  2
_ORIGIN
 70
     0
 10
0.0
 20
0.0
 30
0.0
  3
_ORIGIN
  1

  0
CIRCLE
  5
880
330
39E8
100
AcDbEntity
  8
0
  6
Continuous
 62
     7
100
AcDbCircle
 10
0.0
 20
0.0
 30
0.0
 40
0.5
  0
LINE
  5
881
330
39E8
100
AcDbEntity
  8
0
  6
Continuous
 62
     7
100
AcDbLine
 10
0.0
 20
0.0
 30
0.0
 11
-1.0
 21
0.0
 31
0.0
  0
ENDBLK
  5
882
330
39E8
100
AcDbEntity
  8
0
100
AcDbBlockEnd
  0
BLOCK
  5
39EB
330
39EA
100
AcDbEntity
  8
0
 62
     1
100
AcDbBlockBegin
  2
_DOTBLANK
 70
     0
 10
0.0
 20
0.0
 30
0.0
  3
_DOTBLANK
  1

  0
CIRCLE
  5
AB3
330
39EA
100
AcDbEntity
  8
0
  6
ByBlock
 62
     0
100
AcDbCircle
 10
0.0
 20
0.0
 30
0.0
 40
0.5
  0
LINE
  5
AB4
330
39EA
100
AcDbEntity
  8
0
  6
ByBlock
 62
     0
100
AcDbLine
 10
-0.5
 20
0.0
 30
0.0
 11
-1.0
 21
0.0
 31
0.0
  0
ENDBLK
  5
AB6
330
39EA
100
AcDbEntity
  8
0
 62
     1
100
AcDbBlockEnd
  0
BLOCK
  5
39ED
330
39EC
100
AcDbEntity
  8
0
 62
     1
100
AcDbBlockBegin
  2
_OPEN30
 70
     0
 10
0.0
 20
0.0
 30
0.0
  3
_OPEN30
  1

  0
LINE
  5
AB8
330
39EC
100
AcDbEntity
  8
0
  6
ByBlock
 62
     0
100
AcDbLine
 10
-1.0
 20
0.26794919
 30
0.0
 11
0.0
 21
0.0
 31
0.0
  0
LINE
  5
AB9
330
39EC
100
AcDbEntity
  8
0
  6
ByBlock
 62
     0
100
AcDbLine
 10
0.0
 20
0.0
 30
0.0
 11
-1.0
 21
-0.26794919
 31
0.0
  0
LINE
  5
ABA
330
39EC
100
AcDbEntity
  8
0
  6
ByBlock
 62
     0
100
AcDbLine
 10
0.0
 20
0.0
 30
0.0
 11
-1.0
 21
0.0
 31
0.0
  0
ENDBLK
  5
ABC
330
39EC
100
AcDbEntity
  8
0
 62
     1
100
AcDbBlockEnd
  0
BLOCK
  5
39EF
330
39EE
100
AcDbEntity
  8
0
100
AcDbBlockBegin
  2
*D5
 70
     1
 10
0.0
 20
0.0
 30
0.0
  3
*D5
  1

  0
LINE
  5
1296
330
39EE
100
AcDbEntity
  8
SIZE
 62
     0
100
AcDbLine
 10
-134.5
 20
-320.0
 30
0.0
 11
-134.5
 21
-468.0173952306001
 31
0.0
  0
LINE
  5
1297
330
39EE
100
AcDbEntity
  8
SIZE
 62
     0
100
AcDbLine
 10
134.5
 20
-320.0
 30
0.0
 11
134.5
 21
-468.0173952306001
 31
0.0
  0
LINE
  5
1298
330
39EE
100
AcDbEntity
  8
SIZE
 62
     0
100
AcDbLine
 10
-122.5
 20
-448.0173952306
 30
0.0
 11
122.5
 21
-448.0173952306
 31
0.0
  0
INSERT
  5
1299
330
39EE
100
AcDbEntity
  8
SIZE
 62
     0
100
AcDbBlockReference
  2
_DOTBLANK
 10
-134.5
 20
-448.0173952306
 30
0.0
 41
12.0
 42
12.0
 43
12.0
 50
180.0
  0
INSERT
  5
129A
330
39EE
100
AcDbEntity
  8
SIZE
 62
     0
100
AcDbBlockReference
  2
_DOTBLANK
 10
134.5
 20
-448.0173952306
 30
0.0
 41
12.0
 42
12.0
 43
12.0
  0
INSERT
  5
129B
330
39EE
100
AcDbEntity
  8
0
100
AcDbBlockReference
  2
*U6
 10
0.0
 20
0.0
 30
0.0
  0
POINT
  5
129C
330
39EE
100
AcDbEntity
  8
DEFPOINTS
 62
     0
100
AcDbPoint
 10
-134.5
 20
-300.0
 30
0.0
  0
POINT
  5
129D
330
39EE
100
AcDbEntity
  8
DEFPOINTS
 62
     0
100
AcDbPoint
 10
134.5
 20
-300.0
 30
0.0
  0
POINT
  5
129E
330
39EE
100
AcDbEntity
  8
DEFPOINTS
 62
     0
100
AcDbPoint
 10
134.5
 20
-448.0173952306
 30
0.0
  0
ENDBLK
  5
D72
330
39EE
100
AcDbEntity
  8
0
100
AcDbBlockEnd
  0
BLOCK
  5
39F1
330
39F0
100
AcDbEntity
  8
0
100
AcDbBlockBegin
  2
*U6
 70
     1
 10
0.0
 20
0.0
 30
0.0
  3
*U6
  1

  0
TEXT
  5
1EF5
330
39F0
100
AcDbEntity
  8
SIZE
 62
     0
100
AcDbText
 10
-72.68571428571426
 20
-438.0173952305999
 30
0.0
 40
64.0
  1
269
 41
0.9
100
AcDbText
  0
ENDBLK
  5
1EF7
330
39F0
100
AcDbEntity
  8
0
100
AcDbBlockEnd
  0
BLOCK
  5
39F3
330
39F2
100
AcDbEntity
  8
0
100
AcDbBlockBegin
  2
*D7
 70
     1
 10
0.0
 20
0.0
 30
0.0
  3
*D7
  1

  0
LINE
  5
11A7
330
39F2
100
AcDbEntity
  8
SIZE
  6
Continuous
 62
     0
100
AcDbLine
 10
143.5
 20
-300.0
 30
0.0
 11
304.6432844803791
 21
-300.0
 31
0.0
  0
LINE
  5
11A8
330
39F2
100
AcDbEntity
  8
SIZE
  6
Continuous
 62
     0
100
AcDbLine
 10
177.5
 20
-0.0000000000000057
 30
0.0
 11
304.6432844803792
 21
-0.0000000000000417
 31
0.0
  0
LINE
  5
11A9
330
39F2
100
AcDbEntity
  8
SIZE
  6
Continuous
 62
     0
100
AcDbLine
 10
284.6432844803791
 20
-288.0000000000001
 30
0.0
 11
284.6432844803792
 21
-12.00000000000003
 31
0.0
  0
INSERT
  5
11AA
330
39F2
100
AcDbEntity
  8
SIZE
  6
Continuous
 62
     0
100
AcDbBlockReference
  2
_DOTBLANK
 10
284.6432844803791
 20
-300.0
 30
0.0
 41
12.0
 42
12.0
 43
12.0
 50
270.0
  0
INSERT
  5
11AB
330
39F2
100
AcDbEntity
  8
SIZE
  6
Continuous
 62
     0
100
AcDbBlockReference
  2
_DOTBLANK
 10
284.6432844803792
 20
-0.000000000000036
 30
0.0
 41
12.0
 42
12.0
 43
12.0
 50
90.0
  0
INSERT
  5
11AC
330
39F2
100
AcDbEntity
  8
0
100
AcDbBlockReference
  2
*U8
 10
0.0
 20
0.0
 30
0.0
  0
POINT
  5
11AD
330
39F2
100
AcDbEntity
  8
DEFPOINTS
  6
Continuous
 62
     0
100
AcDbPoint
 10
123.5
 20
-300.0
 30
0.0
  0
POINT
  5
11AE
330
39F2
100
AcDbEntity
  8
DEFPOINTS
  6
Continuous
 62
     0
100
AcDbPoint
 10
157.5
 20
0.0
 30
0.0
  0
POINT
  5
11AF
330
39F2
100
AcDbEntity
  8
DEFPOINTS
  6
Continuous
 62
     0
100
AcDbPoint
 10
284.6432844803792
 20
-0.000000000000036
 30
0.0
  0
ENDBLK
  5
E11
330
39F2
100
AcDbEntity
  8
0
100
AcDbBlockEnd
  0
BLOCK
  5
39F5
330
39F4
100
AcDbEntity
  8
0
100
AcDbBlockBegin
  2
*U8
 70
     1
 10
0.0
 20
0.0
 30
0.0
  3
*U8
  1

  0
TEXT
  5
1EE1
330
39F4
100
AcDbEntity
  8
SIZE
 62
     0
100
AcDbText
 10
274.6432844803792
 20
-224.0571428571429
 30
0.0
 40
64.0
  1
300
 50
90.0
 41
0.9
100
AcDbText
  0
ENDBLK
  5
1EE3
330
39F4
100
AcDbEntity
  8
0
100
AcDbBlockEnd
  0
BLOCK
  5
39F7
330
39F6
100
AcDbEntity
  8
0
100
AcDbBlockBegin
  2
*D9
 70
     1
 10
0.0
 20
0.0
 30
0.0
  3
*D9
  1

  0
LINE
  5
E7D
330
39F6
100
AcDbEntity
  8
SIZE
 62
     0
100
AcDbLine
 10
-139.9999999999998
 20
32.46448280219375
 30
0.0
 11
-139.9999999999998
 21
136.4516878685508
 31
0.0
  0
LINE
  5
E7E
330
39F6
100
AcDbEntity
  8
SIZE
 62
     0
100
AcDbLine
 10
140.0
 20
32.46448280219375
 30
0.0
 11
140.0
 21
136.4516878685508
 31
0.0
  0
LINE
  5
E7F
330
39F6
100
AcDbEntity
  8
SIZE
 62
     0
100
AcDbLine
 10
-128.0
 20
116.4516878685508
 30
0.0
 11
128.0
 21
116.4516878685508
 31
0.0
  0
INSERT
  5
E80
330
39F6
100
AcDbEntity
  8
SIZE
 62
     0
100
AcDbBlockReference
  2
_DOTBLANK
 10
-139.9999999999998
 20
116.4516878685508
 30
0.0
 41
12.0
 42
12.0
 43
12.0
 50
180.0
  0
INSERT
  5
E81
330
39F6
100
AcDbEntity
  8
SIZE
 62
     0
100
AcDbBlockReference
  2
_DOTBLANK
 10
140.0
 20
116.4516878685508
 30
0.0
 41
12.0
 42
12.0
 43
12.0
  0
INSERT
  5
E82
330
39F6
100
AcDbEntity
  8
0
100
AcDbBlockReference
  2
*U10
 10
0.0
 20
0.0
 30
0.0
  0
POINT
  5
E83
330
39F6
100
AcDbEntity
  8
DEFPOINTS
 62
     0
100
AcDbPoint
 10
-139.9999999999998
 20
12.46448280219374
 30
0.0
  0
POINT
  5
E84
330
39F6
100
AcDbEntity
  8
DEFPOINTS
 62
     0
100
AcDbPoint
 10
140.0
 20
12.46448280219374
 30
0.0
  0
POINT
  5
E85
330
39F6
100
AcDbEntity
  8
DEFPOINTS
 62
     0
100
AcDbPoint
 10
140.0
 20
116.4516878685508
 30
0.0
  0
ENDBLK
  5
E7C
330
39F6
100
AcDbEntity
  8
0
100
AcDbBlockEnd
  0
BLOCK
  5
39F9
330
39F8
100
AcDbEntity
  8
0
100
AcDbBlockBegin
  2
*U10
 70
     1
 10
0.0
 20
0.0
 30
0.0
  3
*U10
  1

  0
TEXT
  5
1ED8
330
39F8
100
AcDbEntity
  8
SIZE
 62
     0
100
AcDbText
 10
-74.05714285714281
 20
126.4516878685508
 30
0.0
 40
64.0
  1
280
 41
0.9
100
AcDbText
  0
ENDBLK
  5
1EDA
330
39F8
100
AcDbEntity
  8
0
100
AcDbBlockEnd
  0
BLOCK
  5
39FB
330
39FA
100
AcDbEntity
  8
0
100
AcDbBlockBegin
  2
GENAXEH
 70
     0
 10
0.0
 20
0.0
 30
0.0
  3
GENAXEH
  1

  0
LINE
  5
FDB
330
39FA
100
AcDbEntity
  8
0
100
AcDbLine
 10
-1.0
 20
0.0
 30
0.0
 11
1.0
 21
0.0
 31
0.0
  0
ENDBLK
  5
FDD
330
39FA
100
AcDbEntity
  8
0
100
AcDbBlockEnd
  0
BLOCK
  5
39FD
330
39FC
100
AcDbEntity
  8
0
100
AcDbBlockBegin
  2
*D12
 70
     1
 10
0.0
 20
0.0
 30
0.0
  3
*D12
  1

  0
LINE
  5
1120
330
39FC
100
AcDbEntity
  8
SIZE
 62
     0
100
AcDbLine
 10
-157.5
 20
20.0
 30
0.0
 11
-157.5
 21
245.5794621189598
 31
0.0
  0
LINE
  5
1121
330
39FC
100
AcDbEntity
  8
SIZE
 62
     0
100
AcDbLine
 10
157.5
 20
20.0
 30
0.0
 11
157.5
 21
245.5794621189598
 31
0.0
  0
LINE
  5
1122
330
39FC
100
AcDbEntity
  8
SIZE
 62
     0
100
AcDbLine
 10
-145.5
 20
225.5794621189598
 30
0.0
 11
145.5
 21
225.5794621189598
 31
0.0
  0
INSERT
  5
1123
330
39FC
100
AcDbEntity
  8
SIZE
 62
     0
100
AcDbBlockReference
  2
_DOTBLANK
 10
-157.5
 20
225.5794621189598
 30
0.0
 41
12.0
 42
12.0
 43
12.0
 50
180.0
  0
INSERT
  5
1124
330
39FC
100
AcDbEntity
  8
SIZE
 62
     0
100
AcDbBlockReference
  2
_DOTBLANK
 10
157.5
 20
225.5794621189598
 30
0.0
 41
12.0
 42
12.0
 43
12.0
  0
INSERT
  5
1125
330
39FC
100
AcDbEntity
  8
0
100
AcDbBlockReference
  2
*U13
 10
0.0
 20
0.0
 30
0.0
  0
POINT
  5
1126
330
39FC
100
AcDbEntity
  8
DEFPOINTS
 62
     0
100
AcDbPoint
 10
-157.5
 20
0.0
 30
0.0
  0
POINT
  5
1127
330
39FC
100
AcDbEntity
  8
DEFPOINTS
 62
     0
100
AcDbPoint
 10
157.5
 20
0.0
 30
0.0
  0
POINT
  5
1128
330
39FC
100
AcDbEntity
  8
DEFPOINTS
 62
     0
100
AcDbPoint
 10
157.5
 20
225.5794621189598
 30
0.0
  0
ENDBLK
  5
111F
330
39FC
100
AcDbEntity
  8
0
100
AcDbBlockEnd
  0
BLOCK
  5
39FF
330
39FE
100
AcDbEntity
  8
0
100
AcDbBlockBegin
  2
*U13
 70
     1
 10
0.0
 20
0.0
 30
0.0
  3
*U13
  1

  0
TEXT
  5
1EDD
330
39FE
100
AcDbEntity
  8
SIZE
 62
     0
100
AcDbText
 10
-68.57142857142857
 20
235.5794621189599
 30
0.0
 40
64.0
  1
315
 41
0.9
100
AcDbText
  0
ENDBLK
  5
1EDF
330
39FE
100
AcDbEntity
  8
0
100
AcDbBlockEnd
  0
BLOCK
  5
3A01
330
3A00
100
AcDbEntity
  8
0
100
AcDbBlockBegin
  2
*D14
 70
     1
 10
0.0
 20
0.0
 30
0.0
  3
*D14
  1

  0
LINE
  5
11BD
330
3A00
100
AcDbEntity
  8
NOTE
 62
     0
100
AcDbLine
 10
-123.4999999999999
 20
-320.0
 30
0.0
 11
-123.4999999999999
 21
-354.9529861856111
 31
0.0
  0
LINE
  5
11BE
330
3A00
100
AcDbEntity
  8
NOTE
 62
     0
100
AcDbLine
 10
-133.4999999999998
 20
-331.2126909923287
 30
0.0
 11
-133.4999999999998
 21
-354.9529861856111
 31
0.0
  0
LINE
  5
11BF
330
3A00
100
AcDbEntity
  8
NOTE
 62
     0
100
AcDbLine
 10
-111.4999999999999
 20
-334.9529861856112
 30
0.0
 11
-99.4999999999999
 21
-334.9529861856112
 31
0.0
  0
LINE
  5
11C0
330
3A00
100
AcDbEntity
  8
NOTE
 62
     0
100
AcDbLine
 10
-145.4999999999998
 20
-334.9529861856112
 30
0.0
 11
-157.4999999999998
 21
-334.9529861856112
 31
0.0
  0
LINE
  5
11C1
330
3A00
100
AcDbEntity
  8
NOTE
 62
     0
100
AcDbLine
 10
-123.4999999999999
 20
-334.9529861856112
 30
0.0
 11
-133.4999999999998
 21
-334.9529861856112
 31
0.0
  0
INSERT
  5
11C2
330
3A00
100
AcDbEntity
  8
NOTE
 62
     0
100
AcDbBlockReference
  2
_DOTBLANK
 10
-123.4999999999999
 20
-334.9529861856112
 30
0.0
 41
12.0
 42
12.0
 43
12.0
 50
180.0
  0
INSERT
  5
11C3
330
3A00
100
AcDbEntity
  8
NOTE
 62
     0
100
AcDbBlockReference
  2
_DOTBLANK
 10
-133.4999999999998
 20
-334.9529861856112
 30
0.0
 41
12.0
 42
12.0
 43
12.0
  0
INSERT
  5
11C4
330
3A00
100
AcDbEntity
  8
0
100
AcDbBlockReference
  2
*U15
 10
0.0
 20
0.0
 30
0.0
  0
POINT
  5
11C5
330
3A00
100
AcDbEntity
  8
DEFPOINTS
 62
     0
100
AcDbPoint
 10
-123.4999999999999
 20
-300.0
 30
0.0
  0
POINT
  5
11C6
330
3A00
100
AcDbEntity
  8
DEFPOINTS
 62
     0
100
AcDbPoint
 10
-133.4999999999998
 20
-311.2126909923287
 30
0.0
  0
POINT
  5
11C7
330
3A00
100
AcDbEntity
  8
DEFPOINTS
 62
     0
100
AcDbPoint
 10
-133.4999999999998
 20
-334.9529861856112
 30
0.0
  0
ENDBLK
  5
11BC
330
3A00
100
AcDbEntity
  8
0
100
AcDbBlockEnd
  0
BLOCK
  5
3A03
330
3A02
100
AcDbEntity
  8
0
100
AcDbBlockBegin
  2
*U15
 70
     1
 10
0.0
 20
0.0
 30
0.0
  3
*U15
  1

  0
TEXT
  5
1EE5
330
3A02
100
AcDbEntity
  8
NOTE
 62
     0
100
AcDbText
 10
-169.642857142857
 20
-324.9529861856112
 30
0.0
 40
64.0
  1
10
 41
0.9
100
AcDbText
  0
ENDBLK
  5
1EE7
330
3A02
100
AcDbEntity
  8
0
100
AcDbBlockEnd
  0
BLOCK
  5
3A05
330
3A04
100
AcDbEntity
  8
0
100
AcDbBlockBegin
  2
*D16
 70
     1
 10
0.0
 20
0.0
 30
0.0
  3
*D16
  1

  0
LINE
  5
11E7
330
3A04
100
AcDbEntity
  8
NOTE
 62
     0
100
AcDbLine
 10
-135.5
 20
-333.2126909923287
 30
0.0
 11
-135.5
 21
-386.2569421441843
 31
0.0
  0
LINE
  5
11E8
330
3A04
100
AcDbEntity
  8
NOTE
 62
     0
100
AcDbLine
 10
-123.4999999999999
 20
-320.0
 30
0.0
 11
-123.4999999999999
 21
-386.2569421441843
 31
0.0
  0
LINE
  5
11E9
330
3A04
100
AcDbEntity
  8
NOTE
 62
     0
100
AcDbLine
 10
-147.5
 20
-366.2569421441844
 30
0.0
 11
-159.5
 21
-366.2569421441844
 31
0.0
  0
LINE
  5
11EA
330
3A04
100
AcDbEntity
  8
NOTE
 62
     0
100
AcDbLine
 10
-111.4999999999999
 20
-366.2569421441844
 30
0.0
 11
-99.4999999999999
 21
-366.2569421441844
 31
0.0
  0
LINE
  5
11EB
330
3A04
100
AcDbEntity
  8
NOTE
 62
     0
100
AcDbLine
 10
-135.5
 20
-366.2569421441844
 30
0.0
 11
-123.4999999999999
 21
-366.2569421441844
 31
0.0
  0
INSERT
  5
11EC
330
3A04
100
AcDbEntity
  8
NOTE
 62
     0
100
AcDbBlockReference
  2
_DOTBLANK
 10
-135.5
 20
-366.2569421441844
 30
0.0
 41
12.0
 42
12.0
 43
12.0
  0
INSERT
  5
11ED
330
3A04
100
AcDbEntity
  8
NOTE
 62
     0
100
AcDbBlockReference
  2
_DOTBLANK
 10
-123.4999999999999
 20
-366.2569421441844
 30
0.0
 41
12.0
 42
12.0
 43
12.0
 50
180.0
  0
INSERT
  5
11EE
330
3A04
100
AcDbEntity
  8
0
100
AcDbBlockReference
  2
*U17
 10
0.0
 20
0.0
 30
0.0
  0
POINT
  5
11EF
330
3A04
100
AcDbEntity
  8
DEFPOINTS
 62
     0
100
AcDbPoint
 10
-135.5
 20
-313.2126909923287
 30
0.0
  0
POINT
  5
11F0
330
3A04
100
AcDbEntity
  8
DEFPOINTS
 62
     0
100
AcDbPoint
 10
-123.4999999999999
 20
-300.0
 30
0.0
  0
POINT
  5
11F1
330
3A04
100
AcDbEntity
  8
DEFPOINTS
 62
     0
100
AcDbPoint
 10
-123.4999999999999
 20
-366.2569421441844
 30
0.0
  0
ENDBLK
  5
11E6
330
3A04
100
AcDbEntity
  8
0
100
AcDbBlockEnd
  0
BLOCK
  5
3A07
330
3A06
100
AcDbEntity
  8
0
100
AcDbBlockBegin
  2
*U17
 70
     1
 10
0.0
 20
0.0
 30
0.0
  3
*U17
  1

  0
TEXT
  5
1EE9
330
3A06
100
AcDbEntity
  8
NOTE
 62
     0
100
AcDbText
 10
-170.642857142857
 20
-356.2569421441843
 30
0.0
 40
64.0
  1
12
 41
0.9
100
AcDbText
  0
ENDBLK
  5
1EEB
330
3A06
100
AcDbEntity
  8
0
100
AcDbBlockEnd
  0
BLOCK
  5
3A09
330
3A08
100
AcDbEntity
  8
0
100
AcDbBlockBegin
  2
*D18
 70
     1
 10
0.0
 20
0.0
 30
0.0
  3
*D18
  1

  0
LINE
  5
11F6
330
3A08
100
AcDbEntity
  8
NOTE
 62
     0
100
AcDbLine
 10
-123.4999999999999
 20
-320.0
 30
0.0
 11
-123.4999999999999
 21
-583.8286022818904
 31
0.0
  0
LINE
  5
11F7
330
3A08
100
AcDbEntity
  8
NOTE
 62
     0
100
AcDbLine
 10
123.5
 20
-320.0
 30
0.0
 11
123.5
 21
-583.8286022818904
 31
0.0
  0
LINE
  5
11F8
330
3A08
100
AcDbEntity
  8
NOTE
 62
     0
100
AcDbLine
 10
-111.4999999999999
 20
-563.8286022818904
 30
0.0
 11
111.5
 21
-563.8286022818904
 31
0.0
  0
INSERT
  5
11F9
330
3A08
100
AcDbEntity
  8
NOTE
 62
     0
100
AcDbBlockReference
  2
_DOTBLANK
 10
-123.4999999999999
 20
-563.8286022818904
 30
0.0
 41
12.0
 42
12.0
 43
12.0
 50
180.0
  0
INSERT
  5
11FA
330
3A08
100
AcDbEntity
  8
NOTE
 62
     0
100
AcDbBlockReference
  2
_DOTBLANK
 10
123.5
 20
-563.8286022818904
 30
0.0
 41
12.0
 42
12.0
 43
12.0
  0
INSERT
  5
11FB
330
3A08
100
AcDbEntity
  8
0
100
AcDbBlockReference
  2
*U19
 10
0.0
 20
0.0
 30
0.0
  0
POINT
  5
11FC
330
3A08
100
AcDbEntity
  8
DEFPOINTS
 62
     0
100
AcDbPoint
 10
-123.4999999999999
 20
-300.0
 30
0.0
  0
POINT
  5
11FD
330
3A08
100
AcDbEntity
  8
DEFPOINTS
 62
     0
100
AcDbPoint
 10
123.5
 20
-300.0
 30
0.0
  0
POINT
  5
11FE
330
3A08
100
AcDbEntity
  8
DEFPOINTS
 62
     0
100
AcDbPoint
 10
123.5
 20
-563.8286022818904
 30
0.0
  0
ENDBLK
  5
11F5
330
3A08
100
AcDbEntity
  8
0
100
AcDbBlockEnd
  0
BLOCK
  5
3A0B
330
3A0A
100
AcDbEntity
  8
0
100
AcDbBlockBegin
  2
*U19
 70
     1
 10
0.0
 20
0.0
 30
0.0
  3
*U19
  1

  0
TEXT
  5
1EED
330
3A0A
100
AcDbEntity
  8
NOTE
 62
     0
100
AcDbText
 10
-74.05714285714281
 20
-553.8286022818904
 30
0.0
 40
64.0
  1
247
 41
0.9
100
AcDbText
  0
ENDBLK
  5
1EEF
330
3A0A
100
AcDbEntity
  8
0
100
AcDbBlockEnd
  0
BLOCK
  5
3A0D
330
3A0C
100
AcDbEntity
  8
0
100
AcDbBlockBegin
  2
*D20
 70
     1
 10
0.0
 20
0.0
 30
0.0
  3
*D20
  1

  0
LINE
  5
1284
330
3A0C
100
AcDbEntity
  8
NOTE
 62
     0
100
AcDbLine
 10
-123.5
 20
12.0
 30
0.0
 11
-123.5
 21
71.83630134534229
 31
0.0
  0
LINE
  5
1285
330
3A0C
100
AcDbEntity
  8
NOTE
 62
     0
100
AcDbLine
 10
123.5
 20
12.0
 30
0.0
 11
123.5
 21
71.83630134534229
 31
0.0
  0
LINE
  5
1286
330
3A0C
100
AcDbEntity
  8
NOTE
 62
     0
100
AcDbLine
 10
-111.5
 20
51.83630134534229
 30
0.0
 11
111.5
 21
51.83630134534229
 31
0.0
  0
INSERT
  5
1287
330
3A0C
100
AcDbEntity
  8
NOTE
 62
     0
100
AcDbBlockReference
  2
_DOTBLANK
 10
-123.5
 20
51.83630134534229
 30
0.0
 41
12.0
 42
12.0
 43
12.0
 50
180.0
  0
INSERT
  5
1288
330
3A0C
100
AcDbEntity
  8
NOTE
 62
     0
100
AcDbBlockReference
  2
_DOTBLANK
 10
123.5
 20
51.83630134534229
 30
0.0
 41
12.0
 42
12.0
 43
12.0
  0
INSERT
  5
1289
330
3A0C
100
AcDbEntity
  8
0
100
AcDbBlockReference
  2
*U21
 10
0.0
 20
0.0
 30
0.0
  0
POINT
  5
128A
330
3A0C
100
AcDbEntity
  8
DEFPOINTS
 62
     0
100
AcDbPoint
 10
-123.5
 20
-8.0
 30
0.0
  0
POINT
  5
128B
330
3A0C
100
AcDbEntity
  8
DEFPOINTS
 62
     0
100
AcDbPoint
 10
123.5
 20
-8.0
 30
0.0
  0
POINT
  5
128C
330
3A0C
100
AcDbEntity
  8
DEFPOINTS
 62
     0
100
AcDbPoint
 10
123.5
 20
51.83630134534229
 30
0.0
  0
ENDBLK
  5
1283
330
3A0C
100
AcDbEntity
  8
0
100
AcDbBlockEnd
  0
BLOCK
  5
3A0F
330
3A0E
100
AcDbEntity
  8
0
100
AcDbBlockBegin
  2
*U21
 70
     1
 10
0.0
 20
0.0
 30
0.0
  3
*U21
  1

  0
TEXT
  5
1EF1
330
3A0E
100
AcDbEntity
  8
NOTE
 62
     0
100
AcDbText
 10
-74.05714285714283
 20
61.83630134534229
 30
0.0
 40
64.0
  1
247
 41
0.9
100
AcDbText
  0
ENDBLK
  5
1EF3
330
3A0E
100
AcDbEntity
  8
0
100
AcDbBlockEnd
  0
BLOCK
  5
3A11
330
3A10
100
AcDbEntity
  8
0
100
AcDbBlockBegin
  2
*D22
 70
     1
 10
0.0
 20
0.0
 30
0.0
  3
*D22
  1

  0
LINE
  5
1414
330
3A10
100
AcDbEntity
  8
SIZE
 62
     0
100
AcDbLine
 10
-22313.11521613997
 20
7365.702971374808
 30
0.0
 11
-22313.11521613997
 21
7217.685576144207
 31
0.0
  0
LINE
  5
1415
330
3A10
100
AcDbEntity
  8
SIZE
 62
     0
100
AcDbLine
 10
-22044.11521613997
 20
7365.702971374808
 30
0.0
 11
-22044.11521613997
 21
7217.685576144207
 31
0.0
  0
LINE
  5
1416
330
3A10
100
AcDbEntity
  8
SIZE
 62
     0
100
AcDbLine
 10
-22301.11521613997
 20
7237.685576144207
 30
0.0
 11
-22056.11521613997
 21
7237.685576144207
 31
0.0
  0
INSERT
  5
1417
330
3A10
100
AcDbEntity
  8
SIZE
 62
     0
100
AcDbBlockReference
  2
_DOTBLANK
 10
-22313.11521613997
 20
7237.685576144207
 30
0.0
 41
12.0
 42
12.0
 43
12.0
 50
180.0
  0
INSERT
  5
1418
330
3A10
100
AcDbEntity
  8
SIZE
 62
     0
100
AcDbBlockReference
  2
_DOTBLANK
 10
-22044.11521613997
 20
7237.685576144207
 30
0.0
 41
12.0
 42
12.0
 43
12.0
  0
INSERT
  5
1419
330
3A10
100
AcDbEntity
  8
0
100
AcDbBlockReference
  2
*U23
 10
0.0
 20
0.0
 30
0.0
  0
POINT
  5
141A
330
3A10
100
AcDbEntity
  8
DEFPOINTS
 62
     0
100
AcDbPoint
 10
-22313.11521613997
 20
7385.702971374808
 30
0.0
  0
POINT
  5
141B
330
3A10
100
AcDbEntity
  8
DEFPOINTS
 62
     0
100
AcDbPoint
 10
-22044.11521613997
 20
7385.702971374808
 30
0.0
  0
POINT
  5
141C
330
3A10
100
AcDbEntity
  8
DEFPOINTS
 62
     0
100
AcDbPoint
 10
-22044.11521613997
 20
7237.685576144207
 30
0.0
  0
ENDBLK
  5
141D
330
3A10
100
AcDbEntity
  8
0
100
AcDbBlockEnd
  0
BLOCK
  5
3A13
330
3A12
100
AcDbEntity
  8
0
100
AcDbBlockBegin
  2
*U23
 70
     1
 10
0.0
 20
0.0
 30
0.0
  3
*U23
  1

  0
TEXT
  5
1EF9
330
3A12
100
AcDbEntity
  8
SIZE
 62
     0
100
AcDbText
 10
-22251.30093042568
 20
7247.685576144205
 30
0.0
 40
64.0
  1
269
 41
0.9
100
AcDbText
  0
ENDBLK
  5
1EFB
330
3A12
100
AcDbEntity
  8
0
100
AcDbBlockEnd
  0
BLOCK
  5
3A15
330
3A14
100
AcDbEntity
  8
0
100
AcDbBlockBegin
  2
*D24
 70
     1
 10
0.0
 20
0.0
 30
0.0
  3
*D24
  1

  0
LINE
  5
1420
330
3A14
100
AcDbEntity
  8
SIZE
  6
Continuous
 62
     0
100
AcDbLine
 10
-22035.11521613997
 20
7385.702971374808
 30
0.0
 11
-21873.97193165959
 21
7385.702971374808
 31
0.0
  0
LINE
  5
1421
330
3A14
100
AcDbEntity
  8
SIZE
  6
Continuous
 62
     0
100
AcDbLine
 10
-22001.11521613997
 20
7685.702971374808
 30
0.0
 11
-21873.97193165959
 21
7685.702971374808
 31
0.0
  0
LINE
  5
1422
330
3A14
100
AcDbEntity
  8
SIZE
  6
Continuous
 62
     0
100
AcDbLine
 10
-21893.97193165959
 20
7397.702971374808
 30
0.0
 11
-21893.97193165959
 21
7673.702971374808
 31
0.0
  0
INSERT
  5
1423
330
3A14
100
AcDbEntity
  8
SIZE
  6
Continuous
 62
     0
100
AcDbBlockReference
  2
_DOTBLANK
 10
-21893.97193165959
 20
7385.702971374808
 30
0.0
 41
12.0
 42
12.0
 43
12.0
 50
270.0
  0
INSERT
  5
1424
330
3A14
100
AcDbEntity
  8
SIZE
  6
Continuous
 62
     0
100
AcDbBlockReference
  2
_DOTBLANK
 10
-21893.97193165959
 20
7685.702971374808
 30
0.0
 41
12.0
 42
12.0
 43
12.0
 50
90.0
  0
INSERT
  5
1425
330
3A14
100
AcDbEntity
  8
0
100
AcDbBlockReference
  2
*U25
 10
0.0
 20
0.0
 30
0.0
  0
POINT
  5
1426
330
3A14
100
AcDbEntity
  8
DEFPOINTS
  6
Continuous
 62
     0
100
AcDbPoint
 10
-22055.11521613997
 20
7385.702971374808
 30
0.0
  0
POINT
  5
1427
330
3A14
100
AcDbEntity
  8
DEFPOINTS
  6
Continuous
 62
     0
100
AcDbPoint
 10
-22021.11521613997
 20
7685.702971374808
 30
0.0
  0
POINT
  5
1428
330
3A14
100
AcDbEntity
  8
DEFPOINTS
  6
Continuous
 62
     0
100
AcDbPoint
 10
-21893.97193165959
 20
7685.702971374808
 30
0.0
  0
ENDBLK
  5
1429
330
3A14
100
AcDbEntity
  8
0
100
AcDbBlockEnd
  0
BLOCK
  5
3A17
330
3A16
100
AcDbEntity
  8
0
100
AcDbBlockBegin
  2
*U25
 70
     1
 10
0.0
 20
0.0
 30
0.0
  3
*U25
  1

  0
TEXT
  5
1EFD
330
3A16
100
AcDbEntity
  8
SIZE
 62
     0
100
AcDbText
 10
-21903.97193165959
 20
7461.645828517662
 30
0.0
 40
64.0
  1
300
 50
90.0
 41
0.9
100
AcDbText
  0
ENDBLK
  5
1EFF
330
3A16
100
AcDbEntity
  8
0
100
AcDbBlockEnd
  0
BLOCK
  5
3A19
330
3A18
100
AcDbEntity
  8
0
100
AcDbBlockBegin
  2
*D26
 70
     1
 10
0.0
 20
0.0
 30
0.0
  3
*D26
  1

  0
LINE
  5
142C
330
3A18
100
AcDbEntity
  8
SIZE
 62
     0
100
AcDbLine
 10
-22318.61521613997
 20
7718.167454177002
 30
0.0
 11
-22318.61521613997
 21
7822.154659243358
 31
0.0
  0
LINE
  5
142D
330
3A18
100
AcDbEntity
  8
SIZE
 62
     0
100
AcDbLine
 10
-22038.61521613997
 20
7718.167454177002
 30
0.0
 11
-22038.61521613997
 21
7822.154659243358
 31
0.0
  0
LINE
  5
142E
330
3A18
100
AcDbEntity
  8
SIZE
 62
     0
100
AcDbLine
 10
-22306.61521613997
 20
7802.154659243358
 30
0.0
 11
-22050.61521613997
 21
7802.154659243358
 31
0.0
  0
INSERT
  5
142F
330
3A18
100
AcDbEntity
  8
SIZE
 62
     0
100
AcDbBlockReference
  2
_DOTBLANK
 10
-22318.61521613997
 20
7802.154659243358
 30
0.0
 41
12.0
 42
12.0
 43
12.0
 50
180.0
  0
INSERT
  5
1430
330
3A18
100
AcDbEntity
  8
SIZE
 62
     0
100
AcDbBlockReference
  2
_DOTBLANK
 10
-22038.61521613997
 20
7802.154659243358
 30
0.0
 41
12.0
 42
12.0
 43
12.0
  0
INSERT
  5
1431
330
3A18
100
AcDbEntity
  8
0
100
AcDbBlockReference
  2
*U27
 10
0.0
 20
0.0
 30
0.0
  0
POINT
  5
1432
330
3A18
100
AcDbEntity
  8
DEFPOINTS
 62
     0
100
AcDbPoint
 10
-22318.61521613997
 20
7698.167454177002
 30
0.0
  0
POINT
  5
1433
330
3A18
100
AcDbEntity
  8
DEFPOINTS
 62
     0
100
AcDbPoint
 10
-22038.61521613997
 20
7698.167454177002
 30
0.0
  0
POINT
  5
1434
330
3A18
100
AcDbEntity
  8
DEFPOINTS
 62
     0
100
AcDbPoint
 10
-22038.61521613997
 20
7802.154659243358
 30
0.0
  0
ENDBLK
  5
1435
330
3A18
100
AcDbEntity
  8
0
100
AcDbBlockEnd
  0
BLOCK
  5
3A1B
330
3A1A
100
AcDbEntity
  8
0
100
AcDbBlockBegin
  2
*U27
 70
     1
 10
0.0
 20
0.0
 30
0.0
  3
*U27
  1

  0
TEXT
  5
1F01
330
3A1A
100
AcDbEntity
  8
SIZE
 62
     0
100
AcDbText
 10
-22252.6723589971
 20
7812.154659243358
 30
0.0
 40
64.0
  1
280
 41
0.9
100
AcDbText
  0
ENDBLK
  5
1F03
330
3A1A
100
AcDbEntity
  8
0
100
AcDbBlockEnd
  0
BLOCK
  5
3A1D
330
3A1C
100
AcDbEntity
  8
0
100
AcDbBlockBegin
  2
*D28
 70
     1
 10
0.0
 20
0.0
 30
0.0
  3
*D28
  1

  0
LINE
  5
1438
330
3A1C
100
AcDbEntity
  8
SIZE
 62
     0
100
AcDbLine
 10
-22336.11521613997
 20
7705.702971374808
 30
0.0
 11
-22336.11521613997
 21
7931.282433493766
 31
0.0
  0
LINE
  5
1439
330
3A1C
100
AcDbEntity
  8
SIZE
 62
     0
100
AcDbLine
 10
-22021.11521613997
 20
7705.702971374808
 30
0.0
 11
-22021.11521613997
 21
7931.282433493766
 31
0.0
  0
LINE
  5
143A
330
3A1C
100
AcDbEntity
  8
SIZE
 62
     0
100
AcDbLine
 10
-22324.11521613997
 20
7911.282433493766
 30
0.0
 11
-22033.11521613997
 21
7911.282433493766
 31
0.0
  0
INSERT
  5
143B
330
3A1C
100
AcDbEntity
  8
SIZE
 62
     0
100
AcDbBlockReference
  2
_DOTBLANK
 10
-22336.11521613997
 20
7911.282433493766
 30
0.0
 41
12.0
 42
12.0
 43
12.0
 50
180.0
  0
INSERT
  5
143C
330
3A1C
100
AcDbEntity
  8
SIZE
 62
     0
100
AcDbBlockReference
  2
_DOTBLANK
 10
-22021.11521613997
 20
7911.282433493766
 30
0.0
 41
12.0
 42
12.0
 43
12.0
  0
INSERT
  5
143D
330
3A1C
100
AcDbEntity
  8
0
100
AcDbBlockReference
  2
*U29
 10
0.0
 20
0.0
 30
0.0
  0
POINT
  5
143E
330
3A1C
100
AcDbEntity
  8
DEFPOINTS
 62
     0
100
AcDbPoint
 10
-22336.11521613997
 20
7685.702971374808
 30
0.0
  0
POINT
  5
143F
330
3A1C
100
AcDbEntity
  8
DEFPOINTS
 62
     0
100
AcDbPoint
 10
-22021.11521613997
 20
7685.702971374808
 30
0.0
  0
POINT
  5
1440
330
3A1C
100
AcDbEntity
  8
DEFPOINTS
 62
     0
100
AcDbPoint
 10
-22021.11521613997
 20
7911.282433493766
 30
0.0
  0
ENDBLK
  5
1441
330
3A1C
100
AcDbEntity
  8
0
100
AcDbBlockEnd
  0
BLOCK
  5
3A1F
330
3A1E
100
AcDbEntity
  8
0
100
AcDbBlockBegin
  2
*U29
 70
     1
 10
0.0
 20
0.0
 30
0.0
  3
*U29
  1

  0
TEXT
  5
1F05
330
3A1E
100
AcDbEntity
  8
SIZE
 62
     0
100
AcDbText
 10
-22247.18664471139
 20
7921.282433493766
 30
0.0
 40
64.0
  1
315
 41
0.9
100
AcDbText
  0
ENDBLK
  5
1F07
330
3A1E
100
AcDbEntity
  8
0
100
AcDbBlockEnd
  0
BLOCK
  5
3A21
330
3A20
100
AcDbEntity
  8
0
100
AcDbBlockBegin
  2
*D30
 70
     1
 10
0.0
 20
0.0
 30
0.0
  3
*D30
  1

  0
LINE
  5
166B
330
3A20
100
AcDbEntity
  8
SIZE
 62
     0
100
AcDbLine
 10
-134.5
 20
-320.0
 30
0.0
 11
-134.5
 21
-468.0173952306001
 31
0.0
  0
LINE
  5
166C
330
3A20
100
AcDbEntity
  8
SIZE
 62
     0
100
AcDbLine
 10
134.5
 20
-320.0
 30
0.0
 11
134.5
 21
-468.0173952306001
 31
0.0
  0
LINE
  5
166D
330
3A20
100
AcDbEntity
  8
SIZE
 62
     0
100
AcDbLine
 10
-122.5
 20
-448.0173952306
 30
0.0
 11
122.5
 21
-448.0173952306
 31
0.0
  0
INSERT
  5
166E
330
3A20
100
AcDbEntity
  8
SIZE
 62
     0
100
AcDbBlockReference
  2
_DOTBLANK
 10
-134.5
 20
-448.0173952306
 30
0.0
 41
12.0
 42
12.0
 43
12.0
 50
180.0
  0
INSERT
  5
166F
330
3A20
100
AcDbEntity
  8
SIZE
 62
     0
100
AcDbBlockReference
  2
_DOTBLANK
 10
134.5
 20
-448.0173952306
 30
0.0
 41
12.0
 42
12.0
 43
12.0
  0
INSERT
  5
1670
330
3A20
100
AcDbEntity
  8
0
100
AcDbBlockReference
  2
*U31
 10
0.0
 20
0.0
 30
0.0
  0
POINT
  5
1671
330
3A20
100
AcDbEntity
  8
DEFPOINTS
 62
     0
100
AcDbPoint
 10
-134.5
 20
-300.0
 30
0.0
  0
POINT
  5
1672
330
3A20
100
AcDbEntity
  8
DEFPOINTS
 62
     0
100
AcDbPoint
 10
134.5
 20
-300.0
 30
0.0
  0
POINT
  5
1673
330
3A20
100
AcDbEntity
  8
DEFPOINTS
 62
     0
100
AcDbPoint
 10
134.5
 20
-448.0173952306
 30
0.0
  0
ENDBLK
  5
14A7
330
3A20
100
AcDbEntity
  8
0
100
AcDbBlockEnd
  0
BLOCK
  5
3A23
330
3A22
100
AcDbEntity
  8
0
100
AcDbBlockBegin
  2
*U31
 70
     1
 10
0.0
 20
0.0
 30
0.0
  3
*U31
  1

  0
TEXT
  5
1F09
330
3A22
100
AcDbEntity
  8
SIZE
 62
     0
100
AcDbText
 10
-72.68571428571426
 20
-438.0173952306002
 30
0.0
 40
64.0
  1
269
 41
0.9
100
AcDbText
  0
ENDBLK
  5
1F0B
330
3A22
100
AcDbEntity
  8
0
100
AcDbBlockEnd
  0
BLOCK
  5
3A25
330
3A24
100
AcDbEntity
  8
0
100
AcDbBlockBegin
  2
*D32
 70
     1
 10
0.0
 20
0.0
 30
0.0
  3
*D32
  1

  0
LINE
  5
1674
330
3A24
100
AcDbEntity
  8
SIZE
  6
Continuous
 62
     0
100
AcDbLine
 10
143.5
 20
-300.0
 30
0.0
 11
304.6432844803784
 21
-300.0
 31
0.0
  0
LINE
  5
1675
330
3A24
100
AcDbEntity
  8
SIZE
  6
Continuous
 62
     0
100
AcDbLine
 10
177.5
 20
-0.0000000000000057
 30
0.0
 11
304.6432844803785
 21
-0.0000000000000417
 31
0.0
  0
LINE
  5
1676
330
3A24
100
AcDbEntity
  8
SIZE
  6
Continuous
 62
     0
100
AcDbLine
 10
284.6432844803784
 20
-288.0000000000001
 30
0.0
 11
284.6432844803785
 21
-12.00000000000003
 31
0.0
  0
INSERT
  5
1677
330
3A24
100
AcDbEntity
  8
SIZE
  6
Continuous
 62
     0
100
AcDbBlockReference
  2
_DOTBLANK
 10
284.6432844803784
 20
-300.0
 30
0.0
 41
12.0
 42
12.0
 43
12.0
 50
270.0
  0
INSERT
  5
1678
330
3A24
100
AcDbEntity
  8
SIZE
  6
Continuous
 62
     0
100
AcDbBlockReference
  2
_DOTBLANK
 10
284.6432844803785
 20
-0.000000000000036
 30
0.0
 41
12.0
 42
12.0
 43
12.0
 50
90.0
  0
INSERT
  5
1679
330
3A24
100
AcDbEntity
  8
0
100
AcDbBlockReference
  2
*U33
 10
0.0
 20
0.0
 30
0.0
  0
POINT
  5
167A
330
3A24
100
AcDbEntity
  8
DEFPOINTS
  6
Continuous
 62
     0
100
AcDbPoint
 10
123.5
 20
-300.0
 30
0.0
  0
POINT
  5
167B
330
3A24
100
AcDbEntity
  8
DEFPOINTS
  6
Continuous
 62
     0
100
AcDbPoint
 10
157.5
 20
0.0
 30
0.0
  0
POINT
  5
167C
330
3A24
100
AcDbEntity
  8
DEFPOINTS
  6
Continuous
 62
     0
100
AcDbPoint
 10
284.6432844803785
 20
-0.000000000000036
 30
0.0
  0
ENDBLK
  5
14B3
330
3A24
100
AcDbEntity
  8
0
100
AcDbBlockEnd
  0
BLOCK
  5
3A27
330
3A26
100
AcDbEntity
  8
0
100
AcDbBlockBegin
  2
*U33
 70
     1
 10
0.0
 20
0.0
 30
0.0
  3
*U33
  1

  0
TEXT
  5
1F0D
330
3A26
100
AcDbEntity
  8
SIZE
 62
     0
100
AcDbText
 10
274.6432844803785
 20
-224.0571428571429
 30
0.0
 40
64.0
  1
300
 50
90.0
 41
0.9
100
AcDbText
  0
ENDBLK
  5
1F0F
330
3A26
100
AcDbEntity
  8
0
100
AcDbBlockEnd
  0
BLOCK
  5
3A29
330
3A28
100
AcDbEntity
  8
0
100
AcDbBlockBegin
  2
*D34
 70
     1
 10
0.0
 20
0.0
 30
0.0
  3
*D34
  1

  0
LINE
  5
167D
330
3A28
100
AcDbEntity
  8
SIZE
 62
     0
100
AcDbLine
 10
-140.0
 20
32.46448280219375
 30
0.0
 11
-140.0
 21
136.4516878685507
 31
0.0
  0
LINE
  5
167E
330
3A28
100
AcDbEntity
  8
SIZE
 62
     0
100
AcDbLine
 10
140.0
 20
32.46448280219375
 30
0.0
 11
140.0
 21
136.4516878685507
 31
0.0
  0
LINE
  5
167F
330
3A28
100
AcDbEntity
  8
SIZE
 62
     0
100
AcDbLine
 10
-128.0
 20
116.4516878685508
 30
0.0
 11
128.0
 21
116.4516878685508
 31
0.0
  0
INSERT
  5
1680
330
3A28
100
AcDbEntity
  8
SIZE
 62
     0
100
AcDbBlockReference
  2
_DOTBLANK
 10
-140.0
 20
116.4516878685508
 30
0.0
 41
12.0
 42
12.0
 43
12.0
 50
180.0
  0
INSERT
  5
1681
330
3A28
100
AcDbEntity
  8
SIZE
 62
     0
100
AcDbBlockReference
  2
_DOTBLANK
 10
140.0
 20
116.4516878685508
 30
0.0
 41
12.0
 42
12.0
 43
12.0
  0
INSERT
  5
1682
330
3A28
100
AcDbEntity
  8
0
100
AcDbBlockReference
  2
*U35
 10
0.0
 20
0.0
 30
0.0
  0
POINT
  5
1683
330
3A28
100
AcDbEntity
  8
DEFPOINTS
 62
     0
100
AcDbPoint
 10
-140.0
 20
12.46448280219374
 30
0.0
  0
POINT
  5
1684
330
3A28
100
AcDbEntity
  8
DEFPOINTS
 62
     0
100
AcDbPoint
 10
140.0
 20
12.46448280219374
 30
0.0
  0
POINT
  5
1685
330
3A28
100
AcDbEntity
  8
DEFPOINTS
 62
     0
100
AcDbPoint
 10
140.0
 20
116.4516878685508
 30
0.0
  0
ENDBLK
  5
14BF
330
3A28
100
AcDbEntity
  8
0
100
AcDbBlockEnd
  0
BLOCK
  5
3A2B
330
3A2A
100
AcDbEntity
  8
0
100
AcDbBlockBegin
  2
*U35
 70
     1
 10
0.0
 20
0.0
 30
0.0
  3
*U35
  1

  0
TEXT
  5
1F11
330
3A2A
100
AcDbEntity
  8
SIZE
 62
     0
100
AcDbText
 10
-74.05714285714283
 20
126.4516878685507
 30
0.0
 40
64.0
  1
280
 41
0.9
100
AcDbText
  0
ENDBLK
  5
1F13
330
3A2A
100
AcDbEntity
  8
0
100
AcDbBlockEnd
  0
BLOCK
  5
3A2D
330
3A2C
100
AcDbEntity
  8
0
100
AcDbBlockBegin
  2
*D36
 70
     1
 10
0.0
 20
0.0
 30
0.0
  3
*D36
  1

  0
LINE
  5
1686
330
3A2C
100
AcDbEntity
  8
SIZE
 62
     0
100
AcDbLine
 10
-157.5
 20
20.0
 30
0.0
 11
-157.5
 21
245.5794621189598
 31
0.0
  0
LINE
  5
1687
330
3A2C
100
AcDbEntity
  8
SIZE
 62
     0
100
AcDbLine
 10
157.5
 20
20.0
 30
0.0
 11
157.5
 21
245.5794621189598
 31
0.0
  0
LINE
  5
1688
330
3A2C
100
AcDbEntity
  8
SIZE
 62
     0
100
AcDbLine
 10
-145.5
 20
225.5794621189598
 30
0.0
 11
145.5
 21
225.5794621189598
 31
0.0
  0
INSERT
  5
1689
330
3A2C
100
AcDbEntity
  8
SIZE
 62
     0
100
AcDbBlockReference
  2
_DOTBLANK
 10
-157.5
 20
225.5794621189598
 30
0.0
 41
12.0
 42
12.0
 43
12.0
 50
180.0
  0
INSERT
  5
168A
330
3A2C
100
AcDbEntity
  8
SIZE
 62
     0
100
AcDbBlockReference
  2
_DOTBLANK
 10
157.5
 20
225.5794621189598
 30
0.0
 41
12.0
 42
12.0
 43
12.0
  0
INSERT
  5
168B
330
3A2C
100
AcDbEntity
  8
0
100
AcDbBlockReference
  2
*U37
 10
0.0
 20
0.0
 30
0.0
  0
POINT
  5
168C
330
3A2C
100
AcDbEntity
  8
DEFPOINTS
 62
     0
100
AcDbPoint
 10
-157.5
 20
0.0
 30
0.0
  0
POINT
  5
168D
330
3A2C
100
AcDbEntity
  8
DEFPOINTS
 62
     0
100
AcDbPoint
 10
157.5
 20
0.0
 30
0.0
  0
POINT
  5
168E
330
3A2C
100
AcDbEntity
  8
DEFPOINTS
 62
     0
100
AcDbPoint
 10
157.5
 20
225.5794621189598
 30
0.0
  0
ENDBLK
  5
14CB
330
3A2C
100
AcDbEntity
  8
0
100
AcDbBlockEnd
  0
BLOCK
  5
3A2F
330
3A2E
100
AcDbEntity
  8
0
100
AcDbBlockBegin
  2
*U37
 70
     1
 10
0.0
 20
0.0
 30
0.0
  3
*U37
  1

  0
TEXT
  5
1F15
330
3A2E
100
AcDbEntity
  8
SIZE
 62
     0
100
AcDbText
 10
-68.57142857142857
 20
235.5794621189598
 30
0.0
 40
64.0
  1
315
 41
0.9
100
AcDbText
  0
ENDBLK
  5
1F17
330
3A2E
100
AcDbEntity
  8
0
100
AcDbBlockEnd
  0
BLOCK
  5
3A31
330
3A30
100
AcDbEntity
  8
0
100
AcDbBlockBegin
  2
*U38
 70
     1
 10
0.0
 20
0.0
 30
0.0
  3
*U38
  1

  0
ENDBLK
  5
15CF
330
3A30
100
AcDbEntity
  8
0
100
AcDbBlockEnd
  0
BLOCK
  5
3A33
330
3A32
100
AcDbEntity
  8
0
100
AcDbBlockBegin
  2
*D39
 70
     1
 10
0.0
 20
0.0
 30
0.0
  3
*D39
  1

  0
LINE
  5
1692
330
3A32
100
AcDbEntity
  8
SIZE
 62
     0
100
AcDbLine
 10
-25844.51823276502
 20
7685.702971374808
 30
0.0
 11
-25981.04465488371
 21
7685.702971374808
 31
0.0
  0
LINE
  5
1693
330
3A32
100
AcDbEntity
  8
SIZE
 62
     0
100
AcDbLine
 10
-25844.51823276502
 20
7677.702971374808
 30
0.0
 11
-25981.04465488371
 21
7677.702971374808
 31
0.0
  0
LINE
  5
1694
330
3A32
100
AcDbEntity
  8
SIZE
 62
     0
100
AcDbLine
 10
-25961.04465488371
 20
7697.702971374808
 30
0.0
 11
-25961.04465488371
 21
7709.702971374809
 31
0.0
  0
LINE
  5
1695
330
3A32
100
AcDbEntity
  8
SIZE
 62
     0
100
AcDbLine
 10
-25961.04465488371
 20
7665.70297137481
 30
0.0
 11
-25961.04465488371
 21
7595.302971374808
 31
0.0
  0
INSERT
  5
1696
330
3A32
100
AcDbEntity
  8
SIZE
 62
     0
100
AcDbBlockReference
  2
_DOTBLANK
 10
-25961.04465488371
 20
7685.702971374808
 30
0.0
 41
12.0
 42
12.0
 43
12.0
 50
270.0
  0
INSERT
  5
1697
330
3A32
100
AcDbEntity
  8
SIZE
 62
     0
100
AcDbBlockReference
  2
_DOTBLANK
 10
-25961.04465488371
 20
7677.702971374808
 30
0.0
 41
12.0
 42
12.0
 43
12.0
 50
90.0
  0
INSERT
  5
1698
330
3A32
100
AcDbEntity
  8
0
100
AcDbBlockReference
  2
*U40
 10
0.0
 20
0.0
 30
0.0
  0
POINT
  5
1699
330
3A32
100
AcDbEntity
  8
DEFPOINTS
 62
     0
100
AcDbPoint
 10
-25824.51823276501
 20
7685.702971374808
 30
0.0
  0
POINT
  5
169A
330
3A32
100
AcDbEntity
  8
DEFPOINTS
 62
     0
100
AcDbPoint
 10
-25824.51823276501
 20
7677.702971374808
 30
0.0
  0
POINT
  5
169B
330
3A32
100
AcDbEntity
  8
DEFPOINTS
 62
     0
100
AcDbPoint
 10
-25961.04465488371
 20
7677.702971374808
 30
0.0
  0
ENDBLK
  5
169C
330
3A32
100
AcDbEntity
  8
0
100
AcDbBlockEnd
  0
BLOCK
  5
3A35
330
3A34
100
AcDbEntity
  8
0
100
AcDbBlockBegin
  2
*U40
 70
     1
 10
0.0
 20
0.0
 30
0.0
  3
*U40
  1

  0
TEXT
  5
1F19
330
3A34
100
AcDbEntity
  8
SIZE
 62
     0
100
AcDbText
 10
-25971.04465488371
 20
7605.302971374804
 30
0.0
 40
64.0
  1
8
 50
90.0
 41
0.9
100
AcDbText
  0
ENDBLK
  5
1F1B
330
3A34
100
AcDbEntity
  8
0
100
AcDbBlockEnd
  0
BLOCK
  5
3A37
330
3A36
100
AcDbEntity
  8
0
100
AcDbBlockBegin
  2
*D41
 70
     1
 10
0.0
 20
0.0
 30
0.0
  3
*D41
  1

  0
LINE
  5
169F
330
3A36
100
AcDbEntity
  8
SIZE
 62
     0
100
AcDbLine
 10
-25512.51823276502
 20
7385.702971374808
 30
0.0
 11
-25362.37494828464
 21
7385.702971374808
 31
0.0
  0
LINE
  5
16A0
330
3A36
100
AcDbEntity
  8
SIZE
 62
     0
100
AcDbLine
 10
-25523.51823276501
 20
7373.702971374808
 30
0.0
 11
-25362.37494828464
 21
7373.702971374808
 31
0.0
  0
LINE
  5
16A1
330
3A36
100
AcDbEntity
  8
SIZE
 62
     0
100
AcDbLine
 10
-25382.37494828464
 20
7397.702971374808
 30
0.0
 11
-25382.37494828464
 21
7409.70297137481
 31
0.0
  0
LINE
  5
16A2
330
3A36
100
AcDbEntity
  8
SIZE
 62
     0
100
AcDbLine
 10
-25382.37494828464
 20
7361.702971374808
 30
0.0
 11
-25382.37494828464
 21
7244.674399946237
 31
0.0
  0
INSERT
  5
16A3
330
3A36
100
AcDbEntity
  8
SIZE
 62
     0
100
AcDbBlockReference
  2
_DOTBLANK
 10
-25382.37494828464
 20
7385.702971374808
 30
0.0
 41
12.0
 42
12.0
 43
12.0
 50
270.0
  0
INSERT
  5
16A4
330
3A36
100
AcDbEntity
  8
SIZE
 62
     0
100
AcDbBlockReference
  2
_DOTBLANK
 10
-25382.37494828464
 20
7373.702971374808
 30
0.0
 41
12.0
 42
12.0
 43
12.0
 50
90.0
  0
INSERT
  5
16A5
330
3A36
100
AcDbEntity
  8
0
100
AcDbBlockReference
  2
*U42
 10
0.0
 20
0.0
 30
0.0
  0
POINT
  5
16A6
330
3A36
100
AcDbEntity
  8
DEFPOINTS
 62
     0
100
AcDbPoint
 10
-25532.51823276502
 20
7385.702971374808
 30
0.0
  0
POINT
  5
16A7
330
3A36
100
AcDbEntity
  8
DEFPOINTS
 62
     0
100
AcDbPoint
 10
-25543.51823276502
 20
7373.702971374808
 30
0.0
  0
POINT
  5
16A8
330
3A36
100
AcDbEntity
  8
DEFPOINTS
 62
     0
100
AcDbPoint
 10
-25382.37494828464
 20
7373.702971374808
 30
0.0
  0
ENDBLK
  5
16A9
330
3A36
100
AcDbEntity
  8
0
100
AcDbBlockEnd
  0
BLOCK
  5
3A39
330
3A38
100
AcDbEntity
  8
0
100
AcDbBlockBegin
  2
*U42
 70
     1
 10
0.0
 20
0.0
 30
0.0
  3
*U42
  1

  0
TEXT
  5
1F1D
330
3A38
100
AcDbEntity
  8
SIZE
 62
     0
100
AcDbText
 10
-25392.37494828464
 20
7256.045828517662
 30
0.0
 40
64.0
  1
12
 50
90.0
 41
0.9
100
AcDbText
  0
ENDBLK
  5
1F1F
330
3A38
100
AcDbEntity
  8
0
100
AcDbBlockEnd
  0
BLOCK
  5
3A3B
330
3A3A
100
AcDbEntity
  8
0
100
AcDbBlockBegin
  2
*D43
 70
     1
 10
0.0
 20
0.0
 30
0.0
  3
*D43
  1

  0
LINE
  5
16AC
330
3A3A
100
AcDbEntity
  8
SIZE
 62
     0
100
AcDbLine
 10
-25801.51823276501
 20
7365.702971374808
 30
0.0
 11
-25801.51823276501
 21
7217.685576144207
 31
0.0
  0
LINE
  5
16AD
330
3A3A
100
AcDbEntity
  8
SIZE
 62
     0
100
AcDbLine
 10
-25532.51823276502
 20
7365.702971374808
 30
0.0
 11
-25532.51823276502
 21
7217.685576144207
 31
0.0
  0
LINE
  5
16AE
330
3A3A
100
AcDbEntity
  8
SIZE
 62
     0
100
AcDbLine
 10
-25789.51823276502
 20
7237.685576144207
 30
0.0
 11
-25544.51823276501
 21
7237.685576144207
 31
0.0
  0
INSERT
  5
16AF
330
3A3A
100
AcDbEntity
  8
SIZE
 62
     0
100
AcDbBlockReference
  2
_DOTBLANK
 10
-25801.51823276501
 20
7237.685576144207
 30
0.0
 41
12.0
 42
12.0
 43
12.0
 50
180.0
  0
INSERT
  5
16B0
330
3A3A
100
AcDbEntity
  8
SIZE
 62
     0
100
AcDbBlockReference
  2
_DOTBLANK
 10
-25532.51823276502
 20
7237.685576144207
 30
0.0
 41
12.0
 42
12.0
 43
12.0
  0
INSERT
  5
16B1
330
3A3A
100
AcDbEntity
  8
0
100
AcDbBlockReference
  2
*U44
 10
0.0
 20
0.0
 30
0.0
  0
POINT
  5
16B2
330
3A3A
100
AcDbEntity
  8
DEFPOINTS
 62
     0
100
AcDbPoint
 10
-25801.51823276501
 20
7385.702971374808
 30
0.0
  0
POINT
  5
16B3
330
3A3A
100
AcDbEntity
  8
DEFPOINTS
 62
     0
100
AcDbPoint
 10
-25532.51823276502
 20
7385.702971374808
 30
0.0
  0
POINT
  5
16B4
330
3A3A
100
AcDbEntity
  8
DEFPOINTS
 62
     0
100
AcDbPoint
 10
-25532.51823276502
 20
7237.685576144207
 30
0.0
  0
ENDBLK
  5
16B5
330
3A3A
100
AcDbEntity
  8
0
100
AcDbBlockEnd
  0
BLOCK
  5
3A3D
330
3A3C
100
AcDbEntity
  8
0
100
AcDbBlockBegin
  2
*U44
 70
     1
 10
0.0
 20
0.0
 30
0.0
  3
*U44
  1

  0
TEXT
  5
1F21
330
3A3C
100
AcDbEntity
  8
SIZE
 62
     0
100
AcDbText
 10
-25739.70394705074
 20
7247.685576144205
 30
0.0
 40
64.0
  1
269
 41
0.9
100
AcDbText
  0
ENDBLK
  5
1F23
330
3A3C
100
AcDbEntity
  8
0
100
AcDbBlockEnd
  0
BLOCK
  5
3A3F
330
3A3E
100
AcDbEntity
  8
0
100
AcDbBlockBegin
  2
*D45
 70
     1
 10
0.0
 20
0.0
 30
0.0
  3
*D45
  1

  0
LINE
  5
16B8
330
3A3E
100
AcDbEntity
  8
SIZE
 62
     0
100
AcDbLine
 10
-25512.51823276502
 20
7385.702971374808
 30
0.0
 11
-25362.37494828464
 21
7385.702971374808
 31
0.0
  0
LINE
  5
16B9
330
3A3E
100
AcDbEntity
  8
SIZE
 62
     0
100
AcDbLine
 10
-25489.51823276501
 20
7685.702971374808
 30
0.0
 11
-25362.37494828464
 21
7685.702971374808
 31
0.0
  0
LINE
  5
16BA
330
3A3E
100
AcDbEntity
  8
SIZE
 62
     0
100
AcDbLine
 10
-25382.37494828464
 20
7397.702971374808
 30
0.0
 11
-25382.37494828464
 21
7673.702971374808
 31
0.0
  0
INSERT
  5
16BB
330
3A3E
100
AcDbEntity
  8
SIZE
 62
     0
100
AcDbBlockReference
  2
_DOTBLANK
 10
-25382.37494828464
 20
7385.702971374808
 30
0.0
 41
12.0
 42
12.0
 43
12.0
 50
270.0
  0
INSERT
  5
16BC
330
3A3E
100
AcDbEntity
  8
SIZE
 62
     0
100
AcDbBlockReference
  2
_DOTBLANK
 10
-25382.37494828464
 20
7685.702971374808
 30
0.0
 41
12.0
 42
12.0
 43
12.0
 50
90.0
  0
INSERT
  5
16BD
330
3A3E
100
AcDbEntity
  8
0
100
AcDbBlockReference
  2
*U46
 10
0.0
 20
0.0
 30
0.0
  0
POINT
  5
16BE
330
3A3E
100
AcDbEntity
  8
DEFPOINTS
 62
     0
100
AcDbPoint
 10
-25532.51823276502
 20
7385.702971374808
 30
0.0
  0
POINT
  5
16BF
330
3A3E
100
AcDbEntity
  8
DEFPOINTS
 62
     0
100
AcDbPoint
 10
-25509.51823276502
 20
7685.702971374808
 30
0.0
  0
POINT
  5
16C0
330
3A3E
100
AcDbEntity
  8
DEFPOINTS
 62
     0
100
AcDbPoint
 10
-25382.37494828464
 20
7685.702971374808
 30
0.0
  0
ENDBLK
  5
16C1
330
3A3E
100
AcDbEntity
  8
0
100
AcDbBlockEnd
  0
BLOCK
  5
3A41
330
3A40
100
AcDbEntity
  8
0
100
AcDbBlockBegin
  2
*U46
 70
     1
 10
0.0
 20
0.0
 30
0.0
  3
*U46
  1

  0
TEXT
  5
1F25
330
3A40
100
AcDbEntity
  8
SIZE
 62
     0
100
AcDbText
 10
-25392.37494828464
 20
7461.645828517662
 30
0.0
 40
64.0
  1
300
 50
90.0
 41
0.9
100
AcDbText
  0
ENDBLK
  5
1F27
330
3A40
100
AcDbEntity
  8
0
100
AcDbBlockEnd
  0
BLOCK
  5
3A43
330
3A42
100
AcDbEntity
  8
0
100
AcDbBlockBegin
  2
*D47
 70
     1
 10
0.0
 20
0.0
 30
0.0
  3
*D47
  1

  0
LINE
  5
16C4
330
3A42
100
AcDbEntity
  8
SIZE
 62
     0
100
AcDbLine
 10
-25807.01823276501
 20
7718.167454177002
 30
0.0
 11
-25807.01823276501
 21
7822.154659243358
 31
0.0
  0
LINE
  5
16C5
330
3A42
100
AcDbEntity
  8
SIZE
 62
     0
100
AcDbLine
 10
-25527.01823276501
 20
7718.167454177002
 30
0.0
 11
-25527.01823276501
 21
7822.154659243358
 31
0.0
  0
LINE
  5
16C6
330
3A42
100
AcDbEntity
  8
SIZE
 62
     0
100
AcDbLine
 10
-25795.01823276502
 20
7802.154659243358
 30
0.0
 11
-25539.01823276501
 21
7802.154659243358
 31
0.0
  0
INSERT
  5
16C7
330
3A42
100
AcDbEntity
  8
SIZE
 62
     0
100
AcDbBlockReference
  2
_DOTBLANK
 10
-25807.01823276501
 20
7802.154659243358
 30
0.0
 41
12.0
 42
12.0
 43
12.0
 50
180.0
  0
INSERT
  5
16C8
330
3A42
100
AcDbEntity
  8
SIZE
 62
     0
100
AcDbBlockReference
  2
_DOTBLANK
 10
-25527.01823276501
 20
7802.154659243358
 30
0.0
 41
12.0
 42
12.0
 43
12.0
  0
INSERT
  5
16C9
330
3A42
100
AcDbEntity
  8
0
100
AcDbBlockReference
  2
*U48
 10
0.0
 20
0.0
 30
0.0
  0
POINT
  5
16CA
330
3A42
100
AcDbEntity
  8
DEFPOINTS
 62
     0
100
AcDbPoint
 10
-25807.01823276501
 20
7698.167454177002
 30
0.0
  0
POINT
  5
16CB
330
3A42
100
AcDbEntity
  8
DEFPOINTS
 62
     0
100
AcDbPoint
 10
-25527.01823276501
 20
7698.167454177002
 30
0.0
  0
POINT
  5
16CC
330
3A42
100
AcDbEntity
  8
DEFPOINTS
 62
     0
100
AcDbPoint
 10
-25527.01823276501
 20
7802.154659243358
 30
0.0
  0
ENDBLK
  5
16CD
330
3A42
100
AcDbEntity
  8
0
100
AcDbBlockEnd
  0
BLOCK
  5
3A45
330
3A44
100
AcDbEntity
  8
0
100
AcDbBlockBegin
  2
*U48
 70
     1
 10
0.0
 20
0.0
 30
0.0
  3
*U48
  1

  0
TEXT
  5
1F29
330
3A44
100
AcDbEntity
  8
SIZE
 62
     0
100
AcDbText
 10
-25741.07537562216
 20
7812.154659243358
 30
0.0
 40
64.0
  1
280
 41
0.9
100
AcDbText
  0
ENDBLK
  5
1F2B
330
3A44
100
AcDbEntity
  8
0
100
AcDbBlockEnd
  0
BLOCK
  5
3A47
330
3A46
100
AcDbEntity
  8
0
100
AcDbBlockBegin
  2
*D49
 70
     1
 10
0.0
 20
0.0
 30
0.0
  3
*D49
  1

  0
LINE
  5
16D0
330
3A46
100
AcDbEntity
  8
SIZE
 62
     0
100
AcDbLine
 10
-25824.51823276501
 20
7705.702971374808
 30
0.0
 11
-25824.51823276501
 21
7931.282433493766
 31
0.0
  0
LINE
  5
16D1
330
3A46
100
AcDbEntity
  8
SIZE
 62
     0
100
AcDbLine
 10
-25509.51823276502
 20
7705.702971374808
 30
0.0
 11
-25509.51823276502
 21
7931.282433493766
 31
0.0
  0
LINE
  5
16D2
330
3A46
100
AcDbEntity
  8
SIZE
 62
     0
100
AcDbLine
 10
-25812.51823276502
 20
7911.282433493766
 30
0.0
 11
-25521.51823276501
 21
7911.282433493766
 31
0.0
  0
INSERT
  5
16D3
330
3A46
100
AcDbEntity
  8
SIZE
 62
     0
100
AcDbBlockReference
  2
_DOTBLANK
 10
-25824.51823276501
 20
7911.282433493766
 30
0.0
 41
12.0
 42
12.0
 43
12.0
 50
180.0
  0
INSERT
  5
16D4
330
3A46
100
AcDbEntity
  8
SIZE
 62
     0
100
AcDbBlockReference
  2
_DOTBLANK
 10
-25509.51823276502
 20
7911.282433493766
 30
0.0
 41
12.0
 42
12.0
 43
12.0
  0
INSERT
  5
16D5
330
3A46
100
AcDbEntity
  8
0
100
AcDbBlockReference
  2
*U50
 10
0.0
 20
0.0
 30
0.0
  0
POINT
  5
16D6
330
3A46
100
AcDbEntity
  8
DEFPOINTS
 62
     0
100
AcDbPoint
 10
-25824.51823276501
 20
7685.702971374808
 30
0.0
  0
POINT
  5
16D7
330
3A46
100
AcDbEntity
  8
DEFPOINTS
 62
     0
100
AcDbPoint
 10
-25509.51823276502
 20
7685.702971374808
 30
0.0
  0
POINT
  5
16D8
330
3A46
100
AcDbEntity
  8
DEFPOINTS
 62
     0
100
AcDbPoint
 10
-25509.51823276502
 20
7911.282433493766
 30
0.0
  0
ENDBLK
  5
16D9
330
3A46
100
AcDbEntity
  8
0
100
AcDbBlockEnd
  0
BLOCK
  5
3A49
330
3A48
100
AcDbEntity
  8
0
100
AcDbBlockBegin
  2
*U50
 70
     1
 10
0.0
 20
0.0
 30
0.0
  3
*U50
  1

  0
TEXT
  5
1F2D
330
3A48
100
AcDbEntity
  8
SIZE
 62
     0
100
AcDbText
 10
-25735.58966133645
 20
7921.282433493766
 30
0.0
 40
64.0
  1
315
 41
0.9
100
AcDbText
  0
ENDBLK
  5
1F2F
330
3A48
100
AcDbEntity
  8
0
100
AcDbBlockEnd
  0
BLOCK
  5
3A4B
330
3A4A
100
AcDbEntity
  8
0
100
AcDbBlockBegin
  2
*D51
 70
     1
 10
0.0
 20
0.0
 30
0.0
  3
*D51
  1

  0
LINE
  5
1D83
330
3A4A
100
AcDbEntity
  8
SIZE
 62
     0
100
AcDbLine
 10
-134.5
 20
-320.0
 30
0.0
 11
-134.5
 21
-468.0173952306001
 31
0.0
  0
LINE
  5
1D84
330
3A4A
100
AcDbEntity
  8
SIZE
 62
     0
100
AcDbLine
 10
134.5
 20
-320.0
 30
0.0
 11
134.5
 21
-468.0173952306001
 31
0.0
  0
LINE
  5
1D85
330
3A4A
100
AcDbEntity
  8
SIZE
 62
     0
100
AcDbLine
 10
-122.5
 20
-448.0173952306
 30
0.0
 11
122.5
 21
-448.0173952306
 31
0.0
  0
INSERT
  5
1D86
330
3A4A
100
AcDbEntity
  8
SIZE
 62
     0
100
AcDbBlockReference
  2
_DOTBLANK
 10
-134.5
 20
-448.0173952306
 30
0.0
 41
12.0
 42
12.0
 43
12.0
 50
180.0
  0
INSERT
  5
1D87
330
3A4A
100
AcDbEntity
  8
SIZE
 62
     0
100
AcDbBlockReference
  2
_DOTBLANK
 10
134.5
 20
-448.0173952306
 30
0.0
 41
12.0
 42
12.0
 43
12.0
  0
INSERT
  5
1D88
330
3A4A
100
AcDbEntity
  8
0
100
AcDbBlockReference
  2
*U52
 10
0.0
 20
0.0
 30
0.0
  0
POINT
  5
1D89
330
3A4A
100
AcDbEntity
  8
DEFPOINTS
 62
     0
100
AcDbPoint
 10
-134.5
 20
-300.0
 30
0.0
  0
POINT
  5
1D8A
330
3A4A
100
AcDbEntity
  8
DEFPOINTS
 62
     0
100
AcDbPoint
 10
134.5
 20
-300.0
 30
0.0
  0
POINT
  5
1D8B
330
3A4A
100
AcDbEntity
  8
DEFPOINTS
 62
     0
100
AcDbPoint
 10
134.5
 20
-448.0173952306
 30
0.0
  0
ENDBLK
  5
173D
330
3A4A
100
AcDbEntity
  8
0
100
AcDbBlockEnd
  0
BLOCK
  5
3A4D
330
3A4C
100
AcDbEntity
  8
0
100
AcDbBlockBegin
  2
*U52
 70
     1
 10
0.0
 20
0.0
 30
0.0
  3
*U52
  1

  0
TEXT
  5
1F31
330
3A4C
100
AcDbEntity
  8
SIZE
 62
     0
100
AcDbText
 10
-72.68571428571426
 20
-438.0173952306003
 30
0.0
 40
64.0
  1
269
 41
0.9
100
AcDbText
  0
ENDBLK
  5
1F33
330
3A4C
100
AcDbEntity
  8
0
100
AcDbBlockEnd
  0
BLOCK
  5
3A4F
330
3A4E
100
AcDbEntity
  8
0
100
AcDbBlockBegin
  2
*D53
 70
     1
 10
0.0
 20
0.0
 30
0.0
  3
*D53
  1

  0
LINE
  5
1D8C
330
3A4E
100
AcDbEntity
  8
SIZE
 62
     0
100
AcDbLine
 10
154.5
 20
-300.0
 30
0.0
 11
304.6432844803784
 21
-300.0
 31
0.0
  0
LINE
  5
1D8D
330
3A4E
100
AcDbEntity
  8
SIZE
 62
     0
100
AcDbLine
 10
177.5
 20
-0.0000000000000057
 30
0.0
 11
304.6432844803785
 21
-0.0000000000000417
 31
0.0
  0
LINE
  5
1D8E
330
3A4E
100
AcDbEntity
  8
SIZE
 62
     0
100
AcDbLine
 10
284.6432844803784
 20
-288.0
 30
0.0
 11
284.6432844803785
 21
-12.00000000000003
 31
0.0
  0
INSERT
  5
1D8F
330
3A4E
100
AcDbEntity
  8
SIZE
 62
     0
100
AcDbBlockReference
  2
_DOTBLANK
 10
284.6432844803784
 20
-300.0
 30
0.0
 41
12.0
 42
12.0
 43
12.0
 50
270.0
  0
INSERT
  5
1D90
330
3A4E
100
AcDbEntity
  8
SIZE
 62
     0
100
AcDbBlockReference
  2
_DOTBLANK
 10
284.6432844803785
 20
-0.000000000000036
 30
0.0
 41
12.0
 42
12.0
 43
12.0
 50
90.0
  0
INSERT
  5
1D91
330
3A4E
100
AcDbEntity
  8
0
100
AcDbBlockReference
  2
*U54
 10
0.0
 20
0.0
 30
0.0
  0
POINT
  5
1D92
330
3A4E
100
AcDbEntity
  8
DEFPOINTS
 62
     0
100
AcDbPoint
 10
134.5
 20
-300.0
 30
0.0
  0
POINT
  5
1D93
330
3A4E
100
AcDbEntity
  8
DEFPOINTS
 62
     0
100
AcDbPoint
 10
157.5
 20
0.0
 30
0.0
  0
POINT
  5
1D94
330
3A4E
100
AcDbEntity
  8
DEFPOINTS
 62
     0
100
AcDbPoint
 10
284.6432844803785
 20
-0.000000000000036
 30
0.0
  0
ENDBLK
  5
1749
330
3A4E
100
AcDbEntity
  8
0
100
AcDbBlockEnd
  0
BLOCK
  5
3A51
330
3A50
100
AcDbEntity
  8
0
100
AcDbBlockBegin
  2
*U54
 70
     1
 10
0.0
 20
0.0
 30
0.0
  3
*U54
  1

  0
TEXT
  5
1F35
330
3A50
100
AcDbEntity
  8
SIZE
 62
     0
100
AcDbText
 10
274.6432844803785
 20
-224.0571428571429
 30
0.0
 40
64.0
  1
300
 50
90.0
 41
0.9
100
AcDbText
  0
ENDBLK
  5
1F37
330
3A50
100
AcDbEntity
  8
0
100
AcDbBlockEnd
  0
BLOCK
  5
3A53
330
3A52
100
AcDbEntity
  8
0
100
AcDbBlockBegin
  2
*D55
 70
     1
 10
0.0
 20
0.0
 30
0.0
  3
*D55
  1

  0
LINE
  5
1D95
330
3A52
100
AcDbEntity
  8
SIZE
 62
     0
100
AcDbLine
 10
-140.0
 20
32.46448280219375
 30
0.0
 11
-140.0
 21
136.4516878685508
 31
0.0
  0
LINE
  5
1D96
330
3A52
100
AcDbEntity
  8
SIZE
 62
     0
100
AcDbLine
 10
140.0
 20
32.46448280219375
 30
0.0
 11
140.0
 21
136.4516878685508
 31
0.0
  0
LINE
  5
1D97
330
3A52
100
AcDbEntity
  8
SIZE
 62
     0
100
AcDbLine
 10
-128.0
 20
116.4516878685508
 30
0.0
 11
128.0
 21
116.4516878685508
 31
0.0
  0
INSERT
  5
1D98
330
3A52
100
AcDbEntity
  8
SIZE
 62
     0
100
AcDbBlockReference
  2
_DOTBLANK
 10
-140.0
 20
116.4516878685508
 30
0.0
 41
12.0
 42
12.0
 43
12.0
 50
180.0
  0
INSERT
  5
1D99
330
3A52
100
AcDbEntity
  8
SIZE
 62
     0
100
AcDbBlockReference
  2
_DOTBLANK
 10
140.0
 20
116.4516878685508
 30
0.0
 41
12.0
 42
12.0
 43
12.0
  0
INSERT
  5
1D9A
330
3A52
100
AcDbEntity
  8
0
100
AcDbBlockReference
  2
*U56
 10
0.0
 20
0.0
 30
0.0
  0
POINT
  5
1D9B
330
3A52
100
AcDbEntity
  8
DEFPOINTS
 62
     0
100
AcDbPoint
 10
-140.0
 20
12.46448280219374
 30
0.0
  0
POINT
  5
1D9C
330
3A52
100
AcDbEntity
  8
DEFPOINTS
 62
     0
100
AcDbPoint
 10
140.0
 20
12.46448280219374
 30
0.0
  0
POINT
  5
1D9D
330
3A52
100
AcDbEntity
  8
DEFPOINTS
 62
     0
100
AcDbPoint
 10
140.0
 20
116.4516878685508
 30
0.0
  0
ENDBLK
  5
1755
330
3A52
100
AcDbEntity
  8
0
100
AcDbBlockEnd
  0
BLOCK
  5
3A55
330
3A54
100
AcDbEntity
  8
0
100
AcDbBlockBegin
  2
*U56
 70
     1
 10
0.0
 20
0.0
 30
0.0
  3
*U56
  1

  0
TEXT
  5
1F39
330
3A54
100
AcDbEntity
  8
SIZE
 62
     0
100
AcDbText
 10
-74.05714285714283
 20
126.4516878685508
 30
0.0
 40
64.0
  1
280
 41
0.9
100
AcDbText
  0
ENDBLK
  5
1F3B
330
3A54
100
AcDbEntity
  8
0
100
AcDbBlockEnd
  0
BLOCK
  5
3A57
330
3A56
100
AcDbEntity
  8
0
100
AcDbBlockBegin
  2
*D57
 70
     1
 10
0.0
 20
0.0
 30
0.0
  3
*D57
  1

  0
LINE
  5
1D9E
330
3A56
100
AcDbEntity
  8
SIZE
 62
     0
100
AcDbLine
 10
-157.5
 20
20.0
 30
0.0
 11
-157.5
 21
245.5794621189598
 31
0.0
  0
LINE
  5
1D9F
330
3A56
100
AcDbEntity
  8
SIZE
 62
     0
100
AcDbLine
 10
157.5
 20
20.0
 30
0.0
 11
157.5
 21
245.5794621189598
 31
0.0
  0
LINE
  5
1DA0
330
3A56
100
AcDbEntity
  8
SIZE
 62
     0
100
AcDbLine
 10
-145.5
 20
225.5794621189598
 30
0.0
 11
145.5
 21
225.5794621189598
 31
0.0
  0
INSERT
  5
1DA1
330
3A56
100
AcDbEntity
  8
SIZE
 62
     0
100
AcDbBlockReference
  2
_DOTBLANK
 10
-157.5
 20
225.5794621189598
 30
0.0
 41
12.0
 42
12.0
 43
12.0
 50
180.0
  0
INSERT
  5
1DA2
330
3A56
100
AcDbEntity
  8
SIZE
 62
     0
100
AcDbBlockReference
  2
_DOTBLANK
 10
157.5
 20
225.5794621189598
 30
0.0
 41
12.0
 42
12.0
 43
12.0
  0
INSERT
  5
1DA3
330
3A56
100
AcDbEntity
  8
0
100
AcDbBlockReference
  2
*U58
 10
0.0
 20
0.0
 30
0.0
  0
POINT
  5
1DA4
330
3A56
100
AcDbEntity
  8
DEFPOINTS
 62
     0
100
AcDbPoint
 10
-157.5
 20
0.0
 30
0.0
  0
POINT
  5
1DA5
330
3A56
100
AcDbEntity
  8
DEFPOINTS
 62
     0
100
AcDbPoint
 10
157.5
 20
0.0
 30
0.0
  0
POINT
  5
1DA6
330
3A56
100
AcDbEntity
  8
DEFPOINTS
 62
     0
100
AcDbPoint
 10
157.5
 20
225.5794621189598
 30
0.0
  0
ENDBLK
  5
1761
330
3A56
100
AcDbEntity
  8
0
100
AcDbBlockEnd
  0
BLOCK
  5
3A59
330
3A58
100
AcDbEntity
  8
0
100
AcDbBlockBegin
  2
*U58
 70
     1
 10
0.0
 20
0.0
 30
0.0
  3
*U58
  1

  0
TEXT
  5
1F3D
330
3A58
100
AcDbEntity
  8
SIZE
 62
     0
100
AcDbText
 10
-68.57142857142857
 20
235.5794621189599
 30
0.0
 40
64.0
  1
315
 41
0.9
100
AcDbText
  0
ENDBLK
  5
1F3F
330
3A58
100
AcDbEntity
  8
0
100
AcDbBlockEnd
  0
BLOCK
  5
3A5B
330
3A5A
100
AcDbEntity
  8
0
100
AcDbBlockBegin
  2
*D59
 70
     1
 10
0.0
 20
0.0
 30
0.0
  3
*D59
  1

  0
LINE
  5
1DA7
330
3A5A
100
AcDbEntity
  8
SIZE
 62
     0
100
AcDbLine
 10
-177.5
 20
0.0000000000000057
 30
0.0
 11
-314.0264221186908
 21
0.0000000000000443
 31
0.0
  0
LINE
  5
1DA8
330
3A5A
100
AcDbEntity
  8
SIZE
 62
     0
100
AcDbLine
 10
-177.5
 20
-7.999999999999992
 30
0.0
 11
-314.0264221186908
 21
-7.999999999999957
 31
0.0
  0
LINE
  5
1DA9
330
3A5A
100
AcDbEntity
  8
SIZE
 62
     0
100
AcDbLine
 10
-294.0264221186908
 20
12.00000000000003
 30
0.0
 11
-294.0264221186908
 21
24.00000000000004
 31
0.0
  0
LINE
  5
1DAA
330
3A5A
100
AcDbEntity
  8
SIZE
 62
     0
100
AcDbLine
 10
-294.0264221186908
 20
-19.99999999999996
 30
0.0
 11
-294.0264221186908
 21
-90.39999999999997
 31
0.0
  0
INSERT
  5
1DAB
330
3A5A
100
AcDbEntity
  8
SIZE
 62
     0
100
AcDbBlockReference
  2
_DOTBLANK
 10
-294.0264221186908
 20
0.0000000000000387
 30
0.0
 41
12.0
 42
12.0
 43
12.0
 50
270.0
  0
INSERT
  5
1DAC
330
3A5A
100
AcDbEntity
  8
SIZE
 62
     0
100
AcDbBlockReference
  2
_DOTBLANK
 10
-294.0264221186908
 20
-7.999999999999959
 30
0.0
 41
12.0
 42
12.0
 43
12.0
 50
90.0
  0
INSERT
  5
1DAD
330
3A5A
100
AcDbEntity
  8
0
100
AcDbBlockReference
  2
*U60
 10
0.0
 20
0.0
 30
0.0
  0
POINT
  5
1DAE
330
3A5A
100
AcDbEntity
  8
DEFPOINTS
 62
     0
100
AcDbPoint
 10
-157.5
 20
0.0
 30
0.0
  0
POINT
  5
1DAF
330
3A5A
100
AcDbEntity
  8
DEFPOINTS
 62
     0
100
AcDbPoint
 10
-157.5
 20
-8.000000000000001
 30
0.0
  0
POINT
  5
1DB0
330
3A5A
100
AcDbEntity
  8
DEFPOINTS
 62
     0
100
AcDbPoint
 10
-294.0264221186908
 20
-7.999999999999959
 30
0.0
  0
ENDBLK
  5
176D
330
3A5A
100
AcDbEntity
  8
0
100
AcDbBlockEnd
  0
BLOCK
  5
3A5D
330
3A5C
100
AcDbEntity
  8
0
100
AcDbBlockBegin
  2
*U60
 70
     1
 10
0.0
 20
0.0
 30
0.0
  3
*U60
  1

  0
TEXT
  5
1F41
330
3A5C
100
AcDbEntity
  8
SIZE
 62
     0
100
AcDbText
 10
-304.0264221186908
 20
-80.4
 30
0.0
 40
64.0
  1
8
 50
90.0
 41
0.9
100
AcDbText
  0
ENDBLK
  5
1F43
330
3A5C
100
AcDbEntity
  8
0
100
AcDbBlockEnd
  0
BLOCK
  5
3A5F
330
3A5E
100
AcDbEntity
  8
0
100
AcDbBlockBegin
  2
*D61
 70
     1
 10
0.0
 20
0.0
 30
0.0
  3
*D61
  1

  0
LINE
  5
1DB1
330
3A5E
100
AcDbEntity
  8
SIZE
 62
     0
100
AcDbLine
 10
154.5
 20
-300.0
 30
0.0
 11
304.6432844803785
 21
-300.0
 31
0.0
  0
LINE
  5
1DB2
330
3A5E
100
AcDbEntity
  8
SIZE
 62
     0
100
AcDbLine
 10
143.5
 20
-312.0
 30
0.0
 11
304.6432844803785
 21
-312.0
 31
0.0
  0
LINE
  5
1DB3
330
3A5E
100
AcDbEntity
  8
SIZE
 62
     0
100
AcDbLine
 10
284.6432844803785
 20
-288.0
 30
0.0
 11
284.6432844803785
 21
-276.0
 31
0.0
  0
LINE
  5
1DB4
330
3A5E
100
AcDbEntity
  8
SIZE
 62
     0
100
AcDbLine
 10
284.6432844803785
 20
-324.0000000000001
 30
0.0
 11
284.6432844803784
 21
-438.2857142857143
 31
0.0
  0
INSERT
  5
1DB5
330
3A5E
100
AcDbEntity
  8
SIZE
 62
     0
100
AcDbBlockReference
  2
_DOTBLANK
 10
284.6432844803785
 20
-300.0
 30
0.0
 41
12.0
 42
12.0
 43
12.0
 50
270.0
  0
INSERT
  5
1DB6
330
3A5E
100
AcDbEntity
  8
SIZE
 62
     0
100
AcDbBlockReference
  2
_DOTBLANK
 10
284.6432844803785
 20
-312.0
 30
0.0
 41
12.0
 42
12.0
 43
12.0
 50
90.0
  0
INSERT
  5
1DB7
330
3A5E
100
AcDbEntity
  8
0
100
AcDbBlockReference
  2
*U62
 10
0.0
 20
0.0
 30
0.0
  0
POINT
  5
1DB8
330
3A5E
100
AcDbEntity
  8
DEFPOINTS
 62
     0
100
AcDbPoint
 10
134.5
 20
-300.0
 30
0.0
  0
POINT
  5
1DB9
330
3A5E
100
AcDbEntity
  8
DEFPOINTS
 62
     0
100
AcDbPoint
 10
123.5
 20
-312.0
 30
0.0
  0
POINT
  5
1DBA
330
3A5E
100
AcDbEntity
  8
DEFPOINTS
 62
     0
100
AcDbPoint
 10
284.6432844803785
 20
-312.0
 30
0.0
  0
ENDBLK
  5
177B
330
3A5E
100
AcDbEntity
  8
0
100
AcDbBlockEnd
  0
BLOCK
  5
3A61
330
3A60
100
AcDbEntity
  8
0
100
AcDbBlockBegin
  2
*U62
 70
     1
 10
0.0
 20
0.0
 30
0.0
  3
*U62
  1

  0
TEXT
  5
1F45
330
3A60
100
AcDbEntity
  8
SIZE
 62
     0
100
AcDbText
 10
274.6432844803785
 20
-428.2857142857142
 30
0.0
 40
64.0
  1
12
 50
90.0
 41
0.9
100
AcDbText
  0
ENDBLK
  5
1F47
330
3A60
100
AcDbEntity
  8
0
100
AcDbBlockEnd
  0
BLOCK
  5
3A63
330
3A62
100
AcDbEntity
  8
0
100
AcDbBlockBegin
  2
*U63
 70
     1
 10
0.0
 20
0.0
 30
0.0
  3
*U63
  1

  0
ENDBLK
  5
1D57
330
3A62
100
AcDbEntity
  8
0
100
AcDbBlockEnd
  0
BLOCK
  5
3A65
330
3A64
100
AcDbEntity
  8
0
100
AcDbBlockBegin
  2
*U64
 70
     1
 10
0.0
 20
0.0
 30
0.0
  3
*U64
  1

  0
INSERT
  5
2088
330
3A64
100
AcDbEntity
  8
NOTE
100
AcDbBlockReference
  2
_OPEN30
 10
-140.0
 20
0.0
 30
0.0
 41
12.0
 42
12.0
 43
12.0
 50
312.6090116116894
  0
POLYLINE
  5
2089
330
3A64
100
AcDbEntity
  8
NOTE
100
AcDb2dPolyline
 66
     1
 10
0.0
 20
0.0
 30
0.0
  0
VERTEX
  5
2124
330
2089
100
AcDbEntity
  8
NOTE
100
AcDbVertex
100
AcDb2dVertex
 10
-148.1239008361894
 20
8.831887408915473
 30
0.0
  0
VERTEX
  5
2125
330
2089
100
AcDbEntity
  8
NOTE
100
AcDbVertex
100
AcDb2dVertex
 10
-227.8693999922543
 20
95.52709505801338
 30
0.0
  0
VERTEX
  5
2126
330
2089
100
AcDbEntity
  8
NOTE
100
AcDbVertex
100
AcDb2dVertex
 10
-773.7093999922541
 20
95.52709505801338
 30
0.0
  0
SEQEND
  5
2127
330
2089
100
AcDbEntity
  8
NOTE
  0
ENDBLK
  5
208A
330
3A64
100
AcDbEntity
  8
0
100
AcDbBlockEnd
  0
BLOCK
  5
3A67
330
3A66
100
AcDbEntity
  8
0
100
AcDbBlockBegin
  2
*U65
 70
     1
 10
0.0
 20
0.0
 30
0.0
  3
*U65
  1

  0
TEXT
  5
208D
330
3A66
100
AcDbEntity
  8
NOTE
100
AcDbText
 10
-773.7093999922541
 20
113.5270950580134
 30
0.0
 40
64.0
  1
4×φ10取付穴
 41
0.9
100
AcDbText
  0
ENDBLK
  5
208E
330
3A66
100
AcDbEntity
  8
0
100
AcDbBlockEnd
  0
BLOCK
  5
3A69
330
3A68
100
AcDbEntity
  8
0
100
AcDbBlockBegin
  2
*U66
 70
     1
 10
0.0
 20
0.0
 30
0.0
  3
*U66
  1

  0
INSERT
  5
27FE
330
3A68
100
AcDbEntity
  8
NOTE
100
AcDbBlockReference
  2
_OPEN30
 10
-165.0
 20
0.0
 30
0.0
 41
12.0
 42
12.0
 43
12.0
 50
312.6090116116894
  0
POLYLINE
  5
27FF
330
3A68
100
AcDbEntity
  8
NOTE
100
AcDb2dPolyline
 66
     1
 10
0.0
 20
0.0
 30
0.0
  0
VERTEX
  5
2800
330
27FF
100
AcDbEntity
  8
NOTE
100
AcDbVertex
100
AcDb2dVertex
 10
-173.1239008361894
 20
8.831887408915473
 30
0.0
  0
VERTEX
  5
2801
330
27FF
100
AcDbEntity
  8
NOTE
100
AcDbVertex
100
AcDb2dVertex
 10
-252.8693999922543
 20
95.52709505801338
 30
0.0
  0
VERTEX
  5
2802
330
27FF
100
AcDbEntity
  8
NOTE
100
AcDbVertex
100
AcDb2dVertex
 10
-798.7093999922541
 20
95.52709505801338
 30
0.0
  0
SEQEND
  5
2803
330
27FF
100
AcDbEntity
  8
NOTE
  0
ENDBLK
  5
2804
330
3A68
100
AcDbEntity
  8
0
100
AcDbBlockEnd
  0
BLOCK
  5
3A6B
330
3A6A
100
AcDbEntity
  8
0
100
AcDbBlockBegin
  2
*U67
 70
     1
 10
0.0
 20
0.0
 30
0.0
  3
*U67
  1

  0
TEXT
  5
2807
330
3A6A
100
AcDbEntity
  8
NOTE
100
AcDbText
 10
-798.7093999922541
 20
113.5270950580134
 30
0.0
 40
64.0
  1
4×φ10取付穴
 41
0.9
100
AcDbText
  0
ENDBLK
  5
2808
330
3A6A
100
AcDbEntity
  8
0
100
AcDbBlockEnd
  0
BLOCK
  5
3A6D
330
3A6C
100
AcDbEntity
  8
0
100
AcDbBlockBegin
  2
*U68
 70
     1
 10
0.0
 20
0.0
 30
0.0
  3
*U68
  1

  0
INSERT
  5
2AED
330
3A6C
100
AcDbEntity
  8
NOTE
100
AcDbBlockReference
  2
_OPEN30
 10
165.0
 20
165.0
 30
0.0
 41
12.0
 42
12.0
 43
12.0
 50
230.7091310502217
  0
POLYLINE
  5
2AEE
330
3A6C
100
AcDbEntity
  8
NOTE
100
AcDb2dPolyline
 66
     1
 10
0.0
 20
0.0
 30
0.0
  0
VERTEX
  5
2AEF
330
2AEE
100
AcDbEntity
  8
NOTE
100
AcDbVertex
100
AcDb2dVertex
 10
172.599090480922
 20
174.2872936780722
 30
0.0
  0
VERTEX
  5
2AF0
330
2AEE
100
AcDbEntity
  8
NOTE
100
AcDbVertex
100
AcDb2dVertex
 10
228.4345623698609
 20
242.5270950580134
 30
0.0
  0
VERTEX
  5
2AF1
330
2AEE
100
AcDbEntity
  8
NOTE
100
AcDbVertex
100
AcDb2dVertex
 10
774.2745623698612
 20
242.5270950580134
 30
0.0
  0
SEQEND
  5
2AF2
330
2AEE
100
AcDbEntity
  8
NOTE
  0
ENDBLK
  5
2AF3
330
3A6C
100
AcDbEntity
  8
0
100
AcDbBlockEnd
  0
BLOCK
  5
3A6F
330
3A6E
100
AcDbEntity
  8
0
100
AcDbBlockBegin
  2
*U69
 70
     1
 10
0.0
 20
0.0
 30
0.0
  3
*U69
  1

  0
TEXT
  5
2AF6
330
3A6E
100
AcDbEntity
  8
NOTE
100
AcDbText
 10
290.4345623698609
 20
260.5270950580134
 30
0.0
 40
64.0
  1
4×φ10取付穴
 41
0.9
100
AcDbText
  0
ENDBLK
  5
2AF7
330
3A6E
100
AcDbEntity
  8
0
100
AcDbBlockEnd
  0
BLOCK
  5
3A71
330
3A70
100
AcDbEntity
  8
0
100
AcDbBlockBegin
  2
*U70
 70
     1
 10
0.0
 20
0.0
 30
0.0
  3
*U70
  1

  0
INSERT
  5
2E2B
330
3A70
100
AcDbEntity
  8
NOTE
100
AcDbBlockReference
  2
_OPEN30
 10
165.0
 20
164.9999999999994
 30
0.0
 41
12.0
 42
12.0
 43
12.0
 50
232.3258907693334
  0
POLYLINE
  5
2E2C
330
3A70
100
AcDbEntity
  8
NOTE
100
AcDb2dPolyline
 66
     1
 10
0.0
 20
0.0
 30
0.0
  0
VERTEX
  5
2E2D
330
2E2C
100
AcDbEntity
  8
NOTE
100
AcDbVertex
100
AcDb2dVertex
 10
172.3340332839448
 20
174.4979974620959
 30
0.0
  0
VERTEX
  5
2E2E
330
2E2C
100
AcDbEntity
  8
NOTE
100
AcDbVertex
100
AcDb2dVertex
 10
238.7628007872081
 20
260.527095058012
 30
0.0
  0
VERTEX
  5
2E2F
330
2E2C
100
AcDbEntity
  8
NOTE
100
AcDbVertex
100
AcDb2dVertex
 10
784.6028007872081
 20
260.527095058012
 30
0.0
  0
SEQEND
  5
2E30
330
2E2C
100
AcDbEntity
  8
NOTE
  0
ENDBLK
  5
2E31
330
3A70
100
AcDbEntity
  8
0
100
AcDbBlockEnd
  0
BLOCK
  5
3A73
330
3A72
100
AcDbEntity
  8
0
100
AcDbBlockBegin
  2
*U71
 70
     1
 10
0.0
 20
0.0
 30
0.0
  3
*U71
  1

  0
TEXT
  5
2E34
330
3A72
100
AcDbEntity
  8
NOTE
100
AcDbText
 10
300.7628007872083
 20
278.527095058012
 30
0.0
 40
64.0
  1
4×φ10取付穴
 41
0.9
100
AcDbText
  0
ENDBLK
  5
2E35
330
3A72
100
AcDbEntity
  8
0
100
AcDbBlockEnd
  0
BLOCK
  5
3A75
330
3A74
100
AcDbEntity
  8
0
100
AcDbBlockBegin
  2
*U72
 70
     1
 10
0.0
 20
0.0
 30
0.0
  3
*U72
  1

  0
INSERT
  5
3150
330
3A74
100
AcDbEntity
  8
NOTE
100
AcDbBlockReference
  2
_OPEN30
 10
0.0
 20
165.0
 30
0.0
 41
12.0
 42
12.0
 43
12.0
 50
312.6090116116895
  0
POLYLINE
  5
3151
330
3A74
100
AcDbEntity
  8
NOTE
100
AcDb2dPolyline
 66
     1
 10
0.0
 20
0.0
 30
0.0
  0
VERTEX
  5
3152
330
3151
100
AcDbEntity
  8
NOTE
100
AcDbVertex
100
AcDb2dVertex
 10
-8.123900836189513
 20
173.8318874089154
 30
0.0
  0
VERTEX
  5
3153
330
3151
100
AcDbEntity
  8
NOTE
100
AcDbVertex
100
AcDb2dVertex
 10
-87.86939999225436
 20
260.527095058013
 30
0.0
  0
VERTEX
  5
3154
330
3151
100
AcDbEntity
  8
NOTE
100
AcDbVertex
100
AcDb2dVertex
 10
-633.7093999922545
 20
260.527095058013
 30
0.0
  0
SEQEND
  5
3155
330
3151
100
AcDbEntity
  8
NOTE
  0
ENDBLK
  5
3156
330
3A74
100
AcDbEntity
  8
0
100
AcDbBlockEnd
  0
BLOCK
  5
3A77
330
3A76
100
AcDbEntity
  8
0
100
AcDbBlockBegin
  2
*U73
 70
     1
 10
0.0
 20
0.0
 30
0.0
  3
*U73
  1

  0
TEXT
  5
3159
330
3A76
100
AcDbEntity
  8
NOTE
100
AcDbText
 10
-633.7093999922545
 20
278.5270950580129
 30
0.0
 40
64.0
  1
4×φ10取付穴
 41
0.9
100
AcDbText
  0
ENDBLK
  5
315A
330
3A76
100
AcDbEntity
  8
0
100
AcDbBlockEnd
  0
BLOCK
  5
3A79
330
3A78
100
AcDbEntity
  8
0
100
AcDbBlockBegin
  2
*U74
 70
     1
 10
0.0
 20
0.0
 30
0.0
  3
*U74
  1

  0
INSERT
  5
347C
330
3A78
100
AcDbEntity
  8
NOTE
100
AcDbBlockReference
  2
_OPEN30
 10
0.0
 20
165.0
 30
0.0
 41
12.0
 42
12.0
 43
12.0
 50
227.3909883883105
  0
POLYLINE
  5
347D
330
3A78
100
AcDbEntity
  8
NOTE
100
AcDb2dPolyline
 66
     1
 10
0.0
 20
0.0
 30
0.0
  0
VERTEX
  5
347E
330
347D
100
AcDbEntity
  8
NOTE
100
AcDbVertex
100
AcDb2dVertex
 10
8.123900836189513
 20
173.8318874089154
 30
0.0
  0
VERTEX
  5
347F
330
347D
100
AcDbEntity
  8
NOTE
100
AcDbVertex
100
AcDb2dVertex
 10
87.86939999225436
 20
260.527095058013
 30
0.0
  0
VERTEX
  5
3480
330
347D
100
AcDbEntity
  8
NOTE
100
AcDbVertex
100
AcDb2dVertex
 10
633.7093999922545
 20
260.527095058013
 30
0.0
  0
SEQEND
  5
3481
330
347D
100
AcDbEntity
  8
NOTE
  0
ENDBLK
  5
3482
330
3A78
100
AcDbEntity
  8
0
100
AcDbBlockEnd
  0
BLOCK
  5
3A7B
330
3A7A
100
AcDbEntity
  8
0
100
AcDbBlockBegin
  2
*U75
 70
     1
 10
0.0
 20
0.0
 30
0.0
  3
*U75
  1

  0
TEXT
  5
3485
330
3A7A
100
AcDbEntity
  8
NOTE
100
AcDbText
 10
149.8693999922543
 20
278.5270950580129
 30
0.0
 40
64.0
  1
4×φ10取付穴
 41
0.9
100
AcDbText
  0
ENDBLK
  5
3486
330
3A7A
100
AcDbEntity
  8
0
100
AcDbBlockEnd
  0
BLOCK
  5
3A7D
330
3A7C
100
AcDbEntity
  8
0
100
AcDbBlockBegin
  2
*U76
 70
     1
 10
0.0
 20
0.0
 30
0.0
  3
*U76
  1

  0
INSERT
  5
37AD
330
3A7C
100
AcDbEntity
  8
NOTE
100
AcDbBlockReference
  2
_OPEN30
 10
-165.0
 20
0.0
 30
0.0
 41
12.0
 42
12.0
 43
12.0
 50
312.6090116116894
  0
POLYLINE
  5
37AE
330
3A7C
100
AcDbEntity
  8
NOTE
100
AcDb2dPolyline
 66
     1
 10
0.0
 20
0.0
 30
0.0
  0
VERTEX
  5
37AF
330
37AE
100
AcDbEntity
  8
NOTE
100
AcDbVertex
100
AcDb2dVertex
 10
-173.1239008361894
 20
8.831887408915473
 30
0.0
  0
VERTEX
  5
37B0
330
37AE
100
AcDbEntity
  8
NOTE
100
AcDbVertex
100
AcDb2dVertex
 10
-252.8693999922543
 20
95.52709505801338
 30
0.0
  0
VERTEX
  5
37B1
330
37AE
100
AcDbEntity
  8
NOTE
100
AcDbVertex
100
AcDb2dVertex
 10
-798.7093999922541
 20
95.52709505801338
 30
0.0
  0
SEQEND
  5
37B2
330
37AE
100
AcDbEntity
  8
NOTE
  0
ENDBLK
  5
37B3
330
3A7C
100
AcDbEntity
  8
0
100
AcDbBlockEnd
  0
BLOCK
  5
3A7F
330
3A7E
100
AcDbEntity
  8
0
100
AcDbBlockBegin
  2
*U77
 70
     1
 10
0.0
 20
0.0
 30
0.0
  3
*U77
  1

  0
TEXT
  5
37B6
330
3A7E
100
AcDbEntity
  8
NOTE
100
AcDbText
 10
-798.7093999922541
 20
113.5270950580134
 30
0.0
 40
64.0
  1
4×φ10取付穴
 41
0.9
100
AcDbText
  0
ENDBLK
  5
37B7
330
3A7E
100
AcDbEntity
  8
0
100
AcDbBlockEnd
  0
BLOCK
  5
3A81
330
3A80
100
AcDbEntity
  8
0
100
AcDbBlockBegin
  2
*X78
 70
     1
 10
0.0
 20
0.0
 30
0.0
  3
*X78
  1

  0
LINE
  5
37BA
330
3A80
100
AcDbEntity
  8
0
 62
     0
100
AcDbLine
 10
-132.9000000000069
 20
-275.1144716994959
 30
0.0
 11
-123.900385822997
 21
-279.4000000000015
 31
0.0
  0
LINE
  5
37BB
330
3A80
100
AcDbEntity
  8
0
 62
     0
100
AcDbLine
 10
-132.9000000000087
 20
-265.1145199553603
 30
0.0
 11
-102.9004760860043
 21
-279.4000000000015
 31
0.0
  0
LINE
  5
37BC
330
3A80
100
AcDbEntity
  8
0
 62
     0
100
AcDbLine
 10
-132.9000000000087
 20
-255.1145682112265
 30
0.0
 11
-81.90056634901884
 21
-279.3999999999996
 31
0.0
  0
LINE
  5
37BD
330
3A80
100
AcDbEntity
  8
0
 62
     0
100
AcDbLine
 10
-132.9000000000087
 20
-245.1146164670927
 30
0.0
 11
-60.90065661202607
 21
-279.4000000000015
 31
0.0
  0
LINE
  5
37BE
330
3A80
100
AcDbEntity
  8
0
 62
     0
100
AcDbLine
 10
-132.9000000000069
 20
-235.1146647229589
 30
0.0
 11
-39.90074687503511
 21
-279.4000000000015
 31
0.0
  0
LINE
  5
37BF
330
3A80
100
AcDbEntity
  8
0
 62
     0
100
AcDbLine
 10
-132.9000000000087
 20
-225.1147129788233
 30
0.0
 11
-18.90083713804413
 21
-279.4000000000015
 31
0.0
  0
LINE
  5
37C0
330
3A80
100
AcDbEntity
  8
0
 62
     0
100
AcDbLine
 10
-82.90000000000873
 20
-238.9242724882533
 30
0.0
 11
-71.40096616131995
 21
-244.4000000000015
 31
0.0
  0
LINE
  5
37C1
330
3A80
100
AcDbEntity
  8
0
 62
     0
100
AcDbLine
 10
-71.40096616131995
 20
-244.4000000000015
 30
0.0
 11
2.099072598946803
 21
-279.4000000000015
 31
0.0
  0
LINE
  5
37C2
330
3A80
100
AcDbEntity
  8
0
 62
     0
100
AcDbLine
 10
-132.9000000000069
 20
-215.1147612346895
 30
0.0
 11
-82.90000000000873
 21
-238.9242724882533
 31
0.0
  0
LINE
  5
37C3
330
3A80
100
AcDbEntity
  8
0
 62
     0
100
AcDbLine
 10
-82.9000000000069
 20
-228.9243207441195
 30
0.0
 11
-50.40105642432901
 21
-244.4000000000006
 31
0.0
  0
LINE
  5
37C4
330
3A80
100
AcDbEntity
  8
0
 62
     0
100
AcDbLine
 10
-50.40105642432901
 20
-244.4000000000006
 30
0.0
 11
23.09898233593776
 21
-279.4000000000004
 31
0.0
  0
LINE
  5
37C5
330
3A80
100
AcDbEntity
  8
0
 62
     0
100
AcDbLine
 10
-132.9000000000087
 20
-205.1148094905538
 30
0.0
 11
-82.9000000000069
 21
-228.9243207441195
 31
0.0
  0
LINE
  5
37C6
330
3A80
100
AcDbEntity
  8
0
 62
     0
100
AcDbLine
 10
-82.90000000000873
 20
-218.9243689999839
 30
0.0
 11
-29.40114668733804
 21
-244.4000000000006
 31
0.0
  0
LINE
  5
37C7
330
3A80
100
AcDbEntity
  8
0
 62
     0
100
AcDbLine
 10
-29.40114668733804
 20
-244.4000000000006
 30
0.0
 11
44.09889207292871
 21
-279.4000000000004
 31
0.0
  0
LINE
  5
37C8
330
3A80
100
AcDbEntity
  8
0
 62
     0
100
AcDbLine
 10
-132.9000000000105
 20
-195.1148577464182
 30
0.0
 11
-82.90000000000873
 21
-218.9243689999839
 31
0.0
  0
LINE
  5
37C9
330
3A80
100
AcDbEntity
  8
0
 62
     0
100
AcDbLine
 10
-82.9000000000069
 20
-208.9244172558518
 30
0.0
 11
-8.401236950348902
 21
-244.4000000000015
 31
0.0
  0
LINE
  5
37CA
330
3A80
100
AcDbEntity
  8
0
 62
     0
100
AcDbLine
 10
-8.401236950348902
 20
-244.4000000000015
 30
0.0
 11
65.09880180991604
 21
-279.4000000000015
 31
0.0
  0
LINE
  5
37CB
330
3A80
100
AcDbEntity
  8
0
 62
     0
100
AcDbLine
 10
-132.9000000000087
 20
-185.1149060022861
 30
0.0
 11
-82.9000000000069
 21
-208.9244172558518
 31
0.0
  0
LINE
  5
37CC
330
3A80
100
AcDbEntity
  8
0
 62
     0
100
AcDbLine
 10
-82.9000000000069
 20
-198.9244655117163
 30
0.0
 11
12.59867278664205
 21
-244.4000000000006
 31
0.0
  0
LINE
  5
37CD
330
3A80
100
AcDbEntity
  8
0
 62
     0
100
AcDbLine
 10
12.59867278664205
 20
-244.4000000000006
 30
0.0
 11
86.09871154690882
 21
-279.4000000000004
 31
0.0
  0
LINE
  5
37CE
330
3A80
100
AcDbEntity
  8
0
 62
     0
100
AcDbLine
 10
-132.9000000000087
 20
-175.1149542581515
 30
0.0
 11
-82.9000000000069
 21
-198.9244655117163
 31
0.0
  0
LINE
  5
37CF
330
3A80
100
AcDbEntity
  8
0
 62
     0
100
AcDbLine
 10
-82.9000000000069
 20
-188.9245137675825
 30
0.0
 11
33.59858252362939
 21
-244.3999999999996
 31
0.0
  0
LINE
  5
37D0
330
3A80
100
AcDbEntity
  8
0
 62
     0
100
AcDbLine
 10
33.5985825236312
 20
-244.4000000000006
 30
0.0
 11
107.0986212838979
 21
-279.4000000000004
 31
0.0
  0
LINE
  5
37D1
330
3A80
100
AcDbEntity
  8
0
 62
     0
100
AcDbLine
 10
-132.9000000000087
 20
-165.1150025140168
 30
0.0
 11
-82.9000000000069
 21
-188.9245137675825
 31
0.0
  0
LINE
  5
37D2
330
3A80
100
AcDbEntity
  8
0
 62
     0
100
AcDbLine
 10
-82.9000000000069
 20
-178.9245620234469
 30
0.0
 11
54.59849226062215
 21
-244.3999999999987
 31
0.0
  0
LINE
  5
37D3
330
3A80
100
AcDbEntity
  8
0
 62
     0
100
AcDbLine
 10
54.59849226062579
 20
-244.4000000000006
 30
0.0
 11
128.0985310208925
 21
-279.4000000000004
 31
0.0
  0
LINE
  5
37D4
330
3A80
100
AcDbEntity
  8
0
 62
     0
100
AcDbLine
 10
-132.9000000000105
 20
-155.1150507698803
 30
0.0
 11
-82.9000000000069
 21
-178.9245620234469
 31
0.0
  0
LINE
  5
37D5
330
3A80
100
AcDbEntity
  8
0
 62
     0
100
AcDbLine
 10
-82.90000000000508
 20
-168.9246102793131
 30
0.0
 11
75.59840199761129
 21
-244.3999999999987
 31
0.0
  0
LINE
  5
37D6
330
3A80
100
AcDbEntity
  8
0
 62
     0
100
AcDbLine
 10
75.59840199761129
 20
-244.3999999999987
 30
0.0
 11
132.899999999996
 21
-271.686460849699
 31
0.0
  0
LINE
  5
37D7
330
3A80
100
AcDbEntity
  8
0
 62
     0
100
AcDbLine
 10
-132.9000000000105
 20
-145.1150990257465
 30
0.0
 11
-82.90000000000508
 21
-168.9246102793131
 31
0.0
  0
LINE
  5
37D8
330
3A80
100
AcDbEntity
  8
0
 62
     0
100
AcDbLine
 10
-82.90000000000873
 20
-158.9246585351793
 30
0.0
 11
96.59831173460226
 21
-244.4000000000006
 31
0.0
  0
LINE
  5
37D9
330
3A80
100
AcDbEntity
  8
0
 62
     0
100
AcDbLine
 10
96.59831173460226
 20
-244.4000000000006
 30
0.0
 11
132.8999999999905
 21
-261.6865091055633
 31
0.0
  0
LINE
  5
37DA
330
3A80
100
AcDbEntity
  8
0
 62
     0
100
AcDbLine
 10
-132.9000000000142
 20
-135.1151472816127
 30
0.0
 11
-82.90000000000873
 21
-158.9246585351793
 31
0.0
  0
LINE
  5
37DB
330
3A80
100
AcDbEntity
  8
0
 62
     0
100
AcDbLine
 10
-82.90000000000324
 20
-148.9247067910454
 30
0.0
 11
117.598221471595
 21
-244.4000000000006
 31
0.0
  0
LINE
  5
37DC
330
3A80
100
AcDbEntity
  8
0
 62
     0
100
AcDbLine
 10
117.598221471595
 20
-244.4000000000006
 30
0.0
 11
132.8999999999905
 21
-251.6865573614277
 31
0.0
  0
LINE
  5
37DD
330
3A80
100
AcDbEntity
  8
0
 62
     0
100
AcDbLine
 10
-132.9000000000123
 20
-125.1151955374771
 30
0.0
 11
-82.9000000000069
 21
-148.9247067910446
 31
0.0
  0
LINE
  5
37DE
330
3A80
100
AcDbEntity
  8
0
 62
     0
100
AcDbLine
 10
-82.9000000000069
 20
-138.9247550469108
 30
0.0
 11
132.8999999999942
 21
-241.6866056172958
 31
0.0
  0
LINE
  5
37DF
330
3A80
100
AcDbEntity
  8
0
 62
     0
100
AcDbLine
 10
-132.9000000000123
 20
-115.1152437933433
 30
0.0
 11
-82.90000000001056
 21
-138.924755046909
 31
0.0
  0
LINE
  5
37E0
330
3A80
100
AcDbEntity
  8
0
 62
     0
100
AcDbLine
 10
-82.9000000000069
 20
-128.9248033027752
 30
0.0
 11
132.899999999996
 21
-231.686653873162
 31
0.0
  0
LINE
  5
37E1
330
3A80
100
AcDbEntity
  8
0
 62
     0
100
AcDbLine
 10
-132.9000000000123
 20
-105.1152920492077
 30
0.0
 11
-82.90000000001056
 21
-128.9248033027734
 31
0.0
  0
LINE
  5
37E2
330
3A80
100
AcDbEntity
  8
0
 62
     0
100
AcDbLine
 10
-82.90000000000508
 20
-118.9248515586414
 30
0.0
 11
132.899999999996
 21
-221.6867021290263
 31
0.0
  0
LINE
  5
37E3
330
3A80
100
AcDbEntity
  8
0
 62
     0
100
AcDbLine
 10
-132.9000000000105
 20
-95.11534030507393
 30
0.0
 11
-82.90000000000873
 21
-118.9248515586396
 31
0.0
  0
LINE
  5
37E4
330
3A80
100
AcDbEntity
  8
0
 62
     0
100
AcDbLine
 10
-82.90000000000873
 20
-108.9248998145076
 30
0.0
 11
132.8999999999923
 21
-211.6867503848925
 31
0.0
  0
LINE
  5
37E5
330
3A80
100
AcDbEntity
  8
0
 62
     0
100
AcDbLine
 10
-132.9000000000142
 20
-85.11538856094009
 30
0.0
 11
-82.90000000001056
 21
-108.9248998145058
 31
0.0
  0
LINE
  5
37E6
330
3A80
100
AcDbEntity
  8
0
 62
     0
100
AcDbLine
 10
-82.90000000000508
 20
-98.92494807037385
 30
0.0
 11
132.899999999996
 21
-201.6867986407588
 31
0.0
  0
LINE
  5
37E7
330
3A80
100
AcDbEntity
  8
0
 62
     0
100
AcDbLine
 10
-132.9000000000105
 20
-75.11543681680632
 30
0.0
 11
-82.90000000000873
 21
-98.92494807037202
 31
0.0
  0
LINE
  5
37E8
330
3A80
100
AcDbEntity
  8
0
 62
     0
100
AcDbLine
 10
-82.9000000000069
 20
-88.92499632623822
 30
0.0
 11
132.8999999999942
 21
-191.6868468966231
 31
0.0
  0
LINE
  5
37E9
330
3A80
100
AcDbEntity
  8
0
 62
     0
100
AcDbLine
 10
-132.9000000000123
 20
-65.11548507267071
 30
0.0
 11
-82.90000000001056
 21
-88.92499632623634
 31
0.0
  0
LINE
  5
37EA
330
3A80
100
AcDbEntity
  8
0
 62
     0
100
AcDbLine
 10
-82.9000000000069
 20
-78.92504458210442
 30
0.0
 11
132.8999999999942
 21
-181.6868951524893
 31
0.0
  0
LINE
  5
37EB
330
3A80
100
AcDbEntity
  8
0
 62
     0
100
AcDbLine
 10
-132.9000000000142
 20
-55.11553332853509
 30
0.0
 11
-82.90000000000873
 21
-78.9250445821026
 31
0.0
  0
LINE
  5
37EC
330
3A80
100
AcDbEntity
  8
0
 62
     0
100
AcDbLine
 10
-82.9000000000069
 20
-68.92509283796882
 30
0.0
 11
132.8999999999942
 21
-171.6869434083537
 31
0.0
  0
LINE
  5
37ED
330
3A80
100
AcDbEntity
  8
0
 62
     0
100
AcDbLine
 10
-121.3827152536105
 20
-50.60000000000036
 30
0.0
 11
-82.90000000001056
 21
-68.92509283796697
 31
0.0
  0
LINE
  5
37EE
330
3A80
100
AcDbEntity
  8
0
 62
     0
100
AcDbLine
 10
-82.90000000000873
 20
-58.92514109383319
 30
0.0
 11
132.899999999996
 21
-161.6869916642199
 31
0.0
  0
LINE
  5
37EF
330
3A80
100
AcDbEntity
  8
0
 62
     0
100
AcDbLine
 10
-100.3828055166195
 20
-50.60000000000036
 30
0.0
 11
-82.90000000001056
 21
-58.92514109383135
 31
0.0
  0
LINE
  5
37F0
330
3A80
100
AcDbEntity
  8
0
 62
     0
100
AcDbLine
 10
-79.38289577963222
 20
-50.60000000000036
 30
0.0
 11
132.8999999999942
 21
-151.6870399200861
 31
0.0
  0
LINE
  5
37F1
330
3A80
100
AcDbEntity
  8
0
 62
     0
100
AcDbLine
 10
-58.38298604264128
 20
-50.60000000000036
 30
0.0
 11
132.899999999996
 21
-141.6870881759523
 31
0.0
  0
LINE
  5
37F2
330
3A80
100
AcDbEntity
  8
0
 62
     0
100
AcDbLine
 10
-37.38307630564849
 20
-50.60000000000036
 30
0.0
 11
132.899999999996
 21
-131.6871364318175
 31
0.0
  0
LINE
  5
37F3
330
3A80
100
AcDbEntity
  8
0
 62
     0
100
AcDbLine
 10
-16.38316656865936
 20
-50.60000000000036
 30
0.0
 11
132.8999999999923
 21
-121.687184687682
 31
0.0
  0
LINE
  5
37F4
330
3A80
100
AcDbEntity
  8
0
 62
     0
100
AcDbLine
 10
4.616743168333414
 20
-50.60000000000036
 30
0.0
 11
132.899999999996
 21
-111.6872329435482
 31
0.0
  0
LINE
  5
37F5
330
3A80
100
AcDbEntity
  8
0
 62
     0
100
AcDbLine
 10
25.61665290532437
 20
-50.60000000000218
 30
0.0
 11
132.8999999999942
 21
-101.6872811994144
 31
0.0
  0
LINE
  5
37F6
330
3A80
100
AcDbEntity
  8
0
 62
     0
100
AcDbLine
 10
46.61656264231533
 20
-50.60000000000218
 30
0.0
 11
132.899999999996
 21
-91.68732945528065
 31
0.0
  0
LINE
  5
37F7
330
3A80
100
AcDbEntity
  8
0
 62
     0
100
AcDbLine
 10
67.61647237930811
 20
-50.60000000000128
 30
0.0
 11
132.899999999996
 21
-81.68737771114502
 31
0.0
  0
LINE
  5
37F8
330
3A80
100
AcDbEntity
  8
0
 62
     0
100
AcDbLine
 10
88.61638211629722
 20
-50.60000000000128
 30
0.0
 11
132.899999999996
 21
-71.68742596701122
 31
0.0
  0
LINE
  5
37F9
330
3A80
100
AcDbEntity
  8
0
 62
     0
100
AcDbLine
 10
109.6162918532864
 20
-50.59999999999945
 30
0.0
 11
132.8999999999942
 21
-61.68747422287561
 31
0.0
  0
LINE
  5
37FA
330
3A80
100
AcDbEntity
  8
0
 62
     0
100
AcDbLine
 10
130.6162015902773
 20
-50.59999999999945
 30
0.0
 11
132.8999999999978
 21
-51.68752247874181
 31
0.0
  0
ENDBLK
  5
37FB
330
3A80
100
AcDbEntity
  8
0
100
AcDbBlockEnd
  0
BLOCK
  5
3A83
330
3A82
100
AcDbEntity
  8
0
100
AcDbBlockBegin
  2
*X79
 70
     1
 10
0.0
 20
0.0
 30
0.0
  3
*X79
  1

  0
LINE
  5
37FE
330
3A82
100
AcDbEntity
  8
0
 62
     0
100
AcDbLine
 10
129.7842420880042
 20
-279.3999999999996
 30
0.0
 11
132.9000000000014
 21
-277.9163065386183
 31
0.0
  0
LINE
  5
37FF
330
3A82
100
AcDbEntity
  8
0
 62
     0
100
AcDbLine
 10
108.7843323510133
 20
-279.3999999999996
 30
0.0
 11
132.900000000005
 21
-267.9163547944827
 31
0.0
  0
LINE
  5
3800
330
3A82
100
AcDbEntity
  8
0
 62
     0
100
AcDbLine
 10
87.78442261402597
 20
-279.3999999999996
 30
0.0
 11
132.900000000005
 21
-257.9164030503489
 31
0.0
  0
LINE
  5
3801
330
3A82
100
AcDbEntity
  8
0
 62
     0
100
AcDbLine
 10
66.78451287703501
 20
-279.3999999999978
 30
0.0
 11
132.9000000000014
 21
-247.9164513062133
 31
0.0
  0
LINE
  5
3802
330
3A82
100
AcDbEntity
  8
0
 62
     0
100
AcDbLine
 10
119.2846419003108
 20
-244.3999999999996
 30
0.0
 11
132.9000000000014
 21
-237.9164995620813
 31
0.0
  0
LINE
  5
3803
330
3A82
100
AcDbEntity
  8
0
 62
     0
100
AcDbLine
 10
45.78460314004405
 20
-279.3999999999996
 30
0.0
 11
119.2846419003108
 21
-244.3999999999996
 31
0.0
  0
LINE
  5
3804
330
3A82
100
AcDbEntity
  8
0
 62
     0
100
AcDbLine
 10
98.28473216331623
 20
-244.3999999999996
 30
0.0
 11
132.9000000000014
 21
-227.9165478179457
 31
0.0
  0
LINE
  5
3805
330
3A82
100
AcDbEntity
  8
0
 62
     0
100
AcDbLine
 10
24.78469340304946
 20
-279.3999999999996
 30
0.0
 11
98.28473216331623
 21
-244.3999999999996
 31
0.0
  0
LINE
  5
3806
330
3A82
100
AcDbEntity
  8
0
 62
     0
100
AcDbLine
 10
77.2848224263289
 20
-244.3999999999996
 30
0.0
 11
132.9000000000014
 21
-217.9165960738119
 31
0.0
  0
LINE
  5
3807
330
3A82
100
AcDbEntity
  8
0
 62
     0
100
AcDbLine
 10
3.784783666062137
 20
-279.3999999999996
 30
0.0
 11
77.2848224263289
 21
-244.3999999999996
 31
0.0
  0
LINE
  5
3808
330
3A82
100
AcDbEntity
  8
0
 62
     0
100
AcDbLine
 10
56.28491268933794
 20
-244.3999999999996
 30
0.0
 11
132.900000000005
 21
-207.9166443296763
 31
0.0
  0
LINE
  5
3809
330
3A82
100
AcDbEntity
  8
0
 62
     0
100
AcDbLine
 10
-17.21512607092882
 20
-279.3999999999996
 30
0.0
 11
56.28491268933794
 21
-244.3999999999996
 31
0.0
  0
LINE
  5
380A
330
3A82
100
AcDbEntity
  8
0
 62
     0
100
AcDbLine
 10
35.28500295234699
 20
-244.3999999999978
 30
0.0
 11
132.9000000000014
 21
-197.9166925855424
 31
0.0
  0
LINE
  5
380B
330
3A82
100
AcDbEntity
  8
0
 62
     0
100
AcDbLine
 10
-38.21503580792342
 20
-279.3999999999996
 30
0.0
 11
35.28500295234699
 21
-244.3999999999978
 31
0.0
  0
LINE
  5
380C
330
3A82
100
AcDbEntity
  8
0
 62
     0
100
AcDbLine
 10
14.28509321535603
 20
-244.3999999999996
 30
0.0
 11
132.9000000000014
 21
-187.9167408414087
 31
0.0
  0
LINE
  5
380D
330
3A82
100
AcDbEntity
  8
0
 62
     0
100
AcDbLine
 10
-59.21494554491072
 20
-279.4000000000015
 30
0.0
 11
14.28509321535603
 21
-244.3999999999996
 31
0.0
  0
LINE
  5
380E
330
3A82
100
AcDbEntity
  8
0
 62
     0
100
AcDbLine
 10
-6.714816521631287
 20
-244.3999999999996
 30
0.0
 11
132.9000000000014
 21
-177.9167890972748
 31
0.0
  0
LINE
  5
380F
330
3A82
100
AcDbEntity
  8
0
 62
     0
100
AcDbLine
 10
-80.2148552819017
 20
-279.4000000000015
 30
0.0
 11
-6.714816521631287
 21
-244.3999999999996
 31
0.0
  0
LINE
  5
3810
330
3A82
100
AcDbEntity
  8
0
 62
     0
100
AcDbLine
 10
-27.71472625862589
 20
-244.3999999999996
 30
0.0
 11
132.9000000000014
 21
-167.9168373531411
 31
0.0
  0
LINE
  5
3811
330
3A82
100
AcDbEntity
  8
0
 62
     0
100
AcDbLine
 10
-101.2147650188963
 20
-279.4000000000015
 30
0.0
 11
-27.71472625862589
 21
-244.3999999999996
 31
0.0
  0
LINE
  5
3812
330
3A82
100
AcDbEntity
  8
0
 62
     0
100
AcDbLine
 10
-48.71463599561685
 20
-244.3999999999996
 30
0.0
 11
132.900000000005
 21
-157.9168856090054
 31
0.0
  0
LINE
  5
3813
330
3A82
100
AcDbEntity
  8
0
 62
     0
100
AcDbLine
 10
-122.2146747558836
 20
-279.4000000000015
 30
0.0
 11
-48.71463599561685
 21
-244.3999999999996
 31
0.0
  0
LINE
  5
3814
330
3A82
100
AcDbEntity
  8
0
 62
     0
100
AcDbLine
 10
-69.71454573260053
 20
-244.3999999999978
 30
0.0
 11
132.9000000000014
 21
-147.9169338648716
 31
0.0
  0
LINE
  5
3815
330
3A82
100
AcDbEntity
  8
0
 62
     0
100
AcDbLine
 10
-132.9000000000014
 20
-274.4882956888232
 30
0.0
 11
-69.71454573260416
 21
-244.3999999999996
 31
0.0
  0
LINE
  5
3816
330
3A82
100
AcDbEntity
  8
0
 62
     0
100
AcDbLine
 10
-82.89999999999782
 20
-240.6788326911228
 30
0.0
 11
132.9000000000014
 21
-137.9169821207379
 31
0.0
  0
LINE
  5
3817
330
3A82
100
AcDbEntity
  8
0
 62
     0
100
AcDbLine
 10
-132.9000000000087
 20
-264.4883439446912
 30
0.0
 11
-82.90000000000508
 21
-240.6788326911264
 31
0.0
  0
LINE
  5
3818
330
3A82
100
AcDbEntity
  8
0
 62
     0
100
AcDbLine
 10
-82.89999999999782
 20
-230.678880946989
 30
0.0
 11
132.9000000000014
 21
-127.9170303766041
 31
0.0
  0
LINE
  5
3819
330
3A82
100
AcDbEntity
  8
0
 62
     0
100
AcDbLine
 10
-132.900000000005
 20
-254.4883922005556
 30
0.0
 11
-82.90000000000146
 21
-230.6788809469908
 31
0.0
  0
LINE
  5
381A
330
3A82
100
AcDbEntity
  8
0
 62
     0
100
AcDbLine
 10
-82.90000000000146
 20
-220.6789292028534
 30
0.0
 11
132.9000000000014
 21
-117.9170786324684
 31
0.0
  0
LINE
  5
381B
330
3A82
100
AcDbEntity
  8
0
 62
     0
100
AcDbLine
 10
-132.900000000005
 20
-244.48844045642
 30
0.0
 11
-82.90000000000508
 21
-220.678929202857
 31
0.0
  0
LINE
  5
381C
330
3A82
100
AcDbEntity
  8
0
 62
     0
100
AcDbLine
 10
-82.90000000000146
 20
-210.6789774587196
 30
0.0
 11
132.9000000000014
 21
-107.9171268883347
 31
0.0
  0
LINE
  5
381D
330
3A82
100
AcDbEntity
  8
0
 62
     0
100
AcDbLine
 10
-132.900000000005
 20
-234.4884887122862
 30
0.0
 11
-82.90000000000508
 21
-210.6789774587214
 31
0.0
  0
LINE
  5
381E
330
3A82
100
AcDbEntity
  8
0
 62
     0
100
AcDbLine
 10
-82.89999999999782
 20
-200.679025714584
 30
0.0
 11
132.9000000000014
 21
-97.91717514419909
 31
0.0
  0
LINE
  5
381F
330
3A82
100
AcDbEntity
  8
0
 62
     0
100
AcDbLine
 10
-132.9000000000014
 20
-224.4885369681506
 30
0.0
 11
-82.90000000000146
 21
-200.6790257145858
 31
0.0
  0
LINE
  5
3820
330
3A82
100
AcDbEntity
  8
0
 62
     0
100
AcDbLine
 10
-82.89999999999782
 20
-190.6790739704501
 30
0.0
 11
132.900000000005
 21
-87.91722340006343
 31
0.0
  0
LINE
  5
3821
330
3A82
100
AcDbEntity
  8
0
 62
     0
100
AcDbLine
 10
-132.900000000005
 20
-214.4885852240168
 30
0.0
 11
-82.89999999999782
 21
-190.6790739704501
 31
0.0
  0
LINE
  5
3822
330
3A82
100
AcDbEntity
  8
0
 62
     0
100
AcDbLine
 10
-82.89999999999782
 20
-180.6791222263164
 30
0.0
 11
132.9000000000014
 21
-77.91727165593147
 31
0.0
  0
LINE
  5
3823
330
3A82
100
AcDbEntity
  8
0
 62
     0
100
AcDbLine
 10
-132.900000000005
 20
-204.4886334798829
 30
0.0
 11
-82.89999999999782
 21
-180.6791222263164
 31
0.0
  0
LINE
  5
3824
330
3A82
100
AcDbEntity
  8
0
 62
     0
100
AcDbLine
 10
-82.90000000000146
 20
-170.6791704821826
 30
0.0
 11
132.900000000005
 21
-67.91731991179585
 31
0.0
  0
LINE
  5
3825
330
3A82
100
AcDbEntity
  8
0
 62
     0
100
AcDbLine
 10
-132.900000000005
 20
-194.4886817357492
 30
0.0
 11
-82.90000000000146
 21
-170.6791704821826
 31
0.0
  0
LINE
  5
3826
330
3A82
100
AcDbEntity
  8
0
 62
     0
100
AcDbLine
 10
-82.90000000000146
 20
-160.6792187380469
 30
0.0
 11
132.9000000000014
 21
-57.91736816766205
 31
0.0
  0
LINE
  5
3827
330
3A82
100
AcDbEntity
  8
0
 62
     0
100
AcDbLine
 10
-132.900000000005
 20
-184.4887299916136
 30
0.0
 11
-82.90000000000146
 21
-160.6792187380469
 31
0.0
  0
LINE
  5
3828
330
3A82
100
AcDbEntity
  8
0
 62
     0
100
AcDbLine
 10
-82.89999999999782
 20
-150.6792669939113
 30
0.0
 11
127.2665715186194
 21
-50.60000000000036
 31
0.0
  0
LINE
  5
3829
330
3A82
100
AcDbEntity
  8
0
 62
     0
100
AcDbLine
 10
-132.900000000005
 20
-174.4887782474798
 30
0.0
 11
-82.89999999999782
 21
-150.6792669939113
 31
0.0
  0
LINE
  5
382A
330
3A82
100
AcDbEntity
  8
0
 62
     0
100
AcDbLine
 10
-82.89999999999782
 20
-140.6793152497774
 30
0.0
 11
106.2666617816285
 21
-50.59999999999853
 31
0.0
  0
LINE
  5
382B
330
3A82
100
AcDbEntity
  8
0
 62
     0
100
AcDbLine
 10
-132.9000000000014
 20
-164.4888265033442
 30
0.0
 11
-82.90000000000146
 21
-140.6793152497794
 31
0.0
  0
LINE
  5
382C
330
3A82
100
AcDbEntity
  8
0
 62
     0
100
AcDbLine
 10
-82.89999999999782
 20
-130.6793635056437
 30
0.0
 11
85.26675204463391
 21
-50.60000000000036
 31
0.0
  0
LINE
  5
382D
330
3A82
100
AcDbEntity
  8
0
 62
     0
100
AcDbLine
 10
-132.9000000000014
 20
-154.4888747592104
 30
0.0
 11
-82.90000000000146
 21
-130.6793635056456
 31
0.0
  0
LINE
  5
382E
330
3A82
100
AcDbEntity
  8
0
 62
     0
100
AcDbLine
 10
-82.90000000000146
 20
-120.67941176151
 30
0.0
 11
64.26684230764658
 21
-50.60000000000036
 31
0.0
  0
LINE
  5
382F
330
3A82
100
AcDbEntity
  8
0
 62
     0
100
AcDbLine
 10
-132.9000000000014
 20
-144.4889230150766
 30
0.0
 11
-82.90000000000508
 21
-120.6794117615118
 31
0.0
  0
LINE
  5
3830
330
3A82
100
AcDbEntity
  8
0
 62
     0
100
AcDbLine
 10
-82.89999999999782
 20
-110.6794600173743
 30
0.0
 11
43.26693257065561
 21
-50.60000000000036
 31
0.0
  0
LINE
  5
3831
330
3A82
100
AcDbEntity
  8
0
 62
     0
100
AcDbLine
 10
-132.8999999999978
 20
-134.4889712709409
 30
0.0
 11
-82.90000000000146
 21
-110.6794600173762
 31
0.0
  0
LINE
  5
3832
330
3A82
100
AcDbEntity
  8
0
 62
     0
100
AcDbLine
 10
-82.90000000000146
 20
-100.6795082732405
 30
0.0
 11
22.26702283366103
 21
-50.60000000000036
 31
0.0
  0
LINE
  5
3833
330
3A82
100
AcDbEntity
  8
0
 62
     0
100
AcDbLine
 10
-132.900000000005
 20
-124.4890195268071
 30
0.0
 11
-82.90000000000508
 21
-100.6795082732424
 31
0.0
  0
LINE
  5
3834
330
3A82
100
AcDbEntity
  8
0
 62
     0
100
AcDbLine
 10
-82.89999999999421
 20
-90.67955652910312
 30
0.0
 11
1.267113096673708
 21
-50.60000000000036
 31
0.0
  0
LINE
  5
3835
330
3A82
100
AcDbEntity
  8
0
 62
     0
100
AcDbLine
 10
-132.9000000000014
 20
-114.4890677826715
 30
0.0
 11
-82.90000000000146
 21
-90.67955652910677
 31
0.0
  0
LINE
  5
3836
330
3A82
100
AcDbEntity
  8
0
 62
     0
100
AcDbLine
 10
-82.89999999999421
 20
-80.67960478496932
 30
0.0
 11
-19.73279664031725
 21
-50.60000000000218
 31
0.0
  0
LINE
  5
3837
330
3A82
100
AcDbEntity
  8
0
 62
     0
100
AcDbLine
 10
-132.9000000000014
 20
-104.4891160385396
 30
0.0
 11
-82.90000000000146
 21
-80.6796047849748
 31
0.0
  0
LINE
  5
3838
330
3A82
100
AcDbEntity
  8
0
 62
     0
100
AcDbLine
 10
-82.89999999999782
 20
-70.67965304083554
 30
0.0
 11
-40.73270637731184
 21
-50.60000000000218
 31
0.0
  0
LINE
  5
3839
330
3A82
100
AcDbEntity
  8
0
 62
     0
100
AcDbLine
 10
-132.9000000000014
 20
-94.48916429440393
 30
0.0
 11
-82.90000000000508
 21
-70.67965304083918
 31
0.0
  0
LINE
  5
383A
330
3A82
100
AcDbEntity
  8
0
 62
     0
100
AcDbLine
 10
-82.89999999999421
 20
-60.67970129669993
 30
0.0
 11
-61.73261611429914
 21
-50.60000000000036
 31
0.0
  0
LINE
  5
383B
330
3A82
100
AcDbEntity
  8
0
 62
     0
100
AcDbLine
 10
-132.8999999999978
 20
-84.48921255026835
 30
0.0
 11
-82.90000000000508
 21
-60.67970129670538
 31
0.0
  0
LINE
  5
383C
330
3A82
100
AcDbEntity
  8
0
 62
     0
100
AcDbLine
 10
-82.89999999999782
 20
-50.67974955256613
 30
0.0
 11
-82.73252585128648
 21
-50.59999999999853
 31
0.0
  0
LINE
  5
383D
330
3A82
100
AcDbEntity
  8
0
 62
     0
100
AcDbLine
 10
-132.900000000005
 20
-74.48926080613455
 30
0.0
 11
-82.90000000000508
 21
-50.67974955256977
 31
0.0
  0
LINE
  5
383E
330
3A82
100
AcDbEntity
  8
0
 62
     0
100
AcDbLine
 10
-132.9000000000014
 20
-64.48930906199894
 30
0.0
 11
-103.7324355882774
 21
-50.59999999999853
 31
0.0
  0
LINE
  5
383F
330
3A82
100
AcDbEntity
  8
0
 62
     0
100
AcDbLine
 10
-132.9000000000014
 20
-54.48935731786514
 30
0.0
 11
-124.732345325272
 21
-50.60000000000036
 31
0.0
  0
ENDBLK
  5
3840
330
3A82
100
AcDbEntity
  8
0
100
AcDbBlockEnd
  0
BLOCK
  5
3C57
330
3C56
100
AcDbEntity
  8
0
100
AcDbBlockBegin
  2
*U80
 70
     1
 10
0.0
 20
0.0
 30
0.0
  3
*U80
  1

  0
ENDBLK
  5
3C58
330
3C56
100
AcDbEntity
  8
0
100
AcDbBlockEnd
  0
ENDSEC
  0
SECTION
  2
ENTITIES
  0
TEXT
  5
953
330
3995
100
AcDbEntity
  8
OUTLINE
  6
Continuous
 62
     3
100
AcDbText
 10
-418.231467
 20
13.715189
 30
0.0
 40
64.0
  1
 
 41
0.9
100
AcDbText
  0
TEXT
  5
954
330
3995
100
AcDbEntity
  8
OUTLINE
  6
Continuous
 62
     3
100
AcDbText
 10
-418.231467
 20
13.715189
 30
0.0
 40
64.0
  1
 
 41
0.9
100
AcDbText
  0
TEXT
  5
955
330
3995
100
AcDbEntity
  8
OUTLINE
  6
Continuous
 62
     3
100
AcDbText
 10
1341.41903
 20
-706.0588199999997
 30
0.0
 40
64.0
  1
 
 41
0.9
100
AcDbText
  0
TEXT
  5
956
330
3995
100
AcDbEntity
  8
OUTLINE
  6
Continuous
 62
     3
100
AcDbText
 10
1341.41903
 20
-706.0588199999997
 30
0.0
 40
64.0
  1
 
 41
0.9
100
AcDbText
  0
TEXT
  5
957
330
3995
100
AcDbEntity
  8
OUTLINE
  6
Continuous
 62
     3
100
AcDbText
 10
1341.41903
 20
-706.0588199999997
 30
0.0
 40
64.0
  1
 
 41
0.9
100
AcDbText
  0
TEXT
  5
958
330
3995
100
AcDbEntity
  8
OUTLINE
  6
Continuous
 62
     3
100
AcDbText
 10
1341.41903
 20
-706.0588199999997
 30
0.0
 40
64.0
  1
 
 41
0.9
100
AcDbText
  0
TEXT
  5
3D5D
330
3995
100
AcDbEntity
  8
ETC
100
AcDbText
 10
1280.134670732887
 20
399.7010737273408
 30
0.0
 40
64.0
  1
システム部材
 41
0.9
100
AcDbText
  0
TEXT
  5
3D5E
330
3995
100
AcDbEntity
  8
ETC
100
AcDbText
 10
1286.342668732885
 20
500.5843997273407
 30
0.0
 40
64.0
  1
W-25SB_6
 41
0.9
100
AcDbText
  0
TEXT
  5
3D5F
330
3995
100
AcDbEntity
  8
ETC
100
AcDbText
 10
1280.134670732887
 20
299.7010737273408
 30
0.0
 40
64.0
  1
W-25SB
 41
0.9
100
AcDbText
  0
LINE
  5
3D60
330
3995
100
AcDbEntity
  8
SIZE
100
AcDbLine
 10
1172.38783984124
 20
-392.925902850021
 30
0.0
 11
1172.38783984124
 21
-547.0293465066279
 31
0.0
  0
LINE
  5
3D61
330
3995
100
AcDbEntity
  8
SIZE
100
AcDbLine
 10
875.3878398412405
 20
-392.925902850021
 30
0.0
 11
875.3878398412405
 21
-547.0293465066279
 31
0.0
  0
LINE
  5
3D62
330
3995
100
AcDbEntity
  8
SIZE
100
AcDbLine
 10
1160.38783984124
 20
-527.0293465066279
 30
0.0
 11
887.3878398412404
 21
-527.0293465066279
 31
0.0
  0
INSERT
  5
3D63
330
3995
100
AcDbEntity
  8
SIZE
100
AcDbBlockReference
  2
_DOTBLANK
 10
1172.38783984124
 20
-527.0293465066279
 30
0.0
 41
12.0
 42
12.0
 43
12.0
  0
INSERT
  5
3D64
330
3995
100
AcDbEntity
  8
SIZE
100
AcDbBlockReference
  2
_DOTBLANK
 10
875.3878398412405
 20
-527.0293465066279
 30
0.0
 41
12.0
 42
12.0
 43
12.0
 50
180.0
  0
MTEXT
  5
3D65
330
3995
100
AcDbEntity
  8
SIZE
100
AcDbMText
 10
1023.88783984124
 20
-485.0293465066278
 30
0.0
 40
64.0
 41
0.0
 71
     5
 72
     1
  1
\A1;297
 73
     1
 44
1.0
  0
LINE
  5
3D66
330
3995
100
AcDbEntity
  8
SIZE
100
AcDbLine
 10
855.3878398412408
 20
-372.925902850021
 30
0.0
 11
678.5707578515308
 21
-372.925902850021
 31
0.0
  0
LINE
  5
3D67
330
3995
100
AcDbEntity
  8
SIZE
100
AcDbLine
 10
821.3878398412404
 20
-77.92590285002098
 30
0.0
 11
678.5707578515308
 21
-77.92590285002098
 31
0.0
  0
LINE
  5
3D68
330
3995
100
AcDbEntity
  8
SIZE
100
AcDbLine
 10
698.5707578515309
 20
-360.925902850021
 30
0.0
 11
698.5707578515309
 21
-89.92590285002098
 31
0.0
  0
INSERT
  5
3D69
330
3995
100
AcDbEntity
  8
SIZE
100
AcDbBlockReference
  2
_DOTBLANK
 10
698.5707578515309
 20
-372.925902850021
 30
0.0
 41
12.0
 42
12.0
 43
12.0
 50
270.0
  0
INSERT
  5
3D6A
330
3995
100
AcDbEntity
  8
SIZE
100
AcDbBlockReference
  2
_DOTBLANK
 10
698.5707578515309
 20
-77.92590285002098
 30
0.0
 41
12.0
 42
12.0
 43
12.0
 50
90.0
  0
MTEXT
  5
3D6B
330
3995
100
AcDbEntity
  8
SIZE
100
AcDbMText
 10
656.570757851531
 20
-222.837419188129
 30
0.0
 40
64.0
 41
0.0
 71
     5
 72
     1
  1
\A1;295
 11
0.0000000000000001
 21
1.0
 31
0.0
 73
     1
 44
1.0
  0
LINE
  5
3D6C
330
3995
100
AcDbEntity
  8
SIZE
100
AcDbLine
 10
1188.88783984124
 20
-45.42590285002098
 30
0.0
 11
1188.88783984124
 21
102.4061881595962
 31
0.0
  0
LINE
  5
3D6D
330
3995
100
AcDbEntity
  8
SIZE
100
AcDbLine
 10
858.8878398412404
 20
-45.42590285002098
 30
0.0
 11
858.8878398412404
 21
102.4061881595962
 31
0.0
  0
LINE
  5
3D6E
330
3995
100
AcDbEntity
  8
SIZE
100
AcDbLine
 10
1176.88783984124
 20
82.40618815959624
 30
0.0
 11
870.8878398412405
 21
82.40618815959624
 31
0.0
  0
INSERT
  5
3D6F
330
3995
100
AcDbEntity
  8
SIZE
100
AcDbBlockReference
  2
_DOTBLANK
 10
1188.88783984124
 20
82.40618815959624
 30
0.0
 41
12.0
 42
12.0
 43
12.0
  0
INSERT
  5
3D70
330
3995
100
AcDbEntity
  8
SIZE
100
AcDbBlockReference
  2
_DOTBLANK
 10
858.8878398412404
 20
82.40618815959624
 30
0.0
 41
12.0
 42
12.0
 43
12.0
 50
180.0
  0
MTEXT
  5
3D71
330
3995
100
AcDbEntity
  8
SIZE
100
AcDbMText
 10
1023.331962207247
 20
124.4061881595962
 30
0.0
 40
64.0
 41
0.0
 71
     5
 72
     1
  1
\A1;330
 73
     1
 44
1.0
  0
LINE
  5
3D72
330
3995
100
AcDbEntity
  8
SIZE
100
AcDbLine
 10
1206.38783984124
 20
-57.92590285002098
 30
0.0
 11
1206.38783984124
 21
220.9606900864955
 31
0.0
  0
LINE
  5
3D73
330
3995
100
AcDbEntity
  8
SIZE
100
AcDbLine
 10
841.3878398412405
 20
-57.92590285002098
 30
0.0
 11
841.3878398412405
 21
220.9606900864955
 31
0.0
  0
LINE
  5
3D74
330
3995
100
AcDbEntity
  8
SIZE
100
AcDbLine
 10
1194.38783984124
 20
200.9606900864956
 30
0.0
 11
853.3878398412404
 21
200.9606900864956
 31
0.0
  0
INSERT
  5
3D75
330
3995
100
AcDbEntity
  8
SIZE
100
AcDbBlockReference
  2
_DOTBLANK
 10
1206.38783984124
 20
200.9606900864956
 30
0.0
 41
12.0
 42
12.0
 43
12.0
  0
INSERT
  5
3D76
330
3995
100
AcDbEntity
  8
SIZE
100
AcDbBlockReference
  2
_DOTBLANK
 10
841.3878398412405
 20
200.9606900864956
 30
0.0
 41
12.0
 42
12.0
 43
12.0
 50
180.0
  0
MTEXT
  5
3D77
330
3995
100
AcDbEntity
  8
SIZE
100
AcDbMText
 10
1023.88783984124
 20
242.9606900864956
 30
0.0
 40
64.0
 41
0.0
 71
     5
 72
     1
  1
\A1;365
 73
     1
 44
1.0
  0
POINT
  5
3D78
330
3995
100
AcDbEntity
  8
ARRANGE
100
AcDbPoint
 10
1023.88783984124
 20
-77.92590285002098
 30
0.0
 39
50.0
  0
CIRCLE
  5
3D79
330
3995
100
AcDbEntity
  8
ARRANGE
100
AcDbCircle
 10
1023.88783984124
 20
-77.32590294869442
 30
0.0
 40
40.0
  0
LINE
  5
3D7A
330
3995
100
AcDbEntity
  8
BASIS
100
AcDbLine
 10
1023.88783984124
 20
-52.92590285002098
 30
0.0
 11
1023.88783984124
 21
-397.925902850021
 31
0.0
  0
LINE
  5
3D7B
330
3995
100
AcDbEntity
  8
DETAIL
100
AcDbLine
 10
1156.787839841242
 20
-128.5259028500213
 30
0.0
 11
1156.787839841242
 21
-357.3259028500211
 31
0.0
  0
LINE
  5
3D7C
330
3995
100
AcDbEntity
  8
DETAIL
100
AcDbLine
 10
890.987839841239
 20
-128.5259028500213
 30
0.0
 11
890.987839841239
 21
-357.3259028500211
 31
0.0
  0
LINE
  5
3D7D
330
3995
100
AcDbEntity
  8
DETAIL
100
AcDbLine
 10
1172.38783984124
 20
-87.92590285002145
 30
0.0
 11
1172.38783984124
 21
-372.925902850021
 31
0.0
  0
LINE
  5
3D7E
330
3995
100
AcDbEntity
  8
OUTLINE
100
AcDbLine
 10
875.3878398412405
 20
-87.92590285002145
 30
0.0
 11
875.3878398412405
 21
-372.925902850021
 31
0.0
  0
LINE
  5
3D7F
330
3995
100
AcDbEntity
  8
DETAIL
100
AcDbLine
 10
875.3878398412405
 20
-87.92590285002145
 30
0.0
 11
875.3878398412405
 21
-372.925902850021
 31
0.0
  0
LINE
  5
3D80
330
3995
100
AcDbEntity
  8
DETAIL
100
AcDbLine
 10
890.987839841239
 20
-128.5259028500213
 30
0.0
 11
1156.787839841242
 21
-128.5259028500213
 31
0.0
  0
LINE
  5
3D81
330
3995
100
AcDbEntity
  8
DETAIL
100
AcDbLine
 10
875.3878398412405
 20
-112.9259028500209
 30
0.0
 11
1172.387839841237
 21
-112.9259028500209
 31
0.0
  0
LINE
  5
3D82
330
3995
100
AcDbEntity
  8
DETAIL
100
AcDbLine
 10
841.3878398412405
 20
-77.92590285002098
 30
0.0
 11
1206.38783984124
 21
-77.92590285002098
 31
0.0
  0
LINE
  5
3D83
330
3995
100
AcDbEntity
  8
DETAIL
100
AcDbLine
 10
841.3878398412405
 20
-87.92590285002145
 30
0.0
 11
1206.38783984124
 21
-87.92590285002145
 31
0.0
  0
LINE
  5
3D84
330
3995
100
AcDbEntity
  8
DETAIL
100
AcDbLine
 10
841.3878398412405
 20
-77.92590285002098
 30
0.0
 11
841.3878398412405
 21
-87.92590285002145
 31
0.0
  0
LINE
  5
3D85
330
3995
100
AcDbEntity
  8
NOTE
100
AcDbLine
 10
858.8878398412404
 20
-90.42590285002097
 30
0.0
 11
858.8878398412404
 21
-65.42590285002098
 31
0.0
  0
LINE
  5
3D86
330
3995
100
AcDbEntity
  8
NOTE
100
AcDbLine
 10
1188.88783984124
 20
-65.42590285002098
 30
0.0
 11
1188.88783984124
 21
-90.42590285002097
 31
0.0
  0
LINE
  5
3D87
330
3995
100
AcDbEntity
  8
DETAIL
100
AcDbLine
 10
1206.38783984124
 20
-77.92590285002098
 30
0.0
 11
1206.38783984124
 21
-87.92590285002145
 31
0.0
  0
LINE
  5
3D88
330
3995
100
AcDbEntity
  8
DETAIL
100
AcDbLine
 10
890.987839841239
 20
-357.3259028500211
 30
0.0
 11
1156.787839841242
 21
-357.3259028500211
 31
0.0
  0
LINE
  5
3D89
330
3995
100
AcDbEntity
  8
OUTLINE
100
AcDbLine
 10
875.3878398412405
 20
-372.925902850021
 30
0.0
 11
1172.38783984124
 21
-372.925902850021
 31
0.0
  0
LINE
  5
3D8A
330
3995
100
AcDbEntity
  8
DETAIL
100
AcDbLine
 10
875.3878398412405
 20
-372.925902850021
 30
0.0
 11
1172.38783984124
 21
-372.925902850021
 31
0.0
  0
INSERT
  5
3D8B
330
3995
100
AcDbEntity
  8
NOTE
100
AcDbBlockReference
  2
_OPEN30
 10
858.8878398412404
 20
-77.92590285002098
 30
0.0
 41
11.99999999999906
 42
12.0
 43
12.0
 50
312.6090116116846
1001
ACAD
1000
DSTYLE
1002
{
1070
    41
1040
12.0
1070
    42
1040
20.0
1070
    43
1040
200.0
1070
    44
1040
20.0
1070
    73
1070
     0
1070
    74
1070
     0
1070
    77
1070
     1
1070
    78
1070
     8
1070
   140
1040
64.0
1070
   147
1040
50.0
1070
   172
1070
     1
1070
   174
1070
     1
1070
   275
1070
     0
1070
   284
1070
     0
1070
   285
1070
     0
1070
   286
1070
     0
1070
   341
1005
39EC
1070
   342
1005
39EA
1002
}
  0
LWPOLYLINE
  5
3D8C
330
3995
100
AcDbEntity
  8
NOTE
100
AcDbPolyline
 90
        3
 70
     0
 43
0.0
 10
850.7639390050522
 20
-69.09401544110551
 10
771.0184398489862
 20
17.60119220799242
 10
222.4355827061288
 20
17.60119220799242
1001
ACAD
1000
DSTYLE
1002
{
1070
    41
1040
12.0
1070
    42
1040
20.0
1070
    43
1040
200.0
1070
    44
1040
20.0
1070
    73
1070
     0
1070
    74
1070
     0
1070
    77
1070
     1
1070
    78
1070
     8
1070
   140
1040
64.0
1070
   147
1040
50.0
1070
   172
1070
     1
1070
   174
1070
     1
1070
   275
1070
     0
1070
   284
1070
     0
1070
   285
1070
     0
1070
   286
1070
     0
1070
   341
1005
39EC
1070
   342
1005
39EA
1002
}
  0
TEXT
  5
3D8D
330
3995
100
AcDbEntity
  8
NOTE
100
AcDbText
 10
214.2070112775571
 20
35.60119220799244
 30
0.0
 40
64.0
  1
4×φ10取付穴
 41
0.9
100
AcDbText
  0
LINE
  5
3D8E
330
3995
100
AcDbEntity
  8
NOTE
100
AcDbLine
 39
50.0
 10
846.3878398412404
 20
-77.92590285002098
 30
0.0
 11
871.3878398412404
 21
-77.92590285002098
 31
0.0
  0
LINE
  5
3D8F
330
3995
100
AcDbEntity
  8
NOTE
100
AcDbLine
 39
50.0
 10
1176.38783984124
 20
-77.92590285002098
 30
0.0
 11
1201.38783984124
 21
-77.92590285002098
 31
0.0
  0
LINE
  5
3D90
330
3995
100
AcDbEntity
  8
OUTLINE
100
AcDbLine
 39
50.0
 10
841.3878398412405
 20
-77.92590285002098
 30
0.0
 11
1206.38783984124
 21
-77.92590285002098
 31
0.0
  0
LINE
  5
3D91
330
3995
100
AcDbEntity
  8
OUTLINE
100
AcDbLine
 10
1172.38783984124
 20
-87.92590285002145
 30
0.0
 11
1172.38783984124
 21
-372.925902850021
 31
0.0
  0
LINE
  5
3D92
330
3995
100
AcDbEntity
  8
OUTLINE
100
AcDbLine
 10
875.3878398412405
 20
-87.92590285002145
 30
0.0
 11
875.3878398412405
 21
-372.925902850021
 31
0.0
  0
LINE
  5
3D93
330
3995
100
AcDbEntity
  8
OUTLINE
100
AcDbLine
 10
875.3878398412405
 20
-112.9259028500209
 30
0.0
 11
1172.387839841237
 21
-112.9259028500209
 31
0.0
  0
LINE
  5
3D94
330
3995
100
AcDbEntity
  8
OUTLINE
100
AcDbLine
 10
841.3878398412405
 20
-87.92590285002145
 30
0.0
 11
1206.38783984124
 21
-87.92590285002145
 31
0.0
  0
LINE
  5
3D95
330
3995
100
AcDbEntity
  8
OUTLINE
100
AcDbLine
 10
841.3878398412405
 20
-77.92590285002098
 30
0.0
 11
841.3878398412405
 21
-87.92590285002145
 31
0.0
  0
LINE
  5
3D96
330
3995
100
AcDbEntity
  8
OUTLINE
100
AcDbLine
 10
1206.38783984124
 20
-77.92590285002098
 30
0.0
 11
1206.38783984124
 21
-87.92590285002145
 31
0.0
  0
LINE
  5
3D97
330
3995
100
AcDbEntity
  8
OUTLINE
100
AcDbLine
 10
875.3878398412405
 20
-372.925902850021
 30
0.0
 11
1172.38783984124
 21
-372.925902850021
 31
0.0
  0
LINE
  5
3D98
330
3995
100
AcDbEntity
  8
DETAIL
100
AcDbLine
 10
890.987839841239
 20
-128.5259028500213
 30
0.0
 11
1156.787839841242
 21
-128.5259028500213
 31
0.0
  0
LINE
  5
3D99
330
3995
100
AcDbEntity
  8
DETAIL
100
AcDbLine
 10
890.987839841239
 20
-357.3259028500215
 30
0.0
 11
1156.787839841242
 21
-357.3259028500215
 31
0.0
  0
LINE
  5
3D9A
330
3995
100
AcDbEntity
  8
DETAIL
100
AcDbLine
 10
890.987839841239
 20
-128.5259028500213
 30
0.0
 11
890.987839841239
 21
-357.3259028500215
 31
0.0
  0
LINE
  5
3D9B
330
3995
100
AcDbEntity
  8
DETAIL
100
AcDbLine
 10
1156.787839841242
 20
-128.5259028500213
 30
0.0
 11
1156.787839841242
 21
-357.3259028500215
 31
0.0
  0
LINE
  5
3D9C
330
3995
100
AcDbEntity
  8
DETAIL
100
AcDbLine
 10
890.987839841239
 20
-128.5259028500213
 30
0.0
 11
1156.787839841242
 21
-128.5259028500213
 31
0.0
  0
LINE
  5
3D9D
330
3995
100
AcDbEntity
  8
DETAIL
100
AcDbLine
 10
890.987839841239
 20
-357.3259028500211
 30
0.0
 11
1156.787839841242
 21
-357.3259028500211
 31
0.0
  0
LINE
  5
3D9E
330
3995
100
AcDbEntity
  8
DETAIL
100
AcDbLine
 10
890.987839841239
 20
-128.5259028500213
 30
0.0
 11
890.987839841239
 21
-357.3259028500211
 31
0.0
  0
LINE
  5
3D9F
330
3995
100
AcDbEntity
  8
DETAIL
100
AcDbLine
 10
1156.787839841242
 20
-128.5259028500213
 30
0.0
 11
1156.787839841242
 21
-357.3259028500211
 31
0.0
  0
LINE
  5
3DA0
330
3995
100
AcDbEntity
  8
DETAIL
100
AcDbLine
 10
1154.504041431518
 20
-128.5259028500204
 30
0.0
 11
1156.787839841238
 21
-129.6134253287628
 31
0.0
1001
ACAD
1010
0.0
1020
0.0
1030
0.0
1001
ACADANNOTATIVE
1000
AnnotativeData
1002
{
1070
     1
1070
     1
1002
}
  0
LINE
  5
3DA1
330
3995
100
AcDbEntity
  8
DETAIL
100
AcDbLine
 10
1133.504131694527
 20
-128.5259028500204
 30
0.0
 11
1156.787839841235
 21
-139.6133770728966
 31
0.0
1001
ACAD
1010
0.0
1020
0.0
1030
0.0
1001
ACADANNOTATIVE
1000
AnnotativeData
1002
{
1070
     1
1070
     1
1002
}
  0
LINE
  5
3DA2
330
3995
100
AcDbEntity
  8
DETAIL
100
AcDbLine
 10
1112.504221957536
 20
-128.5259028500222
 30
0.0
 11
1156.787839841238
 21
-149.6133288170322
 31
0.0
1001
ACAD
1010
0.0
1020
0.0
1030
0.0
1001
ACADANNOTATIVE
1000
AnnotativeData
1002
{
1070
     1
1070
     1
1002
}
  0
LINE
  5
3DA3
330
3995
100
AcDbEntity
  8
DETAIL
100
AcDbLine
 10
1091.504312220549
 20
-128.5259028500222
 30
0.0
 11
1156.787839841235
 21
-159.613280561166
 31
0.0
1001
ACAD
1010
0.0
1020
0.0
1030
0.0
1001
ACADANNOTATIVE
1000
AnnotativeData
1002
{
1070
     1
1070
     1
1002
}
  0
LINE
  5
3DA4
330
3995
100
AcDbEntity
  8
DETAIL
100
AcDbLine
 10
1070.504402483561
 20
-128.525902850024
 30
0.0
 11
1156.787839841238
 21
-169.6132323053016
 31
0.0
1001
ACAD
1010
0.0
1020
0.0
1030
0.0
1001
ACADANNOTATIVE
1000
AnnotativeData
1002
{
1070
     1
1070
     1
1002
}
  0
LINE
  5
3DA5
330
3995
100
AcDbEntity
  8
DETAIL
100
AcDbLine
 10
1049.504492746566
 20
-128.525902850024
 30
0.0
 11
1156.787839841235
 21
-179.6131840494354
 31
0.0
1001
ACAD
1010
0.0
1020
0.0
1030
0.0
1001
ACADANNOTATIVE
1000
AnnotativeData
1002
{
1070
     1
1070
     1
1002
}
  0
LINE
  5
3DA6
330
3995
100
AcDbEntity
  8
DETAIL
100
AcDbLine
 10
1028.504583009576
 20
-128.5259028500204
 30
0.0
 11
1156.787839841235
 21
-189.6131357935674
 31
0.0
1001
ACAD
1010
0.0
1020
0.0
1030
0.0
1001
ACADANNOTATIVE
1000
AnnotativeData
1002
{
1070
     1
1070
     1
1002
}
  0
LINE
  5
3DA7
330
3995
100
AcDbEntity
  8
DETAIL
100
AcDbLine
 10
1007.504673272585
 20
-128.5259028500213
 30
0.0
 11
1156.787839841238
 21
-199.6130875377021
 31
0.0
1001
ACAD
1010
0.0
1020
0.0
1030
0.0
1001
ACADANNOTATIVE
1000
AnnotativeData
1002
{
1070
     1
1070
     1
1002
}
  0
LINE
  5
3DA8
330
3995
100
AcDbEntity
  8
DETAIL
100
AcDbLine
 10
986.504763535594
 20
-128.5259028500213
 30
0.0
 11
1156.787839841238
 21
-209.6130392818368
 31
0.0
1001
ACAD
1010
0.0
1020
0.0
1030
0.0
1001
ACADANNOTATIVE
1000
AnnotativeData
1002
{
1070
     1
1070
     1
1002
}
  0
LINE
  5
3DA9
330
3995
100
AcDbEntity
  8
DETAIL
100
AcDbLine
 10
965.5048537986028
 20
-128.5259028500213
 30
0.0
 11
1156.787839841238
 21
-219.6129910259715
 31
0.0
1001
ACAD
1010
0.0
1020
0.0
1030
0.0
1001
ACADANNOTATIVE
1000
AnnotativeData
1002
{
1070
     1
1070
     1
1002
}
  0
LINE
  5
3DAA
330
3995
100
AcDbEntity
  8
DETAIL
100
AcDbLine
 10
944.5049440616118
 20
-128.5259028500213
 30
0.0
 11
1156.787839841235
 21
-229.6129427701053
 31
0.0
1001
ACAD
1010
0.0
1020
0.0
1030
0.0
1001
ACADANNOTATIVE
1000
AnnotativeData
1002
{
1070
     1
1070
     1
1002
}
  0
LINE
  5
3DAB
330
3995
100
AcDbEntity
  8
DETAIL
100
AcDbLine
 10
923.5050343246209
 20
-128.5259028500213
 30
0.0
 11
940.987839841228
 21
-136.8510439438523
 31
0.0
1001
ACAD
1010
0.0
1020
0.0
1030
0.0
1001
ACADANNOTATIVE
1000
AnnotativeData
1002
{
1070
     1
1070
     1
1002
}
  0
LINE
  5
3DAC
330
3995
100
AcDbEntity
  8
DETAIL
100
AcDbLine
 10
940.9878398412352
 20
-136.851043943856
 30
0.0
 11
1156.787839841238
 21
-239.6128945142409
 31
0.0
1001
ACAD
1010
0.0
1020
0.0
1030
0.0
1001
ACADANNOTATIVE
1000
AnnotativeData
1002
{
1070
     1
1070
     1
1002
}
  0
LINE
  5
3DAD
330
3995
100
AcDbEntity
  8
DETAIL
100
AcDbLine
 10
902.50512458763
 20
-128.5259028500213
 30
0.0
 11
940.987839841228
 21
-146.8509956879879
 31
0.0
1001
ACAD
1010
0.0
1020
0.0
1030
0.0
1001
ACADANNOTATIVE
1000
AnnotativeData
1002
{
1070
     1
1070
     1
1002
}
  0
LINE
  5
3DAE
330
3995
100
AcDbEntity
  8
DETAIL
100
AcDbLine
 10
940.9878398412352
 20
-146.8509956879898
 30
0.0
 11
1156.787839841235
 21
-249.6128462583747
 31
0.0
1001
ACAD
1010
0.0
1020
0.0
1030
0.0
1001
ACADANNOTATIVE
1000
AnnotativeData
1002
{
1070
     1
1070
     1
1002
}
  0
LINE
  5
3DAF
330
3995
100
AcDbEntity
  8
DETAIL
100
AcDbLine
 10
890.9878398412317
 20
-133.0414361785579
 30
0.0
 11
940.987839841228
 21
-156.8509474321217
 31
0.0
1001
ACAD
1010
0.0
1020
0.0
1030
0.0
1001
ACADANNOTATIVE
1000
AnnotativeData
1002
{
1070
     1
1070
     1
1002
}
  0
LINE
  5
3DB0
330
3995
100
AcDbEntity
  8
DETAIL
100
AcDbLine
 10
940.9878398412352
 20
-156.8509474321254
 30
0.0
 11
1156.787839841235
 21
-259.6127980025103
 31
0.0
1001
ACAD
1010
0.0
1020
0.0
1030
0.0
1001
ACADANNOTATIVE
1000
AnnotativeData
1002
{
1070
     1
1070
     1
1002
}
  0
LINE
  5
3DB1
330
3995
100
AcDbEntity
  8
DETAIL
100
AcDbLine
 10
890.9878398412281
 20
-143.0413879226916
 30
0.0
 11
940.987839841228
 21
-166.8508991762573
 31
0.0
1001
ACAD
1010
0.0
1020
0.0
1030
0.0
1001
ACADANNOTATIVE
1000
AnnotativeData
1002
{
1070
     1
1070
     1
1002
}
  0
LINE
  5
3DB2
330
3995
100
AcDbEntity
  8
DETAIL
100
AcDbLine
 10
940.9878398412317
 20
-166.8508991762592
 30
0.0
 11
1156.787839841235
 21
-269.6127497466441
 31
0.0
1001
ACAD
1010
0.0
1020
0.0
1030
0.0
1001
ACADANNOTATIVE
1000
AnnotativeData
1002
{
1070
     1
1070
     1
1002
}
  0
LINE
  5
3DB3
330
3995
100
AcDbEntity
  8
DETAIL
100
AcDbLine
 10
890.9878398412281
 20
-153.0413396668273
 30
0.0
 11
940.9878398412317
 21
-176.850850920393
 31
0.0
1001
ACAD
1010
0.0
1020
0.0
1030
0.0
1001
ACADANNOTATIVE
1000
AnnotativeData
1002
{
1070
     1
1070
     1
1002
}
  0
LINE
  5
3DB4
330
3995
100
AcDbEntity
  8
DETAIL
100
AcDbLine
 10
940.9878398412352
 20
-176.8508509203948
 30
0.0
 11
1156.787839841238
 21
-279.6127014907797
 31
0.0
1001
ACAD
1010
0.0
1020
0.0
1030
0.0
1001
ACADANNOTATIVE
1000
AnnotativeData
1002
{
1070
     1
1070
     1
1002
}
  0
LINE
  5
3DB5
330
3995
100
AcDbEntity
  8
DETAIL
100
AcDbLine
 10
890.9878398412281
 20
-163.0412914109611
 30
0.0
 11
940.9878398412317
 21
-186.8508026645266
 31
0.0
1001
ACAD
1010
0.0
1020
0.0
1030
0.0
1001
ACADANNOTATIVE
1000
AnnotativeData
1002
{
1070
     1
1070
     1
1002
}
  0
LINE
  5
3DB6
330
3995
100
AcDbEntity
  8
DETAIL
100
AcDbLine
 10
940.9878398412317
 20
-186.8508026645286
 30
0.0
 11
1156.787839841238
 21
-289.6126532349153
 31
0.0
1001
ACAD
1010
0.0
1020
0.0
1030
0.0
1001
ACADANNOTATIVE
1000
AnnotativeData
1002
{
1070
     1
1070
     1
1002
}
  0
LINE
  5
3DB7
330
3995
100
AcDbEntity
  8
DETAIL
100
AcDbLine
 10
890.9878398412281
 20
-173.0412431550931
 30
0.0
 11
940.9878398412317
 21
-196.8507544086586
 31
0.0
1001
ACAD
1010
0.0
1020
0.0
1030
0.0
1001
ACADANNOTATIVE
1000
AnnotativeData
1002
{
1070
     1
1070
     1
1002
}
  0
LINE
  5
3DB8
330
3995
100
AcDbEntity
  8
DETAIL
100
AcDbLine
 10
940.9878398412352
 20
-196.8507544086605
 30
0.0
 11
1156.787839841235
 21
-299.6126049790455
 31
0.0
1001
ACAD
1010
0.0
1020
0.0
1030
0.0
1001
ACADANNOTATIVE
1000
AnnotativeData
1002
{
1070
     1
1070
     1
1002
}
  0
LINE
  5
3DB9
330
3995
100
AcDbEntity
  8
DETAIL
100
AcDbLine
 10
890.9878398412281
 20
-183.0411948992269
 30
0.0
 11
940.987839841228
 21
-206.8507061527926
 31
0.0
1001
ACAD
1010
0.0
1020
0.0
1030
0.0
1001
ACADANNOTATIVE
1000
AnnotativeData
1002
{
1070
     1
1070
     1
1002
}
  0
LINE
  5
3DBA
330
3995
100
AcDbEntity
  8
DETAIL
100
AcDbLine
 10
940.9878398412352
 20
-206.8507061527944
 30
0.0
 11
1156.787839841238
 21
-309.6125567231811
 31
0.0
1001
ACAD
1010
0.0
1020
0.0
1030
0.0
1001
ACADANNOTATIVE
1000
AnnotativeData
1002
{
1070
     1
1070
     1
1002
}
  0
LINE
  5
3DBB
330
3995
100
AcDbEntity
  8
DETAIL
100
AcDbLine
 10
890.9878398412281
 20
-193.0411466433625
 30
0.0
 11
940.987839841228
 21
-216.8506578969282
 31
0.0
1001
ACAD
1010
0.0
1020
0.0
1030
0.0
1001
ACADANNOTATIVE
1000
AnnotativeData
1002
{
1070
     1
1070
     1
1002
}
  0
LINE
  5
3DBC
330
3995
100
AcDbEntity
  8
DETAIL
100
AcDbLine
 10
940.9878398412352
 20
-216.85065789693
 30
0.0
 11
1156.787839841235
 21
-319.6125084673149
 31
0.0
1001
ACAD
1010
0.0
1020
0.0
1030
0.0
1001
ACADANNOTATIVE
1000
AnnotativeData
1002
{
1070
     1
1070
     1
1002
}
  0
LINE
  5
3DBD
330
3995
100
AcDbEntity
  8
DETAIL
100
AcDbLine
 10
890.9878398412281
 20
-203.0410983874963
 30
0.0
 11
940.9878398412317
 21
-226.8506096410638
 31
0.0
1001
ACAD
1010
0.0
1020
0.0
1030
0.0
1001
ACADANNOTATIVE
1000
AnnotativeData
1002
{
1070
     1
1070
     1
1002
}
  0
LINE
  5
3DBE
330
3995
100
AcDbEntity
  8
DETAIL
100
AcDbLine
 10
1141.486061312835
 20
-322.3259028500197
 30
0.0
 11
1156.787839841235
 21
-329.6124602114486
 31
0.0
1001
ACAD
1010
0.0
1020
0.0
1030
0.0
1001
ACADANNOTATIVE
1000
AnnotativeData
1002
{
1070
     1
1070
     1
1002
}
  0
LINE
  5
3DBF
330
3995
100
AcDbEntity
  8
DETAIL
100
AcDbLine
 10
940.9878398412352
 20
-226.8506096410647
 30
0.0
 11
1141.486061312835
 21
-322.3259028500197
 31
0.0
1001
ACAD
1010
0.0
1020
0.0
1030
0.0
1001
ACADANNOTATIVE
1000
AnnotativeData
1002
{
1070
     1
1070
     1
1002
}
  0
LINE
  5
3DC0
330
3995
100
AcDbEntity
  8
DETAIL
100
AcDbLine
 10
890.9878398412281
 20
-213.0410501316319
 30
0.0
 11
940.9878398412317
 21
-236.8505613851985
 31
0.0
1001
ACAD
1010
0.0
1020
0.0
1030
0.0
1001
ACADANNOTATIVE
1000
AnnotativeData
1002
{
1070
     1
1070
     1
1002
}
  0
LINE
  5
3DC1
330
3995
100
AcDbEntity
  8
DETAIL
100
AcDbLine
 10
1120.486151575844
 20
-322.3259028500197
 30
0.0
 11
1156.787839841231
 21
-339.6124119555825
 31
0.0
1001
ACAD
1010
0.0
1020
0.0
1030
0.0
1001
ACADANNOTATIVE
1000
AnnotativeData
1002
{
1070
     1
1070
     1
1002
}
  0
LINE
  5
3DC2
330
3995
100
AcDbEntity
  8
DETAIL
100
AcDbLine
 10
940.9878398412317
 20
-236.8505613851985
 30
0.0
 11
1120.486151575844
 21
-322.3259028500197
 31
0.0
1001
ACAD
1010
0.0
1020
0.0
1030
0.0
1001
ACADANNOTATIVE
1000
AnnotativeData
1002
{
1070
     1
1070
     1
1002
}
  0
LINE
  5
3DC3
330
3995
100
AcDbEntity
  8
DETAIL
100
AcDbLine
 10
890.9878398412281
 20
-223.0410018757675
 30
0.0
 11
940.9878398412352
 21
-246.8505131293341
 31
0.0
1001
ACAD
1010
0.0
1020
0.0
1030
0.0
1001
ACADANNOTATIVE
1000
AnnotativeData
1002
{
1070
     1
1070
     1
1002
}
  0
LINE
  5
3DC4
330
3995
100
AcDbEntity
  8
DETAIL
100
AcDbLine
 10
1099.486241838853
 20
-322.3259028500197
 30
0.0
 11
1156.787839841238
 21
-349.6123636997198
 31
0.0
1001
ACAD
1010
0.0
1020
0.0
1030
0.0
1001
ACADANNOTATIVE
1000
AnnotativeData
1002
{
1070
     1
1070
     1
1002
}
  0
LINE
  5
3DC5
330
3995
100
AcDbEntity
  8
DETAIL
100
AcDbLine
 10
940.9878398412352
 20
-246.8505131293341
 30
0.0
 11
1099.486241838853
 21
-322.3259028500197
 31
0.0
1001
ACAD
1010
0.0
1020
0.0
1030
0.0
1001
ACADANNOTATIVE
1000
AnnotativeData
1002
{
1070
     1
1070
     1
1002
}
  0
LINE
  5
3DC6
330
3995
100
AcDbEntity
  8
DETAIL
100
AcDbLine
 10
890.9878398412281
 20
-233.0409536199013
 30
0.0
 11
940.9878398412317
 21
-256.8504648734679
 31
0.0
1001
ACAD
1010
0.0
1020
0.0
1030
0.0
1001
ACADANNOTATIVE
1000
AnnotativeData
1002
{
1070
     1
1070
     1
1002
}
  0
LINE
  5
3DC7
330
3995
100
AcDbEntity
  8
DETAIL
100
AcDbLine
 10
1078.486332101866
 20
-322.3259028500215
 30
0.0
 11
1151.986370862133
 21
-357.3259028500215
 31
0.0
1001
ACAD
1010
0.0
1020
0.0
1030
0.0
1001
ACADANNOTATIVE
1000
AnnotativeData
1002
{
1070
     1
1070
     1
1002
}
  0
LINE
  5
3DC8
330
3995
100
AcDbEntity
  8
DETAIL
100
AcDbLine
 10
940.9878398412317
 20
-256.8504648734679
 30
0.0
 11
1078.486332101862
 21
-322.3259028500197
 31
0.0
1001
ACAD
1010
0.0
1020
0.0
1030
0.0
1001
ACADANNOTATIVE
1000
AnnotativeData
1002
{
1070
     1
1070
     1
1002
}
  0
LINE
  5
3DC9
330
3995
100
AcDbEntity
  8
DETAIL
100
AcDbLine
 10
890.9878398412317
 20
-243.0409053640378
 30
0.0
 11
940.9878398412352
 21
-266.8504166176035
 31
0.0
1001
ACAD
1010
0.0
1020
0.0
1030
0.0
1001
ACADANNOTATIVE
1000
AnnotativeData
1002
{
1070
     1
1070
     1
1002
}
  0
LINE
  5
3DCA
330
3995
100
AcDbEntity
  8
DETAIL
100
AcDbLine
 10
1057.486422364871
 20
-322.3259028500215
 30
0.0
 11
1130.986461125138
 21
-357.3259028500215
 31
0.0
1001
ACAD
1010
0.0
1020
0.0
1030
0.0
1001
ACADANNOTATIVE
1000
AnnotativeData
1002
{
1070
     1
1070
     1
1002
}
  0
LINE
  5
3DCB
330
3995
100
AcDbEntity
  8
DETAIL
100
AcDbLine
 10
940.9878398412352
 20
-266.8504166176035
 30
0.0
 11
1057.486422364871
 21
-322.3259028500206
 31
0.0
1001
ACAD
1010
0.0
1020
0.0
1030
0.0
1001
ACADANNOTATIVE
1000
AnnotativeData
1002
{
1070
     1
1070
     1
1002
}
  0
LINE
  5
3DCC
330
3995
100
AcDbEntity
  8
DETAIL
100
AcDbLine
 10
890.9878398412317
 20
-253.0408571081725
 30
0.0
 11
940.9878398412352
 21
-276.8503683617373
 31
0.0
1001
ACAD
1010
0.0
1020
0.0
1030
0.0
1001
ACADANNOTATIVE
1000
AnnotativeData
1002
{
1070
     1
1070
     1
1002
}
  0
LINE
  5
3DCD
330
3995
100
AcDbEntity
  8
DETAIL
100
AcDbLine
 10
1036.486512627884
 20
-322.3259028500215
 30
0.0
 11
1109.986551388147
 21
-357.3259028500215
 31
0.0
1001
ACAD
1010
0.0
1020
0.0
1030
0.0
1001
ACADANNOTATIVE
1000
AnnotativeData
1002
{
1070
     1
1070
     1
1002
}
  0
LINE
  5
3DCE
330
3995
100
AcDbEntity
  8
DETAIL
100
AcDbLine
 10
940.9878398412352
 20
-276.8503683617373
 30
0.0
 11
1036.486512627884
 21
-322.3259028500215
 31
0.0
1001
ACAD
1010
0.0
1020
0.0
1030
0.0
1001
ACADANNOTATIVE
1000
AnnotativeData
1002
{
1070
     1
1070
     1
1002
}
  0
LINE
  5
3DCF
330
3995
100
AcDbEntity
  8
DETAIL
100
AcDbLine
 10
890.9878398412317
 20
-263.0408088523072
 30
0.0
 11
940.9878398412352
 21
-286.8503201058729
 31
0.0
1001
ACAD
1010
0.0
1020
0.0
1030
0.0
1001
ACADANNOTATIVE
1000
AnnotativeData
1002
{
1070
     1
1070
     1
1002
}
  0
LINE
  5
3DD0
330
3995
100
AcDbEntity
  8
DETAIL
100
AcDbLine
 10
1015.48660289089
 20
-322.3259028500224
 30
0.0
 11
1088.986641651156
 21
-357.3259028500225
 31
0.0
1001
ACAD
1010
0.0
1020
0.0
1030
0.0
1001
ACADANNOTATIVE
1000
AnnotativeData
1002
{
1070
     1
1070
     1
1002
}
  0
LINE
  5
3DD1
330
3995
100
AcDbEntity
  8
DETAIL
100
AcDbLine
 10
940.9878398412352
 20
-286.8503201058729
 30
0.0
 11
1015.48660289089
 21
-322.3259028500224
 31
0.0
1001
ACAD
1010
0.0
1020
0.0
1030
0.0
1001
ACADANNOTATIVE
1000
AnnotativeData
1002
{
1070
     1
1070
     1
1002
}
  0
LINE
  5
3DD2
330
3995
100
AcDbEntity
  8
DETAIL
100
AcDbLine
 10
890.9878398412317
 20
-273.0407605964374
 30
0.0
 11
940.9878398412317
 21
-296.8502718500031
 31
0.0
1001
ACAD
1010
0.0
1020
0.0
1030
0.0
1001
ACADANNOTATIVE
1000
AnnotativeData
1002
{
1070
     1
1070
     1
1002
}
  0
LINE
  5
3DD3
330
3995
100
AcDbEntity
  8
DETAIL
100
AcDbLine
 10
994.4866931539024
 20
-322.3259028500197
 30
0.0
 11
1067.986731914169
 21
-357.3259028500197
 31
0.0
1001
ACAD
1010
0.0
1020
0.0
1030
0.0
1001
ACADANNOTATIVE
1000
AnnotativeData
1002
{
1070
     1
1070
     1
1002
}
  0
LINE
  5
3DD4
330
3995
100
AcDbEntity
  8
DETAIL
100
AcDbLine
 10
940.9878398412317
 20
-296.8502718500031
 30
0.0
 11
994.4866931539024
 21
-322.3259028500197
 31
0.0
1001
ACAD
1010
0.0
1020
0.0
1030
0.0
1001
ACADANNOTATIVE
1000
AnnotativeData
1002
{
1070
     1
1070
     1
1002
}
  0
LINE
  5
3DD5
330
3995
100
AcDbEntity
  8
DETAIL
100
AcDbLine
 10
890.9878398412317
 20
-283.040712340573
 30
0.0
 11
940.9878398412352
 21
-306.8502235941387
 31
0.0
1001
ACAD
1010
0.0
1020
0.0
1030
0.0
1001
ACADANNOTATIVE
1000
AnnotativeData
1002
{
1070
     1
1070
     1
1002
}
  0
LINE
  5
3DD6
330
3995
100
AcDbEntity
  8
DETAIL
100
AcDbLine
 10
973.4867834169117
 20
-322.3259028500197
 30
0.0
 11
1046.986822177178
 21
-357.3259028500197
 31
0.0
1001
ACAD
1010
0.0
1020
0.0
1030
0.0
1001
ACADANNOTATIVE
1000
AnnotativeData
1002
{
1070
     1
1070
     1
1002
}
  0
LINE
  5
3DD7
330
3995
100
AcDbEntity
  8
DETAIL
100
AcDbLine
 10
940.9878398412352
 20
-306.8502235941387
 30
0.0
 11
973.4867834169117
 21
-322.3259028500197
 31
0.0
1001
ACAD
1010
0.0
1020
0.0
1030
0.0
1001
ACADANNOTATIVE
1000
AnnotativeData
1002
{
1070
     1
1070
     1
1002
}
  0
LINE
  5
3DD8
330
3995
100
AcDbEntity
  8
DETAIL
100
AcDbLine
 10
890.9878398412352
 20
-293.0406640847086
 30
0.0
 11
940.9878398412352
 21
-316.8501753382743
 31
0.0
1001
ACAD
1010
0.0
1020
0.0
1030
0.0
1001
ACADANNOTATIVE
1000
AnnotativeData
1002
{
1070
     1
1070
     1
1002
}
  0
LINE
  5
3DD9
330
3995
100
AcDbEntity
  8
DETAIL
100
AcDbLine
 10
952.4868736799206
 20
-322.3259028500206
 30
0.0
 11
1025.986912440187
 21
-357.3259028500206
 31
0.0
1001
ACAD
1010
0.0
1020
0.0
1030
0.0
1001
ACADANNOTATIVE
1000
AnnotativeData
1002
{
1070
     1
1070
     1
1002
}
  0
LINE
  5
3DDA
330
3995
100
AcDbEntity
  8
DETAIL
100
AcDbLine
 10
940.9878398412352
 20
-316.8501753382743
 30
0.0
 11
952.4868736799206
 21
-322.3259028500206
 31
0.0
1001
ACAD
1010
0.0
1020
0.0
1030
0.0
1001
ACADANNOTATIVE
1000
AnnotativeData
1002
{
1070
     1
1070
     1
1002
}
  0
LINE
  5
3DDB
330
3995
100
AcDbEntity
  8
DETAIL
100
AcDbLine
 10
890.9878398412317
 20
-303.0406158288424
 30
0.0
 11
1004.987002703196
 21
-357.3259028500206
 31
0.0
1001
ACAD
1010
0.0
1020
0.0
1030
0.0
1001
ACADANNOTATIVE
1000
AnnotativeData
1002
{
1070
     1
1070
     1
1002
}
  0
LINE
  5
3DDC
330
3995
100
AcDbEntity
  8
DETAIL
100
AcDbLine
 10
890.9878398412317
 20
-313.040567572978
 30
0.0
 11
983.9870929662053
 21
-357.3259028500206
 31
0.0
1001
ACAD
1010
0.0
1020
0.0
1030
0.0
1001
ACADANNOTATIVE
1000
AnnotativeData
1002
{
1070
     1
1070
     1
1002
}
  0
LINE
  5
3DDD
330
3995
100
AcDbEntity
  8
DETAIL
100
AcDbLine
 10
890.9878398412317
 20
-323.0405193171118
 30
0.0
 11
962.9871832292144
 21
-357.3259028500206
 31
0.0
1001
ACAD
1010
0.0
1020
0.0
1030
0.0
1001
ACADANNOTATIVE
1000
AnnotativeData
1002
{
1070
     1
1070
     1
1002
}
  0
LINE
  5
3DDE
330
3995
100
AcDbEntity
  8
DETAIL
100
AcDbLine
 10
890.9878398412317
 20
-333.0404710612474
 30
0.0
 11
941.9872734922199
 21
-357.3259028500206
 31
0.0
1001
ACAD
1010
0.0
1020
0.0
1030
0.0
1001
ACADANNOTATIVE
1000
AnnotativeData
1002
{
1070
     1
1070
     1
1002
}
  0
LINE
  5
3DDF
330
3995
100
AcDbEntity
  8
DETAIL
100
AcDbLine
 10
890.9878398412317
 20
-343.0404228053812
 30
0.0
 11
920.9873637552361
 21
-357.3259028500225
 31
0.0
1001
ACAD
1010
0.0
1020
0.0
1030
0.0
1001
ACADANNOTATIVE
1000
AnnotativeData
1002
{
1070
     1
1070
     1
1002
}
  0
LINE
  5
3DE0
330
3995
100
AcDbEntity
  8
DETAIL
100
AcDbLine
 10
890.9878398412352
 20
-353.0403745495168
 30
0.0
 11
899.9874540182451
 21
-357.3259028500225
 31
0.0
1001
ACAD
1010
0.0
1020
0.0
1030
0.0
1001
ACADANNOTATIVE
1000
AnnotativeData
1002
{
1070
     1
1070
     1
1002
}
  0
LINE
  5
3DE1
330
3995
100
AcDbEntity
  8
DETAIL
100
AcDbLine
 10
890.987839841239
 20
-132.4152601678852
 30
0.0
 11
899.1554945159649
 21
-128.5259028500222
 31
0.0
1001
ACAD
1010
0.0
1020
0.0
1030
0.0
1001
ACADANNOTATIVE
1000
AnnotativeData
1002
{
1070
     1
1070
     1
1002
}
  0
LINE
  5
3DE2
330
3995
100
AcDbEntity
  8
DETAIL
100
AcDbLine
 10
890.987839841239
 20
-142.415211912019
 30
0.0
 11
920.1554042529558
 21
-128.5259028500222
 31
0.0
1001
ACAD
1010
0.0
1020
0.0
1030
0.0
1001
ACADANNOTATIVE
1000
AnnotativeData
1002
{
1070
     1
1070
     1
1002
}
  0
LINE
  5
3DE3
330
3995
100
AcDbEntity
  8
DETAIL
100
AcDbLine
 10
890.9878398412352
 20
-152.4151636561537
 30
0.0
 11
940.9878398412352
 21
-128.6056524025889
 31
0.0
1001
ACAD
1010
0.0
1020
0.0
1030
0.0
1001
ACADANNOTATIVE
1000
AnnotativeData
1002
{
1070
     1
1070
     1
1002
}
  0
LINE
  5
3DE4
330
3995
100
AcDbEntity
  8
DETAIL
100
AcDbLine
 10
940.9878398412462
 20
-128.6056524025853
 30
0.0
 11
941.1553139899467
 21
-128.5259028500213
 31
0.0
1001
ACAD
1010
0.0
1020
0.0
1030
0.0
1001
ACADANNOTATIVE
1000
AnnotativeData
1002
{
1070
     1
1070
     1
1002
}
  0
LINE
  5
3DE5
330
3995
100
AcDbEntity
  8
DETAIL
100
AcDbLine
 10
890.9878398412427
 20
-162.4151154002875
 30
0.0
 11
940.987839841239
 21
-138.6056041467227
 31
0.0
1001
ACAD
1010
0.0
1020
0.0
1030
0.0
1001
ACADANNOTATIVE
1000
AnnotativeData
1002
{
1070
     1
1070
     1
1002
}
  0
LINE
  5
3DE6
330
3995
100
AcDbEntity
  8
DETAIL
100
AcDbLine
 10
940.9878398412462
 20
-138.6056041467191
 30
0.0
 11
962.1552237269376
 21
-128.5259028500231
 31
0.0
1001
ACAD
1010
0.0
1020
0.0
1030
0.0
1001
ACADANNOTATIVE
1000
AnnotativeData
1002
{
1070
     1
1070
     1
1002
}
  0
LINE
  5
3DE7
330
3995
100
AcDbEntity
  8
DETAIL
100
AcDbLine
 10
890.987839841239
 20
-172.4150671444222
 30
0.0
 11
940.9878398412352
 21
-148.6055558908574
 31
0.0
1001
ACAD
1010
0.0
1020
0.0
1030
0.0
1001
ACADANNOTATIVE
1000
AnnotativeData
1002
{
1070
     1
1070
     1
1002
}
  0
LINE
  5
3DE8
330
3995
100
AcDbEntity
  8
DETAIL
100
AcDbLine
 10
940.9878398412462
 20
-148.6055558908538
 30
0.0
 11
983.155133463925
 21
-128.5259028500222
 31
0.0
1001
ACAD
1010
0.0
1020
0.0
1030
0.0
1001
ACADANNOTATIVE
1000
AnnotativeData
1002
{
1070
     1
1070
     1
1002
}
  0
LINE
  5
3DE9
330
3995
100
AcDbEntity
  8
DETAIL
100
AcDbLine
 10
890.987839841239
 20
-182.415018888556
 30
0.0
 11
940.987839841239
 21
-158.6055076349912
 31
0.0
1001
ACAD
1010
0.0
1020
0.0
1030
0.0
1001
ACADANNOTATIVE
1000
AnnotativeData
1002
{
1070
     1
1070
     1
1002
}
  0
LINE
  5
3DEA
330
3995
100
AcDbEntity
  8
DETAIL
100
AcDbLine
 10
940.9878398412427
 20
-158.6055076349876
 30
0.0
 11
1004.155043200916
 21
-128.5259028500222
 31
0.0
1001
ACAD
1010
0.0
1020
0.0
1030
0.0
1001
ACADANNOTATIVE
1000
AnnotativeData
1002
{
1070
     1
1070
     1
1002
}
  0
LINE
  5
3DEB
330
3995
100
AcDbEntity
  8
DETAIL
100
AcDbLine
 10
890.987839841239
 20
-192.4149706326916
 30
0.0
 11
940.987839841239
 21
-168.6054593791268
 31
0.0
1001
ACAD
1010
0.0
1020
0.0
1030
0.0
1001
ACADANNOTATIVE
1000
AnnotativeData
1002
{
1070
     1
1070
     1
1002
}
  0
LINE
  5
3DEC
330
3995
100
AcDbEntity
  8
DETAIL
100
AcDbLine
 10
940.9878398412462
 20
-168.6054593791232
 30
0.0
 11
1025.154952937907
 21
-128.525902850024
 31
0.0
1001
ACAD
1010
0.0
1020
0.0
1030
0.0
1001
ACADANNOTATIVE
1000
AnnotativeData
1002
{
1070
     1
1070
     1
1002
}
  0
LINE
  5
3DED
330
3995
100
AcDbEntity
  8
DETAIL
100
AcDbLine
 10
890.987839841239
 20
-202.4149223768245
 30
0.0
 11
940.987839841239
 21
-178.6054111232597
 31
0.0
1001
ACAD
1010
0.0
1020
0.0
1030
0.0
1001
ACADANNOTATIVE
1000
AnnotativeData
1002
{
1070
     1
1070
     1
1002
}
  0
LINE
  5
3DEE
330
3995
100
AcDbEntity
  8
DETAIL
100
AcDbLine
 10
940.9878398412427
 20
-178.6054111232579
 30
0.0
 11
1046.154862674898
 21
-128.5259028500231
 31
0.0
1001
ACAD
1010
0.0
1020
0.0
1030
0.0
1001
ACADANNOTATIVE
1000
AnnotativeData
1002
{
1070
     1
1070
     1
1002
}
  0
LINE
  5
3DEF
330
3995
100
AcDbEntity
  8
DETAIL
100
AcDbLine
 10
890.9878398412427
 20
-212.4148741209601
 30
0.0
 11
940.9878398412352
 21
-188.6053628673953
 31
0.0
1001
ACAD
1010
0.0
1020
0.0
1030
0.0
1001
ACADANNOTATIVE
1000
AnnotativeData
1002
{
1070
     1
1070
     1
1002
}
  0
LINE
  5
3DF0
330
3995
100
AcDbEntity
  8
DETAIL
100
AcDbLine
 10
940.9878398412427
 20
-188.6053628673935
 30
0.0
 11
1067.154772411889
 21
-128.5259028500231
 31
0.0
1001
ACAD
1010
0.0
1020
0.0
1030
0.0
1001
ACADANNOTATIVE
1000
AnnotativeData
1002
{
1070
     1
1070
     1
1002
}
  0
LINE
  5
3DF1
330
3995
100
AcDbEntity
  8
DETAIL
100
AcDbLine
 10
890.987839841239
 20
-222.4148258650957
 30
0.0
 11
940.9878398412352
 21
-198.6053146115309
 31
0.0
1001
ACAD
1010
0.0
1020
0.0
1030
0.0
1001
ACADANNOTATIVE
1000
AnnotativeData
1002
{
1070
     1
1070
     1
1002
}
  0
LINE
  5
3DF2
330
3995
100
AcDbEntity
  8
DETAIL
100
AcDbLine
 10
940.9878398412427
 20
-198.6053146115273
 30
0.0
 11
1088.15468214888
 21
-128.5259028500231
 31
0.0
1001
ACAD
1010
0.0
1020
0.0
1030
0.0
1001
ACADANNOTATIVE
1000
AnnotativeData
1002
{
1070
     1
1070
     1
1002
}
  0
LINE
  5
3DF3
330
3995
100
AcDbEntity
  8
DETAIL
100
AcDbLine
 10
890.987839841239
 20
-232.4147776092286
 30
0.0
 11
940.987839841239
 21
-208.6052663556638
 31
0.0
1001
ACAD
1010
0.0
1020
0.0
1030
0.0
1001
ACADANNOTATIVE
1000
AnnotativeData
1002
{
1070
     1
1070
     1
1002
}
  0
LINE
  5
3DF4
330
3995
100
AcDbEntity
  8
DETAIL
100
AcDbLine
 10
940.9878398412427
 20
-208.605266355662
 30
0.0
 11
1109.154591885871
 21
-128.5259028500222
 31
0.0
1001
ACAD
1010
0.0
1020
0.0
1030
0.0
1001
ACADANNOTATIVE
1000
AnnotativeData
1002
{
1070
     1
1070
     1
1002
}
  0
LINE
  5
3DF5
330
3995
100
AcDbEntity
  8
DETAIL
100
AcDbLine
 10
890.9878398412352
 20
-242.4147293533642
 30
0.0
 11
940.9878398412352
 21
-218.6052180997994
 31
0.0
1001
ACAD
1010
0.0
1020
0.0
1030
0.0
1001
ACADANNOTATIVE
1000
AnnotativeData
1002
{
1070
     1
1070
     1
1002
}
  0
LINE
  5
3DF6
330
3995
100
AcDbEntity
  8
DETAIL
100
AcDbLine
 10
940.9878398412427
 20
-218.6052180997976
 30
0.0
 11
1130.154501622858
 21
-128.5259028500222
 31
0.0
1001
ACAD
1010
0.0
1020
0.0
1030
0.0
1001
ACADANNOTATIVE
1000
AnnotativeData
1002
{
1070
     1
1070
     1
1002
}
  0
LINE
  5
3DF7
330
3995
100
AcDbEntity
  8
DETAIL
100
AcDbLine
 10
890.9878398412352
 20
-252.414681097498
 30
0.0
 11
940.9878398412427
 21
-228.6051698439314
 31
0.0
1001
ACAD
1010
0.0
1020
0.0
1030
0.0
1001
ACADANNOTATIVE
1000
AnnotativeData
1002
{
1070
     1
1070
     1
1002
}
  0
LINE
  5
3DF8
330
3995
100
AcDbEntity
  8
DETAIL
100
AcDbLine
 10
940.9878398412427
 20
-228.6051698439314
 30
0.0
 11
1151.154411359852
 21
-128.5259028500222
 31
0.0
1001
ACAD
1010
0.0
1020
0.0
1030
0.0
1001
ACADANNOTATIVE
1000
AnnotativeData
1002
{
1070
     1
1070
     1
1002
}
  0
LINE
  5
3DF9
330
3995
100
AcDbEntity
  8
DETAIL
100
AcDbLine
 10
890.9878398412352
 20
-262.4146328416328
 30
0.0
 11
940.987839841239
 21
-238.6051215880661
 31
0.0
1001
ACAD
1010
0.0
1020
0.0
1030
0.0
1001
ACADANNOTATIVE
1000
AnnotativeData
1002
{
1070
     1
1070
     1
1002
}
  0
LINE
  5
3DFA
330
3995
100
AcDbEntity
  8
DETAIL
100
AcDbLine
 10
940.987839841239
 20
-238.6051215880661
 30
0.0
 11
1156.787839841245
 21
-135.8432710176794
 31
0.0
1001
ACAD
1010
0.0
1020
0.0
1030
0.0
1001
ACADANNOTATIVE
1000
AnnotativeData
1002
{
1070
     1
1070
     1
1002
}
  0
LINE
  5
3DFB
330
3995
100
AcDbEntity
  8
DETAIL
100
AcDbLine
 10
890.987839841239
 20
-272.4145845857665
 30
0.0
 11
940.9878398412427
 21
-248.6050733321999
 31
0.0
1001
ACAD
1010
0.0
1020
0.0
1030
0.0
1001
ACADANNOTATIVE
1000
AnnotativeData
1002
{
1070
     1
1070
     1
1002
}
  0
LINE
  5
3DFC
330
3995
100
AcDbEntity
  8
DETAIL
100
AcDbLine
 10
940.9878398412427
 20
-248.6050733321999
 30
0.0
 11
1156.787839841245
 21
-145.843222761815
 31
0.0
1001
ACAD
1010
0.0
1020
0.0
1030
0.0
1001
ACADANNOTATIVE
1000
AnnotativeData
1002
{
1070
     1
1070
     1
1002
}
  0
LINE
  5
3DFD
330
3995
100
AcDbEntity
  8
DETAIL
100
AcDbLine
 10
890.9878398412352
 20
-282.4145363299012
 30
0.0
 11
940.9878398412427
 21
-258.6050250763346
 31
0.0
1001
ACAD
1010
0.0
1020
0.0
1030
0.0
1001
ACADANNOTATIVE
1000
AnnotativeData
1002
{
1070
     1
1070
     1
1002
}
  0
LINE
  5
3DFE
330
3995
100
AcDbEntity
  8
DETAIL
100
AcDbLine
 10
940.9878398412427
 20
-258.6050250763346
 30
0.0
 11
1156.787839841242
 21
-155.8431745059497
 31
0.0
1001
ACAD
1010
0.0
1020
0.0
1030
0.0
1001
ACADANNOTATIVE
1000
AnnotativeData
1002
{
1070
     1
1070
     1
1002
}
  0
LINE
  5
3DFF
330
3995
100
AcDbEntity
  8
DETAIL
100
AcDbLine
 10
890.9878398412317
 20
-292.4144880740369
 30
0.0
 11
940.9878398412427
 21
-268.6049768204684
 31
0.0
1001
ACAD
1010
0.0
1020
0.0
1030
0.0
1001
ACADANNOTATIVE
1000
AnnotativeData
1002
{
1070
     1
1070
     1
1002
}
  0
LINE
  5
3E00
330
3995
100
AcDbEntity
  8
DETAIL
100
AcDbLine
 10
940.9878398412427
 20
-268.6049768204684
 30
0.0
 11
1156.787839841242
 21
-165.8431262500835
 31
0.0
1001
ACAD
1010
0.0
1020
0.0
1030
0.0
1001
ACADANNOTATIVE
1000
AnnotativeData
1002
{
1070
     1
1070
     1
1002
}
  0
LINE
  5
3E01
330
3995
100
AcDbEntity
  8
DETAIL
100
AcDbLine
 10
890.987839841239
 20
-302.4144398181706
 30
0.0
 11
940.987839841239
 21
-278.6049285646059
 31
0.0
1001
ACAD
1010
0.0
1020
0.0
1030
0.0
1001
ACADANNOTATIVE
1000
AnnotativeData
1002
{
1070
     1
1070
     1
1002
}
  0
LINE
  5
3E02
330
3995
100
AcDbEntity
  8
DETAIL
100
AcDbLine
 10
940.9878398412427
 20
-278.604928564604
 30
0.0
 11
1156.787839841242
 21
-175.8430779942191
 31
0.0
1001
ACAD
1010
0.0
1020
0.0
1030
0.0
1001
ACADANNOTATIVE
1000
AnnotativeData
1002
{
1070
     1
1070
     1
1002
}
  0
LINE
  5
3E03
330
3995
100
AcDbEntity
  8
DETAIL
100
AcDbLine
 10
890.9878398412352
 20
-312.4143915623053
 30
0.0
 11
940.9878398412352
 21
-288.6048803087406
 31
0.0
1001
ACAD
1010
0.0
1020
0.0
1030
0.0
1001
ACADANNOTATIVE
1000
AnnotativeData
1002
{
1070
     1
1070
     1
1002
}
  0
LINE
  5
3E04
330
3995
100
AcDbEntity
  8
DETAIL
100
AcDbLine
 10
940.9878398412427
 20
-288.6048803087369
 30
0.0
 11
1156.787839841245
 21
-185.843029738352
 31
0.0
1001
ACAD
1010
0.0
1020
0.0
1030
0.0
1001
ACADANNOTATIVE
1000
AnnotativeData
1002
{
1070
     1
1070
     1
1002
}
  0
LINE
  5
3E05
330
3995
100
AcDbEntity
  8
DETAIL
100
AcDbLine
 10
890.9878398412352
 20
-322.4143433064392
 30
0.0
 11
940.9878398412352
 21
-298.6048320528744
 31
0.0
1001
ACAD
1010
0.0
1020
0.0
1030
0.0
1001
ACADANNOTATIVE
1000
AnnotativeData
1002
{
1070
     1
1070
     1
1002
}
  0
LINE
  5
3E06
330
3995
100
AcDbEntity
  8
DETAIL
100
AcDbLine
 10
940.987839841239
 20
-298.6048320528725
 30
0.0
 11
1156.787839841242
 21
-195.8429814824876
 31
0.0
1001
ACAD
1010
0.0
1020
0.0
1030
0.0
1001
ACADANNOTATIVE
1000
AnnotativeData
1002
{
1070
     1
1070
     1
1002
}
  0
LINE
  5
3E07
330
3995
100
AcDbEntity
  8
DETAIL
100
AcDbLine
 10
890.9878398412352
 20
-332.4142950505739
 30
0.0
 11
940.987839841239
 21
-308.6047837970091
 31
0.0
1001
ACAD
1010
0.0
1020
0.0
1030
0.0
1001
ACADANNOTATIVE
1000
AnnotativeData
1002
{
1070
     1
1070
     1
1002
}
  0
LINE
  5
3E08
330
3995
100
AcDbEntity
  8
DETAIL
100
AcDbLine
 10
940.9878398412427
 20
-308.6047837970073
 30
0.0
 11
1156.787839841245
 21
-205.8429332266205
 31
0.0
1001
ACAD
1010
0.0
1020
0.0
1030
0.0
1001
ACADANNOTATIVE
1000
AnnotativeData
1002
{
1070
     1
1070
     1
1002
}
  0
LINE
  5
3E09
330
3995
100
AcDbEntity
  8
DETAIL
100
AcDbLine
 10
890.9878398412352
 20
-342.4142467947076
 30
0.0
 11
940.987839841239
 21
-318.6047355411429
 31
0.0
1001
ACAD
1010
0.0
1020
0.0
1030
0.0
1001
ACADANNOTATIVE
1000
AnnotativeData
1002
{
1070
     1
1070
     1
1002
}
  0
LINE
  5
3E0A
330
3995
100
AcDbEntity
  8
DETAIL
100
AcDbLine
 10
940.9878398412427
 20
-318.6047355411411
 30
0.0
 11
1156.787839841242
 21
-215.8428849707561
 31
0.0
1001
ACAD
1010
0.0
1020
0.0
1030
0.0
1001
ACADANNOTATIVE
1000
AnnotativeData
1002
{
1070
     1
1070
     1
1002
}
  0
LINE
  5
3E0B
330
3995
100
AcDbEntity
  8
DETAIL
100
AcDbLine
 10
890.9878398412352
 20
-352.4141985388433
 30
0.0
 11
954.1732941086292
 21
-322.3259028500215
 31
0.0
1001
ACAD
1010
0.0
1020
0.0
1030
0.0
1001
ACADANNOTATIVE
1000
AnnotativeData
1002
{
1070
     1
1070
     1
1002
}
  0
LINE
  5
3E0C
330
3995
100
AcDbEntity
  8
DETAIL
100
AcDbLine
 10
954.1732941086292
 20
-322.3259028500215
 30
0.0
 11
1156.787839841238
 21
-225.8428367148917
 31
0.0
1001
ACAD
1010
0.0
1020
0.0
1030
0.0
1001
ACADANNOTATIVE
1000
AnnotativeData
1002
{
1070
     1
1070
     1
1002
}
  0
LINE
  5
3E0D
330
3995
100
AcDbEntity
  8
DETAIL
100
AcDbLine
 10
901.673165085357
 20
-357.3259028500206
 30
0.0
 11
975.1732038456198
 21
-322.3259028500206
 31
0.0
1001
ACAD
1010
0.0
1020
0.0
1030
0.0
1001
ACADANNOTATIVE
1000
AnnotativeData
1002
{
1070
     1
1070
     1
1002
}
  0
LINE
  5
3E0E
330
3995
100
AcDbEntity
  8
DETAIL
100
AcDbLine
 10
975.1732038456198
 20
-322.3259028500206
 30
0.0
 11
1156.787839841245
 21
-235.8427884590246
 31
0.0
1001
ACAD
1010
0.0
1020
0.0
1030
0.0
1001
ACADANNOTATIVE
1000
AnnotativeData
1002
{
1070
     1
1070
     1
1002
}
  0
LINE
  5
3E0F
330
3995
100
AcDbEntity
  8
DETAIL
100
AcDbLine
 10
922.6730748223406
 20
-357.3259028500225
 30
0.0
 11
996.1731135826074
 21
-322.3259028500224
 31
0.0
1001
ACAD
1010
0.0
1020
0.0
1030
0.0
1001
ACADANNOTATIVE
1000
AnnotativeData
1002
{
1070
     1
1070
     1
1002
}
  0
LINE
  5
3E10
330
3995
100
AcDbEntity
  8
DETAIL
100
AcDbLine
 10
996.1731135826108
 20
-322.3259028500206
 30
0.0
 11
1156.787839841242
 21
-245.8427402031603
 31
0.0
1001
ACAD
1010
0.0
1020
0.0
1030
0.0
1001
ACADANNOTATIVE
1000
AnnotativeData
1002
{
1070
     1
1070
     1
1002
}
  0
LINE
  5
3E11
330
3995
100
AcDbEntity
  8
DETAIL
100
AcDbLine
 10
943.6729845593317
 20
-357.3259028500225
 30
0.0
 11
1017.173023319602
 21
-322.3259028500224
 31
0.0
1001
ACAD
1010
0.0
1020
0.0
1030
0.0
1001
ACADANNOTATIVE
1000
AnnotativeData
1002
{
1070
     1
1070
     1
1002
}
  0
LINE
  5
3E12
330
3995
100
AcDbEntity
  8
DETAIL
100
AcDbLine
 10
1017.173023319602
 20
-322.3259028500206
 30
0.0
 11
1156.787839841245
 21
-255.842691947294
 31
0.0
1001
ACAD
1010
0.0
1020
0.0
1030
0.0
1001
ACADANNOTATIVE
1000
AnnotativeData
1002
{
1070
     1
1070
     1
1002
}
  0
LINE
  5
3E13
330
3995
100
AcDbEntity
  8
DETAIL
100
AcDbLine
 10
964.6728942963223
 20
-357.3259028500233
 30
0.0
 11
1038.172933056593
 21
-322.3259028500215
 31
0.0
1001
ACAD
1010
0.0
1020
0.0
1030
0.0
1001
ACADANNOTATIVE
1000
AnnotativeData
1002
{
1070
     1
1070
     1
1002
}
  0
LINE
  5
3E14
330
3995
100
AcDbEntity
  8
DETAIL
100
AcDbLine
 10
1038.172933056593
 20
-322.3259028500215
 30
0.0
 11
1156.787839841242
 21
-265.8426436914269
 31
0.0
1001
ACAD
1010
0.0
1020
0.0
1030
0.0
1001
ACADANNOTATIVE
1000
AnnotativeData
1002
{
1070
     1
1070
     1
1002
}
  0
LINE
  5
3E15
330
3995
100
AcDbEntity
  8
DETAIL
100
AcDbLine
 10
985.6728040333134
 20
-357.3259028500233
 30
0.0
 11
1059.17284279358
 21
-322.3259028500215
 31
0.0
1001
ACAD
1010
0.0
1020
0.0
1030
0.0
1001
ACADANNOTATIVE
1000
AnnotativeData
1002
{
1070
     1
1070
     1
1002
}
  0
LINE
  5
3E16
330
3995
100
AcDbEntity
  8
DETAIL
100
AcDbLine
 10
1059.17284279358
 20
-322.3259028500215
 30
0.0
 11
1156.787839841242
 21
-275.8425954355625
 31
0.0
1001
ACAD
1010
0.0
1020
0.0
1030
0.0
1001
ACADANNOTATIVE
1000
AnnotativeData
1002
{
1070
     1
1070
     1
1002
}
  0
LINE
  5
3E17
330
3995
100
AcDbEntity
  8
DETAIL
100
AcDbLine
 10
1006.672713770301
 20
-357.3259028500233
 30
0.0
 11
1080.172752530571
 21
-322.3259028500215
 31
0.0
1001
ACAD
1010
0.0
1020
0.0
1030
0.0
1001
ACADANNOTATIVE
1000
AnnotativeData
1002
{
1070
     1
1070
     1
1002
}
  0
LINE
  5
3E18
330
3995
100
AcDbEntity
  8
DETAIL
100
AcDbLine
 10
1080.172752530571
 20
-322.3259028500215
 30
0.0
 11
1156.787839841245
 21
-285.8425471796963
 31
0.0
1001
ACAD
1010
0.0
1020
0.0
1030
0.0
1001
ACADANNOTATIVE
1000
AnnotativeData
1002
{
1070
     1
1070
     1
1002
}
  0
LINE
  5
3E19
330
3995
100
AcDbEntity
  8
DETAIL
100
AcDbLine
 10
1027.672623507295
 20
-357.3259028500225
 30
0.0
 11
1101.172662267566
 21
-322.3259028500206
 31
0.0
1001
ACAD
1010
0.0
1020
0.0
1030
0.0
1001
ACADANNOTATIVE
1000
AnnotativeData
1002
{
1070
     1
1070
     1
1002
}
  0
LINE
  5
3E1A
330
3995
100
AcDbEntity
  8
DETAIL
100
AcDbLine
 10
1101.172662267566
 20
-322.3259028500206
 30
0.0
 11
1156.787839841245
 21
-295.842498923831
 31
0.0
1001
ACAD
1010
0.0
1020
0.0
1030
0.0
1001
ACADANNOTATIVE
1000
AnnotativeData
1002
{
1070
     1
1070
     1
1002
}
  0
LINE
  5
3E1B
330
3995
100
AcDbEntity
  8
DETAIL
100
AcDbLine
 10
1048.672533244286
 20
-357.3259028500225
 30
0.0
 11
1122.172572004553
 21
-322.3259028500224
 31
0.0
1001
ACAD
1010
0.0
1020
0.0
1030
0.0
1001
ACADANNOTATIVE
1000
AnnotativeData
1002
{
1070
     1
1070
     1
1002
}
  0
LINE
  5
3E1C
330
3995
100
AcDbEntity
  8
DETAIL
100
AcDbLine
 10
1122.172572004553
 20
-322.3259028500224
 30
0.0
 11
1156.787839841242
 21
-305.8424506679648
 31
0.0
1001
ACAD
1010
0.0
1020
0.0
1030
0.0
1001
ACADANNOTATIVE
1000
AnnotativeData
1002
{
1070
     1
1070
     1
1002
}
  0
LINE
  5
3E1D
330
3995
100
AcDbEntity
  8
DETAIL
100
AcDbLine
 10
1069.672442981277
 20
-357.3259028500215
 30
0.0
 11
1143.172481741544
 21
-322.3259028500215
 31
0.0
1001
ACAD
1010
0.0
1020
0.0
1030
0.0
1001
ACADANNOTATIVE
1000
AnnotativeData
1002
{
1070
     1
1070
     1
1002
}
  0
LINE
  5
3E1E
330
3995
100
AcDbEntity
  8
DETAIL
100
AcDbLine
 10
1143.172481741544
 20
-322.3259028500215
 30
0.0
 11
1156.787839841242
 21
-315.8424024120995
 31
0.0
1001
ACAD
1010
0.0
1020
0.0
1030
0.0
1001
ACADANNOTATIVE
1000
AnnotativeData
1002
{
1070
     1
1070
     1
1002
}
  0
LINE
  5
3E1F
330
3995
100
AcDbEntity
  8
DETAIL
100
AcDbLine
 10
1090.672352718268
 20
-357.3259028500215
 30
0.0
 11
1156.787839841242
 21
-325.8423541562333
 31
0.0
1001
ACAD
1010
0.0
1020
0.0
1030
0.0
1001
ACADANNOTATIVE
1000
AnnotativeData
1002
{
1070
     1
1070
     1
1002
}
  0
LINE
  5
3E20
330
3995
100
AcDbEntity
  8
DETAIL
100
AcDbLine
 10
1111.672262455259
 20
-357.3259028500215
 30
0.0
 11
1156.787839841242
 21
-335.842305900369
 31
0.0
1001
ACAD
1010
0.0
1020
0.0
1030
0.0
1001
ACADANNOTATIVE
1000
AnnotativeData
1002
{
1070
     1
1070
     1
1002
}
  0
LINE
  5
3E21
330
3995
100
AcDbEntity
  8
DETAIL
100
AcDbLine
 10
1132.672172192254
 20
-357.3259028500206
 30
0.0
 11
1156.787839841245
 21
-345.8422576445018
 31
0.0
1001
ACAD
1010
0.0
1020
0.0
1030
0.0
1001
ACADANNOTATIVE
1000
AnnotativeData
1002
{
1070
     1
1070
     1
1002
}
  0
LINE
  5
3E22
330
3995
100
AcDbEntity
  8
DETAIL
100
AcDbLine
 10
1153.672081929241
 20
-357.3259028500206
 30
0.0
 11
1156.787839841242
 21
-355.8422093886374
 31
0.0
1001
ACAD
1010
0.0
1020
0.0
1030
0.0
1001
ACADANNOTATIVE
1000
AnnotativeData
1002
{
1070
     1
1070
     1
1002
}
  0
LINE
  5
3E23
330
3995
100
AcDbEntity
  8
SIZE
100
AcDbLine
 10
1226.38783984124
 20
-77.92590285002098
 30
0.0
 11
1312.139996548073
 21
-77.92590285002098
 31
0.0
  0
LINE
  5
3E24
330
3995
100
AcDbEntity
  8
SIZE
100
AcDbLine
 10
1226.38783984124
 20
-87.92590285002145
 30
0.0
 11
1312.139996548073
 21
-87.92590285002145
 31
0.0
  0
LINE
  5
3E25
330
3995
100
AcDbEntity
  8
SIZE
100
AcDbLine
 10
1292.139996548073
 20
-65.92590285002097
 30
0.0
 11
1292.139996548073
 21
-53.92590285002096
 31
0.0
  0
LINE
  5
3E26
330
3995
100
AcDbEntity
  8
SIZE
100
AcDbLine
 10
1292.139996548073
 20
-99.92590285002144
 30
0.0
 11
1292.139996548073
 21
-216.9544742785929
 31
0.0
  0
INSERT
  5
3E27
330
3995
100
AcDbEntity
  8
SIZE
100
AcDbBlockReference
  2
_DOTBLANK
 10
1292.139996548073
 20
-77.92590285002098
 30
0.0
 41
12.0
 42
12.0
 43
12.0
 50
270.0
  0
INSERT
  5
3E28
330
3995
100
AcDbEntity
  8
SIZE
100
AcDbBlockReference
  2
_DOTBLANK
 10
1292.139996548073
 20
-87.92590285002145
 30
0.0
 41
12.0
 42
12.0
 43
12.0
 50
90.0
  0
MTEXT
  5
3E29
330
3995
100
AcDbEntity
  8
SIZE
100
AcDbMText
 10
1250.139996548073
 20
-164.4401885643101
 30
0.0
 40
64.0
 41
0.0
 71
     5
 72
     1
  1
\A1;10
 11
0.0000000000000001
 21
1.0
 31
0.0
 73
     1
 44
1.0
  0
ENDSEC
  0
SECTION
  2
OBJECTS
  0
DICTIONARY
  5
392D
330
0
100
AcDbDictionary
281
     1
  3
ACAD_2007HEADERVARS_RT
350
3F12
  3
ACAD_COLOR
350
398B
  3
ACAD_GROUP
350
392E
  3
ACAD_LAYOUT
350
398A
  3
ACAD_MATERIAL
350
3931
  3
ACAD_MLEADERSTYLE
350
398E
  3
ACAD_MLINESTYLE
350
3987
  3
ACAD_PLOTSETTINGS
350
3989
  3
ACAD_PLOTSTYLENAME
350
392F
  3
ACAD_SCALELIST
350
395B
  3
ACAD_TABLESTYLE
350
398C
  3
ACAD_VISUALSTYLE
350
394A
  3
ACDB_RECOMPOSE_DATA
350
3B94
  3
AcDbVariableDictionary
350
3B8B
  3
AcmDictionary
350
3B37
  3
AMG
350
3A84
  3
AMGSNAPSETTINGS
350
3B5F
  3
MAPISURF_MODULE
350
3EB6
  0
DICTIONARY
  5
3C87
330
3923
100
AcDbDictionary
280
     1
281
     1
  3
ACAD_LAYERSTATES
360
3C88
  0
DICTIONARY
  5
3B66
330
397D
100
AcDbDictionary
280
     1
281
     1
  3
ADSK_XREC_LAYER_RECONCILED
360
3B67
  0
DICTIONARY
  5
3B68
330
39AC
100
AcDbDictionary
280
     1
281
     1
  3
ADSK_XREC_LAYER_RECONCILED
360
3B69
  0
DICTIONARY
  5
3B6A
330
39AD
100
AcDbDictionary
280
     1
281
     1
  3
ADSK_XREC_LAYER_RECONCILED
360
3B6B
  0
DICTIONARY
  5
3B6C
330
39AE
100
AcDbDictionary
280
     1
281
     1
  3
ADSK_XREC_LAYER_RECONCILED
360
3B6D
  0
DICTIONARY
  5
3B6E
330
39AF
100
AcDbDictionary
280
     1
281
     1
  3
ADSK_XREC_LAYER_RECONCILED
360
3B6F
  0
DICTIONARY
  5
3B70
330
39B0
100
AcDbDictionary
280
     1
281
     1
  3
ADSK_XREC_LAYER_RECONCILED
360
3B71
  0
DICTIONARY
  5
3B72
330
39B2
100
AcDbDictionary
280
     1
281
     1
  3
ADSK_XREC_LAYER_RECONCILED
360
3B73
  0
DICTIONARY
  5
3B74
330
39B3
100
AcDbDictionary
280
     1
281
     1
  3
ADSK_XREC_LAYER_RECONCILED
360
3B75
  0
DICTIONARY
  5
3B76
330
39B4
100
AcDbDictionary
280
     1
281
     1
  3
ADSK_XREC_LAYER_RECONCILED
360
3B77
  0
DICTIONARY
  5
3B78
330
39B5
100
AcDbDictionary
280
     1
281
     1
  3
ADSK_XREC_LAYER_RECONCILED
360
3B79
  0
DICTIONARY
  5
3B7A
330
39B6
100
AcDbDictionary
280
     1
281
     1
  3
ADSK_XREC_LAYER_RECONCILED
360
3B7B
  0
DICTIONARY
  5
3B7C
330
3995
100
AcDbDictionary
280
     1
281
     1
  3
ACAD_INDEX
360
3B7D
  0
DICTIONARY
  5
3F12
102
{ACAD_REACTORS
330
392D
102
}
330
392D
100
AcDbDictionary
281
     1
  3
DIMARCSYM
350
3F13
  3
DIMLTEX1
350
3F15
  3
DIMLTEX2
350
3F16
  3
DIMLTYPE
350
3F14
  0
DICTIONARY
  5
398B
102
{ACAD_REACTORS
330
392D
102
}
330
392D
100
AcDbDictionary
281
     1
  0
DICTIONARY
  5
392E
102
{ACAD_REACTORS
330
392D
102
}
330
392D
100
AcDbDictionary
281
     1
  0
DICTIONARY
  5
398A
102
{ACAD_REACTORS
330
392D
102
}
330
392D
100
AcDbDictionary
281
     1
  3
Model
350
3998
  3
レイアウト1
350
3994
  0
DICTIONARY
  5
3931
102
{ACAD_REACTORS
330
392D
102
}
330
392D
100
AcDbDictionary
281
     1
  3
ByBlock
350
393A
  3
ByLayer
350
3932
  3
Global
350
3942
  0
DICTIONARY
  5
398E
102
{ACAD_REACTORS
330
392D
102
}
330
392D
100
AcDbDictionary
281
     1
  3
Standard
350
398F
  0
DICTIONARY
  5
3987
102
{ACAD_REACTORS
330
392D
102
}
330
392D
100
AcDbDictionary
281
     1
  3
Standard
350
3988
  0
DICTIONARY
  5
3989
102
{ACAD_REACTORS
330
392D
102
}
330
392D
100
AcDbDictionary
281
     1
  0
ACDBDICTIONARYWDFLT
  5
392F
102
{ACAD_REACTORS
330
392D
102
}
330
392D
100
AcDbDictionary
281
     1
  3
Normal
350
3930
100
AcDbDictionaryWithDefault
340
3930
  0
DICTIONARY
  5
395B
102
{ACAD_REACTORS
330
392D
102
}
330
392D
100
AcDbDictionary
281
     1
  3
A0
350
395C
  3
A1
350
395D
  3
A2
350
395E
  3
A3
350
395F
  3
A4
350
3960
  3
A5
350
3961
  3
A6
350
3962
  3
A7
350
3963
  3
A8
350
3964
  3
A9
350
3965
  3
B0
350
3966
  3
B1
350
3967
  3
B2
350
3968
  3
B3
350
3969
  3
B4
350
396A
  3
B5
350
396B
  3
B6
350
396C
  3
B7
350
396D
  3
B8
350
396E
  3
B9
350
396F
  3
C0
350
3970
  3
C1
350
3971
  3
C2
350
3972
  3
C3
350
3973
  3
C4
350
3974
  3
C5
350
3975
  3
C6
350
3976
  3
C7
350
3977
  3
C8
350
3978
  3
C9
350
3979
  3
D0
350
397A
  3
D1
350
397B
  3
D2
350
397C
  0
DICTIONARY
  5
398C
102
{ACAD_REACTORS
330
392D
102
}
330
392D
100
AcDbDictionary
281
     1
  3
Standard
350
398D
  0
DICTIONARY
  5
394A
102
{ACAD_REACTORS
330
392D
102
}
330
392D
100
AcDbDictionary
281
     1
  3
2dWireframe
350
3950
  3
3D Hidden
350
3952
  3
3dWireframe
350
3951
  3
Basic
350
394F
  3
Brighten
350
3956
  3
ColorChange
350
395A
  3
Conceptual
350
3953
  3
Dim
350
3955
  3
Facepattern
350
3959
  3
Flat
350
394B
  3
FlatWithEdges
350
394C
  3
Gouraud
350
394D
  3
GouraudWithEdges
350
394E
  3
Linepattern
350
3958
  3
Realistic
350
3954
  3
Thicken
350
3957
  0
XRECORD
  5
3B94
102
{ACAD_REACTORS
330
392D
102
}
330
392D
100
AcDbXrecord
280
     1
 90
        1
330
398D
  0
DICTIONARY
  5
3B8B
102
{ACAD_REACTORS
330
392D
102
}
330
392D
100
AcDbDictionary
281
     1
  3
CANNOSCALE
350
3B8E
  3
CMLEADERSTYLE
350
3B8D
  3
CTABLESTYLE
350
3B8C
  3
DIMASSOC
350
3B91
  3
INDEXCTL
350
3B90
  3
LAYEREVAL
350
3E2C
  3
LAYERNOTIFY
350
3E2D
  3
LIGHTINGUNITS
350
3E2B
  3
LOFTANG1
350
3F0E
  3
LOFTANG2
350
3F0F
  3
LONGITUDE
350
3F10
  3
MSLTSCALE
350
3E2A
  3
SORTENTS
350
3B8F
  0
DICTIONARY
  5
3B37
102
{ACAD_REACTORS
330
392D
102
}
330
392D
100
AcDbDictionary
281
     1
  3
AcmStdDictionary
350
3B45
  0
DICTIONARY
  5
3A84
102
{ACAD_REACTORS
330
392D
102
}
330
392D
100
AcDbDictionary
281
     1
  3
AcMgSettings
350
3A85
  0
DICTIONARY
  5
3B5F
102
{ACAD_REACTORS
330
392D
102
}
330
392D
100
AcDbDictionary
281
     1
  3
DIMENSION
350
3B64
  3
FEA
350
3B63
  3
HATCH (1)
350
3B60
  3
HATCH (2)
350
3B61
  3
SIMPLE WELD
350
3B65
  3
SYMBOLS
350
3B62
  0
DICTIONARY
  5
3C88
102
{ACAD_REACTORS
330
3C87
102
}
330
3C87
100
AcDbDictionary
281
     1
  0
XRECORD
  5
3B67
102
{ACAD_REACTORS
330
3B66
102
}
330
3B66
100
AcDbXrecord
280
     1
290
     1
  0
XRECORD
  5
3B69
102
{ACAD_REACTORS
330
3B68
102
}
330
3B68
100
AcDbXrecord
280
     1
290
     1
  0
XRECORD
  5
3B6B
102
{ACAD_REACTORS
330
3B6A
102
}
330
3B6A
100
AcDbXrecord
280
     1
290
     1
  0
XRECORD
  5
3B6D
102
{ACAD_REACTORS
330
3B6C
102
}
330
3B6C
100
AcDbXrecord
280
     1
290
     1
  0
XRECORD
  5
3B6F
102
{ACAD_REACTORS
330
3B6E
102
}
330
3B6E
100
AcDbXrecord
280
     1
290
     1
  0
XRECORD
  5
3B71
102
{ACAD_REACTORS
330
3B70
102
}
330
3B70
100
AcDbXrecord
280
     1
290
     1
  0
XRECORD
  5
3B73
102
{ACAD_REACTORS
330
3B72
102
}
330
3B72
100
AcDbXrecord
280
     1
290
     1
  0
XRECORD
  5
3B75
102
{ACAD_REACTORS
330
3B74
102
}
330
3B74
100
AcDbXrecord
280
     1
290
     1
  0
XRECORD
  5
3B77
102
{ACAD_REACTORS
330
3B76
102
}
330
3B76
100
AcDbXrecord
280
     1
290
     1
  0
XRECORD
  5
3B79
102
{ACAD_REACTORS
330
3B78
102
}
330
3B78
100
AcDbXrecord
280
     1
290
     1
  0
XRECORD
  5
3B7B
102
{ACAD_REACTORS
330
3B7A
102
}
330
3B7A
100
AcDbXrecord
280
     1
290
     1
  0
DICTIONARY
  5
3B7D
102
{ACAD_REACTORS
330
3B7C
102
}
330
3B7C
100
AcDbDictionary
281
     1
  3
*A1
350
3B7E
  0
XRECORD
  5
3F13
102
{ACAD_REACTORS
330
3F12
102
}
330
3F12
100
AcDbXrecord
280
     1
 70
     1
  0
XRECORD
  5
3F15
102
{ACAD_REACTORS
330
3F12
102
}
330
3F12
100
AcDbXrecord
280
     1
340
3983
  0
XRECORD
  5
3F16
102
{ACAD_REACTORS
330
3F12
102
}
330
3F12
100
AcDbXrecord
280
     1
340
3983
  0
XRECORD
  5
3F14
102
{ACAD_REACTORS
330
3F12
102
}
330
3F12
100
AcDbXrecord
280
     1
340
3983
  0
LAYOUT
  5
3998
102
{ACAD_REACTORS
330
398A
102
}
330
398A
100
AcDbPlotSettings
  1

  2
自動 EPSON LP-9600S (W2450527 上)
  4

  6

 40
0.0
 41
0.0
 42
0.0
 43
0.0
 44
0.0
 45
0.0
 46
0.0
 47
0.0
 48
0.0
 49
0.0
140
0.0
141
0.0
142
1.0
143
1.0
 70
  1712
 72
     0
 73
     0
 74
     0
  7

 75
     0
147
1.0
 76
     0
 77
     2
 78
   300
148
0.0
149
0.0
100
AcDbLayout
  1
Model
 70
     1
 71
     0
 10
0.0
 20
0.0
 11
12.0
 21
9.0
 12
0.0
 22
0.0
 32
0.0
 14
0.0
 24
0.0
 34
0.0
 15
0.0
 25
0.0
 35
0.0
146
0.0
 13
0.0
 23
0.0
 33
0.0
 16
1.0
 26
0.0
 36
0.0
 17
0.0
 27
1.0
 37
0.0
 76
     0
330
3995
331
3999
  0
LAYOUT
  5
3994
102
{ACAD_REACTORS
330
398A
102
}
330
398A
100
AcDbPlotSettings
  1

  2
自動 EPSON LP-9600S (W2450527 上)
  4

  6

 40
0.0
 41
0.0
 42
0.0
 43
0.0
 44
0.0
 45
0.0
 46
0.0
 47
0.0
 48
0.0
 49
0.0
140
0.0
141
0.0
142
1.0
143
1.0
 70
   688
 72
     0
 73
     0
 74
     5
  7

 75
    16
147
1.0
 76
     0
 77
     2
 78
   300
148
0.0
149
0.0
100
AcDbLayout
  1
レイアウト1
 70
     1
 71
     1
 10
0.0
 20
0.0
 11
12.0
 21
9.0
 12
0.0
 22
0.0
 32
0.0
 14
1.000000000000000E+20
 24
1.000000000000000E+20
 34
1.000000000000000E+20
 15
-1.000000000000000E+20
 25
-1.000000000000000E+20
 35
-1.000000000000000E+20
146
0.0
 13
0.0
 23
0.0
 33
0.0
 16
1.0
 26
0.0
 36
0.0
 17
0.0
 27
1.0
 37
0.0
 76
     0
330
3991
  0
MATERIAL
  5
393A
102
{ACAD_XDICTIONARY
360
393B
102
}
102
{ACAD_REACTORS
330
3931
102
}
330
3931
100
AcDbMaterial
  1
ByBlock
 72
     0
 43
0.0208333333333333
 43
0.0
 43
0.0
 43
0.0
 43
0.0
 43
0.0208333333333333
 43
0.0
 43
0.0
 43
0.0
 43
0.0
 43
1.0
 43
0.0
 43
0.0
 43
0.0
 43
0.0
 43
1.0
 77
     0
 47
0.0208333333333333
 47
0.0
 47
0.0
 47
0.0
 47
0.0
 47
0.0208333333333333
 47
0.0
 47
0.0
 47
0.0
 47
0.0
 47
1.0
 47
0.0
 47
0.0
 47
0.0
 47
0.0
 47
1.0
171
     0
 49
0.0208333333333333
 49
0.0
 49
0.0
 49
0.0
 49
0.0
 49
0.0208333333333333
 49
0.0
 49
0.0
 49
0.0
 49
0.0
 49
1.0
 49
0.0
 49
0.0
 49
0.0
 49
0.0
 49
1.0
175
     0
142
0.0208333333333333
142
0.0
142
0.0
142
0.0
142
0.0
142
0.0208333333333333
142
0.0
142
0.0
142
0.0
142
0.0
142
1.0
142
0.0
142
0.0
142
0.0
142
0.0
142
1.0
179
     0
144
0.0208333333333333
144
0.0
144
0.0
144
0.0
144
0.0
144
0.0208333333333333
144
0.0
144
0.0
144
0.0
144
0.0
144
1.0
144
0.0
144
0.0
144
0.0
144
0.0
144
1.0
147
0.0208333333333333
147
0.0
147
0.0
147
0.0
147
0.0
147
0.0208333333333333
147
0.0
147
0.0
147
0.0
147
0.0
147
1.0
147
0.0
147
0.0
147
0.0
147
0.0
147
1.0
  0
MATERIAL
  5
3932
102
{ACAD_XDICTIONARY
360
3933
102
}
102
{ACAD_REACTORS
330
3931
102
}
330
3931
100
AcDbMaterial
  1
ByLayer
 72
     0
 43
0.0208333333333333
 43
0.0
 43
0.0
 43
0.0
 43
0.0
 43
0.0208333333333333
 43
0.0
 43
0.0
 43
0.0
 43
0.0
 43
1.0
 43
0.0
 43
0.0
 43
0.0
 43
0.0
 43
1.0
 77
     0
 47
0.0208333333333333
 47
0.0
 47
0.0
 47
0.0
 47
0.0
 47
0.0208333333333333
 47
0.0
 47
0.0
 47
0.0
 47
0.0
 47
1.0
 47
0.0
 47
0.0
 47
0.0
 47
0.0
 47
1.0
171
     0
 49
0.0208333333333333
 49
0.0
 49
0.0
 49
0.0
 49
0.0
 49
0.0208333333333333
 49
0.0
 49
0.0
 49
0.0
 49
0.0
 49
1.0
 49
0.0
 49
0.0
 49
0.0
 49
0.0
 49
1.0
175
     0
142
0.0208333333333333
142
0.0
142
0.0
142
0.0
142
0.0
142
0.0208333333333333
142
0.0
142
0.0
142
0.0
142
0.0
142
1.0
142
0.0
142
0.0
142
0.0
142
0.0
142
1.0
179
     0
144
0.0208333333333333
144
0.0
144
0.0
144
0.0
144
0.0
144
0.0208333333333333
144
0.0
144
0.0
144
0.0
144
0.0
144
1.0
144
0.0
144
0.0
144
0.0
144
0.0
144
1.0
147
0.0208333333333333
147
0.0
147
0.0
147
0.0
147
0.0
147
0.0208333333333333
147
0.0
147
0.0
147
0.0
147
0.0
147
1.0
147
0.0
147
0.0
147
0.0
147
0.0
147
1.0
  0
MATERIAL
  5
3942
102
{ACAD_XDICTIONARY
360
3943
102
}
102
{ACAD_REACTORS
330
3931
102
}
330
3931
100
AcDbMaterial
  1
Global
 72
     0
 43
0.0208333333333333
 43
0.0
 43
0.0
 43
0.0
 43
0.0
 43
0.0208333333333333
 43
0.0
 43
0.0
 43
0.0
 43
0.0
 43
1.0
 43
0.0
 43
0.0
 43
0.0
 43
0.0
 43
1.0
 77
     0
 47
0.0208333333333333
 47
0.0
 47
0.0
 47
0.0
 47
0.0
 47
0.0208333333333333
 47
0.0
 47
0.0
 47
0.0
 47
0.0
 47
1.0
 47
0.0
 47
0.0
 47
0.0
 47
0.0
 47
1.0
171
     0
 49
0.0208333333333333
 49
0.0
 49
0.0
 49
0.0
 49
0.0
 49
0.0208333333333333
 49
0.0
 49
0.0
 49
0.0
 49
0.0
 49
1.0
 49
0.0
 49
0.0
 49
0.0
 49
0.0
 49
1.0
175
     0
142
0.0208333333333333
142
0.0
142
0.0
142
0.0
142
0.0
142
0.0208333333333333
142
0.0
142
0.0
142
0.0
142
0.0
142
1.0
142
0.0
142
0.0
142
0.0
142
0.0
142
1.0
179
     0
144
0.0208333333333333
144
0.0
144
0.0
144
0.0
144
0.0
144
0.0208333333333333
144
0.0
144
0.0
144
0.0
144
0.0
144
1.0
144
0.0
144
0.0
144
0.0
144
0.0
144
1.0
147
0.0208333333333333
147
0.0
147
0.0
147
0.0
147
0.0
147
0.0208333333333333
147
0.0
147
0.0
147
0.0
147
0.0
147
1.0
147
0.0
147
0.0
147
0.0
147
0.0
147
1.0
  0
MLEADERSTYLE
  5
398F
102
{ACAD_REACTORS
330
398E
102
}
330
398E
100
AcDbMLeaderStyle
170
     2
171
     1
172
     0
 90
        2
 40
0.0
 41
0.0
173
     1
 91
-1056964608
340
3983
 92
       -2
290
     1
 42
0.09
291
     1
 43
0.36
  3
Standard
 44
0.18
300

342
397E
174
     1
178
     6
175
     1
176
     0
 93
-1056964608
 45
0.18
292
     0
297
     0
 46
0.18
 94
-1056964608
 47
1.0
 49
1.0
140
1.0
293
     1
141
0.0
294
     1
177
     0
142
1.0
295
     0
296
     0
143
0.125
1001
ACAD_MLEADERVER
1070
     2
  0
MLINESTYLE
  5
3988
102
{ACAD_REACTORS
330
3987
102
}
330
3987
100
AcDbMlineStyle
  2
STANDARD
 70
     0
  3

 62
   256
 51
90.0
 52
90.0
 71
     2
 49
0.5
 62
   256
  6
BYLAYER
 49
-0.5
 62
   256
  6
BYLAYER
  0
ACDBPLACEHOLDER
  5
3930
102
{ACAD_REACTORS
330
392F
102
}
330
392F
  0
SCALE
  5
395C
102
{ACAD_REACTORS
330
395B
102
}
330
395B
100
AcDbScale
 70
     0
300
1:1
140
1.0
141
1.0
290
     1
  0
SCALE
  5
395D
102
{ACAD_REACTORS
330
395B
102
}
330
395B
100
AcDbScale
 70
     0
300
1:2
140
1.0
141
2.0
290
     0
  0
SCALE
  5
395E
102
{ACAD_REACTORS
330
395B
102
}
330
395B
100
AcDbScale
 70
     0
300
1:4
140
1.0
141
4.0
290
     0
  0
SCALE
  5
395F
102
{ACAD_REACTORS
330
395B
102
}
330
395B
100
AcDbScale
 70
     0
300
1:5
140
1.0
141
5.0
290
     0
  0
SCALE
  5
3960
102
{ACAD_REACTORS
330
395B
102
}
330
395B
100
AcDbScale
 70
     0
300
1:8
140
1.0
141
8.0
290
     0
  0
SCALE
  5
3961
102
{ACAD_REACTORS
330
395B
102
}
330
395B
100
AcDbScale
 70
     0
300
1:10
140
1.0
141
10.0
290
     0
  0
SCALE
  5
3962
102
{ACAD_REACTORS
330
395B
102
}
330
395B
100
AcDbScale
 70
     0
300
1:16
140
1.0
141
16.0
290
     0
  0
SCALE
  5
3963
102
{ACAD_REACTORS
330
395B
102
}
330
395B
100
AcDbScale
 70
     0
300
1:20
140
1.0
141
20.0
290
     0
  0
SCALE
  5
3964
102
{ACAD_REACTORS
330
395B
102
}
330
395B
100
AcDbScale
 70
     0
300
1:30
140
1.0
141
30.0
290
     0
  0
SCALE
  5
3965
102
{ACAD_REACTORS
330
395B
102
}
330
395B
100
AcDbScale
 70
     0
300
1:40
140
1.0
141
40.0
290
     0
  0
SCALE
  5
3966
102
{ACAD_REACTORS
330
395B
102
}
330
395B
100
AcDbScale
 70
     0
300
1:50
140
1.0
141
50.0
290
     0
  0
SCALE
  5
3967
102
{ACAD_REACTORS
330
395B
102
}
330
395B
100
AcDbScale
 70
     0
300
1:100
140
1.0
141
100.0
290
     0
  0
SCALE
  5
3968
102
{ACAD_REACTORS
330
395B
102
}
330
395B
100
AcDbScale
 70
     0
300
2:1
140
2.0
141
1.0
290
     0
  0
SCALE
  5
3969
102
{ACAD_REACTORS
330
395B
102
}
330
395B
100
AcDbScale
 70
     0
300
4:1
140
4.0
141
1.0
290
     0
  0
SCALE
  5
396A
102
{ACAD_REACTORS
330
395B
102
}
330
395B
100
AcDbScale
 70
     0
300
8:1
140
8.0
141
1.0
290
     0
  0
SCALE
  5
396B
102
{ACAD_REACTORS
330
395B
102
}
330
395B
100
AcDbScale
 70
     0
300
10:1
140
10.0
141
1.0
290
     0
  0
SCALE
  5
396C
102
{ACAD_REACTORS
330
395B
102
}
330
395B
100
AcDbScale
 70
     0
300
100:1
140
100.0
141
1.0
290
     0
  0
SCALE
  5
396D
102
{ACAD_REACTORS
330
395B
102
}
330
395B
100
AcDbScale
 70
     0
300
1/128" = 1'-0"
140
0.0078125
141
12.0
290
     0
  0
SCALE
  5
396E
102
{ACAD_REACTORS
330
395B
102
}
330
395B
100
AcDbScale
 70
     0
300
1/64" = 1'-0"
140
0.015625
141
12.0
290
     0
  0
SCALE
  5
396F
102
{ACAD_REACTORS
330
395B
102
}
330
395B
100
AcDbScale
 70
     0
300
1/32" = 1'-0"
140
0.03125
141
12.0
290
     0
  0
SCALE
  5
3970
102
{ACAD_REACTORS
330
395B
102
}
330
395B
100
AcDbScale
 70
     0
300
1/16" = 1'-0"
140
0.0625
141
12.0
290
     0
  0
SCALE
  5
3971
102
{ACAD_REACTORS
330
395B
102
}
330
395B
100
AcDbScale
 70
     0
300
3/32" = 1'-0"
140
0.09375
141
12.0
290
     0
  0
SCALE
  5
3972
102
{ACAD_REACTORS
330
395B
102
}
330
395B
100
AcDbScale
 70
     0
300
1/8" = 1'-0"
140
0.125
141
12.0
290
     0
  0
SCALE
  5
3973
102
{ACAD_REACTORS
330
395B
102
}
330
395B
100
AcDbScale
 70
     0
300
3/16" = 1'-0"
140
0.1875
141
12.0
290
     0
  0
SCALE
  5
3974
102
{ACAD_REACTORS
330
395B
102
}
330
395B
100
AcDbScale
 70
     0
300
1/4" = 1'-0"
140
0.25
141
12.0
290
     0
  0
SCALE
  5
3975
102
{ACAD_REACTORS
330
395B
102
}
330
395B
100
AcDbScale
 70
     0
300
3/8" = 1'-0"
140
0.375
141
12.0
290
     0
  0
SCALE
  5
3976
102
{ACAD_REACTORS
330
395B
102
}
330
395B
100
AcDbScale
 70
     0
300
1/2" = 1'-0"
140
0.5
141
12.0
290
     0
  0
SCALE
  5
3977
102
{ACAD_REACTORS
330
395B
102
}
330
395B
100
AcDbScale
 70
     0
300
3/4" = 1'-0"
140
0.75
141
12.0
290
     0
  0
SCALE
  5
3978
102
{ACAD_REACTORS
330
395B
102
}
330
395B
100
AcDbScale
 70
     0
300
1" = 1'-0"
140
1.0
141
12.0
290
     0
  0
SCALE
  5
3979
102
{ACAD_REACTORS
330
395B
102
}
330
395B
100
AcDbScale
 70
     0
300
1-1/2" = 1'-0"
140
1.5
141
12.0
290
     0
  0
SCALE
  5
397A
102
{ACAD_REACTORS
330
395B
102
}
330
395B
100
AcDbScale
 70
     0
300
3" = 1'-0"
140
3.0
141
12.0
290
     0
  0
SCALE
  5
397B
102
{ACAD_REACTORS
330
395B
102
}
330
395B
100
AcDbScale
 70
     0
300
6" = 1'-0"
140
6.0
141
12.0
290
     0
  0
SCALE
  5
397C
102
{ACAD_REACTORS
330
395B
102
}
330
395B
100
AcDbScale
 70
     0
300
1'-0" = 1'-0"
140
12.0
141
12.0
290
     0
  0
TABLESTYLE
  5
398D
102
{ACAD_XDICTIONARY
360
3B92
102
}
102
{ACAD_REACTORS
330
398C
102
}
330
398C
100
AcDbTableStyle
  3
Standard
 70
     0
 71
     0
 40
0.06
 41
0.06
280
     0
281
     0
  7
STANDARD
140
0.18
170
     2
 62
     0
 63
     7
283
     0
274
    -2
284
     1
 64
     0
275
    -2
285
     1
 65
     0
276
    -2
286
     1
 66
     0
277
    -2
287
     1
 67
     0
278
    -2
288
     1
 68
     0
279
    -2
289
     1
 69
     0
  7
STANDARD
140
0.25
170
     5
 62
     0
 63
     7
283
     0
274
    -2
284
     1
 64
     0
275
    -2
285
     1
 65
     0
276
    -2
286
     1
 66
     0
277
    -2
287
     1
 67
     0
278
    -2
288
     1
 68
     0
279
    -2
289
     1
 69
     0
  7
STANDARD
140
0.18
170
     5
 62
     0
 63
     7
283
     0
274
    -2
284
     1
 64
     0
275
    -2
285
     1
 65
     0
276
    -2
286
     1
 66
     0
277
    -2
287
     1
 67
     0
278
    -2
288
     1
 68
     0
279
    -2
289
     1
 69
     0
  0
VISUALSTYLE
  5
3950
102
{ACAD_REACTORS
330
394A
102
}
330
394A
100
AcDbVisualStyle
  2
2dWireframe
 70
     4
 71
     0
 72
     2
 73
     0
 90
        0
 40
-0.6
 41
-30.0
 62
     5
 63
     7
 74
     1
 91
        4
 64
     7
 65
   257
 75
     1
175
     1
 42
1.0
 92
        0
 66
   257
 43
1.0
 76
     1
 77
     6
 78
     2
 67
     7
 79
     5
170
     0
171
     0
290
     0
174
     0
 93
        1
 44
0.0
173
     0
291
     0
 45
0.0
1001
ACAD
1000
AcDbSavedByObjectVersion
1070
     0
1000
AcDbSavedByObjectVersion
1070
     0
  0
VISUALSTYLE
  5
3952
102
{ACAD_REACTORS
330
394A
102
}
330
394A
100
AcDbVisualStyle
  2
3D Hidden
 70
     6
 71
     1
 72
     2
 73
     2
 90
        0
 40
-0.6
 41
-30.0
 62
     5
 63
     7
 74
     2
 91
        2
 64
     7
 65
   257
 75
     2
175
     1
 42
40.0
 92
        0
 66
   257
 43
1.0
 76
     1
 77
     6
 78
     2
 67
     7
 79
     3
170
     0
171
     0
290
     0
174
     0
 93
        1
 44
0.0
173
     0
291
     0
 45
0.0
1001
ACAD
1000
AcDbSavedByObjectVersion
1070
     0
1000
AcDbSavedByObjectVersion
1070
     0
  0
VISUALSTYLE
  5
3951
102
{ACAD_REACTORS
330
394A
102
}
330
394A
100
AcDbVisualStyle
  2
3dWireframe
 70
     5
 71
     0
 72
     2
 73
     0
 90
        0
 40
-0.6
 41
-30.0
 62
     5
 63
     7
 74
     1
 91
        4
 64
     7
 65
   257
 75
     1
175
     1
 42
1.0
 92
        0
 66
   257
 43
1.0
 76
     1
 77
     6
 78
     2
 67
     7
 79
     5
170
     0
171
     0
290
     0
174
     0
 93
        1
 44
0.0
173
     0
291
     0
 45
0.0
1001
ACAD
1000
AcDbSavedByObjectVersion
1070
     0
1000
AcDbSavedByObjectVersion
1070
     0
  0
VISUALSTYLE
  5
394F
102
{ACAD_REACTORS
330
394A
102
}
330
394A
100
AcDbVisualStyle
  2
Basic
 70
     7
 71
     1
 72
     0
 73
     1
 90
        0
 40
-0.6
 41
-30.0
 62
     5
 63
     7
 74
     0
 91
        4
 64
     7
 65
   257
 75
     1
175
     1
 42
1.0
 92
        8
 66
     7
 43
1.0
 76
     1
 77
     6
 78
     2
 67
     7
 79
     5
170
     0
171
     0
290
     0
174
     0
 93
        1
 44
0.0
173
     0
291
     1
 45
0.0
1001
ACAD
1000
AcDbSavedByObjectVersion
1070
     0
1000
AcDbSavedByObjectVersion
1070
     0
  0
VISUALSTYLE
  5
3956
102
{ACAD_REACTORS
330
394A
102
}
330
394A
100
AcDbVisualStyle
  2
Brighten
 70
    12
 71
     2
 72
     2
 73
     0
 90
        0
 40
-0.6
 41
-30.0
 62
     5
 63
     7
 74
     1
 91
        4
 64
     7
 65
   257
 75
     1
175
     1
 42
1.0
 92
        8
 66
     7
 43
1.0
 76
     1
 77
     6
 78
     2
 67
     7
 79
     5
170
     0
171
     0
290
     0
174
     0
 93
        1
 44
50.0
173
     0
291
     1
 45
0.0
1001
ACAD
1000
AcDbSavedByObjectVersion
1070
     0
1000
AcDbSavedByObjectVersion
1070
     0
  0
VISUALSTYLE
  5
395A
102
{ACAD_REACTORS
330
394A
102
}
330
394A
100
AcDbVisualStyle
  2
ColorChange
 70
    16
 71
     2
 72
     2
 73
     3
 90
        0
 40
-0.6
 41
-30.0
 62
     5
 63
     8
 74
     1
 91
        4
 64
     7
 65
   257
 75
     1
175
     1
 42
1.0
 92
        8
 66
     8
 43
1.0
 76
     1
 77
     6
 78
     2
 67
     7
 79
     5
170
     0
171
     0
290
     0
174
     0
 93
        1
 44
0.0
173
     0
291
     1
 45
0.0
1001
ACAD
1000
AcDbSavedByObjectVersion
1070
     0
1000
AcDbSavedByObjectVersion
1070
     0
  0
VISUALSTYLE
  5
3953
102
{ACAD_REACTORS
330
394A
102
}
330
394A
100
AcDbVisualStyle
  2
Conceptual
 70
     9
 71
     3
 72
     2
 73
     0
 90
        0
 40
-0.6
 41
-30.0
 62
     5
 63
     7
 74
     2
 91
        2
 64
     7
 65
   257
 75
     1
175
     1
 42
40.0
 92
        8
 66
     7
 43
1.0
 76
     1
 77
     6
 78
     2
 67
     7
 79
     3
170
     0
171
     0
290
     0
174
     0
 93
        1
 44
0.0
173
     0
291
     0
 45
0.0
1001
ACAD
1000
AcDbSavedByObjectVersion
1070
     0
1000
AcDbSavedByObjectVersion
1070
     0
  0
VISUALSTYLE
  5
3955
102
{ACAD_REACTORS
330
394A
102
}
330
394A
100
AcDbVisualStyle
  2
Dim
 70
    11
 71
     2
 72
     2
 73
     0
 90
        0
 40
-0.6
 41
-30.0
 62
     5
 63
     7
 74
     1
 91
        4
 64
     7
 65
   257
 75
     1
175
     1
 42
1.0
 92
        8
 66
     7
 43
1.0
 76
     1
 77
     6
 78
     2
 67
     7
 79
     5
170
     0
171
     0
290
     0
174
     0
 93
        1
 44
-50.0
173
     0
291
     1
 45
0.0
1001
ACAD
1000
AcDbSavedByObjectVersion
1070
     0
1000
AcDbSavedByObjectVersion
1070
     0
  0
VISUALSTYLE
  5
3959
102
{ACAD_REACTORS
330
394A
102
}
330
394A
100
AcDbVisualStyle
  2
Facepattern
 70
    15
 71
     2
 72
     2
 73
     0
 90
        0
 40
-0.6
 41
-30.0
 62
     5
 63
     7
 74
     1
 91
        4
 64
     7
 65
   257
 75
     1
175
     1
 42
1.0
 92
        8
 66
     7
 43
1.0
 76
     1
 77
     6
 78
     2
 67
     7
 79
     5
170
     0
171
     0
290
     0
174
     0
 93
        1
 44
0.0
173
     0
291
     1
 45
0.0
1001
ACAD
1000
AcDbSavedByObjectVersion
1070
     0
1000
AcDbSavedByObjectVersion
1070
     0
  0
VISUALSTYLE
  5
394B
102
{ACAD_REACTORS
330
394A
102
}
330
394A
100
AcDbVisualStyle
  2
Flat
 70
     0
 71
     2
 72
     1
 73
     1
 90
        2
 40
-0.6
 41
30.0
 62
     5
 63
     7
 74
     0
 91
        4
 64
     7
 65
   257
 75
     1
175
     1
 42
1.0
 92
        8
 66
     7
 43
1.0
 76
     1
 77
     6
 78
     2
 67
     7
 79
     5
170
     0
171
     0
290
     0
174
     0
 93
       13
 44
0.0
173
     0
291
     1
 45
0.0
1001
ACAD
1000
AcDbSavedByObjectVersion
1070
     0
1000
AcDbSavedByObjectVersion
1070
     0
  0
VISUALSTYLE
  5
394C
102
{ACAD_REACTORS
330
394A
102
}
330
394A
100
AcDbVisualStyle
  2
FlatWithEdges
 70
     1
 71
     2
 72
     1
 73
     1
 90
        2
 40
-0.6
 41
30.0
 62
     5
 63
     7
 74
     1
 91
        4
 64
     7
 65
   257
 75
     1
175
     1
 42
1.0
 92
        0
 66
   257
 43
1.0
 76
     1
 77
     6
 78
     2
 67
     7
 79
     5
170
     0
171
     0
290
     0
174
     0
 93
       13
 44
0.0
173
     0
291
     1
 45
0.0
1001
ACAD
1000
AcDbSavedByObjectVersion
1070
     0
1000
AcDbSavedByObjectVersion
1070
     0
  0
VISUALSTYLE
  5
394D
102
{ACAD_REACTORS
330
394A
102
}
330
394A
100
AcDbVisualStyle
  2
Gouraud
 70
     2
 71
     2
 72
     2
 73
     1
 90
        2
 40
-0.6
 41
30.0
 62
     5
 63
     7
 74
     0
 91
        4
 64
     7
 65
   257
 75
     1
175
     1
 42
1.0
 92
        0
 66
     7
 43
1.0
 76
     1
 77
     6
 78
     2
 67
     7
 79
     5
170
     0
171
     0
290
     0
174
     0
 93
       13
 44
0.0
173
     0
291
     1
 45
0.0
1001
ACAD
1000
AcDbSavedByObjectVersion
1070
     0
1000
AcDbSavedByObjectVersion
1070
     0
  0
VISUALSTYLE
  5
394E
102
{ACAD_REACTORS
330
394A
102
}
330
394A
100
AcDbVisualStyle
  2
GouraudWithEdges
 70
     3
 71
     2
 72
     2
 73
     1
 90
        2
 40
-0.6
 41
30.0
 62
     5
 63
     7
 74
     1
 91
        4
 64
     7
 65
   257
 75
     1
175
     1
 42
1.0
 92
        0
 66
   257
 43
1.0
 76
     1
 77
     6
 78
     2
 67
     7
 79
     5
170
     0
171
     0
290
     0
174
     0
 93
       13
 44
0.0
173
     0
291
     1
 45
0.0
1001
ACAD
1000
AcDbSavedByObjectVersion
1070
     0
1000
AcDbSavedByObjectVersion
1070
     0
  0
VISUALSTYLE
  5
3958
102
{ACAD_REACTORS
330
394A
102
}
330
394A
100
AcDbVisualStyle
  2
Linepattern
 70
    14
 71
     2
 72
     2
 73
     0
 90
        0
 40
-0.6
 41
-30.0
 62
     5
 63
     7
 74
     1
 91
        4
 64
     7
 65
   257
 75
     7
175
     7
 42
1.0
 92
        8
 66
     7
 43
1.0
 76
     1
 77
     6
 78
     2
 67
     7
 79
     5
170
     0
171
     0
290
     0
174
     0
 93
        1
 44
0.0
173
     0
291
     1
 45
0.0
1001
ACAD
1000
AcDbSavedByObjectVersion
1070
     0
1000
AcDbSavedByObjectVersion
1070
     0
  0
VISUALSTYLE
  5
3954
102
{ACAD_REACTORS
330
394A
102
}
330
394A
100
AcDbVisualStyle
  2
Realistic
 70
     8
 71
     2
 72
     2
 73
     0
 90
        0
 40
-0.6
 41
-30.0
 62
     5
 63
     7
 74
     1
 91
        0
 64
     7
 65
   257
 75
     1
175
     1
 42
1.0
 92
        8
 66
     8
 43
1.0
 76
     1
 77
     6
 78
     2
 67
     7
 79
     5
170
     0
171
     0
290
     0
174
     0
 93
       13
 44
0.0
173
     0
291
     0
 45
0.0
1001
ACAD
1000
AcDbSavedByObjectVersion
1070
     0
1000
AcDbSavedByObjectVersion
1070
     0
  0
VISUALSTYLE
  5
3957
102
{ACAD_REACTORS
330
394A
102
}
330
394A
100
AcDbVisualStyle
  2
Thicken
 70
    13
 71
     2
 72
     2
 73
     0
 90
        0
 40
-0.6
 41
-30.0
 62
     5
 63
     7
 74
     1
 91
        4
 64
     7
 65
   257
 75
     1
175
     1
 42
1.0
 92
       12
 66
     7
 43
1.0
 76
     1
 77
     6
 78
     2
 67
     7
 79
     5
170
     0
171
     0
290
     0
174
     0
 93
        1
 44
0.0
173
     0
291
     1
 45
0.0
1001
ACAD
1000
AcDbSavedByObjectVersion
1070
     0
1000
AcDbSavedByObjectVersion
1070
     0
  0
DICTIONARYVAR
  5
3B8E
102
{ACAD_REACTORS
330
3B8B
102
}
330
3B8B
100
DictionaryVariables
280
     0
  1
1:1
  0
DICTIONARYVAR
  5
3B8D
102
{ACAD_REACTORS
330
3B8B
102
}
330
3B8B
100
DictionaryVariables
280
     0
  1
STANDARD
  0
DICTIONARYVAR
  5
3B8C
102
{ACAD_REACTORS
330
3B8B
102
}
330
3B8B
100
DictionaryVariables
280
     0
  1
STANDARD
  0
DICTIONARYVAR
  5
3B91
102
{ACAD_REACTORS
330
3B8B
102
}
330
3B8B
100
DictionaryVariables
280
     0
  1
1
  0
DICTIONARYVAR
  5
3B90
102
{ACAD_REACTORS
330
3B8B
102
}
330
3B8B
100
DictionaryVariables
280
     0
  1
1
  0
DICTIONARYVAR
  5
3E2C
102
{ACAD_REACTORS
330
3B8B
102
}
330
3B8B
100
DictionaryVariables
280
     0
  1
1
  0
DICTIONARYVAR
  5
3E2D
102
{ACAD_REACTORS
330
3B8B
102
}
330
3B8B
100
DictionaryVariables
280
     0
  1
15
  0
DICTIONARYVAR
  5
3E2B
102
{ACAD_REACTORS
330
3B8B
102
}
330
3B8B
100
DictionaryVariables
280
     0
  1
0
  0
DICTIONARYVAR
  5
3F0E
102
{ACAD_REACTORS
330
3B8B
102
}
330
3B8B
100
DictionaryVariables
280
     0
  1
1.570796
  0
DICTIONARYVAR
  5
3F0F
102
{ACAD_REACTORS
330
3B8B
102
}
330
3B8B
100
DictionaryVariables
280
     0
  1
1.570796
  0
DICTIONARYVAR
  5
3F10
102
{ACAD_REACTORS
330
3B8B
102
}
330
3B8B
100
DictionaryVariables
280
     0
  1
-122.394000
  0
DICTIONARYVAR
  5
3E2A
102
{ACAD_REACTORS
330
3B8B
102
}
330
3B8B
100
DictionaryVariables
280
     0
  1
0
  0
DICTIONARYVAR
  5
3B8F
102
{ACAD_REACTORS
330
3B8B
102
}
330
3B8B
100
DictionaryVariables
280
     0
  1
127
  0
DICTIONARY
  5
3B45
102
{ACAD_REACTORS
330
3B37
102
}
330
3B37
100
AcDbDictionary
281
     1
  0
DICTIONARY
  5
3A85
102
{ACAD_REACTORS
330
3A84
102
}
330
3A84
100
AcDbDictionary
281
     1
  3
DWGSETTINGS
350
3E38
  3
TRANSSETTINGS
350
3E39
  0
ACAMGFILTERDAT
  5
3B64
102
{ACAD_REACTORS
330
3B5F
102
}
330
3B5F
100
AcAmgFilterDat
 70
    15
  1
DIMENSION,AMDT_*_DIM
  2
*
  3
*
  4
*
  5
*
290
     1
  0
ACAMGFILTERDAT
  5
3B63
102
{ACAD_REACTORS
330
3B5F
102
}
330
3B5F
100
AcAmgFilterDat
 70
    15
  1
*
  2
AM_FEA-AM_*
  3
*
  4
*
  5
*
290
     1
  0
ACAMGFILTERDAT
  5
3B60
102
{ACAD_REACTORS
330
3B5F
102
}
330
3B5F
100
AcAmgFilterDat
 70
    15
  1
HATCH
  2
*
  3
*
  4
*
  5
*
290
     1
  0
ACAMGFILTERDAT
  5
3B61
102
{ACAD_REACTORS
330
3B5F
102
}
330
3B5F
100
AcAmgFilterDat
 70
    15
  1
LINE
  2
8,8N,*-8,*-8N,AM_8,AM_8N,*-AM_8,*-AM_8N
  3
*
  4
*
  5
INSERT,STDPART2D
290
     1
  0
ACAMGFILTERDAT
  5
3B65
102
{ACAD_REACTORS
330
3B5F
102
}
330
3B5F
100
AcAmgFilterDat
 70
    15
  1
ARC
  2
AM_5
  3
*
  4
2
  5
INSERT
290
     0
  0
ACAMGFILTERDAT
  5
3B62
102
{ACAD_REACTORS
330
3B5F
102
}
330
3B5F
100
AcAmgFilterDat
 70
    15
  1
ACMFCFRAME,ACMDATUMTARGET,ACMDATUMID,ACMWELDSYM,ACMSURFSYM,ACMFEATID,ACMPARTREF,ACMBALLOON,AMDTEDGESYM,AMGSCREWCALCTABLE,ACMMARKSTAMP
  2
*
  3
*
  4
*
  5
*
290
     1
  0
LAYER_INDEX
  5
3B7E
102
{ACAD_REACTORS
330
3B7D
102
}
330
3B7D
100
AcDbIndex
 40
2457491.641692801
100
AcDbLayerIndex
  8
0
360
3B7F
 90
        0
  8
OUTLINE
360
3B80
 90
       16
  8
SIZE
360
3B81
 90
       31
  8
BASIS
360
3B82
 90
        1
  8
DETAIL
360
3B83
 90
      151
  8
ARRANGE
360
3B84
 90
        2
  8
DEFPOINTS
360
3B85
 90
        0
  8
ETC
360
3B86
 90
        3
  8
FIX
360
3B87
 90
        0
  8
NOTE
360
3B88
 90
        7
  8
SERVICESPACE
360
3B89
 90
        0
  8
SYMBOLLINE
360
3B8A
 90
        0
  0
DICTIONARY
  5
393B
330
393A
100
AcDbDictionary
280
     1
281
     1
  3
ACAD_XREC_ROUNDTRIP
360
3B9C
  3
BUMPTILE
360
393D
  3
DIFFUSETILE
360
393C
  3
OPACITYTILE
360
3940
  3
REFLECTIONTILE
360
393F
  3
REFRACTIONTILE
360
3941
  3
SPECULARTILE
360
393E
  0
DICTIONARY
  5
3933
330
3932
100
AcDbDictionary
280
     1
281
     1
  3
ACAD_XREC_ROUNDTRIP
360
3B9B
  3
BUMPTILE
360
3935
  3
DIFFUSETILE
360
3934
  3
OPACITYTILE
360
3938
  3
REFLECTIONTILE
360
3937
  3
REFRACTIONTILE
360
3939
  3
SPECULARTILE
360
3936
  0
DICTIONARY
  5
3943
330
3942
100
AcDbDictionary
280
     1
281
     1
  3
ACAD_XREC_ROUNDTRIP
360
3B9D
  3
BUMPTILE
360
3945
  3
DIFFUSETILE
360
3944
  3
OPACITYTILE
360
3948
  3
REFLECTIONTILE
360
3947
  3
REFRACTIONTILE
360
3949
  3
SPECULARTILE
360
3946
  0
DICTIONARY
  5
3B92
330
398D
100
AcDbDictionary
280
     1
281
     1
  3
ACAD_ROUNDTRIP_2008_TABLESTYLE_CELLSTYLEMAP
360
3F11
  3
ACAD_XREC_ROUNDTRIP
360
3F17
  0
IDBUFFER
  5
3B7F
330
0
100
AcDbIdBuffer
  0
IDBUFFER
  5
3B80
330
0
100
AcDbIdBuffer
330
953
330
954
330
955
330
956
330
957
330
958
330
3D7E
330
3D89
330
3D90
330
3D91
330
3D92
330
3D93
330
3D94
330
3D95
330
3D96
330
3D97
  0
IDBUFFER
  5
3B81
330
0
100
AcDbIdBuffer
330
3D60
330
3D61
330
3D62
330
3D63
330
3D64
330
3D65
330
3D66
330
3D67
330
3D68
330
3D69
330
3D6A
330
3D6B
330
3D6C
330
3D6D
330
3D6E
330
3D6F
330
3D70
330
3D71
330
3D72
330
3D73
330
3D74
330
3D75
330
3D76
330
3D77
330
3E23
330
3E24
330
3E25
330
3E26
330
3E27
330
3E28
330
3E29
  0
IDBUFFER
  5
3B82
330
0
100
AcDbIdBuffer
330
3D7A
  0
IDBUFFER
  5
3B83
330
0
100
AcDbIdBuffer
330
3D7B
330
3D7C
330
3D7D
330
3D7F
330
3D80
330
3D81
330
3D82
330
3D83
330
3D84
330
3D87
330
3D88
330
3D8A
330
3D98
330
3D99
330
3D9A
330
3D9B
330
3D9C
330
3D9D
330
3D9E
330
3D9F
330
3DA0
330
3DA1
330
3DA2
330
3DA3
330
3DA4
330
3DA5
330
3DA6
330
3DA7
330
3DA8
330
3DA9
330
3DAA
330
3DAB
330
3DAC
330
3DAD
330
3DAE
330
3DAF
330
3DB0
330
3DB1
330
3DB2
330
3DB3
330
3DB4
330
3DB5
330
3DB6
330
3DB7
330
3DB8
330
3DB9
330
3DBA
330
3DBB
330
3DBC
330
3DBD
330
3DBE
330
3DBF
330
3DC0
330
3DC1
330
3DC2
330
3DC3
330
3DC4
330
3DC5
330
3DC6
330
3DC7
330
3DC8
330
3DC9
330
3DCA
330
3DCB
330
3DCC
330
3DCD
330
3DCE
330
3DCF
330
3DD0
330
3DD1
330
3DD2
330
3DD3
330
3DD4
330
3DD5
330
3DD6
330
3DD7
330
3DD8
330
3DD9
330
3DDA
330
3DDB
330
3DDC
330
3DDD
330
3DDE
330
3DDF
330
3DE0
330
3DE1
330
3DE2
330
3DE3
330
3DE4
330
3DE5
330
3DE6
330
3DE7
330
3DE8
330
3DE9
330
3DEA
330
3DEB
330
3DEC
330
3DED
330
3DEE
330
3DEF
330
3DF0
330
3DF1
330
3DF2
330
3DF3
330
3DF4
330
3DF5
330
3DF6
330
3DF7
330
3DF8
330
3DF9
330
3DFA
330
3DFB
330
3DFC
330
3DFD
330
3DFE
330
3DFF
330
3E00
330
3E01
330
3E02
330
3E03
330
3E04
330
3E05
330
3E06
330
3E07
330
3E08
330
3E09
330
3E0A
330
3E0B
330
3E0C
330
3E0D
330
3E0E
330
3E0F
330
3E10
330
3E11
330
3E12
330
3E13
330
3E14
330
3E15
330
3E16
330
3E17
330
3E18
330
3E19
330
3E1A
330
3E1B
330
3E1C
330
3E1D
330
3E1E
330
3E1F
330
3E20
330
3E21
330
3E22
  0
IDBUFFER
  5
3B84
330
0
100
AcDbIdBuffer
330
3D78
330
3D79
  0
IDBUFFER
  5
3B85
330
0
100
AcDbIdBuffer
  0
IDBUFFER
  5
3B86
330
0
100
AcDbIdBuffer
330
3D5D
330
3D5E
330
3D5F
  0
IDBUFFER
  5
3B87
330
0
100
AcDbIdBuffer
  0
IDBUFFER
  5
3B88
330
0
100
AcDbIdBuffer
330
3D85
330
3D86
330
3D8B
330
3D8C
330
3D8D
330
3D8E
330
3D8F
  0
IDBUFFER
  5
3B89
330
0
100
AcDbIdBuffer
  0
IDBUFFER
  5
3B8A
330
0
100
AcDbIdBuffer
  0
XRECORD
  5
3B9C
102
{ACAD_REACTORS
330
393B
102
}
330
393B
100
AcDbXrecord
280
     1
102
MATERIAL
148
0.0
149
0.0
149
0.0
 93
        0
 94
      127
282
     0
 72
     0
 77
     0
171
     0
175
     0
179
     0
273
     0
  0
XRECORD
  5
393D
102
{ACAD_REACTORS
330
393B
102
}
330
393B
100
AcDbXrecord
280
     1
270
     1
271
     1
  0
XRECORD
  5
393C
102
{ACAD_REACTORS
330
393B
102
}
330
393B
100
AcDbXrecord
280
     1
270
     1
271
     1
  0
XRECORD
  5
3940
102
{ACAD_REACTORS
330
393B
102
}
330
393B
100
AcDbXrecord
280
     1
270
     1
271
     1
  0
XRECORD
  5
393F
102
{ACAD_REACTORS
330
393B
102
}
330
393B
100
AcDbXrecord
280
     1
270
     1
271
     1
  0
XRECORD
  5
3941
102
{ACAD_REACTORS
330
393B
102
}
330
393B
100
AcDbXrecord
280
     1
270
     1
271
     1
  0
XRECORD
  5
393E
102
{ACAD_REACTORS
330
393B
102
}
330
393B
100
AcDbXrecord
280
     1
270
     1
271
     1
  0
XRECORD
  5
3B9B
102
{ACAD_REACTORS
330
3933
102
}
330
3933
100
AcDbXrecord
280
     1
102
MATERIAL
148
0.0
149
0.0
149
0.0
 93
        0
 94
      127
282
     0
 72
     0
 77
     0
171
     0
175
     0
179
     0
273
     0
  0
XRECORD
  5
3935
102
{ACAD_REACTORS
330
3933
102
}
330
3933
100
AcDbXrecord
280
     1
270
     1
271
     1
  0
XRECORD
  5
3934
102
{ACAD_REACTORS
330
3933
102
}
330
3933
100
AcDbXrecord
280
     1
270
     1
271
     1
  0
XRECORD
  5
3938
102
{ACAD_REACTORS
330
3933
102
}
330
3933
100
AcDbXrecord
280
     1
270
     1
271
     1
  0
XRECORD
  5
3937
102
{ACAD_REACTORS
330
3933
102
}
330
3933
100
AcDbXrecord
280
     1
270
     1
271
     1
  0
XRECORD
  5
3939
102
{ACAD_REACTORS
330
3933
102
}
330
3933
100
AcDbXrecord
280
     1
270
     1
271
     1
  0
XRECORD
  5
3936
102
{ACAD_REACTORS
330
3933
102
}
330
3933
100
AcDbXrecord
280
     1
270
     1
271
     1
  0
XRECORD
  5
3B9D
102
{ACAD_REACTORS
330
3943
102
}
330
3943
100
AcDbXrecord
280
     1
102
MATERIAL
148
0.0
149
0.0
149
0.0
 93
        0
 94
      127
282
     0
 72
     0
 77
     0
171
     0
175
     0
179
     0
273
     0
  0
XRECORD
  5
3945
102
{ACAD_REACTORS
330
3943
102
}
330
3943
100
AcDbXrecord
280
     1
270
     1
271
     1
  0
XRECORD
  5
3944
102
{ACAD_REACTORS
330
3943
102
}
330
3943
100
AcDbXrecord
280
     1
270
     1
271
     1
  0
XRECORD
  5
3948
102
{ACAD_REACTORS
330
3943
102
}
330
3943
100
AcDbXrecord
280
     1
270
     1
271
     1
  0
XRECORD
  5
3947
102
{ACAD_REACTORS
330
3943
102
}
330
3943
100
AcDbXrecord
280
     1
270
     1
271
     1
  0
XRECORD
  5
3949
102
{ACAD_REACTORS
330
3943
102
}
330
3943
100
AcDbXrecord
280
     1
270
     1
271
     1
  0
XRECORD
  5
3946
102
{ACAD_REACTORS
330
3943
102
}
330
3943
100
AcDbXrecord
280
     1
270
     1
271
     1
  0
CELLSTYLEMAP
  5
3F11
102
{ACAD_REACTORS
330
3B92
102
}
330
3B92
100
AcDbCellStyleMap
 90
        3
300
CELLSTYLE
  1
TABLEFORMAT_BEGIN
 90
        5
170
     1
 91
        0
 92
    32768
 62
   257
 93
        1
300
CONTENTFORMAT
  1
CONTENTFORMAT_BEGIN
 90
        0
 91
        0
 92
      512
 93
        0
300

 40
0.0
140
1.0
 94
        5
 62
     0
340
397E
144
0.25
309
CONTENTFORMAT_END
171
     1
301
MARGIN
  1
CELLMARGIN_BEGIN
 40
0.06
 40
0.06
 40
0.06
 40
0.06
 40
0.18
 40
0.18
309
CELLMARGIN_END
 94
        6
 95
        1
302
GRIDFORMAT
  1
GRIDFORMAT_BEGIN
 90
        0
 91
        1
 62
     0
 92
       -2
340
0
 93
        0
 40
0.045
309
GRIDFORMAT_END
 95
        2
302
GRIDFORMAT
  1
GRIDFORMAT_BEGIN
 90
        0
 91
        1
 62
     0
 92
       -2
340
0
 93
        0
 40
0.045
309
GRIDFORMAT_END
 95
        4
302
GRIDFORMAT
  1
GRIDFORMAT_BEGIN
 90
        0
 91
        1
 62
     0
 92
       -2
340
0
 93
        0
 40
0.045
309
GRIDFORMAT_END
 95
        8
302
GRIDFORMAT
  1
GRIDFORMAT_BEGIN
 90
        0
 91
        1
 62
     0
 92
       -2
340
0
 93
        0
 40
0.045
309
GRIDFORMAT_END
 95
       16
302
GRIDFORMAT
  1
GRIDFORMAT_BEGIN
 90
        0
 91
        1
 62
     0
 92
       -2
340
0
 93
        0
 40
0.045
309
GRIDFORMAT_END
 95
       32
302
GRIDFORMAT
  1
GRIDFORMAT_BEGIN
 90
        0
 91
        1
 62
     0
 92
       -2
340
0
 93
        0
 40
0.045
309
GRIDFORMAT_END
309
TABLEFORMAT_END
  1
CELLSTYLE_BEGIN
 90
        1
 91
        1
300
_TITLE
309
CELLSTYLE_END
300
CELLSTYLE
  1
TABLEFORMAT_BEGIN
 90
        5
170
     1
 91
        0
 92
        0
 62
   257
 93
        1
300
CONTENTFORMAT
  1
CONTENTFORMAT_BEGIN
 90
        0
 91
        0
 92
      512
 93
        0
300

 40
0.0
140
1.0
 94
        5
 62
     0
340
397E
144
0.18
309
CONTENTFORMAT_END
171
     1
301
MARGIN
  1
CELLMARGIN_BEGIN
 40
0.06
 40
0.06
 40
0.06
 40
0.06
 40
0.18
 40
0.18
309
CELLMARGIN_END
 94
        6
 95
        1
302
GRIDFORMAT
  1
GRIDFORMAT_BEGIN
 90
        0
 91
        1
 62
     0
 92
       -2
340
0
 93
        0
 40
0.045
309
GRIDFORMAT_END
 95
        2
302
GRIDFORMAT
  1
GRIDFORMAT_BEGIN
 90
        0
 91
        1
 62
     0
 92
       -2
340
0
 93
        0
 40
0.045
309
GRIDFORMAT_END
 95
        4
302
GRIDFORMAT
  1
GRIDFORMAT_BEGIN
 90
        0
 91
        1
 62
     0
 92
       -2
340
0
 93
        0
 40
0.045
309
GRIDFORMAT_END
 95
        8
302
GRIDFORMAT
  1
GRIDFORMAT_BEGIN
 90
        0
 91
        1
 62
     0
 92
       -2
340
0
 93
        0
 40
0.045
309
GRIDFORMAT_END
 95
       16
302
GRIDFORMAT
  1
GRIDFORMAT_BEGIN
 90
        0
 91
        1
 62
     0
 92
       -2
340
0
 93
        0
 40
0.045
309
GRIDFORMAT_END
 95
       32
302
GRIDFORMAT
  1
GRIDFORMAT_BEGIN
 90
        0
 91
        1
 62
     0
 92
       -2
340
0
 93
        0
 40
0.045
309
GRIDFORMAT_END
309
TABLEFORMAT_END
  1
CELLSTYLE_BEGIN
 90
        2
 91
        1
300
_HEADER
309
CELLSTYLE_END
300
CELLSTYLE
  1
TABLEFORMAT_BEGIN
 90
        5
170
     1
 91
        0
 92
        0
 62
   257
 93
        1
300
CONTENTFORMAT
  1
CONTENTFORMAT_BEGIN
 90
        0
 91
        0
 92
      512
 93
        0
300

 40
0.0
140
1.0
 94
        2
 62
     0
340
397E
144
0.18
309
CONTENTFORMAT_END
171
     1
301
MARGIN
  1
CELLMARGIN_BEGIN
 40
0.06
 40
0.06
 40
0.06
 40
0.06
 40
0.18
 40
0.18
309
CELLMARGIN_END
 94
        6
 95
        1
302
GRIDFORMAT
  1
GRIDFORMAT_BEGIN
 90
        0
 91
        1
 62
     0
 92
       -2
340
0
 93
        0
 40
0.045
309
GRIDFORMAT_END
 95
        2
302
GRIDFORMAT
  1
GRIDFORMAT_BEGIN
 90
        0
 91
        1
 62
     0
 92
       -2
340
0
 93
        0
 40
0.045
309
GRIDFORMAT_END
 95
        4
302
GRIDFORMAT
  1
GRIDFORMAT_BEGIN
 90
        0
 91
        1
 62
     0
 92
       -2
340
0
 93
        0
 40
0.045
309
GRIDFORMAT_END
 95
        8
302
GRIDFORMAT
  1
GRIDFORMAT_BEGIN
 90
        0
 91
        1
 62
     0
 92
       -2
340
0
 93
        0
 40
0.045
309
GRIDFORMAT_END
 95
       16
302
GRIDFORMAT
  1
GRIDFORMAT_BEGIN
 90
        0
 91
        1
 62
     0
 92
       -2
340
0
 93
        0
 40
0.045
309
GRIDFORMAT_END
 95
       32
302
GRIDFORMAT
  1
GRIDFORMAT_BEGIN
 90
        0
 91
        1
 62
     0
 92
       -2
340
0
 93
        0
 40
0.045
309
GRIDFORMAT_END
309
TABLEFORMAT_END
  1
CELLSTYLE_BEGIN
 90
        3
 91
        2
300
_DATA
309
CELLSTYLE_END
  0
XRECORD
  5
3F17
102
{ACAD_REACTORS
330
3B92
102
}
330
3B92
100
AcDbXrecord
280
     1
102
ACAD_ROUNDTRIP_PRE2007_TABLESTYLE
 90
      512
 91
        0
  1

 92
      512
 93
        0
  2

 94
      512
 95
        0
  3

  0
ENDSEC
  0
EOF
