  0
SECTION
  2
HEADER
  9
$ACADVER
  1
AC1015
  9
$ACADMAINTVER
 70
    20
  9
$DWGCODEPAGE
  3
ANSI_932
  9
$INSBASE
 10
0.0
 20
0.0
 30
0.0
  9
$EXTMIN
 10
-798.7093999922541
 20
-471.1034436566069
 30
0.0
  9
$EXTMAX
 10
956.3976860345025
 20
640.5103025773623
 30
50.0
  9
$LIMMIN
 10
-2970.0
 20
-2100.0
  9
$LIMMAX
 10
2970.0
 20
2100.0
  9
$ORTHOMODE
 70
     1
  9
$REGENMODE
 70
     0
  9
$FILLMODE
 70
     1
  9
$QTEXTMODE
 70
     0
  9
$MIRRTEXT
 70
     0
  9
$LTSCALE
 40
20.0
  9
$ATTMODE
 70
     1
  9
$TEXTSIZE
 40
64.0
  9
$TRACEWID
 40
0.05
  9
$TEXTSTYLE
  7
STANDARD
  9
$CLAYER
  8
0
  9
$CELTYPE
  6
ByLayer
  9
$CECOLOR
 62
   256
  9
$CELTSCALE
 40
1.0
  9
$DISPSILH
 70
     0
  9
$DIMSCALE
 40
1.0
  9
$DIMASZ
 40
0.12
  9
$DIMEXO
 40
0.05
  9
$DIMDLI
 40
0.5
  9
$DIMRND
 40
0.0
  9
$DIMDLE
 40
0.0
  9
$DIMEXE
 40
0.1
  9
$DIMTP
 40
0.1
  9
$DIMTM
 40
0.1
  9
$DIMTXT
 40
0.12
  9
$DIMCEN
 40
0.0
  9
$DIMTSZ
 40
0.0
  9
$DIMTOL
 70
     0
  9
$DIMLIM
 70
     0
  9
$DIMTIH
 70
     1
  9
$DIMTOH
 70
     1
  9
$DIMSE1
 70
     0
  9
$DIMSE2
 70
     0
  9
$DIMTAD
 70
     0
  9
$DIMZIN
 70
     7
  9
$DIMBLK
  1

  9
$DIMASO
 70
     1
  9
$DIMSHO
 70
     0
  9
$DIMPOST
  1

  9
$DIMAPOST
  1
mm
  9
$DIMALT
 70
     0
  9
$DIMALTD
 70
     2
  9
$DIMALTF
 40
25.4
  9
$DIMLFAC
 40
1.0
  9
$DIMTOFL
 70
     0
  9
$DIMTVP
 40
0.0
  9
$DIMTIX
 70
     0
  9
$DIMSOXD
 70
     0
  9
$DIMSAH
 70
     0
  9
$DIMBLK1
  1

  9
$DIMBLK2
  1

  9
$DIMSTYLE
  2
AM_ANSI
  9
$DIMCLRD
 70
   256
  9
$DIMCLRE
 70
   256
  9
$DIMCLRT
 70
     2
  9
$DIMTFAC
 40
0.71
  9
$DIMGAP
 40
0.06
  9
$DIMJUST
 70
     0
  9
$DIMSD1
 70
     0
  9
$DIMSD2
 70
     0
  9
$DIMTOLJ
 70
     1
  9
$DIMTZIN
 70
     7
  9
$DIMALTZ
 70
     0
  9
$DIMALTTZ
 70
     0
  9
$DIMUPT
 70
     0
  9
$DIMDEC
 70
     4
  9
$DIMTDEC
 70
     4
  9
$DIMALTU
 70
     2
  9
$DIMALTTD
 70
     4
  9
$DIMTXSTY
  7
STANDARD
  9
$DIMAUNIT
 70
     0
  9
$DIMADEC
 70
     0
  9
$DIMALTRND
 40
0.0
  9
$DIMAZIN
 70
     2
  9
$DIMDSEP
 70
    46
  9
$DIMATFIT
 70
     3
  9
$DIMFRAC
 70
     0
  9
$DIMLDRBLK
  1

  9
$DIMLUNIT
 70
     2
  9
$DIMLWD
 70
    -1
  9
$DIMLWE
 70
    -1
  9
$DIMTMOVE
 70
     0
  9
$LUNITS
 70
     2
  9
$LUPREC
 70
     4
  9
$SKETCHINC
 40
0.1
  9
$FILLETRAD
 40
4.0
  9
$AUNITS
 70
     1
  9
$AUPREC
 70
     3
  9
$MENU
  1
ACAD
  9
$ELEVATION
 40
0.0
  9
$PELEVATION
 40
0.0
  9
$THICKNESS
 40
50.0
  9
$LIMCHECK
 70
     0
  9
$CHAMFERA
 40
0.0
  9
$CHAMFERB
 40
0.0
  9
$CHAMFERC
 40
0.0
  9
$CHAMFERD
 40
0.0
  9
$SKPOLY
 70
     0
  9
$TDCREATE
 40
2452321.396199653
  9
$TDUCREATE
 40
2452321.021199653
  9
$TDUPDATE
 40
2456211.552129653
  9
$TDUUPDATE
 40
2456211.177129653
  9
$TDINDWG
 40
1.0411560069
  9
$TDUSRTIMER
 40
1.0411500579
  9
$USRTIMER
 70
     1
  9
$ANGBASE
 50
0.0
  9
$ANGDIR
 70
     0
  9
$PDMODE
 70
     3
  9
$PDSIZE
 40
-2.0
  9
$PLINEWID
 40
0.0
  9
$SPLFRAME
 70
     0
  9
$SPLINETYPE
 70
     6
  9
$SPLINESEGS
 70
     8
  9
$HANDSEED
  5
2D56
  9
$SURFTAB1
 70
     6
  9
$SURFTAB2
 70
     6
  9
$SURFTYPE
 70
     6
  9
$SURFU
 70
     6
  9
$SURFV
 70
     6
  9
$UCSBASE
  2

  9
$UCSNAME
  2

  9
$UCSORG
 10
0.0
 20
0.0
 30
0.0
  9
$UCSXDIR
 10
1.0
 20
0.0
 30
0.0
  9
$UCSYDIR
 10
0.0
 20
1.0
 30
0.0
  9
$UCSORTHOREF
  2

  9
$UCSORTHOVIEW
 70
     0
  9
$UCSORGTOP
 10
0.0
 20
0.0
 30
0.0
  9
$UCSORGBOTTOM
 10
0.0
 20
0.0
 30
0.0
  9
$UCSORGLEFT
 10
0.0
 20
0.0
 30
0.0
  9
$UCSORGRIGHT
 10
0.0
 20
0.0
 30
0.0
  9
$UCSORGFRONT
 10
0.0
 20
0.0
 30
0.0
  9
$UCSORGBACK
 10
0.0
 20
0.0
 30
0.0
  9
$PUCSBASE
  2

  9
$PUCSNAME
  2

  9
$PUCSORG
 10
0.0
 20
0.0
 30
0.0
  9
$PUCSXDIR
 10
1.0
 20
0.0
 30
0.0
  9
$PUCSYDIR
 10
0.0
 20
1.0
 30
0.0
  9
$PUCSORTHOREF
  2

  9
$PUCSORTHOVIEW
 70
     0
  9
$PUCSORGTOP
 10
0.0
 20
0.0
 30
0.0
  9
$PUCSORGBOTTOM
 10
0.0
 20
0.0
 30
0.0
  9
$PUCSORGLEFT
 10
0.0
 20
0.0
 30
0.0
  9
$PUCSORGRIGHT
 10
0.0
 20
0.0
 30
0.0
  9
$PUCSORGFRONT
 10
0.0
 20
0.0
 30
0.0
  9
$PUCSORGBACK
 10
0.0
 20
0.0
 30
0.0
  9
$USERI1
 70
     0
  9
$USERI2
 70
     0
  9
$USERI3
 70
     0
  9
$USERI4
 70
     0
  9
$USERI5
 70
     0
  9
$USERR1
 40
20.0
  9
$USERR2
 40
0.0
  9
$USERR3
 40
0.0
  9
$USERR4
 40
0.0
  9
$USERR5
 40
0.0
  9
$WORLDVIEW
 70
     1
  9
$SHADEDGE
 70
     3
  9
$SHADEDIF
 70
    70
  9
$TILEMODE
 70
     1
  9
$MAXACTVP
 70
    64
  9
$PINSBASE
 10
0.0
 20
0.0
 30
0.0
  9
$PLIMCHECK
 70
     0
  9
$PEXTMIN
 10
1.000000000000000E+20
 20
1.000000000000000E+20
 30
1.000000000000000E+20
  9
$PEXTMAX
 10
-1.000000000000000E+20
 20
-1.000000000000000E+20
 30
-1.000000000000000E+20
  9
$PLIMMIN
 10
0.0
 20
0.0
  9
$PLIMMAX
 10
12.0
 20
9.0
  9
$UNITMODE
 70
     0
  9
$VISRETAIN
 70
     1
  9
$PLINEGEN
 70
     0
  9
$PSLTSCALE
 70
     1
  9
$TREEDEPTH
 70
  3020
  9
$CMLSTYLE
  2
Standard
  9
$CMLJUST
 70
     0
  9
$CMLSCALE
 40
1.0
  9
$PROXYGRAPHICS
 70
     1
  9
$MEASUREMENT
 70
     0
  9
$CELWEIGHT
370
    -1
  9
$ENDCAPS
280
     0
  9
$JOINSTYLE
280
     0
  9
$LWDISPLAY
290
     0
  9
$INSUNITS
 70
     0
  9
$HYPERLINKBASE
  1

  9
$STYLESHEET
  1

  9
$XEDIT
290
     1
  9
$CEPSNTYPE
380
     0
  9
$PSTYLEMODE
290
     1
  9
$FINGERPRINTGUID
  2
{B2B7EE0E-5A5B-4FB9-A8CA-9D9196787B21}
  9
$VERSIONGUID
  2
{BC04A89B-194F-49AE-AD22-5B3FBE6F0280}
  9
$EXTNAMES
290
     1
  9
$PSVPSCALE
 40
0.0
  9
$OLESTARTUP
290
     0
  0
ENDSEC
  0
SECTION
  2
CLASSES
  0
CLASS
  1
ACDBDICTIONARYWDFLT
  2
AcDbDictionaryWithDefault
  3
ObjectDBX Classes
 90
        0
280
     0
281
     0
  0
CLASS
  1
MATERIAL
  2
AcDbMaterial
  3
ObjectDBX Classes
 90
     1153
280
     0
281
     0
  0
CLASS
  1
VISUALSTYLE
  2
AcDbVisualStyle
  3
ObjectDBX Classes
 90
     4095
280
     0
281
     0
  0
CLASS
  1
SCALE
  2
AcDbScale
  3
ObjectDBX Classes
 90
     1153
280
     0
281
     0
  0
CLASS
  1
TABLESTYLE
  2
AcDbTableStyle
  3
ObjectDBX Classes
 90
     4095
280
     0
281
     0
  0
CLASS
  1
MLEADERSTYLE
  2
AcDbMLeaderStyle
  3
ACDB_MLEADERSTYLE_CLASS
 90
     4095
280
     0
281
     0
  0
CLASS
  1
AMGSETTINGSOBJ
  2
AmgSettingsObj
  3
"AcadM|Product Description: AutoCAD Mechanical|Company: Autodesk, Inc."
 90
     1024
280
     0
281
     0
  0
CLASS
  1
ACME_DOCUMENT
  2
AcMeDbDoc
  3
AcMeServices
 90
     1024
280
     0
281
     0
  0
CLASS
  1
ACMESCOPE
  2
AcMeScope
  3
AcMeServices
 90
     1024
280
     0
281
     0
  0
CLASS
  1
ACMECOMMANDHISTORY
  2
AcMeCommandHistory
  3
AcMeServices
 90
     1024
280
     0
281
     0
  0
CLASS
  1
ACIMSYSVARMAN
  2
AcImSysVarManager
  3
AcMeServices
 90
     1024
280
     0
281
     0
  0
CLASS
  1
ACIMREALSYSVAR
  2
AcImRealSysVar
  3
AcMeServices
 90
     1024
280
     0
281
     0
  0
CLASS
  1
ACIMINTSYSVAR
  2
AcImIntSysVar
  3
AcMeServices
 90
     1024
280
     0
281
     0
  0
CLASS
  1
ACMEDRAWINGMAN
  2
AcMeDrawingMan
  3
AcMeServices
 90
     1024
280
     0
281
     0
  0
CLASS
  1
ACMEVIEW
  2
AcMeView
  3
AcMeServices
 90
     1024
280
     0
281
     0
  0
CLASS
  1
ACDBENTITYCACHE
  2
AcMeEntityCache
  3
AcMeServices
 90
     1024
280
     0
281
     0
  0
CLASS
  1
GSMANAGER
  2
AcMeGSManager
  3
AcMeServices
 90
     1024
280
     0
281
     0
  0
CLASS
  1
AMDTINTERNALREACTOR
  2
AmdtInternalReactor
  3
AcMeServices
 90
     1024
280
     0
281
     0
  0
CLASS
  1
ACMESTATEMGR
  2
AcMeStateMgr
  3
AcMeServices
 90
     1024
280
     0
281
     0
  0
CLASS
  1
ACGREFMASTER
  2
AcGrefMaster
  3
AcAttribServices
 90
     1024
280
     0
281
     0
  0
CLASS
  1
AM_DRAWING_MGR
  2
AcDmDwgMgr
  3
AcMechDwgViewMgmt
 90
     1024
280
     0
281
     0
  0
CLASS
  1
AM_DWG_DOCUMENT
  2
AcDmDwgDocument
  3
AcMechDwgViewMgmt
 90
     1024
280
     0
281
     0
  0
CLASS
  1
AM_DWG_SHEET
  2
AcDmSheet
  3
AcMechDwgViewMgmt
 90
     1024
280
     0
281
     0
  0
CLASS
  1
AM_VIEWDIMPARMAP
  2
AcDmViewDimParMap
  3
AcMechDwgViewMgmt
 90
     1024
280
     0
281
     0
  0
CLASS
  1
AM_DWGMGR_NAME
  2
AcDmDwgMgrName
  3
AcMechDwgViewMgmt
 90
     1024
280
     0
281
     0
  0
CLASS
  1
ACME_DATABASE
  2
AcMeDbDatabase
  3
AcMeServices
 90
     1024
280
     0
281
     0
  0
CLASS
  1
ACRFINSADJUSTERMGR
  2
AcRfInsAdjusterMgr
  3
AcMeServices
 90
     1024
280
     0
281
     0
  0
CLASS
  1
ACGREFACADMASTER
  2
AcGrefacadMaster
  3
AcGrefServices
 90
     1024
280
     0
281
     0
  0
CLASS
  1
AMDTMENUSTATEMGR
  2
AmdtMenuStateMgr
  3
McadcomServices
 90
     1024
280
     0
281
     0
  0
CLASS
  1
AMDTMCOMMENUSTATE
  2
AmdtMcomMenuState
  3
McadcomServices
 90
     1024
280
     0
281
     0
  0
CLASS
  1
AMIMASTER
  2
AmiMaster
  3
AmiServices
 90
     1024
280
     0
281
     0
  0
CLASS
  1
ASAPP
  2
AcAsAppObject
  3
AutoSurfServices
 90
     1024
280
     0
281
     0
  0
CLASS
  1
IM_STATIC_MAN
  2
AcImStaticVarManager
  3
AcMeServices
 90
     1024
280
     0
281
     0
  0
CLASS
  1
ACIMSTRSYSVAR
  2
AcImStrSysVar
  3
AcMeServices
 90
     1024
280
     0
281
     0
  0
CLASS
  1
ACIMDBLSTATICVAR
  2
AcImDblStaticVar
  3
AcMeServices
 90
     1024
280
     0
281
     0
  0
CLASS
  1
ACIMSTRSTATICVAR
  2
AcImStrStaticVar
  3
AcMeServices
 90
     1024
280
     0
281
     0
  0
CLASS
  1
ACIMINTSTATICVAR
  2
AcImIntStaticVar
  3
AcMeServices
 90
     1024
280
     0
281
     0
  0
CLASS
  1
ACASGREFMASTER
  2
AcAsGrefMaster
  3
AutoSurfResolverServices
 90
     1024
280
     0
281
     0
  0
CLASS
  1
ACADGREFMODULE
  2
AcAdGrefModule
  3
AdGrefServices
 90
     1024
280
     0
281
     0
  0
CLASS
  1
AMDTMAPISURFMOUDULE
  2
AmdtMApiSurfModule
  3
MApiSurfServices
 90
     1024
280
     0
281
     0
  0
CLASS
  1
MAPIAMMOUDLE
  2
MApiAmModule
  3
MApiAmServices
 90
     1024
280
     0
281
     0
  0
CLASS
  1
AMDTADMENUSTATE
  2
AmdtAdMenuState
  3
DesignerServices
 90
     1024
280
     0
281
     0
  0
CLASS
  1
ADAPPL
  2
AcAdAppl
  3
DesignerServices
 90
     1024
280
     0
281
     0
  0
CLASS
  1
DEPMGR
  2
AcAdDepMgr
  3
DesignerServices
 90
     1024
280
     0
281
     0
  0
CLASS
  1
PARAMMGR
  2
AcAdParamMgr
  3
DesignerServices
 90
     1024
280
     0
281
     0
  0
CLASS
  1
PARAMSCOPE
  2
AcAdParamScope
  3
DesignerServices
 90
     1024
280
     0
281
     0
  0
CLASS
  1
NAMEDAPPL
  2
AcAdNamedAppl
  3
DesignerServices
 90
     1024
280
     0
281
     0
  0
CLASS
  1
AMDTDMMENUSTATE
  2
AmdtDmMenuState
  3
AcMechDwgViewMgmt
 90
     1024
280
     0
281
     0
  0
CLASS
  1
MAPIADMODULE
  2
MApiAdModule
  3
MApiAdServices
 90
     1024
280
     0
281
     0
  0
CLASS
  1
AMDTAMMENUSTATE
  2
AmdtAmMenuState
  3
DesignerAssemblies
 90
     1024
280
     0
281
     0
  0
CLASS
  1
ACAMPROJECT
  2
AcAmProject
  3
DesignerAssemblies
 90
     1024
280
     0
281
     0
  0
CLASS
  1
ACAMGRCOMPDEF
  2
AcAmGrCompDef
  3
DesignerAssemblies
 90
     1024
280
     0
281
     0
  0
CLASS
  1
ACCMCONTEXT
  2
AcCmContext
  3
DesignerAssemblies
 90
     1024
280
     0
281
     0
  0
CLASS
  1
ACAMCOMPDEF
  2
AcAmCompDef
  3
DesignerAssemblies
 90
     1024
280
     0
281
     0
  0
CLASS
  1
ACAMCOMPDEFMGR
  2
AcAmCompDefMgr
  3
DesignerAssemblies
 90
     1024
280
     0
281
     0
  0
CLASS
  1
AMCONTEXTMGR
  2
AcAmContextMgr
  3
DesignerAssemblies
 90
     1024
280
     0
281
     0
  0
CLASS
  1
ACAMCONTEXTMODELER
  2
AcAmContextModeler
  3
DesignerAssemblies
 90
     1024
280
     0
281
     0
  0
CLASS
  1
ACMDATADICTIONARY
  2
AcmDataDictionary
  3
"AcmSymBB|Product Description: AutoCAD Mechanical|Company: Autodesk, Inc."
 90
     1024
280
     0
281
     0
  0
CLASS
  1
ACMDATAENTRYBLOCK
  2
AcmDataEntryBlock
  3
AcmSymBB|Product Description: AutoCAD Mechanical|Company: Autodesk, Inc.
 90
     1024
280
     0
281
     0
  0
CLASS
  1
ACRFATTGENMGR
  2
AcRfAttGeneralMgr
  3
AcAttribServices
 90
     1024
280
     0
281
     0
  0
CLASS
  1
ACRFOBJATTMGR
  2
AcRfObjAttGroupMgr
  3
AcAttribServices
 90
     1024
280
     0
281
     0
  0
CLASS
  1
ACRFMCADAPIATTHOLDER
  2
AcRfMCADAPIAttHolder
  3
AcAttribServices
 90
     1024
280
     0
281
     0
  0
CLASS
  1
AMDTSYSATTR
  2
AmdtSystemAttribute
  3
AcAttribServices
 90
     1024
280
     0
281
     0
  0
CLASS
  1
CATALOGSTATE
  2
AcAmCatalogState
  3
DesignerAssemblies
 90
     1024
280
     0
281
     0
  0
CLASS
  1
ACAMGRCOMPDEFSET
  2
AcAmGrCompDefSet
  3
DesignerAssemblies
 90
     1024
280
     0
281
     0
  0
CLASS
  1
AMDTBROWSERDBTAB
  2
AmdtBrowserDbTab
  3
McadcomServices
 90
     1024
280
     0
281
     0
  0
CLASS
  1
CBROWSERAPPOBJECT
  2
CBrowserAppObject
  3
McadcomServices
 90
     1024
280
     0
281
     0
  0
CLASS
  1
DM_PLACEHOLDER
  2
AcDmSelsetPlaceholder
  3
AcMechDwgViewMgmt
 90
     1024
280
     0
281
     0
  0
CLASS
  1
ACMSTANDARDANSI
  2
AcmStandardANSI
  3
"Amdt_StdImp|Product Description: AutoCAD Mechanical|Company: Autodesk, Inc."
 90
     1024
280
     0
281
     0
  0
CLASS
  1
ACMSURFSTANDARDANSI
  2
AcmSurfTextStdANSI
  3
"Amdt_StdImp|Product Description: AutoCAD Mechanical|Company: Autodesk, Inc."
 90
     1024
280
     0
281
     0
  0
CLASS
  1
ACMFCFSTANDARDANSI
  2
AcmFCFStdANSI
  3
"Amdt_StdImp|Product Description: AutoCAD Mechanical|Company: Autodesk, Inc."
 90
     1024
280
     0
281
     0
  0
CLASS
  1
ACMWELDSTANDARDANSI
  2
AcmWeldingStdANSI
  3
"Amdt_StdImp|Product Description: AutoCAD Mechanical|Company: Autodesk, Inc."
 90
     1024
280
     0
281
     0
  0
CLASS
  1
ACMIDSTANDARDANSI
  2
AcmIdStdANSI
  3
"Amdt_StdImp|Product Description: AutoCAD Mechanical|Company: Autodesk, Inc."
 90
     1024
280
     0
281
     0
  0
CLASS
  1
ACMDATUMSTANDARDANSI
  2
AcmDatumStdANSI
  3
"Amdt_StdImp|Product Description: AutoCAD Mechanical|Company: Autodesk, Inc."
 90
     1024
280
     0
281
     0
  0
CLASS
  1
ACMBOMSTANDARDANSI
  2
AcmBOMStdANSI
  3
"Amdt_StdImp|Product Description: AutoCAD Mechanical|Company: Autodesk, Inc."
 90
     1024
280
     0
281
     0
  0
CLASS
  1
ACMDETAILSTANDARDANSI
  2
AmdtDetailSymStdANSI
  3
"Amdt_StdImp|Product Description: AutoCAD Mechanical|Company: Autodesk, Inc."
 90
     1024
280
     0
281
     0
  0
CLASS
  1
ACMSECTIONSTANDARDANSI
  2
AmdtSectionSymStdANSI
  3
"Amdt_StdImp|Product Description: AutoCAD Mechanical|Company: Autodesk, Inc."
 90
     1024
280
     0
281
     0
  0
CLASS
  1
ACMCENTERLINESTANDARDANSI
  2
AmdtCenterLineStdANSI
  3
"Amdt_StdImp|Product Description: AutoCAD Mechanical|Company: Autodesk, Inc."
 90
     1024
280
     0
281
     0
  0
CLASS
  1
ACMTHREADLINESTANDARDANSI
  2
AmdtThreadLineStdANSI
  3
"Amdt_StdImp|Product Description: AutoCAD Mechanical|Company: Autodesk, Inc."
 90
     1024
280
     0
281
     0
  0
CLASS
  1
ACMNOTESTANDARDANSI
  2
AmdtNoteStdANSI
  3
"Amdt_StdImp|Product Description: AutoCAD Mechanical|Company: Autodesk, Inc."
 90
     1024
280
     0
281
     0
  0
CLASS
  1
ACMTAPERSTANDARDANSI
  2
AcmTaperStdANSI
  3
"Amdt_StdImp|Product Description: AutoCAD Mechanical|Company: Autodesk, Inc."
 90
     1024
280
     0
281
     0
  0
CLASS
  1
ACMANOOTATIONVIEWSTANDARDANSI
  2
AmdtAnViewStdANSI
  3
"Amdt_StdImp|Product Description: AutoCAD Mechanical|Company: Autodesk, Inc."
 90
     1024
280
     0
281
     0
  0
CLASS
  1
ACAMGLAYSTD
  2
AcAmgLayStd
  3
"AmgLay|Product Description: AutoCAD Mechanical|Company: Autodesk, Inc."
 90
     1024
280
     0
281
     0
  0
CLASS
  1
ACAMGDIMSTD
  2
AcAmgDimStd
  3
"AmgDim|Product Description: AutoCAD Mechanical|Company: Autodesk, Inc."
 90
     1024
280
     0
281
     0
  0
CLASS
  1
ACAMGHOLECHARTSTDANSI
  2
AcAmgHoleChartStdANSI
  3
AmgDim|Product Description: AutoCAD Mechanical|Company: Autodesk, Inc.
 90
     1024
280
     0
281
     0
  0
CLASS
  1
AMGOBJPROPCFG
  2
AmgObjPropCfg
  3
"AmgLay|Product Description: AutoCAD Mechanical|Company: Autodesk, Inc."
 90
     1025
280
     0
281
     0
  0
CLASS
  1
ACAMGTITLESTD
  2
AcAmgTitleStd
  3
"AmgTitle|Product Description: AutoCAD Mechanical|Company: Autodesk, Inc."
 90
     4095
280
     0
281
     0
  0
CLASS
  1
AMDTNOTETEMPLATEDB
  2
AmdtNoteTemplateDB
  3
AcmSymBB|Product Description: AutoCAD Mechanical|Company: Autodesk, Inc.
 90
     1024
280
     0
281
     0
  0
CLASS
  1
LAYER_INDEX
  2
AcDbLayerIndex
  3
ObjectDBX Classes
 90
        0
280
     0
281
     0
  0
CLASS
  1
IDBUFFER
  2
AcDbIdBuffer
  3
ObjectDBX Classes
 90
        0
280
     0
281
     0
  0
CLASS
  1
DICTIONARYVAR
  2
AcDbDictionaryVar
  3
ObjectDBX Classes
 90
        0
280
     0
281
     0
  0
CLASS
  1
CELLSTYLEMAP
  2
AcDbCellStyleMap
  3
ObjectDBX Classes
 90
     1152
280
     0
281
     0
  0
CLASS
  1
ACDBPLACEHOLDER
  2
AcDbPlaceHolder
  3
ObjectDBX Classes
 90
        0
280
     0
281
     0
  0
CLASS
  1
LAYOUT
  2
AcDbLayout
  3
ObjectDBX Classes
 90
        0
280
     0
281
     0
  0
ENDSEC
  0
SECTION
  2
TABLES
  0
TABLE
  2
VPORT
  5
2AF8
330
0
100
AcDbSymbolTable
 70
     1
  0
VPORT
  5
2B68
330
2AF8
100
AcDbSymbolTableRecord
100
AcDbViewportTableRecord
  2
*ACTIVE
 70
     0
 10
0.0
 20
0.0
 11
1.0
 21
1.0
 12
0.0
 22
0.0
 13
0.0
 23
0.0
 14
1.0
 24
1.0
 15
0.0
 25
0.0
 16
0.0
 26
0.0
 36
1.0
 17
54.15574509435776
 27
84.59473643986802
 37
0.0
 40
1119.247281827576
 41
1.712555066079295
 42
50.0
 43
0.0
 44
0.0
 50
0.0
 51
0.0
 71
     0
 72
   100
 73
     1
 74
     0
 75
     0
 76
     0
 77
     0
 78
     0
281
     0
 65
     0
110
0.0
120
0.0
130
0.0
111
1.0
121
0.0
131
0.0
112
0.0
122
1.0
132
0.0
 79
     0
146
0.0
  0
ENDTAB
  0
TABLE
  2
LTYPE
  5
2AF5
330
0
100
AcDbSymbolTable
 70
    19
  0
LTYPE
  5
2B52
330
2AF5
100
AcDbSymbolTableRecord
100
AcDbLinetypeTableRecord
  2
ByBlock
 70
     0
  3

 72
    65
 73
     0
 40
0.0
  0
LTYPE
  5
2B53
330
2AF5
100
AcDbSymbolTableRecord
100
AcDbLinetypeTableRecord
  2
ByLayer
 70
     0
  3

 72
    65
 73
     0
 40
0.0
  0
LTYPE
  5
2B54
330
2AF5
100
AcDbSymbolTableRecord
100
AcDbLinetypeTableRecord
  2
CONTINUOUS
 70
     0
  3
実線
 72
    65
 73
     0
 40
0.0
  0
LTYPE
  5
2B69
330
2AF5
100
AcDbSymbolTableRecord
100
AcDbLinetypeTableRecord
  2
DASHDOT
 70
     0
  3
____ _ ____ _ ____ _ ____ _ ____ _ ____ _ ____
 72
    65
 73
     4
 40
5.5
 49
4.0
 74
     0
 49
-0.6
 74
     0
 49
0.3
 74
     0
 49
-0.6
 74
     0
  0
LTYPE
  5
2B6A
330
2AF5
100
AcDbSymbolTableRecord
100
AcDbLinetypeTableRecord
  2
HIDDEN
 70
     0
  3
Hidden __ __ __ __ __ __ __ __ __ __ __ __ __ _
 72
    65
 73
     2
 40
0.375
 49
0.25
 74
     0
 49
-0.125
 74
     0
  0
LTYPE
  5
2B6B
330
2AF5
100
AcDbSymbolTableRecord
100
AcDbLinetypeTableRecord
  2
PHANTOM2
 70
     0
  3
Phantom (.5x) ___ _ _ ___ _ _ ___ _ _ ___ _ _
 72
    65
 73
     6
 40
1.25
 49
0.625
 74
     0
 49
-0.125
 74
     0
 49
0.125
 74
     0
 49
-0.125
 74
     0
 49
0.125
 74
     0
 49
-0.125
 74
     0
  0
LTYPE
  5
2B6C
330
2AF5
100
AcDbSymbolTableRecord
100
AcDbLinetypeTableRecord
  2
CENTER
 70
     0
  3
Center ____ _ ____ _ ____ _ ____ _ ____ _ ____
 72
    65
 73
     4
 40
2.0
 49
1.25
 74
     0
 49
-0.25
 74
     0
 49
0.25
 74
     0
 49
-0.25
 74
     0
  0
LTYPE
  5
2B6D
330
2AF5
100
AcDbSymbolTableRecord
100
AcDbLinetypeTableRecord
  2
ASULTYPE
 70
     0
  3
実線
 72
    65
 73
     2
 40
3.0
 49
2.5
 74
     0
 49
0.5
 74
     0
  0
LTYPE
  5
2B6E
330
2AF5
100
AcDbSymbolTableRecord
100
AcDbLinetypeTableRecord
  2
ASVLTYPE
 70
     0
  3
__ __ __ __ __ __ __ __ __ __ __ __ __ __ __ __ __ __ __ __ __
 72
    65
 73
     2
 40
0.75
 49
0.5
 74
     0
 49
-0.25
 74
     0
  0
LTYPE
  5
2B6F
330
2AF5
100
AcDbSymbolTableRecord
100
AcDbLinetypeTableRecord
  2
AM_ISO02W050
 70
     0
  3
__ __ __ __ __ __ __ __ __ __ __ __ __ __ __
 72
    65
 73
     2
 40
7.5
 49
6.0
 74
     0
 49
-1.5
 74
     0
  0
LTYPE
  5
2B70
330
2AF5
100
AcDbSymbolTableRecord
100
AcDbLinetypeTableRecord
  2
AM_ISO08W050
 70
     0
  3
____ . ____ . ____ . ____ . ____ . ____ . ____
 72
    65
 73
     4
 40
18.0
 49
12.0
 74
     0
 49
-1.5
 74
     0
 49
3.0
 74
     0
 49
-1.5
 74
     0
  0
LTYPE
  5
2B71
330
2AF5
100
AcDbSymbolTableRecord
100
AcDbLinetypeTableRecord
  2
AM_ISO09W050
 70
     0
  3
_____ . . _____ . . _____ . . ____ .. ____
 72
    65
 73
     6
 40
22.5
 49
12.0
 74
     0
 49
-1.5
 74
     0
 49
3.0
 74
     0
 49
-1.5
 74
     0
 49
3.0
 74
     0
 49
-1.5
 74
     0
  0
LTYPE
  5
2B72
330
2AF5
100
AcDbSymbolTableRecord
100
AcDbLinetypeTableRecord
  2
AMCONSTR
 70
     0
  3
_______________________
 72
    65
 73
     2
 40
9999.0
 49
9999.0
 74
     0
 49
0.0
 74
     0
  0
LTYPE
  5
2B73
330
2AF5
100
AcDbSymbolTableRecord
100
AcDbLinetypeTableRecord
  2
AM_ISO08W050X2
 70
     0
  3
__ . __ . __ . __ . __ . __
 72
    65
 73
     4
 40
9.0
 49
6.0
 74
     0
 49
-0.75
 74
     0
 49
1.5
 74
     0
 49
-0.75
 74
     0
  0
LTYPE
  5
2B74
330
2AF5
100
AcDbSymbolTableRecord
100
AcDbLinetypeTableRecord
  2
AM_ISO02W050X2
 70
     0
  3
 _ _ _ _ _ _ _ _ _ _ _ _
 72
    65
 73
     2
 40
3.75
 49
3.0
 74
     0
 49
-0.75
 74
     0
  0
LTYPE
  5
2B75
330
2AF5
100
AcDbSymbolTableRecord
100
AcDbLinetypeTableRecord
  2
AMZIGZAG
 70
     0
  3
/\/-/\/-/\/-/\/-/\/-/\/
 72
    65
 73
     2
 40
11.0001
 49
0.0001
 74
     0
 49
-11.0
 74
     0
  0
LTYPE
  5
2B76
330
2AF5
100
AcDbSymbolTableRecord
100
AcDbLinetypeTableRecord
  2
CENTER2
 70
     0
  3
Center (.5x) ___ _ ___ _ ___ _ ___ _ ___ _ ___
 72
    65
 73
     4
 40
1.125
 49
0.75
 74
     0
 49
-0.125
 74
     0
 49
0.125
 74
     0
 49
-0.125
 74
     0
  0
LTYPE
  5
2B77
330
2AF5
100
AcDbSymbolTableRecord
100
AcDbLinetypeTableRecord
  2
HIDDEN2
 70
     0
  3
Hidden (.5x) _ _ _ _ _ _ _ _ _ _ _ _ _ _ _ _ _
 72
    65
 73
     2
 40
0.1875
 49
0.125
 74
     0
 49
-0.0625
 74
     0
  0
LTYPE
  5
2B78
330
2AF5
100
AcDbSymbolTableRecord
100
AcDbLinetypeTableRecord
  2
AMZIGZAG2
 70
     0
  3
/\/-/\/-/\/-/\/-/\/-/\/
 72
    65
 73
     2
 40
0.4401
 49
0.0001
 74
     0
 49
-0.4400000000000003
 74
     0
  0
LTYPE
  5
2B79
330
2AF5
100
AcDbSymbolTableRecord
100
AcDbLinetypeTableRecord
  2
ACANSTGB
 70
     0
  3
__ . . __ . .
 72
    65
 73
     6
 40
0.35433070866
 49
0.15748031496
 74
     0
 49
-0.03937007874
 74
     0
 49
0.03937007874
 74
     0
 49
-0.03937007874
 74
     0
 49
0.03937007874
 74
     0
 49
-0.03937007874
 74
     0
  0
LTYPE
  5
2B7A
330
2AF5
100
AcDbSymbolTableRecord
100
AcDbLinetypeTableRecord
  2
ACANSTGL
 70
     0
  3
_ _ _ _ _
 72
    65
 73
     2
 40
0.11811023622
 49
0.07874015748
 74
     0
 49
-0.03937007874
 74
     0
  0
ENDTAB
  0
TABLE
  2
LAYER
  5
2AF2
330
0
100
AcDbSymbolTable
 70
    12
  0
LAYER
  5
2B4C
102
{ACAD_XDICTIONARY
360
2D15
102
}
330
2AF2
100
AcDbSymbolTableRecord
100
AcDbLayerTableRecord
  2
0
 70
     0
 62
     7
  6
CONTINUOUS
370
    -3
390
2AFF
  0
LAYER
  5
2B7B
102
{ACAD_XDICTIONARY
360
2D17
102
}
330
2AF2
100
AcDbSymbolTableRecord
100
AcDbLayerTableRecord
  2
OUTLINE
 70
     0
 62
     3
  6
CONTINUOUS
370
    -3
390
2AFF
  0
LAYER
  5
2B7C
102
{ACAD_XDICTIONARY
360
2D19
102
}
330
2AF2
100
AcDbSymbolTableRecord
100
AcDbLayerTableRecord
  2
SIZE
 70
     0
 62
    30
  6
CONTINUOUS
370
    -3
390
2AFF
  0
LAYER
  5
2B7D
102
{ACAD_XDICTIONARY
360
2D1B
102
}
330
2AF2
100
AcDbSymbolTableRecord
100
AcDbLayerTableRecord
  2
BASIS
 70
     0
 62
     6
  6
DASHDOT
370
    -3
390
2AFF
  0
LAYER
  5
2B7E
102
{ACAD_XDICTIONARY
360
2D1D
102
}
330
2AF2
100
AcDbSymbolTableRecord
100
AcDbLayerTableRecord
  2
DETAIL
 70
     0
 62
     5
  6
CONTINUOUS
370
    -3
390
2AFF
  0
LAYER
  5
2B7F
102
{ACAD_XDICTIONARY
360
2D1F
102
}
330
2AF2
100
AcDbSymbolTableRecord
100
AcDbLayerTableRecord
  2
ARRANGE
 70
     0
 62
     1
  6
CONTINUOUS
370
    -3
390
2AFF
  0
LAYER
  5
2B80
330
2AF2
100
AcDbSymbolTableRecord
100
AcDbLayerTableRecord
  2
DEFPOINTS
 70
     0
 62
     7
  6
CONTINUOUS
290
     0
370
    -3
390
2AFF
  0
LAYER
  5
2B81
102
{ACAD_XDICTIONARY
360
2D21
102
}
330
2AF2
100
AcDbSymbolTableRecord
100
AcDbLayerTableRecord
  2
ETC
 70
     0
 62
    61
  6
CONTINUOUS
370
    -3
390
2AFF
  0
LAYER
  5
2B82
102
{ACAD_XDICTIONARY
360
2D23
102
}
330
2AF2
100
AcDbSymbolTableRecord
100
AcDbLayerTableRecord
  2
FIX
 70
     0
 62
    11
  6
CONTINUOUS
370
    -3
390
2AFF
  0
LAYER
  5
2B83
102
{ACAD_XDICTIONARY
360
2D25
102
}
330
2AF2
100
AcDbSymbolTableRecord
100
AcDbLayerTableRecord
  2
NOTE
 70
     0
 62
     4
  6
CONTINUOUS
370
    -3
390
2AFF
  0
LAYER
  5
2B84
102
{ACAD_XDICTIONARY
360
2D27
102
}
330
2AF2
100
AcDbSymbolTableRecord
100
AcDbLayerTableRecord
  2
SERVICESPACE
 70
     0
 62
     2
  6
DASHDOT
370
    -3
390
2AFF
  0
LAYER
  5
2B85
102
{ACAD_XDICTIONARY
360
2D29
102
}
330
2AF2
100
AcDbSymbolTableRecord
100
AcDbLayerTableRecord
  2
SYMBOLLINE
 70
     0
 62
    15
  6
CONTINUOUS
370
    -3
390
2AFF
  0
ENDTAB
  0
TABLE
  2
STYLE
  5
2AF3
330
0
100
AcDbSymbolTable
 70
     5
  0
STYLE
  5
2B4D
330
2AF3
100
AcDbSymbolTableRecord
100
AcDbTextStyleTableRecord
  2
STANDARD
 70
     0
 40
64.0
 41
0.9
 50
0.0
 71
     0
 42
64.0
  3
SIMPLEX.shx
  4
BIGFONT.shx
  0
STYLE
  5
2B51
330
2AF3
100
AcDbSymbolTableRecord
100
AcDbTextStyleTableRecord
  2
ANNOTATIVE
 70
     0
 40
0.0
 41
1.0
 50
0.0
 71
     0
 42
0.2
  3
txt
  4

1001
ACADANNOTATIVE
1000
AnnotativeData
1002
{
1070
     1
1070
     1
1002
}
  0
STYLE
  5
2B86
330
2AF3
100
AcDbSymbolTableRecord
100
AcDbTextStyleTableRecord
  2

 70
     1
 40
0.0
 41
1.0
 50
0.0
 71
     0
 42
64.0
  3
genltshp.shx
  4

  0
STYLE
  5
2B87
330
2AF3
100
AcDbSymbolTableRecord
100
AcDbTextStyleTableRecord
  2
ACANSTS
 70
     0
 40
1.0
 41
1.0
 50
0.0
 71
     0
 42
64.0
  3
romans.shx
  4
extfont.shx
  0
STYLE
  5
2B88
330
2AF3
100
AcDbSymbolTableRecord
100
AcDbTextStyleTableRecord
  2
ACANSGDT
 70
     0
 40
0.0
 41
1.0
 50
0.0
 71
     0
 42
64.0
  3
amgdt.shx
  4

  0
ENDTAB
  0
TABLE
  2
VIEW
  5
2AF6
330
0
100
AcDbSymbolTable
 70
     1
  0
VIEW
  5
2B89
330
2AF6
100
AcDbSymbolTableRecord
100
AcDbViewTableRecord
  2
ALL
 70
     0
 40
4282.619807999997
 10
0.0
 20
41.30990399999999
 41
5940.0
 11
0.0
 21
0.0
 31
1.0
 12
0.0
 22
0.0
 32
0.0
 42
50.0
 43
0.0
 44
0.0
 50
0.0
 71
     0
281
     0
 72
     1
110
0.0
120
0.0
130
0.0
111
1.0
121
0.0
131
0.0
112
0.0
122
1.0
132
0.0
 79
     0
146
0.0
  0
ENDTAB
  0
TABLE
  2
UCS
  5
2AF7
330
0
100
AcDbSymbolTable
 70
     0
  0
ENDTAB
  0
TABLE
  2
APPID
  5
2AF9
330
0
100
AcDbSymbolTable
 70
    29
  0
APPID
  5
2B4E
330
2AF9
100
AcDbSymbolTableRecord
100
AcDbRegAppTableRecord
  2
ACAD
 70
     0
  0
APPID
  5
2B55
330
2AF9
100
AcDbSymbolTableRecord
100
AcDbRegAppTableRecord
  2
ACADANNOTATIVE
 70
     0
  0
APPID
  5
2B5F
330
2AF9
100
AcDbSymbolTableRecord
100
AcDbRegAppTableRecord
  2
ACAD_MLEADERVER
 70
     0
  0
APPID
  5
2B8A
330
2AF9
100
AcDbSymbolTableRecord
100
AcDbRegAppTableRecord
  2
GENIUS_GENDIM_13
 70
     0
  0
APPID
  5
2B8B
330
2AF9
100
AcDbSymbolTableRecord
100
AcDbRegAppTableRecord
  2
GENIUS_GENDTOL_13
 70
     0
  0
APPID
  5
2B8C
330
2AF9
100
AcDbSymbolTableRecord
100
AcDbRegAppTableRecord
  2
GENIUS_GE3DTOL_13
 70
     0
  0
APPID
  5
2B8D
330
2AF9
100
AcDbSymbolTableRecord
100
AcDbRegAppTableRecord
  2
MCAD_NO_VIS
 70
     0
  0
APPID
  5
2B8E
330
2AF9
100
AcDbSymbolTableRecord
100
AcDbRegAppTableRecord
  2
ACAD_TEMP_GRAPHIC
 70
     0
  0
APPID
  5
2B8F
330
2AF9
100
AcDbSymbolTableRecord
100
AcDbRegAppTableRecord
  2
AD_DRAW
 70
     0
  0
APPID
  5
2B90
330
2AF9
100
AcDbSymbolTableRecord
100
AcDbRegAppTableRecord
  2
ACATTRIBSERVICES
 70
     0
  0
APPID
  5
2B91
330
2AF9
100
AcDbSymbolTableRecord
100
AcDbRegAppTableRecord
  2
ASURF_PCURVE_APPNAME
 70
     0
  0
APPID
  5
2B92
330
2AF9
100
AcDbSymbolTableRecord
100
AcDbRegAppTableRecord
  2
AMG_3D2D_5_0
 70
     0
  0
APPID
  5
2B93
330
2AF9
100
AcDbSymbolTableRecord
100
AcDbRegAppTableRecord
  2
DESIGNERASSEMBLIES
 70
     0
  0
APPID
  5
2B94
330
2AF9
100
AcDbSymbolTableRecord
100
AcDbRegAppTableRecord
  2
ACADM_DIM_EDIT
 70
     0
  0
APPID
  5
2B95
330
2AF9
100
AcDbSymbolTableRecord
100
AcDbRegAppTableRecord
  2
AMDT_DM_ADJ
 70
     0
  0
APPID
  5
2B96
330
2AF9
100
AcDbSymbolTableRecord
100
AcDbRegAppTableRecord
  2
ACAD_DSTYLE_DIMARC_LENGTH_
 70
     0
  0
APPID
  5
2B97
330
2AF9
100
AcDbSymbolTableRecord
100
AcDbRegAppTableRecord
  2
ACAD_DSTYLE_DIMJOGGED_JOGA
 70
     0
  0
APPID
  5
2B98
330
2AF9
100
AcDbSymbolTableRecord
100
AcDbRegAppTableRecord
  2
ACAD_PSEXT
 70
     0
  0
APPID
  5
2B99
330
2AF9
100
AcDbSymbolTableRecord
100
AcDbRegAppTableRecord
  2
ACAD_EXEMPT_FROM_CAD_STANDARDS
 70
     0
  0
APPID
  5
2B9A
330
2AF9
100
AcDbSymbolTableRecord
100
AcDbRegAppTableRecord
  2
ACAD_DSTYLE_DIMJAG
 70
     0
  0
APPID
  5
2B9B
330
2AF9
100
AcDbSymbolTableRecord
100
AcDbRegAppTableRecord
  2
ACAD_DSTYLE_DIMTALN
 70
     0
  0
APPID
  5
2B9C
330
2AF9
100
AcDbSymbolTableRecord
100
AcDbRegAppTableRecord
  2
AMG_3D2D_5_00
 70
     0
  0
APPID
  5
2B9D
330
2AF9
100
AcDbSymbolTableRecord
100
AcDbRegAppTableRecord
  2
AMG_3D2D_5_01
 70
     0
  0
APPID
  5
2B9E
330
2AF9
100
AcDbSymbolTableRecord
100
AcDbRegAppTableRecord
  2
AMG_3D2D_5_02
 70
     0
  0
APPID
  5
2CBC
330
2AF9
100
AcDbSymbolTableRecord
100
AcDbRegAppTableRecord
  2
AMG_3D2D_5.0
 70
     0
  0
APPID
  5
2D52
330
2AF9
100
AcDbSymbolTableRecord
100
AcDbRegAppTableRecord
  2
ACAD_DSTYLE_DIMARC_LENGTH_SYMBOL
 70
     0
  0
APPID
  5
2D53
330
2AF9
100
AcDbSymbolTableRecord
100
AcDbRegAppTableRecord
  2
ACAD_DSTYLE_DIM_LINETYPE
 70
     0
  0
APPID
  5
2D54
330
2AF9
100
AcDbSymbolTableRecord
100
AcDbRegAppTableRecord
  2
ACAD_DSTYLE_DIM_EXT1_LINETYPE
 70
     0
  0
APPID
  5
2D55
330
2AF9
100
AcDbSymbolTableRecord
100
AcDbRegAppTableRecord
  2
ACAD_DSTYLE_DIM_EXT2_LINETYPE
 70
     0
  0
ENDTAB
  0
TABLE
  2
DIMSTYLE
  5
2AFA
330
0
100
AcDbSymbolTable
 70
    10
100
AcDbDimStyleTable
 71
     1
340
2B9F
  0
DIMSTYLE
105
2B4F
330
2AFA
100
AcDbSymbolTableRecord
100
AcDbDimStyleTableRecord
  2
STANDARD
 70
     0
 41
12.0
 42
20.0
 44
20.0
 77
     1
 78
     8
140
64.0
141
0.0
147
10.0
275
     1
279
     2
284
     7
285
     7
286
     7
340
2B4D
  0
DIMSTYLE
105
2B50
330
2AFA
100
AcDbSymbolTableRecord
100
AcDbDimStyleTableRecord
  2
ANNOTATIVE
 70
     0
275
     1
279
     2
284
     7
285
     7
286
     7
340
2B4D
1001
ACADANNOTATIVE
1000
AnnotativeData
1002
{
1070
     1
1070
     1
1002
}
  0
DIMSTYLE
105
2B9F
330
2AFA
100
AcDbSymbolTableRecord
100
AcDbDimStyleTableRecord
  2
AM_ANSI
 70
     0
  4
mm
 41
0.12
 42
0.05
 43
0.5
 44
0.1
 47
0.1
 48
0.1
 78
     7
 79
     2
140
0.12
141
0.0
146
0.71
147
0.06
176
   256
177
   256
178
     2
274
     4
284
     7
340
2B4D
371
    -1
372
    -1
1001
ACAD_DSTYLE_DIMARC_LENGTH_SYMBOL
1070
   379
1070
     1
1001
ACAD_DSTYLE_DIM_LINETYPE
1070
   380
1005
2B52
1001
ACAD_DSTYLE_DIM_EXT1_LINETYPE
1070
   381
1005
2B52
1001
ACAD_DSTYLE_DIM_EXT2_LINETYPE
1070
   382
1005
2B52
  0
DIMSTYLE
105
2BA0
330
2AFA
100
AcDbSymbolTableRecord
100
AcDbDimStyleTableRecord
  2
AM_ANSI$3
 70
     0
  4
mm
 41
0.12
 42
0.05
 43
0.5
 44
0.1
 47
0.1
 48
0.1
 78
     7
 79
     2
140
0.12
141
0.0
146
0.71
147
0.06
176
   256
177
   256
178
     2
274
     4
284
     7
288
     1
289
     0
340
2B4D
371
    -1
372
    -1
1001
ACAD_DSTYLE_DIMARC_LENGTH_SYMBOL
1070
   379
1070
     1
1001
ACAD_DSTYLE_DIM_LINETYPE
1070
   380
1005
2B52
1001
ACAD_DSTYLE_DIM_EXT1_LINETYPE
1070
   381
1005
2B52
1001
ACAD_DSTYLE_DIM_EXT2_LINETYPE
1070
   382
1005
2B52
  0
DIMSTYLE
105
2BA1
330
2AFA
100
AcDbSymbolTableRecord
100
AcDbDimStyleTableRecord
  2
AM_ANSI$4
 70
     0
  4
mm
 41
0.12
 42
0.05
 43
0.5
 44
0.1
 47
0.1
 48
0.1
 78
     7
 79
     2
140
0.12
141
0.0
146
0.71
147
0.06
176
   256
177
   256
178
     2
274
     4
284
     7
340
2B4D
371
    -1
372
    -1
1001
ACAD_DSTYLE_DIMARC_LENGTH_SYMBOL
1070
   379
1070
     1
1001
ACAD_DSTYLE_DIM_LINETYPE
1070
   380
1005
2B52
1001
ACAD_DSTYLE_DIM_EXT1_LINETYPE
1070
   381
1005
2B52
1001
ACAD_DSTYLE_DIM_EXT2_LINETYPE
1070
   382
1005
2B52
  0
DIMSTYLE
105
2BA2
330
2AFA
100
AcDbSymbolTableRecord
100
AcDbDimStyleTableRecord
  2
AM_ANSI$7
 70
     0
  4
mm
 41
0.12
 42
0.05
 43
0.5
 44
0.1
 47
0.1
 48
0.1
 78
     7
 79
     2
140
0.12
141
0.0
146
0.71
147
0.06
176
   256
177
   256
178
     2
274
     4
284
     7
340
2B4D
371
    -1
372
    -1
1001
ACAD_DSTYLE_DIMARC_LENGTH_SYMBOL
1070
   379
1070
     1
1001
ACAD_DSTYLE_DIM_LINETYPE
1070
   380
1005
2B52
1001
ACAD_DSTYLE_DIM_EXT1_LINETYPE
1070
   381
1005
2B52
1001
ACAD_DSTYLE_DIM_EXT2_LINETYPE
1070
   382
1005
2B52
  0
DIMSTYLE
105
2BA3
330
2AFA
100
AcDbSymbolTableRecord
100
AcDbDimStyleTableRecord
  2
AM_ANSI$SF
 70
     0
  4
mm
 41
0.12
 42
0.05
 43
0.5
 44
0.1
 47
0.1
 48
0.1
 75
     1
 76
     1
 78
     7
 79
     2
140
0.12
141
0.0
146
0.71
147
0.06
176
   256
177
   256
178
     2
274
     4
284
     7
340
2B4D
371
    -1
372
    -1
1001
ACAD_DSTYLE_DIMARC_LENGTH_SYMBOL
1070
   379
1070
     1
1001
ACAD_DSTYLE_DIM_LINETYPE
1070
   380
1005
2B52
1001
ACAD_DSTYLE_DIM_EXT1_LINETYPE
1070
   381
1005
2B52
1001
ACAD_DSTYLE_DIM_EXT2_LINETYPE
1070
   382
1005
2B52
  0
DIMSTYLE
105
2BA4
330
2AFA
100
AcDbSymbolTableRecord
100
AcDbDimStyleTableRecord
  2
AM_ANSI$SH
 70
     0
  4
mm
 41
0.12
 42
0.05
 43
0.5
 44
0.1
 47
0.1
 48
0.1
 75
     1
 76
     1
 78
     7
 79
     2
140
0.12
141
0.0
146
0.71
147
0.06
173
     1
176
   256
177
   256
178
     2
274
     4
284
     7
340
2B4D
343
2BC4
371
    -1
372
    -1
1001
ACAD_DSTYLE_DIMARC_LENGTH_SYMBOL
1070
   379
1070
     1
1001
ACAD_DSTYLE_DIM_LINETYPE
1070
   380
1005
2B52
1001
ACAD_DSTYLE_DIM_EXT1_LINETYPE
1070
   381
1005
2B52
1001
ACAD_DSTYLE_DIM_EXT2_LINETYPE
1070
   382
1005
2B52
  0
DIMSTYLE
105
2BA5
330
2AFA
100
AcDbSymbolTableRecord
100
AcDbDimStyleTableRecord
  2
STANDARD1
 70
     0
 40
6.0
 41
2.5
 42
0.625
 43
6.0
 44
1.25
 47
1.0
 48
0.5
 77
     1
 78
     8
140
2.5
141
0.0
146
0.6
147
1.0
173
     1
275
     1
279
     2
284
     7
285
     7
286
     7
340
2B4D
  0
DIMSTYLE
105
2BA6
330
2AFA
100
AcDbSymbolTableRecord
100
AcDbDimStyleTableRecord
  2
STANDARD$0
 70
     0
 41
12.0
 42
20.0
 44
20.0
 73
     0
 74
     0
 77
     1
 78
     8
140
64.0
141
0.0
147
10.0
275
     1
279
     2
284
     7
285
     7
286
     7
340
2B4D
  0
ENDTAB
  0
TABLE
  2
BLOCK_RECORD
  5
2AF1
330
0
100
AcDbSymbolTable
 70
    71
  0
BLOCK_RECORD
  5
2B64
102
{ACAD_XDICTIONARY
360
2D2B
102
}
330
2AF1
100
AcDbSymbolTableRecord
100
AcDbBlockTableRecord
  2
*Model_Space
340
2B67
  0
BLOCK_RECORD
  5
2B60
330
2AF1
100
AcDbSymbolTableRecord
100
AcDbBlockTableRecord
  2
*Paper_Space
340
2B63
  0
BLOCK_RECORD
  5
2BAE
330
2AF1
100
AcDbSymbolTableRecord
100
AcDbBlockTableRecord
  2
$MODEL_SPACE
340
0
  0
BLOCK_RECORD
  5
2BB0
330
2AF1
100
AcDbSymbolTableRecord
100
AcDbBlockTableRecord
  2
$PAPER_SPACE
340
0
  0
BLOCK_RECORD
  5
2BB2
330
2AF1
100
AcDbSymbolTableRecord
100
AcDbBlockTableRecord
  2
_ORIGIN
340
0
  0
BLOCK_RECORD
  5
2BB4
330
2AF1
100
AcDbSymbolTableRecord
100
AcDbBlockTableRecord
  2
_DOTBLANK
340
0
102
{BLKREFS
331
1299
331
129A
331
11AA
331
11AB
331
E80
331
E81
331
1123
331
1124
331
11C2
331
11C3
331
11EC
331
11ED
331
11F9
331
11FA
331
1287
331
1288
331
1417
331
1418
331
1423
331
1424
331
142F
331
1430
331
143B
331
143C
331
166E
331
166F
331
1677
331
1678
331
1680
331
1681
331
1689
331
168A
331
1696
331
1697
331
16A3
331
16A4
331
16AF
331
16B0
331
16BB
331
16BC
331
16C7
331
16C8
331
16D3
331
16D4
331
1D86
331
1D87
331
1D8F
331
1D90
331
1D98
331
1D99
331
1DA1
331
1DA2
331
1DAB
331
1DAC
331
1DB5
331
1DB6
331
283B
331
283C
331
2840
331
2841
331
2845
331
2846
331
284A
331
284B
102
}
  0
BLOCK_RECORD
  5
2BB6
330
2AF1
100
AcDbSymbolTableRecord
100
AcDbBlockTableRecord
  2
_OPEN30
340
0
102
{BLKREFS
331
2088
331
25A0
102
}
  0
BLOCK_RECORD
  5
2BB8
330
2AF1
100
AcDbSymbolTableRecord
100
AcDbBlockTableRecord
  2
*D5
340
0
  0
BLOCK_RECORD
  5
2BBA
330
2AF1
100
AcDbSymbolTableRecord
100
AcDbBlockTableRecord
  2
*U6
340
0
102
{BLKREFS
331
129B
102
}
  0
BLOCK_RECORD
  5
2BBC
330
2AF1
100
AcDbSymbolTableRecord
100
AcDbBlockTableRecord
  2
*D7
340
0
  0
BLOCK_RECORD
  5
2BBE
330
2AF1
100
AcDbSymbolTableRecord
100
AcDbBlockTableRecord
  2
*U8
340
0
102
{BLKREFS
331
11AC
102
}
  0
BLOCK_RECORD
  5
2BC0
330
2AF1
100
AcDbSymbolTableRecord
100
AcDbBlockTableRecord
  2
*D9
340
0
  0
BLOCK_RECORD
  5
2BC2
330
2AF1
100
AcDbSymbolTableRecord
100
AcDbBlockTableRecord
  2
*U10
340
0
102
{BLKREFS
331
E82
102
}
  0
BLOCK_RECORD
  5
2BC4
330
2AF1
100
AcDbSymbolTableRecord
100
AcDbBlockTableRecord
  2
GENAXEH
340
0
  0
BLOCK_RECORD
  5
2BC6
330
2AF1
100
AcDbSymbolTableRecord
100
AcDbBlockTableRecord
  2
*D12
340
0
  0
BLOCK_RECORD
  5
2BC8
330
2AF1
100
AcDbSymbolTableRecord
100
AcDbBlockTableRecord
  2
*U13
340
0
102
{BLKREFS
331
1125
102
}
  0
BLOCK_RECORD
  5
2BCA
330
2AF1
100
AcDbSymbolTableRecord
100
AcDbBlockTableRecord
  2
*D14
340
0
  0
BLOCK_RECORD
  5
2BCC
330
2AF1
100
AcDbSymbolTableRecord
100
AcDbBlockTableRecord
  2
*U15
340
0
102
{BLKREFS
331
11C4
102
}
  0
BLOCK_RECORD
  5
2BCE
330
2AF1
100
AcDbSymbolTableRecord
100
AcDbBlockTableRecord
  2
*D16
340
0
  0
BLOCK_RECORD
  5
2BD0
330
2AF1
100
AcDbSymbolTableRecord
100
AcDbBlockTableRecord
  2
*U17
340
0
102
{BLKREFS
331
11EE
102
}
  0
BLOCK_RECORD
  5
2BD2
330
2AF1
100
AcDbSymbolTableRecord
100
AcDbBlockTableRecord
  2
*D18
340
0
  0
BLOCK_RECORD
  5
2BD4
330
2AF1
100
AcDbSymbolTableRecord
100
AcDbBlockTableRecord
  2
*U19
340
0
102
{BLKREFS
331
11FB
102
}
  0
BLOCK_RECORD
  5
2BD6
330
2AF1
100
AcDbSymbolTableRecord
100
AcDbBlockTableRecord
  2
*D20
340
0
  0
BLOCK_RECORD
  5
2BD8
330
2AF1
100
AcDbSymbolTableRecord
100
AcDbBlockTableRecord
  2
*U21
340
0
102
{BLKREFS
331
1289
102
}
  0
BLOCK_RECORD
  5
2BDA
330
2AF1
100
AcDbSymbolTableRecord
100
AcDbBlockTableRecord
  2
*D22
340
0
  0
BLOCK_RECORD
  5
2BDC
330
2AF1
100
AcDbSymbolTableRecord
100
AcDbBlockTableRecord
  2
*U23
340
0
102
{BLKREFS
331
1419
102
}
  0
BLOCK_RECORD
  5
2BDE
330
2AF1
100
AcDbSymbolTableRecord
100
AcDbBlockTableRecord
  2
*D24
340
0
  0
BLOCK_RECORD
  5
2BE0
330
2AF1
100
AcDbSymbolTableRecord
100
AcDbBlockTableRecord
  2
*U25
340
0
102
{BLKREFS
331
1425
102
}
  0
BLOCK_RECORD
  5
2BE2
330
2AF1
100
AcDbSymbolTableRecord
100
AcDbBlockTableRecord
  2
*D26
340
0
  0
BLOCK_RECORD
  5
2BE4
330
2AF1
100
AcDbSymbolTableRecord
100
AcDbBlockTableRecord
  2
*U27
340
0
102
{BLKREFS
331
1431
102
}
  0
BLOCK_RECORD
  5
2BE6
330
2AF1
100
AcDbSymbolTableRecord
100
AcDbBlockTableRecord
  2
*D28
340
0
  0
BLOCK_RECORD
  5
2BE8
330
2AF1
100
AcDbSymbolTableRecord
100
AcDbBlockTableRecord
  2
*U29
340
0
102
{BLKREFS
331
143D
102
}
  0
BLOCK_RECORD
  5
2BEA
330
2AF1
100
AcDbSymbolTableRecord
100
AcDbBlockTableRecord
  2
*D30
340
0
  0
BLOCK_RECORD
  5
2BEC
330
2AF1
100
AcDbSymbolTableRecord
100
AcDbBlockTableRecord
  2
*U31
340
0
102
{BLKREFS
331
1670
102
}
  0
BLOCK_RECORD
  5
2BEE
330
2AF1
100
AcDbSymbolTableRecord
100
AcDbBlockTableRecord
  2
*D32
340
0
  0
BLOCK_RECORD
  5
2BF0
330
2AF1
100
AcDbSymbolTableRecord
100
AcDbBlockTableRecord
  2
*U33
340
0
102
{BLKREFS
331
1679
102
}
  0
BLOCK_RECORD
  5
2BF2
330
2AF1
100
AcDbSymbolTableRecord
100
AcDbBlockTableRecord
  2
*D34
340
0
  0
BLOCK_RECORD
  5
2BF4
330
2AF1
100
AcDbSymbolTableRecord
100
AcDbBlockTableRecord
  2
*U35
340
0
102
{BLKREFS
331
1682
102
}
  0
BLOCK_RECORD
  5
2BF6
330
2AF1
100
AcDbSymbolTableRecord
100
AcDbBlockTableRecord
  2
*D36
340
0
  0
BLOCK_RECORD
  5
2BF8
330
2AF1
100
AcDbSymbolTableRecord
100
AcDbBlockTableRecord
  2
*U37
340
0
102
{BLKREFS
331
168B
102
}
  0
BLOCK_RECORD
  5
2BFA
330
2AF1
100
AcDbSymbolTableRecord
100
AcDbBlockTableRecord
  2
*U38
340
0
  0
BLOCK_RECORD
  5
2BFC
330
2AF1
100
AcDbSymbolTableRecord
100
AcDbBlockTableRecord
  2
*D39
340
0
  0
BLOCK_RECORD
  5
2BFE
330
2AF1
100
AcDbSymbolTableRecord
100
AcDbBlockTableRecord
  2
*U40
340
0
102
{BLKREFS
331
1698
102
}
  0
BLOCK_RECORD
  5
2C00
330
2AF1
100
AcDbSymbolTableRecord
100
AcDbBlockTableRecord
  2
*D41
340
0
  0
BLOCK_RECORD
  5
2C02
330
2AF1
100
AcDbSymbolTableRecord
100
AcDbBlockTableRecord
  2
*U42
340
0
102
{BLKREFS
331
16A5
102
}
  0
BLOCK_RECORD
  5
2C04
330
2AF1
100
AcDbSymbolTableRecord
100
AcDbBlockTableRecord
  2
*D43
340
0
  0
BLOCK_RECORD
  5
2C06
330
2AF1
100
AcDbSymbolTableRecord
100
AcDbBlockTableRecord
  2
*U44
340
0
102
{BLKREFS
331
16B1
102
}
  0
BLOCK_RECORD
  5
2C08
330
2AF1
100
AcDbSymbolTableRecord
100
AcDbBlockTableRecord
  2
*D45
340
0
  0
BLOCK_RECORD
  5
2C0A
330
2AF1
100
AcDbSymbolTableRecord
100
AcDbBlockTableRecord
  2
*U46
340
0
102
{BLKREFS
331
16BD
102
}
  0
BLOCK_RECORD
  5
2C0C
330
2AF1
100
AcDbSymbolTableRecord
100
AcDbBlockTableRecord
  2
*D47
340
0
  0
BLOCK_RECORD
  5
2C0E
330
2AF1
100
AcDbSymbolTableRecord
100
AcDbBlockTableRecord
  2
*U48
340
0
102
{BLKREFS
331
16C9
102
}
  0
BLOCK_RECORD
  5
2C10
330
2AF1
100
AcDbSymbolTableRecord
100
AcDbBlockTableRecord
  2
*D49
340
0
  0
BLOCK_RECORD
  5
2C12
330
2AF1
100
AcDbSymbolTableRecord
100
AcDbBlockTableRecord
  2
*U50
340
0
102
{BLKREFS
331
16D5
102
}
  0
BLOCK_RECORD
  5
2C14
330
2AF1
100
AcDbSymbolTableRecord
100
AcDbBlockTableRecord
  2
*D51
340
0
  0
BLOCK_RECORD
  5
2C16
330
2AF1
100
AcDbSymbolTableRecord
100
AcDbBlockTableRecord
  2
*U52
340
0
102
{BLKREFS
331
1D88
102
}
  0
BLOCK_RECORD
  5
2C18
330
2AF1
100
AcDbSymbolTableRecord
100
AcDbBlockTableRecord
  2
*D53
340
0
  0
BLOCK_RECORD
  5
2C1A
330
2AF1
100
AcDbSymbolTableRecord
100
AcDbBlockTableRecord
  2
*U54
340
0
102
{BLKREFS
331
1D91
102
}
  0
BLOCK_RECORD
  5
2C1C
330
2AF1
100
AcDbSymbolTableRecord
100
AcDbBlockTableRecord
  2
*D55
340
0
  0
BLOCK_RECORD
  5
2C1E
330
2AF1
100
AcDbSymbolTableRecord
100
AcDbBlockTableRecord
  2
*U56
340
0
102
{BLKREFS
331
1D9A
102
}
  0
BLOCK_RECORD
  5
2C20
330
2AF1
100
AcDbSymbolTableRecord
100
AcDbBlockTableRecord
  2
*D57
340
0
  0
BLOCK_RECORD
  5
2C22
330
2AF1
100
AcDbSymbolTableRecord
100
AcDbBlockTableRecord
  2
*U58
340
0
102
{BLKREFS
331
1DA3
102
}
  0
BLOCK_RECORD
  5
2C24
330
2AF1
100
AcDbSymbolTableRecord
100
AcDbBlockTableRecord
  2
*D59
340
0
  0
BLOCK_RECORD
  5
2C26
330
2AF1
100
AcDbSymbolTableRecord
100
AcDbBlockTableRecord
  2
*U60
340
0
102
{BLKREFS
331
1DAD
102
}
  0
BLOCK_RECORD
  5
2C28
330
2AF1
100
AcDbSymbolTableRecord
100
AcDbBlockTableRecord
  2
*D61
340
0
  0
BLOCK_RECORD
  5
2C2A
330
2AF1
100
AcDbSymbolTableRecord
100
AcDbBlockTableRecord
  2
*U62
340
0
102
{BLKREFS
331
1DB7
102
}
  0
BLOCK_RECORD
  5
2C2C
330
2AF1
100
AcDbSymbolTableRecord
100
AcDbBlockTableRecord
  2
*U63
340
0
  0
BLOCK_RECORD
  5
2C2E
330
2AF1
100
AcDbSymbolTableRecord
100
AcDbBlockTableRecord
  2
*U64
340
0
  0
BLOCK_RECORD
  5
2C30
330
2AF1
100
AcDbSymbolTableRecord
100
AcDbBlockTableRecord
  2
*U65
340
0
  0
BLOCK_RECORD
  5
2C32
330
2AF1
100
AcDbSymbolTableRecord
100
AcDbBlockTableRecord
  2
*U66
340
0
102
{BLKREFS
331
281B
102
}
  0
BLOCK_RECORD
  5
2C34
330
2AF1
100
AcDbSymbolTableRecord
100
AcDbBlockTableRecord
  2
*U67
340
0
102
{BLKREFS
331
281C
102
}
  0
BLOCK_RECORD
  5
2C36
330
2AF1
100
AcDbSymbolTableRecord
100
AcDbBlockTableRecord
  2
*X68
340
0
102
{BLKREFS
331
2832
102
}
  0
BLOCK_RECORD
  5
2C38
330
2AF1
100
AcDbSymbolTableRecord
100
AcDbBlockTableRecord
  2
*X69
340
0
102
{BLKREFS
331
2833
102
}
  0
ENDTAB
  0
ENDSEC
  0
SECTION
  2
BLOCKS
  0
BLOCK
  5
2B65
330
2B64
100
AcDbEntity
  8
0
100
AcDbBlockBegin
  2
*Model_Space
 70
     0
 10
0.0
 20
0.0
 30
0.0
  3
*Model_Space
  1

  0
ENDBLK
  5
2B66
330
2B64
100
AcDbEntity
  8
0
100
AcDbBlockEnd
  0
BLOCK
  5
2B61
330
2B60
100
AcDbEntity
 67
     1
  8
0
100
AcDbBlockBegin
  2
*Paper_Space
 70
     0
 10
0.0
 20
0.0
 30
0.0
  3
*Paper_Space
  1

  0
ENDBLK
  5
2B62
330
2B60
100
AcDbEntity
 67
     1
  8
0
100
AcDbBlockEnd
  0
BLOCK
  5
2BAF
330
2BAE
100
AcDbEntity
  8
0
100
AcDbBlockBegin
  2
$MODEL_SPACE
 70
     0
 10
0.0
 20
0.0
 30
0.0
  3
$MODEL_SPACE
  1

  0
ENDBLK
  5
2900
330
2BAE
100
AcDbEntity
  8
0
100
AcDbBlockEnd
  0
BLOCK
  5
2BB1
330
2BB0
100
AcDbEntity
  8
0
100
AcDbBlockBegin
  2
$PAPER_SPACE
 70
     0
 10
0.0
 20
0.0
 30
0.0
  3
$PAPER_SPACE
  1

  0
ENDBLK
  5
28FC
330
2BB0
100
AcDbEntity
  8
0
100
AcDbBlockEnd
  0
BLOCK
  5
2BB3
330
2BB2
100
AcDbEntity
  8
0
100
AcDbBlockBegin
  2
_ORIGIN
 70
     0
 10
0.0
 20
0.0
 30
0.0
  3
_ORIGIN
  1

  0
CIRCLE
  5
880
330
2BB2
100
AcDbEntity
  8
0
  6
Continuous
 62
     7
100
AcDbCircle
 10
0.0
 20
0.0
 30
0.0
 40
0.5
  0
LINE
  5
881
330
2BB2
100
AcDbEntity
  8
0
  6
Continuous
 62
     7
100
AcDbLine
 10
0.0
 20
0.0
 30
0.0
 11
-1.0
 21
0.0
 31
0.0
  0
ENDBLK
  5
882
330
2BB2
100
AcDbEntity
  8
0
100
AcDbBlockEnd
  0
BLOCK
  5
2BB5
330
2BB4
100
AcDbEntity
  8
0
 62
     1
100
AcDbBlockBegin
  2
_DOTBLANK
 70
     0
 10
0.0
 20
0.0
 30
0.0
  3
_DOTBLANK
  1

  0
CIRCLE
  5
AB3
330
2BB4
100
AcDbEntity
  8
0
  6
ByBlock
 62
     0
100
AcDbCircle
 10
0.0
 20
0.0
 30
0.0
 40
0.5
  0
LINE
  5
AB4
330
2BB4
100
AcDbEntity
  8
0
  6
ByBlock
 62
     0
100
AcDbLine
 10
-0.5
 20
0.0
 30
0.0
 11
-1.0
 21
0.0
 31
0.0
  0
ENDBLK
  5
AB6
330
2BB4
100
AcDbEntity
  8
0
 62
     1
100
AcDbBlockEnd
  0
BLOCK
  5
2BB7
330
2BB6
100
AcDbEntity
  8
0
 62
     1
100
AcDbBlockBegin
  2
_OPEN30
 70
     0
 10
0.0
 20
0.0
 30
0.0
  3
_OPEN30
  1

  0
LINE
  5
AB8
330
2BB6
100
AcDbEntity
  8
0
  6
ByBlock
 62
     0
100
AcDbLine
 10
-1.0
 20
0.26794919
 30
0.0
 11
0.0
 21
0.0
 31
0.0
  0
LINE
  5
AB9
330
2BB6
100
AcDbEntity
  8
0
  6
ByBlock
 62
     0
100
AcDbLine
 10
0.0
 20
0.0
 30
0.0
 11
-1.0
 21
-0.26794919
 31
0.0
  0
LINE
  5
ABA
330
2BB6
100
AcDbEntity
  8
0
  6
ByBlock
 62
     0
100
AcDbLine
 10
0.0
 20
0.0
 30
0.0
 11
-1.0
 21
0.0
 31
0.0
  0
ENDBLK
  5
ABC
330
2BB6
100
AcDbEntity
  8
0
 62
     1
100
AcDbBlockEnd
  0
BLOCK
  5
2BB9
330
2BB8
100
AcDbEntity
  8
0
100
AcDbBlockBegin
  2
*D5
 70
     1
 10
0.0
 20
0.0
 30
0.0
  3
*D5
  1

  0
LINE
  5
1296
330
2BB8
100
AcDbEntity
  8
SIZE
 62
     0
100
AcDbLine
 10
-134.5
 20
-320.0
 30
0.0
 11
-134.5
 21
-468.0173952306001
 31
0.0
  0
LINE
  5
1297
330
2BB8
100
AcDbEntity
  8
SIZE
 62
     0
100
AcDbLine
 10
134.5
 20
-320.0
 30
0.0
 11
134.5
 21
-468.0173952306001
 31
0.0
  0
LINE
  5
1298
330
2BB8
100
AcDbEntity
  8
SIZE
 62
     0
100
AcDbLine
 10
-122.5
 20
-448.0173952306
 30
0.0
 11
122.5
 21
-448.0173952306
 31
0.0
  0
INSERT
  5
1299
330
2BB8
100
AcDbEntity
  8
SIZE
 62
     0
100
AcDbBlockReference
  2
_DOTBLANK
 10
-134.5
 20
-448.0173952306
 30
0.0
 41
12.0
 42
12.0
 43
12.0
 50
180.0
  0
INSERT
  5
129A
330
2BB8
100
AcDbEntity
  8
SIZE
 62
     0
100
AcDbBlockReference
  2
_DOTBLANK
 10
134.5
 20
-448.0173952306
 30
0.0
 41
12.0
 42
12.0
 43
12.0
  0
INSERT
  5
129B
330
2BB8
100
AcDbEntity
  8
0
100
AcDbBlockReference
  2
*U6
 10
0.0
 20
0.0
 30
0.0
  0
POINT
  5
129C
330
2BB8
100
AcDbEntity
  8
DEFPOINTS
 62
     0
100
AcDbPoint
 10
-134.5
 20
-300.0
 30
0.0
  0
POINT
  5
129D
330
2BB8
100
AcDbEntity
  8
DEFPOINTS
 62
     0
100
AcDbPoint
 10
134.5
 20
-300.0
 30
0.0
  0
POINT
  5
129E
330
2BB8
100
AcDbEntity
  8
DEFPOINTS
 62
     0
100
AcDbPoint
 10
134.5
 20
-448.0173952306
 30
0.0
  0
ENDBLK
  5
D72
330
2BB8
100
AcDbEntity
  8
0
100
AcDbBlockEnd
  0
BLOCK
  5
2BBB
330
2BBA
100
AcDbEntity
  8
0
100
AcDbBlockBegin
  2
*U6
 70
     1
 10
0.0
 20
0.0
 30
0.0
  3
*U6
  1

  0
TEXT
  5
1EF5
330
2BBA
100
AcDbEntity
  8
SIZE
 62
     0
100
AcDbText
 10
-72.68571428571426
 20
-438.0173952305999
 30
0.0
 40
64.0
  1
269
 41
0.9
100
AcDbText
  0
ENDBLK
  5
1EF7
330
2BBA
100
AcDbEntity
  8
0
100
AcDbBlockEnd
  0
BLOCK
  5
2BBD
330
2BBC
100
AcDbEntity
  8
0
100
AcDbBlockBegin
  2
*D7
 70
     1
 10
0.0
 20
0.0
 30
0.0
  3
*D7
  1

  0
LINE
  5
11A7
330
2BBC
100
AcDbEntity
  8
SIZE
  6
Continuous
 62
     0
100
AcDbLine
 10
143.5
 20
-300.0
 30
0.0
 11
304.6432844803791
 21
-300.0
 31
0.0
  0
LINE
  5
11A8
330
2BBC
100
AcDbEntity
  8
SIZE
  6
Continuous
 62
     0
100
AcDbLine
 10
177.5
 20
-0.0000000000000057
 30
0.0
 11
304.6432844803792
 21
-0.0000000000000417
 31
0.0
  0
LINE
  5
11A9
330
2BBC
100
AcDbEntity
  8
SIZE
  6
Continuous
 62
     0
100
AcDbLine
 10
284.6432844803791
 20
-288.0000000000001
 30
0.0
 11
284.6432844803792
 21
-12.00000000000003
 31
0.0
  0
INSERT
  5
11AA
330
2BBC
100
AcDbEntity
  8
SIZE
  6
Continuous
 62
     0
100
AcDbBlockReference
  2
_DOTBLANK
 10
284.6432844803791
 20
-300.0
 30
0.0
 41
12.0
 42
12.0
 43
12.0
 50
270.0
  0
INSERT
  5
11AB
330
2BBC
100
AcDbEntity
  8
SIZE
  6
Continuous
 62
     0
100
AcDbBlockReference
  2
_DOTBLANK
 10
284.6432844803792
 20
-0.000000000000036
 30
0.0
 41
12.0
 42
12.0
 43
12.0
 50
90.0
  0
INSERT
  5
11AC
330
2BBC
100
AcDbEntity
  8
0
100
AcDbBlockReference
  2
*U8
 10
0.0
 20
0.0
 30
0.0
  0
POINT
  5
11AD
330
2BBC
100
AcDbEntity
  8
DEFPOINTS
  6
Continuous
 62
     0
100
AcDbPoint
 10
123.5
 20
-300.0
 30
0.0
  0
POINT
  5
11AE
330
2BBC
100
AcDbEntity
  8
DEFPOINTS
  6
Continuous
 62
     0
100
AcDbPoint
 10
157.5
 20
0.0
 30
0.0
  0
POINT
  5
11AF
330
2BBC
100
AcDbEntity
  8
DEFPOINTS
  6
Continuous
 62
     0
100
AcDbPoint
 10
284.6432844803792
 20
-0.000000000000036
 30
0.0
  0
ENDBLK
  5
E11
330
2BBC
100
AcDbEntity
  8
0
100
AcDbBlockEnd
  0
BLOCK
  5
2BBF
330
2BBE
100
AcDbEntity
  8
0
100
AcDbBlockBegin
  2
*U8
 70
     1
 10
0.0
 20
0.0
 30
0.0
  3
*U8
  1

  0
TEXT
  5
1EE1
330
2BBE
100
AcDbEntity
  8
SIZE
 62
     0
100
AcDbText
 10
274.6432844803792
 20
-224.0571428571429
 30
0.0
 40
64.0
  1
300
 50
90.0
 41
0.9
100
AcDbText
  0
ENDBLK
  5
1EE3
330
2BBE
100
AcDbEntity
  8
0
100
AcDbBlockEnd
  0
BLOCK
  5
2BC1
330
2BC0
100
AcDbEntity
  8
0
100
AcDbBlockBegin
  2
*D9
 70
     1
 10
0.0
 20
0.0
 30
0.0
  3
*D9
  1

  0
LINE
  5
E7D
330
2BC0
100
AcDbEntity
  8
SIZE
 62
     0
100
AcDbLine
 10
-139.9999999999998
 20
32.46448280219375
 30
0.0
 11
-139.9999999999998
 21
136.4516878685508
 31
0.0
  0
LINE
  5
E7E
330
2BC0
100
AcDbEntity
  8
SIZE
 62
     0
100
AcDbLine
 10
140.0
 20
32.46448280219375
 30
0.0
 11
140.0
 21
136.4516878685508
 31
0.0
  0
LINE
  5
E7F
330
2BC0
100
AcDbEntity
  8
SIZE
 62
     0
100
AcDbLine
 10
-128.0
 20
116.4516878685508
 30
0.0
 11
128.0
 21
116.4516878685508
 31
0.0
  0
INSERT
  5
E80
330
2BC0
100
AcDbEntity
  8
SIZE
 62
     0
100
AcDbBlockReference
  2
_DOTBLANK
 10
-139.9999999999998
 20
116.4516878685508
 30
0.0
 41
12.0
 42
12.0
 43
12.0
 50
180.0
  0
INSERT
  5
E81
330
2BC0
100
AcDbEntity
  8
SIZE
 62
     0
100
AcDbBlockReference
  2
_DOTBLANK
 10
140.0
 20
116.4516878685508
 30
0.0
 41
12.0
 42
12.0
 43
12.0
  0
INSERT
  5
E82
330
2BC0
100
AcDbEntity
  8
0
100
AcDbBlockReference
  2
*U10
 10
0.0
 20
0.0
 30
0.0
  0
POINT
  5
E83
330
2BC0
100
AcDbEntity
  8
DEFPOINTS
 62
     0
100
AcDbPoint
 10
-139.9999999999998
 20
12.46448280219374
 30
0.0
  0
POINT
  5
E84
330
2BC0
100
AcDbEntity
  8
DEFPOINTS
 62
     0
100
AcDbPoint
 10
140.0
 20
12.46448280219374
 30
0.0
  0
POINT
  5
E85
330
2BC0
100
AcDbEntity
  8
DEFPOINTS
 62
     0
100
AcDbPoint
 10
140.0
 20
116.4516878685508
 30
0.0
  0
ENDBLK
  5
E7C
330
2BC0
100
AcDbEntity
  8
0
100
AcDbBlockEnd
  0
BLOCK
  5
2BC3
330
2BC2
100
AcDbEntity
  8
0
100
AcDbBlockBegin
  2
*U10
 70
     1
 10
0.0
 20
0.0
 30
0.0
  3
*U10
  1

  0
TEXT
  5
1ED8
330
2BC2
100
AcDbEntity
  8
SIZE
 62
     0
100
AcDbText
 10
-74.05714285714281
 20
126.4516878685508
 30
0.0
 40
64.0
  1
280
 41
0.9
100
AcDbText
  0
ENDBLK
  5
1EDA
330
2BC2
100
AcDbEntity
  8
0
100
AcDbBlockEnd
  0
BLOCK
  5
2BC5
330
2BC4
100
AcDbEntity
  8
0
100
AcDbBlockBegin
  2
GENAXEH
 70
     0
 10
0.0
 20
0.0
 30
0.0
  3
GENAXEH
  1

  0
LINE
  5
FDB
330
2BC4
100
AcDbEntity
  8
0
100
AcDbLine
 10
-1.0
 20
0.0
 30
0.0
 11
1.0
 21
0.0
 31
0.0
  0
ENDBLK
  5
FDD
330
2BC4
100
AcDbEntity
  8
0
100
AcDbBlockEnd
  0
BLOCK
  5
2BC7
330
2BC6
100
AcDbEntity
  8
0
100
AcDbBlockBegin
  2
*D12
 70
     1
 10
0.0
 20
0.0
 30
0.0
  3
*D12
  1

  0
LINE
  5
1120
330
2BC6
100
AcDbEntity
  8
SIZE
 62
     0
100
AcDbLine
 10
-157.5
 20
20.0
 30
0.0
 11
-157.5
 21
245.5794621189598
 31
0.0
  0
LINE
  5
1121
330
2BC6
100
AcDbEntity
  8
SIZE
 62
     0
100
AcDbLine
 10
157.5
 20
20.0
 30
0.0
 11
157.5
 21
245.5794621189598
 31
0.0
  0
LINE
  5
1122
330
2BC6
100
AcDbEntity
  8
SIZE
 62
     0
100
AcDbLine
 10
-145.5
 20
225.5794621189598
 30
0.0
 11
145.5
 21
225.5794621189598
 31
0.0
  0
INSERT
  5
1123
330
2BC6
100
AcDbEntity
  8
SIZE
 62
     0
100
AcDbBlockReference
  2
_DOTBLANK
 10
-157.5
 20
225.5794621189598
 30
0.0
 41
12.0
 42
12.0
 43
12.0
 50
180.0
  0
INSERT
  5
1124
330
2BC6
100
AcDbEntity
  8
SIZE
 62
     0
100
AcDbBlockReference
  2
_DOTBLANK
 10
157.5
 20
225.5794621189598
 30
0.0
 41
12.0
 42
12.0
 43
12.0
  0
INSERT
  5
1125
330
2BC6
100
AcDbEntity
  8
0
100
AcDbBlockReference
  2
*U13
 10
0.0
 20
0.0
 30
0.0
  0
POINT
  5
1126
330
2BC6
100
AcDbEntity
  8
DEFPOINTS
 62
     0
100
AcDbPoint
 10
-157.5
 20
0.0
 30
0.0
  0
POINT
  5
1127
330
2BC6
100
AcDbEntity
  8
DEFPOINTS
 62
     0
100
AcDbPoint
 10
157.5
 20
0.0
 30
0.0
  0
POINT
  5
1128
330
2BC6
100
AcDbEntity
  8
DEFPOINTS
 62
     0
100
AcDbPoint
 10
157.5
 20
225.5794621189598
 30
0.0
  0
ENDBLK
  5
111F
330
2BC6
100
AcDbEntity
  8
0
100
AcDbBlockEnd
  0
BLOCK
  5
2BC9
330
2BC8
100
AcDbEntity
  8
0
100
AcDbBlockBegin
  2
*U13
 70
     1
 10
0.0
 20
0.0
 30
0.0
  3
*U13
  1

  0
TEXT
  5
1EDD
330
2BC8
100
AcDbEntity
  8
SIZE
 62
     0
100
AcDbText
 10
-68.57142857142857
 20
235.5794621189599
 30
0.0
 40
64.0
  1
315
 41
0.9
100
AcDbText
  0
ENDBLK
  5
1EDF
330
2BC8
100
AcDbEntity
  8
0
100
AcDbBlockEnd
  0
BLOCK
  5
2BCB
330
2BCA
100
AcDbEntity
  8
0
100
AcDbBlockBegin
  2
*D14
 70
     1
 10
0.0
 20
0.0
 30
0.0
  3
*D14
  1

  0
LINE
  5
11BD
330
2BCA
100
AcDbEntity
  8
NOTE
 62
     0
100
AcDbLine
 10
-123.4999999999999
 20
-320.0
 30
0.0
 11
-123.4999999999999
 21
-354.9529861856111
 31
0.0
  0
LINE
  5
11BE
330
2BCA
100
AcDbEntity
  8
NOTE
 62
     0
100
AcDbLine
 10
-133.4999999999998
 20
-331.2126909923287
 30
0.0
 11
-133.4999999999998
 21
-354.9529861856111
 31
0.0
  0
LINE
  5
11BF
330
2BCA
100
AcDbEntity
  8
NOTE
 62
     0
100
AcDbLine
 10
-111.4999999999999
 20
-334.9529861856112
 30
0.0
 11
-99.4999999999999
 21
-334.9529861856112
 31
0.0
  0
LINE
  5
11C0
330
2BCA
100
AcDbEntity
  8
NOTE
 62
     0
100
AcDbLine
 10
-145.4999999999998
 20
-334.9529861856112
 30
0.0
 11
-157.4999999999998
 21
-334.9529861856112
 31
0.0
  0
LINE
  5
11C1
330
2BCA
100
AcDbEntity
  8
NOTE
 62
     0
100
AcDbLine
 10
-123.4999999999999
 20
-334.9529861856112
 30
0.0
 11
-133.4999999999998
 21
-334.9529861856112
 31
0.0
  0
INSERT
  5
11C2
330
2BCA
100
AcDbEntity
  8
NOTE
 62
     0
100
AcDbBlockReference
  2
_DOTBLANK
 10
-123.4999999999999
 20
-334.9529861856112
 30
0.0
 41
12.0
 42
12.0
 43
12.0
 50
180.0
  0
INSERT
  5
11C3
330
2BCA
100
AcDbEntity
  8
NOTE
 62
     0
100
AcDbBlockReference
  2
_DOTBLANK
 10
-133.4999999999998
 20
-334.9529861856112
 30
0.0
 41
12.0
 42
12.0
 43
12.0
  0
INSERT
  5
11C4
330
2BCA
100
AcDbEntity
  8
0
100
AcDbBlockReference
  2
*U15
 10
0.0
 20
0.0
 30
0.0
  0
POINT
  5
11C5
330
2BCA
100
AcDbEntity
  8
DEFPOINTS
 62
     0
100
AcDbPoint
 10
-123.4999999999999
 20
-300.0
 30
0.0
  0
POINT
  5
11C6
330
2BCA
100
AcDbEntity
  8
DEFPOINTS
 62
     0
100
AcDbPoint
 10
-133.4999999999998
 20
-311.2126909923287
 30
0.0
  0
POINT
  5
11C7
330
2BCA
100
AcDbEntity
  8
DEFPOINTS
 62
     0
100
AcDbPoint
 10
-133.4999999999998
 20
-334.9529861856112
 30
0.0
  0
ENDBLK
  5
11BC
330
2BCA
100
AcDbEntity
  8
0
100
AcDbBlockEnd
  0
BLOCK
  5
2BCD
330
2BCC
100
AcDbEntity
  8
0
100
AcDbBlockBegin
  2
*U15
 70
     1
 10
0.0
 20
0.0
 30
0.0
  3
*U15
  1

  0
TEXT
  5
1EE5
330
2BCC
100
AcDbEntity
  8
NOTE
 62
     0
100
AcDbText
 10
-169.642857142857
 20
-324.9529861856112
 30
0.0
 40
64.0
  1
10
 41
0.9
100
AcDbText
  0
ENDBLK
  5
1EE7
330
2BCC
100
AcDbEntity
  8
0
100
AcDbBlockEnd
  0
BLOCK
  5
2BCF
330
2BCE
100
AcDbEntity
  8
0
100
AcDbBlockBegin
  2
*D16
 70
     1
 10
0.0
 20
0.0
 30
0.0
  3
*D16
  1

  0
LINE
  5
11E7
330
2BCE
100
AcDbEntity
  8
NOTE
 62
     0
100
AcDbLine
 10
-135.5
 20
-333.2126909923287
 30
0.0
 11
-135.5
 21
-386.2569421441843
 31
0.0
  0
LINE
  5
11E8
330
2BCE
100
AcDbEntity
  8
NOTE
 62
     0
100
AcDbLine
 10
-123.4999999999999
 20
-320.0
 30
0.0
 11
-123.4999999999999
 21
-386.2569421441843
 31
0.0
  0
LINE
  5
11E9
330
2BCE
100
AcDbEntity
  8
NOTE
 62
     0
100
AcDbLine
 10
-147.5
 20
-366.2569421441844
 30
0.0
 11
-159.5
 21
-366.2569421441844
 31
0.0
  0
LINE
  5
11EA
330
2BCE
100
AcDbEntity
  8
NOTE
 62
     0
100
AcDbLine
 10
-111.4999999999999
 20
-366.2569421441844
 30
0.0
 11
-99.4999999999999
 21
-366.2569421441844
 31
0.0
  0
LINE
  5
11EB
330
2BCE
100
AcDbEntity
  8
NOTE
 62
     0
100
AcDbLine
 10
-135.5
 20
-366.2569421441844
 30
0.0
 11
-123.4999999999999
 21
-366.2569421441844
 31
0.0
  0
INSERT
  5
11EC
330
2BCE
100
AcDbEntity
  8
NOTE
 62
     0
100
AcDbBlockReference
  2
_DOTBLANK
 10
-135.5
 20
-366.2569421441844
 30
0.0
 41
12.0
 42
12.0
 43
12.0
  0
INSERT
  5
11ED
330
2BCE
100
AcDbEntity
  8
NOTE
 62
     0
100
AcDbBlockReference
  2
_DOTBLANK
 10
-123.4999999999999
 20
-366.2569421441844
 30
0.0
 41
12.0
 42
12.0
 43
12.0
 50
180.0
  0
INSERT
  5
11EE
330
2BCE
100
AcDbEntity
  8
0
100
AcDbBlockReference
  2
*U17
 10
0.0
 20
0.0
 30
0.0
  0
POINT
  5
11EF
330
2BCE
100
AcDbEntity
  8
DEFPOINTS
 62
     0
100
AcDbPoint
 10
-135.5
 20
-313.2126909923287
 30
0.0
  0
POINT
  5
11F0
330
2BCE
100
AcDbEntity
  8
DEFPOINTS
 62
     0
100
AcDbPoint
 10
-123.4999999999999
 20
-300.0
 30
0.0
  0
POINT
  5
11F1
330
2BCE
100
AcDbEntity
  8
DEFPOINTS
 62
     0
100
AcDbPoint
 10
-123.4999999999999
 20
-366.2569421441844
 30
0.0
  0
ENDBLK
  5
11E6
330
2BCE
100
AcDbEntity
  8
0
100
AcDbBlockEnd
  0
BLOCK
  5
2BD1
330
2BD0
100
AcDbEntity
  8
0
100
AcDbBlockBegin
  2
*U17
 70
     1
 10
0.0
 20
0.0
 30
0.0
  3
*U17
  1

  0
TEXT
  5
1EE9
330
2BD0
100
AcDbEntity
  8
NOTE
 62
     0
100
AcDbText
 10
-170.642857142857
 20
-356.2569421441843
 30
0.0
 40
64.0
  1
12
 41
0.9
100
AcDbText
  0
ENDBLK
  5
1EEB
330
2BD0
100
AcDbEntity
  8
0
100
AcDbBlockEnd
  0
BLOCK
  5
2BD3
330
2BD2
100
AcDbEntity
  8
0
100
AcDbBlockBegin
  2
*D18
 70
     1
 10
0.0
 20
0.0
 30
0.0
  3
*D18
  1

  0
LINE
  5
11F6
330
2BD2
100
AcDbEntity
  8
NOTE
 62
     0
100
AcDbLine
 10
-123.4999999999999
 20
-320.0
 30
0.0
 11
-123.4999999999999
 21
-583.8286022818904
 31
0.0
  0
LINE
  5
11F7
330
2BD2
100
AcDbEntity
  8
NOTE
 62
     0
100
AcDbLine
 10
123.5
 20
-320.0
 30
0.0
 11
123.5
 21
-583.8286022818904
 31
0.0
  0
LINE
  5
11F8
330
2BD2
100
AcDbEntity
  8
NOTE
 62
     0
100
AcDbLine
 10
-111.4999999999999
 20
-563.8286022818904
 30
0.0
 11
111.5
 21
-563.8286022818904
 31
0.0
  0
INSERT
  5
11F9
330
2BD2
100
AcDbEntity
  8
NOTE
 62
     0
100
AcDbBlockReference
  2
_DOTBLANK
 10
-123.4999999999999
 20
-563.8286022818904
 30
0.0
 41
12.0
 42
12.0
 43
12.0
 50
180.0
  0
INSERT
  5
11FA
330
2BD2
100
AcDbEntity
  8
NOTE
 62
     0
100
AcDbBlockReference
  2
_DOTBLANK
 10
123.5
 20
-563.8286022818904
 30
0.0
 41
12.0
 42
12.0
 43
12.0
  0
INSERT
  5
11FB
330
2BD2
100
AcDbEntity
  8
0
100
AcDbBlockReference
  2
*U19
 10
0.0
 20
0.0
 30
0.0
  0
POINT
  5
11FC
330
2BD2
100
AcDbEntity
  8
DEFPOINTS
 62
     0
100
AcDbPoint
 10
-123.4999999999999
 20
-300.0
 30
0.0
  0
POINT
  5
11FD
330
2BD2
100
AcDbEntity
  8
DEFPOINTS
 62
     0
100
AcDbPoint
 10
123.5
 20
-300.0
 30
0.0
  0
POINT
  5
11FE
330
2BD2
100
AcDbEntity
  8
DEFPOINTS
 62
     0
100
AcDbPoint
 10
123.5
 20
-563.8286022818904
 30
0.0
  0
ENDBLK
  5
11F5
330
2BD2
100
AcDbEntity
  8
0
100
AcDbBlockEnd
  0
BLOCK
  5
2BD5
330
2BD4
100
AcDbEntity
  8
0
100
AcDbBlockBegin
  2
*U19
 70
     1
 10
0.0
 20
0.0
 30
0.0
  3
*U19
  1

  0
TEXT
  5
1EED
330
2BD4
100
AcDbEntity
  8
NOTE
 62
     0
100
AcDbText
 10
-74.05714285714281
 20
-553.8286022818904
 30
0.0
 40
64.0
  1
247
 41
0.9
100
AcDbText
  0
ENDBLK
  5
1EEF
330
2BD4
100
AcDbEntity
  8
0
100
AcDbBlockEnd
  0
BLOCK
  5
2BD7
330
2BD6
100
AcDbEntity
  8
0
100
AcDbBlockBegin
  2
*D20
 70
     1
 10
0.0
 20
0.0
 30
0.0
  3
*D20
  1

  0
LINE
  5
1284
330
2BD6
100
AcDbEntity
  8
NOTE
 62
     0
100
AcDbLine
 10
-123.5
 20
12.0
 30
0.0
 11
-123.5
 21
71.83630134534229
 31
0.0
  0
LINE
  5
1285
330
2BD6
100
AcDbEntity
  8
NOTE
 62
     0
100
AcDbLine
 10
123.5
 20
12.0
 30
0.0
 11
123.5
 21
71.83630134534229
 31
0.0
  0
LINE
  5
1286
330
2BD6
100
AcDbEntity
  8
NOTE
 62
     0
100
AcDbLine
 10
-111.5
 20
51.83630134534229
 30
0.0
 11
111.5
 21
51.83630134534229
 31
0.0
  0
INSERT
  5
1287
330
2BD6
100
AcDbEntity
  8
NOTE
 62
     0
100
AcDbBlockReference
  2
_DOTBLANK
 10
-123.5
 20
51.83630134534229
 30
0.0
 41
12.0
 42
12.0
 43
12.0
 50
180.0
  0
INSERT
  5
1288
330
2BD6
100
AcDbEntity
  8
NOTE
 62
     0
100
AcDbBlockReference
  2
_DOTBLANK
 10
123.5
 20
51.83630134534229
 30
0.0
 41
12.0
 42
12.0
 43
12.0
  0
INSERT
  5
1289
330
2BD6
100
AcDbEntity
  8
0
100
AcDbBlockReference
  2
*U21
 10
0.0
 20
0.0
 30
0.0
  0
POINT
  5
128A
330
2BD6
100
AcDbEntity
  8
DEFPOINTS
 62
     0
100
AcDbPoint
 10
-123.5
 20
-8.0
 30
0.0
  0
POINT
  5
128B
330
2BD6
100
AcDbEntity
  8
DEFPOINTS
 62
     0
100
AcDbPoint
 10
123.5
 20
-8.0
 30
0.0
  0
POINT
  5
128C
330
2BD6
100
AcDbEntity
  8
DEFPOINTS
 62
     0
100
AcDbPoint
 10
123.5
 20
51.83630134534229
 30
0.0
  0
ENDBLK
  5
1283
330
2BD6
100
AcDbEntity
  8
0
100
AcDbBlockEnd
  0
BLOCK
  5
2BD9
330
2BD8
100
AcDbEntity
  8
0
100
AcDbBlockBegin
  2
*U21
 70
     1
 10
0.0
 20
0.0
 30
0.0
  3
*U21
  1

  0
TEXT
  5
1EF1
330
2BD8
100
AcDbEntity
  8
NOTE
 62
     0
100
AcDbText
 10
-74.05714285714283
 20
61.83630134534229
 30
0.0
 40
64.0
  1
247
 41
0.9
100
AcDbText
  0
ENDBLK
  5
1EF3
330
2BD8
100
AcDbEntity
  8
0
100
AcDbBlockEnd
  0
BLOCK
  5
2BDB
330
2BDA
100
AcDbEntity
  8
0
100
AcDbBlockBegin
  2
*D22
 70
     1
 10
0.0
 20
0.0
 30
0.0
  3
*D22
  1

  0
LINE
  5
1414
330
2BDA
100
AcDbEntity
  8
SIZE
 62
     0
100
AcDbLine
 10
-22313.11521613997
 20
7365.702971374808
 30
0.0
 11
-22313.11521613997
 21
7217.685576144207
 31
0.0
  0
LINE
  5
1415
330
2BDA
100
AcDbEntity
  8
SIZE
 62
     0
100
AcDbLine
 10
-22044.11521613997
 20
7365.702971374808
 30
0.0
 11
-22044.11521613997
 21
7217.685576144207
 31
0.0
  0
LINE
  5
1416
330
2BDA
100
AcDbEntity
  8
SIZE
 62
     0
100
AcDbLine
 10
-22301.11521613997
 20
7237.685576144207
 30
0.0
 11
-22056.11521613997
 21
7237.685576144207
 31
0.0
  0
INSERT
  5
1417
330
2BDA
100
AcDbEntity
  8
SIZE
 62
     0
100
AcDbBlockReference
  2
_DOTBLANK
 10
-22313.11521613997
 20
7237.685576144207
 30
0.0
 41
12.0
 42
12.0
 43
12.0
 50
180.0
  0
INSERT
  5
1418
330
2BDA
100
AcDbEntity
  8
SIZE
 62
     0
100
AcDbBlockReference
  2
_DOTBLANK
 10
-22044.11521613997
 20
7237.685576144207
 30
0.0
 41
12.0
 42
12.0
 43
12.0
  0
INSERT
  5
1419
330
2BDA
100
AcDbEntity
  8
0
100
AcDbBlockReference
  2
*U23
 10
0.0
 20
0.0
 30
0.0
  0
POINT
  5
141A
330
2BDA
100
AcDbEntity
  8
DEFPOINTS
 62
     0
100
AcDbPoint
 10
-22313.11521613997
 20
7385.702971374808
 30
0.0
  0
POINT
  5
141B
330
2BDA
100
AcDbEntity
  8
DEFPOINTS
 62
     0
100
AcDbPoint
 10
-22044.11521613997
 20
7385.702971374808
 30
0.0
  0
POINT
  5
141C
330
2BDA
100
AcDbEntity
  8
DEFPOINTS
 62
     0
100
AcDbPoint
 10
-22044.11521613997
 20
7237.685576144207
 30
0.0
  0
ENDBLK
  5
141D
330
2BDA
100
AcDbEntity
  8
0
100
AcDbBlockEnd
  0
BLOCK
  5
2BDD
330
2BDC
100
AcDbEntity
  8
0
100
AcDbBlockBegin
  2
*U23
 70
     1
 10
0.0
 20
0.0
 30
0.0
  3
*U23
  1

  0
TEXT
  5
1EF9
330
2BDC
100
AcDbEntity
  8
SIZE
 62
     0
100
AcDbText
 10
-22251.30093042568
 20
7247.685576144205
 30
0.0
 40
64.0
  1
269
 41
0.9
100
AcDbText
  0
ENDBLK
  5
1EFB
330
2BDC
100
AcDbEntity
  8
0
100
AcDbBlockEnd
  0
BLOCK
  5
2BDF
330
2BDE
100
AcDbEntity
  8
0
100
AcDbBlockBegin
  2
*D24
 70
     1
 10
0.0
 20
0.0
 30
0.0
  3
*D24
  1

  0
LINE
  5
1420
330
2BDE
100
AcDbEntity
  8
SIZE
  6
Continuous
 62
     0
100
AcDbLine
 10
-22035.11521613997
 20
7385.702971374808
 30
0.0
 11
-21873.97193165959
 21
7385.702971374808
 31
0.0
  0
LINE
  5
1421
330
2BDE
100
AcDbEntity
  8
SIZE
  6
Continuous
 62
     0
100
AcDbLine
 10
-22001.11521613997
 20
7685.702971374808
 30
0.0
 11
-21873.97193165959
 21
7685.702971374808
 31
0.0
  0
LINE
  5
1422
330
2BDE
100
AcDbEntity
  8
SIZE
  6
Continuous
 62
     0
100
AcDbLine
 10
-21893.97193165959
 20
7397.702971374808
 30
0.0
 11
-21893.97193165959
 21
7673.702971374808
 31
0.0
  0
INSERT
  5
1423
330
2BDE
100
AcDbEntity
  8
SIZE
  6
Continuous
 62
     0
100
AcDbBlockReference
  2
_DOTBLANK
 10
-21893.97193165959
 20
7385.702971374808
 30
0.0
 41
12.0
 42
12.0
 43
12.0
 50
270.0
  0
INSERT
  5
1424
330
2BDE
100
AcDbEntity
  8
SIZE
  6
Continuous
 62
     0
100
AcDbBlockReference
  2
_DOTBLANK
 10
-21893.97193165959
 20
7685.702971374808
 30
0.0
 41
12.0
 42
12.0
 43
12.0
 50
90.0
  0
INSERT
  5
1425
330
2BDE
100
AcDbEntity
  8
0
100
AcDbBlockReference
  2
*U25
 10
0.0
 20
0.0
 30
0.0
  0
POINT
  5
1426
330
2BDE
100
AcDbEntity
  8
DEFPOINTS
  6
Continuous
 62
     0
100
AcDbPoint
 10
-22055.11521613997
 20
7385.702971374808
 30
0.0
  0
POINT
  5
1427
330
2BDE
100
AcDbEntity
  8
DEFPOINTS
  6
Continuous
 62
     0
100
AcDbPoint
 10
-22021.11521613997
 20
7685.702971374808
 30
0.0
  0
POINT
  5
1428
330
2BDE
100
AcDbEntity
  8
DEFPOINTS
  6
Continuous
 62
     0
100
AcDbPoint
 10
-21893.97193165959
 20
7685.702971374808
 30
0.0
  0
ENDBLK
  5
1429
330
2BDE
100
AcDbEntity
  8
0
100
AcDbBlockEnd
  0
BLOCK
  5
2BE1
330
2BE0
100
AcDbEntity
  8
0
100
AcDbBlockBegin
  2
*U25
 70
     1
 10
0.0
 20
0.0
 30
0.0
  3
*U25
  1

  0
TEXT
  5
1EFD
330
2BE0
100
AcDbEntity
  8
SIZE
 62
     0
100
AcDbText
 10
-21903.97193165959
 20
7461.645828517662
 30
0.0
 40
64.0
  1
300
 50
90.0
 41
0.9
100
AcDbText
  0
ENDBLK
  5
1EFF
330
2BE0
100
AcDbEntity
  8
0
100
AcDbBlockEnd
  0
BLOCK
  5
2BE3
330
2BE2
100
AcDbEntity
  8
0
100
AcDbBlockBegin
  2
*D26
 70
     1
 10
0.0
 20
0.0
 30
0.0
  3
*D26
  1

  0
LINE
  5
142C
330
2BE2
100
AcDbEntity
  8
SIZE
 62
     0
100
AcDbLine
 10
-22318.61521613997
 20
7718.167454177002
 30
0.0
 11
-22318.61521613997
 21
7822.154659243358
 31
0.0
  0
LINE
  5
142D
330
2BE2
100
AcDbEntity
  8
SIZE
 62
     0
100
AcDbLine
 10
-22038.61521613997
 20
7718.167454177002
 30
0.0
 11
-22038.61521613997
 21
7822.154659243358
 31
0.0
  0
LINE
  5
142E
330
2BE2
100
AcDbEntity
  8
SIZE
 62
     0
100
AcDbLine
 10
-22306.61521613997
 20
7802.154659243358
 30
0.0
 11
-22050.61521613997
 21
7802.154659243358
 31
0.0
  0
INSERT
  5
142F
330
2BE2
100
AcDbEntity
  8
SIZE
 62
     0
100
AcDbBlockReference
  2
_DOTBLANK
 10
-22318.61521613997
 20
7802.154659243358
 30
0.0
 41
12.0
 42
12.0
 43
12.0
 50
180.0
  0
INSERT
  5
1430
330
2BE2
100
AcDbEntity
  8
SIZE
 62
     0
100
AcDbBlockReference
  2
_DOTBLANK
 10
-22038.61521613997
 20
7802.154659243358
 30
0.0
 41
12.0
 42
12.0
 43
12.0
  0
INSERT
  5
1431
330
2BE2
100
AcDbEntity
  8
0
100
AcDbBlockReference
  2
*U27
 10
0.0
 20
0.0
 30
0.0
  0
POINT
  5
1432
330
2BE2
100
AcDbEntity
  8
DEFPOINTS
 62
     0
100
AcDbPoint
 10
-22318.61521613997
 20
7698.167454177002
 30
0.0
  0
POINT
  5
1433
330
2BE2
100
AcDbEntity
  8
DEFPOINTS
 62
     0
100
AcDbPoint
 10
-22038.61521613997
 20
7698.167454177002
 30
0.0
  0
POINT
  5
1434
330
2BE2
100
AcDbEntity
  8
DEFPOINTS
 62
     0
100
AcDbPoint
 10
-22038.61521613997
 20
7802.154659243358
 30
0.0
  0
ENDBLK
  5
1435
330
2BE2
100
AcDbEntity
  8
0
100
AcDbBlockEnd
  0
BLOCK
  5
2BE5
330
2BE4
100
AcDbEntity
  8
0
100
AcDbBlockBegin
  2
*U27
 70
     1
 10
0.0
 20
0.0
 30
0.0
  3
*U27
  1

  0
TEXT
  5
1F01
330
2BE4
100
AcDbEntity
  8
SIZE
 62
     0
100
AcDbText
 10
-22252.6723589971
 20
7812.154659243358
 30
0.0
 40
64.0
  1
280
 41
0.9
100
AcDbText
  0
ENDBLK
  5
1F03
330
2BE4
100
AcDbEntity
  8
0
100
AcDbBlockEnd
  0
BLOCK
  5
2BE7
330
2BE6
100
AcDbEntity
  8
0
100
AcDbBlockBegin
  2
*D28
 70
     1
 10
0.0
 20
0.0
 30
0.0
  3
*D28
  1

  0
LINE
  5
1438
330
2BE6
100
AcDbEntity
  8
SIZE
 62
     0
100
AcDbLine
 10
-22336.11521613997
 20
7705.702971374808
 30
0.0
 11
-22336.11521613997
 21
7931.282433493766
 31
0.0
  0
LINE
  5
1439
330
2BE6
100
AcDbEntity
  8
SIZE
 62
     0
100
AcDbLine
 10
-22021.11521613997
 20
7705.702971374808
 30
0.0
 11
-22021.11521613997
 21
7931.282433493766
 31
0.0
  0
LINE
  5
143A
330
2BE6
100
AcDbEntity
  8
SIZE
 62
     0
100
AcDbLine
 10
-22324.11521613997
 20
7911.282433493766
 30
0.0
 11
-22033.11521613997
 21
7911.282433493766
 31
0.0
  0
INSERT
  5
143B
330
2BE6
100
AcDbEntity
  8
SIZE
 62
     0
100
AcDbBlockReference
  2
_DOTBLANK
 10
-22336.11521613997
 20
7911.282433493766
 30
0.0
 41
12.0
 42
12.0
 43
12.0
 50
180.0
  0
INSERT
  5
143C
330
2BE6
100
AcDbEntity
  8
SIZE
 62
     0
100
AcDbBlockReference
  2
_DOTBLANK
 10
-22021.11521613997
 20
7911.282433493766
 30
0.0
 41
12.0
 42
12.0
 43
12.0
  0
INSERT
  5
143D
330
2BE6
100
AcDbEntity
  8
0
100
AcDbBlockReference
  2
*U29
 10
0.0
 20
0.0
 30
0.0
  0
POINT
  5
143E
330
2BE6
100
AcDbEntity
  8
DEFPOINTS
 62
     0
100
AcDbPoint
 10
-22336.11521613997
 20
7685.702971374808
 30
0.0
  0
POINT
  5
143F
330
2BE6
100
AcDbEntity
  8
DEFPOINTS
 62
     0
100
AcDbPoint
 10
-22021.11521613997
 20
7685.702971374808
 30
0.0
  0
POINT
  5
1440
330
2BE6
100
AcDbEntity
  8
DEFPOINTS
 62
     0
100
AcDbPoint
 10
-22021.11521613997
 20
7911.282433493766
 30
0.0
  0
ENDBLK
  5
1441
330
2BE6
100
AcDbEntity
  8
0
100
AcDbBlockEnd
  0
BLOCK
  5
2BE9
330
2BE8
100
AcDbEntity
  8
0
100
AcDbBlockBegin
  2
*U29
 70
     1
 10
0.0
 20
0.0
 30
0.0
  3
*U29
  1

  0
TEXT
  5
1F05
330
2BE8
100
AcDbEntity
  8
SIZE
 62
     0
100
AcDbText
 10
-22247.18664471139
 20
7921.282433493766
 30
0.0
 40
64.0
  1
315
 41
0.9
100
AcDbText
  0
ENDBLK
  5
1F07
330
2BE8
100
AcDbEntity
  8
0
100
AcDbBlockEnd
  0
BLOCK
  5
2BEB
330
2BEA
100
AcDbEntity
  8
0
100
AcDbBlockBegin
  2
*D30
 70
     1
 10
0.0
 20
0.0
 30
0.0
  3
*D30
  1

  0
LINE
  5
166B
330
2BEA
100
AcDbEntity
  8
SIZE
 62
     0
100
AcDbLine
 10
-134.5
 20
-320.0
 30
0.0
 11
-134.5
 21
-468.0173952306001
 31
0.0
  0
LINE
  5
166C
330
2BEA
100
AcDbEntity
  8
SIZE
 62
     0
100
AcDbLine
 10
134.5
 20
-320.0
 30
0.0
 11
134.5
 21
-468.0173952306001
 31
0.0
  0
LINE
  5
166D
330
2BEA
100
AcDbEntity
  8
SIZE
 62
     0
100
AcDbLine
 10
-122.5
 20
-448.0173952306
 30
0.0
 11
122.5
 21
-448.0173952306
 31
0.0
  0
INSERT
  5
166E
330
2BEA
100
AcDbEntity
  8
SIZE
 62
     0
100
AcDbBlockReference
  2
_DOTBLANK
 10
-134.5
 20
-448.0173952306
 30
0.0
 41
12.0
 42
12.0
 43
12.0
 50
180.0
  0
INSERT
  5
166F
330
2BEA
100
AcDbEntity
  8
SIZE
 62
     0
100
AcDbBlockReference
  2
_DOTBLANK
 10
134.5
 20
-448.0173952306
 30
0.0
 41
12.0
 42
12.0
 43
12.0
  0
INSERT
  5
1670
330
2BEA
100
AcDbEntity
  8
0
100
AcDbBlockReference
  2
*U31
 10
0.0
 20
0.0
 30
0.0
  0
POINT
  5
1671
330
2BEA
100
AcDbEntity
  8
DEFPOINTS
 62
     0
100
AcDbPoint
 10
-134.5
 20
-300.0
 30
0.0
  0
POINT
  5
1672
330
2BEA
100
AcDbEntity
  8
DEFPOINTS
 62
     0
100
AcDbPoint
 10
134.5
 20
-300.0
 30
0.0
  0
POINT
  5
1673
330
2BEA
100
AcDbEntity
  8
DEFPOINTS
 62
     0
100
AcDbPoint
 10
134.5
 20
-448.0173952306
 30
0.0
  0
ENDBLK
  5
14A7
330
2BEA
100
AcDbEntity
  8
0
100
AcDbBlockEnd
  0
BLOCK
  5
2BED
330
2BEC
100
AcDbEntity
  8
0
100
AcDbBlockBegin
  2
*U31
 70
     1
 10
0.0
 20
0.0
 30
0.0
  3
*U31
  1

  0
TEXT
  5
1F09
330
2BEC
100
AcDbEntity
  8
SIZE
 62
     0
100
AcDbText
 10
-72.68571428571426
 20
-438.0173952306002
 30
0.0
 40
64.0
  1
269
 41
0.9
100
AcDbText
  0
ENDBLK
  5
1F0B
330
2BEC
100
AcDbEntity
  8
0
100
AcDbBlockEnd
  0
BLOCK
  5
2BEF
330
2BEE
100
AcDbEntity
  8
0
100
AcDbBlockBegin
  2
*D32
 70
     1
 10
0.0
 20
0.0
 30
0.0
  3
*D32
  1

  0
LINE
  5
1674
330
2BEE
100
AcDbEntity
  8
SIZE
  6
Continuous
 62
     0
100
AcDbLine
 10
143.5
 20
-300.0
 30
0.0
 11
304.6432844803784
 21
-300.0
 31
0.0
  0
LINE
  5
1675
330
2BEE
100
AcDbEntity
  8
SIZE
  6
Continuous
 62
     0
100
AcDbLine
 10
177.5
 20
-0.0000000000000057
 30
0.0
 11
304.6432844803785
 21
-0.0000000000000417
 31
0.0
  0
LINE
  5
1676
330
2BEE
100
AcDbEntity
  8
SIZE
  6
Continuous
 62
     0
100
AcDbLine
 10
284.6432844803784
 20
-288.0000000000001
 30
0.0
 11
284.6432844803785
 21
-12.00000000000003
 31
0.0
  0
INSERT
  5
1677
330
2BEE
100
AcDbEntity
  8
SIZE
  6
Continuous
 62
     0
100
AcDbBlockReference
  2
_DOTBLANK
 10
284.6432844803784
 20
-300.0
 30
0.0
 41
12.0
 42
12.0
 43
12.0
 50
270.0
  0
INSERT
  5
1678
330
2BEE
100
AcDbEntity
  8
SIZE
  6
Continuous
 62
     0
100
AcDbBlockReference
  2
_DOTBLANK
 10
284.6432844803785
 20
-0.000000000000036
 30
0.0
 41
12.0
 42
12.0
 43
12.0
 50
90.0
  0
INSERT
  5
1679
330
2BEE
100
AcDbEntity
  8
0
100
AcDbBlockReference
  2
*U33
 10
0.0
 20
0.0
 30
0.0
  0
POINT
  5
167A
330
2BEE
100
AcDbEntity
  8
DEFPOINTS
  6
Continuous
 62
     0
100
AcDbPoint
 10
123.5
 20
-300.0
 30
0.0
  0
POINT
  5
167B
330
2BEE
100
AcDbEntity
  8
DEFPOINTS
  6
Continuous
 62
     0
100
AcDbPoint
 10
157.5
 20
0.0
 30
0.0
  0
POINT
  5
167C
330
2BEE
100
AcDbEntity
  8
DEFPOINTS
  6
Continuous
 62
     0
100
AcDbPoint
 10
284.6432844803785
 20
-0.000000000000036
 30
0.0
  0
ENDBLK
  5
14B3
330
2BEE
100
AcDbEntity
  8
0
100
AcDbBlockEnd
  0
BLOCK
  5
2BF1
330
2BF0
100
AcDbEntity
  8
0
100
AcDbBlockBegin
  2
*U33
 70
     1
 10
0.0
 20
0.0
 30
0.0
  3
*U33
  1

  0
TEXT
  5
1F0D
330
2BF0
100
AcDbEntity
  8
SIZE
 62
     0
100
AcDbText
 10
274.6432844803785
 20
-224.0571428571429
 30
0.0
 40
64.0
  1
300
 50
90.0
 41
0.9
100
AcDbText
  0
ENDBLK
  5
1F0F
330
2BF0
100
AcDbEntity
  8
0
100
AcDbBlockEnd
  0
BLOCK
  5
2BF3
330
2BF2
100
AcDbEntity
  8
0
100
AcDbBlockBegin
  2
*D34
 70
     1
 10
0.0
 20
0.0
 30
0.0
  3
*D34
  1

  0
LINE
  5
167D
330
2BF2
100
AcDbEntity
  8
SIZE
 62
     0
100
AcDbLine
 10
-140.0
 20
32.46448280219375
 30
0.0
 11
-140.0
 21
136.4516878685507
 31
0.0
  0
LINE
  5
167E
330
2BF2
100
AcDbEntity
  8
SIZE
 62
     0
100
AcDbLine
 10
140.0
 20
32.46448280219375
 30
0.0
 11
140.0
 21
136.4516878685507
 31
0.0
  0
LINE
  5
167F
330
2BF2
100
AcDbEntity
  8
SIZE
 62
     0
100
AcDbLine
 10
-128.0
 20
116.4516878685508
 30
0.0
 11
128.0
 21
116.4516878685508
 31
0.0
  0
INSERT
  5
1680
330
2BF2
100
AcDbEntity
  8
SIZE
 62
     0
100
AcDbBlockReference
  2
_DOTBLANK
 10
-140.0
 20
116.4516878685508
 30
0.0
 41
12.0
 42
12.0
 43
12.0
 50
180.0
  0
INSERT
  5
1681
330
2BF2
100
AcDbEntity
  8
SIZE
 62
     0
100
AcDbBlockReference
  2
_DOTBLANK
 10
140.0
 20
116.4516878685508
 30
0.0
 41
12.0
 42
12.0
 43
12.0
  0
INSERT
  5
1682
330
2BF2
100
AcDbEntity
  8
0
100
AcDbBlockReference
  2
*U35
 10
0.0
 20
0.0
 30
0.0
  0
POINT
  5
1683
330
2BF2
100
AcDbEntity
  8
DEFPOINTS
 62
     0
100
AcDbPoint
 10
-140.0
 20
12.46448280219374
 30
0.0
  0
POINT
  5
1684
330
2BF2
100
AcDbEntity
  8
DEFPOINTS
 62
     0
100
AcDbPoint
 10
140.0
 20
12.46448280219374
 30
0.0
  0
POINT
  5
1685
330
2BF2
100
AcDbEntity
  8
DEFPOINTS
 62
     0
100
AcDbPoint
 10
140.0
 20
116.4516878685508
 30
0.0
  0
ENDBLK
  5
14BF
330
2BF2
100
AcDbEntity
  8
0
100
AcDbBlockEnd
  0
BLOCK
  5
2BF5
330
2BF4
100
AcDbEntity
  8
0
100
AcDbBlockBegin
  2
*U35
 70
     1
 10
0.0
 20
0.0
 30
0.0
  3
*U35
  1

  0
TEXT
  5
1F11
330
2BF4
100
AcDbEntity
  8
SIZE
 62
     0
100
AcDbText
 10
-74.05714285714283
 20
126.4516878685507
 30
0.0
 40
64.0
  1
280
 41
0.9
100
AcDbText
  0
ENDBLK
  5
1F13
330
2BF4
100
AcDbEntity
  8
0
100
AcDbBlockEnd
  0
BLOCK
  5
2BF7
330
2BF6
100
AcDbEntity
  8
0
100
AcDbBlockBegin
  2
*D36
 70
     1
 10
0.0
 20
0.0
 30
0.0
  3
*D36
  1

  0
LINE
  5
1686
330
2BF6
100
AcDbEntity
  8
SIZE
 62
     0
100
AcDbLine
 10
-157.5
 20
20.0
 30
0.0
 11
-157.5
 21
245.5794621189598
 31
0.0
  0
LINE
  5
1687
330
2BF6
100
AcDbEntity
  8
SIZE
 62
     0
100
AcDbLine
 10
157.5
 20
20.0
 30
0.0
 11
157.5
 21
245.5794621189598
 31
0.0
  0
LINE
  5
1688
330
2BF6
100
AcDbEntity
  8
SIZE
 62
     0
100
AcDbLine
 10
-145.5
 20
225.5794621189598
 30
0.0
 11
145.5
 21
225.5794621189598
 31
0.0
  0
INSERT
  5
1689
330
2BF6
100
AcDbEntity
  8
SIZE
 62
     0
100
AcDbBlockReference
  2
_DOTBLANK
 10
-157.5
 20
225.5794621189598
 30
0.0
 41
12.0
 42
12.0
 43
12.0
 50
180.0
  0
INSERT
  5
168A
330
2BF6
100
AcDbEntity
  8
SIZE
 62
     0
100
AcDbBlockReference
  2
_DOTBLANK
 10
157.5
 20
225.5794621189598
 30
0.0
 41
12.0
 42
12.0
 43
12.0
  0
INSERT
  5
168B
330
2BF6
100
AcDbEntity
  8
0
100
AcDbBlockReference
  2
*U37
 10
0.0
 20
0.0
 30
0.0
  0
POINT
  5
168C
330
2BF6
100
AcDbEntity
  8
DEFPOINTS
 62
     0
100
AcDbPoint
 10
-157.5
 20
0.0
 30
0.0
  0
POINT
  5
168D
330
2BF6
100
AcDbEntity
  8
DEFPOINTS
 62
     0
100
AcDbPoint
 10
157.5
 20
0.0
 30
0.0
  0
POINT
  5
168E
330
2BF6
100
AcDbEntity
  8
DEFPOINTS
 62
     0
100
AcDbPoint
 10
157.5
 20
225.5794621189598
 30
0.0
  0
ENDBLK
  5
14CB
330
2BF6
100
AcDbEntity
  8
0
100
AcDbBlockEnd
  0
BLOCK
  5
2BF9
330
2BF8
100
AcDbEntity
  8
0
100
AcDbBlockBegin
  2
*U37
 70
     1
 10
0.0
 20
0.0
 30
0.0
  3
*U37
  1

  0
TEXT
  5
1F15
330
2BF8
100
AcDbEntity
  8
SIZE
 62
     0
100
AcDbText
 10
-68.57142857142857
 20
235.5794621189598
 30
0.0
 40
64.0
  1
315
 41
0.9
100
AcDbText
  0
ENDBLK
  5
1F17
330
2BF8
100
AcDbEntity
  8
0
100
AcDbBlockEnd
  0
BLOCK
  5
2BFB
330
2BFA
100
AcDbEntity
  8
0
100
AcDbBlockBegin
  2
*U38
 70
     1
 10
0.0
 20
0.0
 30
0.0
  3
*U38
  1

  0
ENDBLK
  5
15CF
330
2BFA
100
AcDbEntity
  8
0
100
AcDbBlockEnd
  0
BLOCK
  5
2BFD
330
2BFC
100
AcDbEntity
  8
0
100
AcDbBlockBegin
  2
*D39
 70
     1
 10
0.0
 20
0.0
 30
0.0
  3
*D39
  1

  0
LINE
  5
1692
330
2BFC
100
AcDbEntity
  8
SIZE
 62
     0
100
AcDbLine
 10
-25844.51823276502
 20
7685.702971374808
 30
0.0
 11
-25981.04465488371
 21
7685.702971374808
 31
0.0
  0
LINE
  5
1693
330
2BFC
100
AcDbEntity
  8
SIZE
 62
     0
100
AcDbLine
 10
-25844.51823276502
 20
7677.702971374808
 30
0.0
 11
-25981.04465488371
 21
7677.702971374808
 31
0.0
  0
LINE
  5
1694
330
2BFC
100
AcDbEntity
  8
SIZE
 62
     0
100
AcDbLine
 10
-25961.04465488371
 20
7697.702971374808
 30
0.0
 11
-25961.04465488371
 21
7709.702971374809
 31
0.0
  0
LINE
  5
1695
330
2BFC
100
AcDbEntity
  8
SIZE
 62
     0
100
AcDbLine
 10
-25961.04465488371
 20
7665.70297137481
 30
0.0
 11
-25961.04465488371
 21
7595.302971374808
 31
0.0
  0
INSERT
  5
1696
330
2BFC
100
AcDbEntity
  8
SIZE
 62
     0
100
AcDbBlockReference
  2
_DOTBLANK
 10
-25961.04465488371
 20
7685.702971374808
 30
0.0
 41
12.0
 42
12.0
 43
12.0
 50
270.0
  0
INSERT
  5
1697
330
2BFC
100
AcDbEntity
  8
SIZE
 62
     0
100
AcDbBlockReference
  2
_DOTBLANK
 10
-25961.04465488371
 20
7677.702971374808
 30
0.0
 41
12.0
 42
12.0
 43
12.0
 50
90.0
  0
INSERT
  5
1698
330
2BFC
100
AcDbEntity
  8
0
100
AcDbBlockReference
  2
*U40
 10
0.0
 20
0.0
 30
0.0
  0
POINT
  5
1699
330
2BFC
100
AcDbEntity
  8
DEFPOINTS
 62
     0
100
AcDbPoint
 10
-25824.51823276501
 20
7685.702971374808
 30
0.0
  0
POINT
  5
169A
330
2BFC
100
AcDbEntity
  8
DEFPOINTS
 62
     0
100
AcDbPoint
 10
-25824.51823276501
 20
7677.702971374808
 30
0.0
  0
POINT
  5
169B
330
2BFC
100
AcDbEntity
  8
DEFPOINTS
 62
     0
100
AcDbPoint
 10
-25961.04465488371
 20
7677.702971374808
 30
0.0
  0
ENDBLK
  5
169C
330
2BFC
100
AcDbEntity
  8
0
100
AcDbBlockEnd
  0
BLOCK
  5
2BFF
330
2BFE
100
AcDbEntity
  8
0
100
AcDbBlockBegin
  2
*U40
 70
     1
 10
0.0
 20
0.0
 30
0.0
  3
*U40
  1

  0
TEXT
  5
1F19
330
2BFE
100
AcDbEntity
  8
SIZE
 62
     0
100
AcDbText
 10
-25971.04465488371
 20
7605.302971374804
 30
0.0
 40
64.0
  1
8
 50
90.0
 41
0.9
100
AcDbText
  0
ENDBLK
  5
1F1B
330
2BFE
100
AcDbEntity
  8
0
100
AcDbBlockEnd
  0
BLOCK
  5
2C01
330
2C00
100
AcDbEntity
  8
0
100
AcDbBlockBegin
  2
*D41
 70
     1
 10
0.0
 20
0.0
 30
0.0
  3
*D41
  1

  0
LINE
  5
169F
330
2C00
100
AcDbEntity
  8
SIZE
 62
     0
100
AcDbLine
 10
-25512.51823276502
 20
7385.702971374808
 30
0.0
 11
-25362.37494828464
 21
7385.702971374808
 31
0.0
  0
LINE
  5
16A0
330
2C00
100
AcDbEntity
  8
SIZE
 62
     0
100
AcDbLine
 10
-25523.51823276501
 20
7373.702971374808
 30
0.0
 11
-25362.37494828464
 21
7373.702971374808
 31
0.0
  0
LINE
  5
16A1
330
2C00
100
AcDbEntity
  8
SIZE
 62
     0
100
AcDbLine
 10
-25382.37494828464
 20
7397.702971374808
 30
0.0
 11
-25382.37494828464
 21
7409.70297137481
 31
0.0
  0
LINE
  5
16A2
330
2C00
100
AcDbEntity
  8
SIZE
 62
     0
100
AcDbLine
 10
-25382.37494828464
 20
7361.702971374808
 30
0.0
 11
-25382.37494828464
 21
7244.674399946238
 31
0.0
  0
INSERT
  5
16A3
330
2C00
100
AcDbEntity
  8
SIZE
 62
     0
100
AcDbBlockReference
  2
_DOTBLANK
 10
-25382.37494828464
 20
7385.702971374808
 30
0.0
 41
12.0
 42
12.0
 43
12.0
 50
270.0
  0
INSERT
  5
16A4
330
2C00
100
AcDbEntity
  8
SIZE
 62
     0
100
AcDbBlockReference
  2
_DOTBLANK
 10
-25382.37494828464
 20
7373.702971374808
 30
0.0
 41
12.0
 42
12.0
 43
12.0
 50
90.0
  0
INSERT
  5
16A5
330
2C00
100
AcDbEntity
  8
0
100
AcDbBlockReference
  2
*U42
 10
0.0
 20
0.0
 30
0.0
  0
POINT
  5
16A6
330
2C00
100
AcDbEntity
  8
DEFPOINTS
 62
     0
100
AcDbPoint
 10
-25532.51823276502
 20
7385.702971374808
 30
0.0
  0
POINT
  5
16A7
330
2C00
100
AcDbEntity
  8
DEFPOINTS
 62
     0
100
AcDbPoint
 10
-25543.51823276502
 20
7373.702971374808
 30
0.0
  0
POINT
  5
16A8
330
2C00
100
AcDbEntity
  8
DEFPOINTS
 62
     0
100
AcDbPoint
 10
-25382.37494828464
 20
7373.702971374808
 30
0.0
  0
ENDBLK
  5
16A9
330
2C00
100
AcDbEntity
  8
0
100
AcDbBlockEnd
  0
BLOCK
  5
2C03
330
2C02
100
AcDbEntity
  8
0
100
AcDbBlockBegin
  2
*U42
 70
     1
 10
0.0
 20
0.0
 30
0.0
  3
*U42
  1

  0
TEXT
  5
1F1D
330
2C02
100
AcDbEntity
  8
SIZE
 62
     0
100
AcDbText
 10
-25392.37494828464
 20
7256.045828517662
 30
0.0
 40
64.0
  1
12
 50
90.0
 41
0.9
100
AcDbText
  0
ENDBLK
  5
1F1F
330
2C02
100
AcDbEntity
  8
0
100
AcDbBlockEnd
  0
BLOCK
  5
2C05
330
2C04
100
AcDbEntity
  8
0
100
AcDbBlockBegin
  2
*D43
 70
     1
 10
0.0
 20
0.0
 30
0.0
  3
*D43
  1

  0
LINE
  5
16AC
330
2C04
100
AcDbEntity
  8
SIZE
 62
     0
100
AcDbLine
 10
-25801.51823276501
 20
7365.702971374808
 30
0.0
 11
-25801.51823276501
 21
7217.685576144207
 31
0.0
  0
LINE
  5
16AD
330
2C04
100
AcDbEntity
  8
SIZE
 62
     0
100
AcDbLine
 10
-25532.51823276502
 20
7365.702971374808
 30
0.0
 11
-25532.51823276502
 21
7217.685576144207
 31
0.0
  0
LINE
  5
16AE
330
2C04
100
AcDbEntity
  8
SIZE
 62
     0
100
AcDbLine
 10
-25789.51823276502
 20
7237.685576144207
 30
0.0
 11
-25544.51823276501
 21
7237.685576144207
 31
0.0
  0
INSERT
  5
16AF
330
2C04
100
AcDbEntity
  8
SIZE
 62
     0
100
AcDbBlockReference
  2
_DOTBLANK
 10
-25801.51823276501
 20
7237.685576144207
 30
0.0
 41
12.0
 42
12.0
 43
12.0
 50
180.0
  0
INSERT
  5
16B0
330
2C04
100
AcDbEntity
  8
SIZE
 62
     0
100
AcDbBlockReference
  2
_DOTBLANK
 10
-25532.51823276502
 20
7237.685576144207
 30
0.0
 41
12.0
 42
12.0
 43
12.0
  0
INSERT
  5
16B1
330
2C04
100
AcDbEntity
  8
0
100
AcDbBlockReference
  2
*U44
 10
0.0
 20
0.0
 30
0.0
  0
POINT
  5
16B2
330
2C04
100
AcDbEntity
  8
DEFPOINTS
 62
     0
100
AcDbPoint
 10
-25801.51823276501
 20
7385.702971374808
 30
0.0
  0
POINT
  5
16B3
330
2C04
100
AcDbEntity
  8
DEFPOINTS
 62
     0
100
AcDbPoint
 10
-25532.51823276502
 20
7385.702971374808
 30
0.0
  0
POINT
  5
16B4
330
2C04
100
AcDbEntity
  8
DEFPOINTS
 62
     0
100
AcDbPoint
 10
-25532.51823276502
 20
7237.685576144207
 30
0.0
  0
ENDBLK
  5
16B5
330
2C04
100
AcDbEntity
  8
0
100
AcDbBlockEnd
  0
BLOCK
  5
2C07
330
2C06
100
AcDbEntity
  8
0
100
AcDbBlockBegin
  2
*U44
 70
     1
 10
0.0
 20
0.0
 30
0.0
  3
*U44
  1

  0
TEXT
  5
1F21
330
2C06
100
AcDbEntity
  8
SIZE
 62
     0
100
AcDbText
 10
-25739.70394705074
 20
7247.685576144205
 30
0.0
 40
64.0
  1
269
 41
0.9
100
AcDbText
  0
ENDBLK
  5
1F23
330
2C06
100
AcDbEntity
  8
0
100
AcDbBlockEnd
  0
BLOCK
  5
2C09
330
2C08
100
AcDbEntity
  8
0
100
AcDbBlockBegin
  2
*D45
 70
     1
 10
0.0
 20
0.0
 30
0.0
  3
*D45
  1

  0
LINE
  5
16B8
330
2C08
100
AcDbEntity
  8
SIZE
 62
     0
100
AcDbLine
 10
-25512.51823276502
 20
7385.702971374808
 30
0.0
 11
-25362.37494828464
 21
7385.702971374808
 31
0.0
  0
LINE
  5
16B9
330
2C08
100
AcDbEntity
  8
SIZE
 62
     0
100
AcDbLine
 10
-25489.51823276501
 20
7685.702971374808
 30
0.0
 11
-25362.37494828464
 21
7685.702971374808
 31
0.0
  0
LINE
  5
16BA
330
2C08
100
AcDbEntity
  8
SIZE
 62
     0
100
AcDbLine
 10
-25382.37494828464
 20
7397.702971374808
 30
0.0
 11
-25382.37494828464
 21
7673.702971374808
 31
0.0
  0
INSERT
  5
16BB
330
2C08
100
AcDbEntity
  8
SIZE
 62
     0
100
AcDbBlockReference
  2
_DOTBLANK
 10
-25382.37494828464
 20
7385.702971374808
 30
0.0
 41
12.0
 42
12.0
 43
12.0
 50
270.0
  0
INSERT
  5
16BC
330
2C08
100
AcDbEntity
  8
SIZE
 62
     0
100
AcDbBlockReference
  2
_DOTBLANK
 10
-25382.37494828464
 20
7685.702971374808
 30
0.0
 41
12.0
 42
12.0
 43
12.0
 50
90.0
  0
INSERT
  5
16BD
330
2C08
100
AcDbEntity
  8
0
100
AcDbBlockReference
  2
*U46
 10
0.0
 20
0.0
 30
0.0
  0
POINT
  5
16BE
330
2C08
100
AcDbEntity
  8
DEFPOINTS
 62
     0
100
AcDbPoint
 10
-25532.51823276502
 20
7385.702971374808
 30
0.0
  0
POINT
  5
16BF
330
2C08
100
AcDbEntity
  8
DEFPOINTS
 62
     0
100
AcDbPoint
 10
-25509.51823276502
 20
7685.702971374808
 30
0.0
  0
POINT
  5
16C0
330
2C08
100
AcDbEntity
  8
DEFPOINTS
 62
     0
100
AcDbPoint
 10
-25382.37494828464
 20
7685.702971374808
 30
0.0
  0
ENDBLK
  5
16C1
330
2C08
100
AcDbEntity
  8
0
100
AcDbBlockEnd
  0
BLOCK
  5
2C0B
330
2C0A
100
AcDbEntity
  8
0
100
AcDbBlockBegin
  2
*U46
 70
     1
 10
0.0
 20
0.0
 30
0.0
  3
*U46
  1

  0
TEXT
  5
1F25
330
2C0A
100
AcDbEntity
  8
SIZE
 62
     0
100
AcDbText
 10
-25392.37494828464
 20
7461.645828517662
 30
0.0
 40
64.0
  1
300
 50
90.0
 41
0.9
100
AcDbText
  0
ENDBLK
  5
1F27
330
2C0A
100
AcDbEntity
  8
0
100
AcDbBlockEnd
  0
BLOCK
  5
2C0D
330
2C0C
100
AcDbEntity
  8
0
100
AcDbBlockBegin
  2
*D47
 70
     1
 10
0.0
 20
0.0
 30
0.0
  3
*D47
  1

  0
LINE
  5
16C4
330
2C0C
100
AcDbEntity
  8
SIZE
 62
     0
100
AcDbLine
 10
-25807.01823276501
 20
7718.167454177002
 30
0.0
 11
-25807.01823276501
 21
7822.154659243358
 31
0.0
  0
LINE
  5
16C5
330
2C0C
100
AcDbEntity
  8
SIZE
 62
     0
100
AcDbLine
 10
-25527.01823276501
 20
7718.167454177002
 30
0.0
 11
-25527.01823276501
 21
7822.154659243358
 31
0.0
  0
LINE
  5
16C6
330
2C0C
100
AcDbEntity
  8
SIZE
 62
     0
100
AcDbLine
 10
-25795.01823276502
 20
7802.154659243358
 30
0.0
 11
-25539.01823276501
 21
7802.154659243358
 31
0.0
  0
INSERT
  5
16C7
330
2C0C
100
AcDbEntity
  8
SIZE
 62
     0
100
AcDbBlockReference
  2
_DOTBLANK
 10
-25807.01823276501
 20
7802.154659243358
 30
0.0
 41
12.0
 42
12.0
 43
12.0
 50
180.0
  0
INSERT
  5
16C8
330
2C0C
100
AcDbEntity
  8
SIZE
 62
     0
100
AcDbBlockReference
  2
_DOTBLANK
 10
-25527.01823276501
 20
7802.154659243358
 30
0.0
 41
12.0
 42
12.0
 43
12.0
  0
INSERT
  5
16C9
330
2C0C
100
AcDbEntity
  8
0
100
AcDbBlockReference
  2
*U48
 10
0.0
 20
0.0
 30
0.0
  0
POINT
  5
16CA
330
2C0C
100
AcDbEntity
  8
DEFPOINTS
 62
     0
100
AcDbPoint
 10
-25807.01823276501
 20
7698.167454177002
 30
0.0
  0
POINT
  5
16CB
330
2C0C
100
AcDbEntity
  8
DEFPOINTS
 62
     0
100
AcDbPoint
 10
-25527.01823276501
 20
7698.167454177002
 30
0.0
  0
POINT
  5
16CC
330
2C0C
100
AcDbEntity
  8
DEFPOINTS
 62
     0
100
AcDbPoint
 10
-25527.01823276501
 20
7802.154659243358
 30
0.0
  0
ENDBLK
  5
16CD
330
2C0C
100
AcDbEntity
  8
0
100
AcDbBlockEnd
  0
BLOCK
  5
2C0F
330
2C0E
100
AcDbEntity
  8
0
100
AcDbBlockBegin
  2
*U48
 70
     1
 10
0.0
 20
0.0
 30
0.0
  3
*U48
  1

  0
TEXT
  5
1F29
330
2C0E
100
AcDbEntity
  8
SIZE
 62
     0
100
AcDbText
 10
-25741.07537562216
 20
7812.154659243358
 30
0.0
 40
64.0
  1
280
 41
0.9
100
AcDbText
  0
ENDBLK
  5
1F2B
330
2C0E
100
AcDbEntity
  8
0
100
AcDbBlockEnd
  0
BLOCK
  5
2C11
330
2C10
100
AcDbEntity
  8
0
100
AcDbBlockBegin
  2
*D49
 70
     1
 10
0.0
 20
0.0
 30
0.0
  3
*D49
  1

  0
LINE
  5
16D0
330
2C10
100
AcDbEntity
  8
SIZE
 62
     0
100
AcDbLine
 10
-25824.51823276501
 20
7705.702971374808
 30
0.0
 11
-25824.51823276501
 21
7931.282433493766
 31
0.0
  0
LINE
  5
16D1
330
2C10
100
AcDbEntity
  8
SIZE
 62
     0
100
AcDbLine
 10
-25509.51823276502
 20
7705.702971374808
 30
0.0
 11
-25509.51823276502
 21
7931.282433493766
 31
0.0
  0
LINE
  5
16D2
330
2C10
100
AcDbEntity
  8
SIZE
 62
     0
100
AcDbLine
 10
-25812.51823276502
 20
7911.282433493766
 30
0.0
 11
-25521.51823276501
 21
7911.282433493766
 31
0.0
  0
INSERT
  5
16D3
330
2C10
100
AcDbEntity
  8
SIZE
 62
     0
100
AcDbBlockReference
  2
_DOTBLANK
 10
-25824.51823276501
 20
7911.282433493766
 30
0.0
 41
12.0
 42
12.0
 43
12.0
 50
180.0
  0
INSERT
  5
16D4
330
2C10
100
AcDbEntity
  8
SIZE
 62
     0
100
AcDbBlockReference
  2
_DOTBLANK
 10
-25509.51823276502
 20
7911.282433493766
 30
0.0
 41
12.0
 42
12.0
 43
12.0
  0
INSERT
  5
16D5
330
2C10
100
AcDbEntity
  8
0
100
AcDbBlockReference
  2
*U50
 10
0.0
 20
0.0
 30
0.0
  0
POINT
  5
16D6
330
2C10
100
AcDbEntity
  8
DEFPOINTS
 62
     0
100
AcDbPoint
 10
-25824.51823276501
 20
7685.702971374808
 30
0.0
  0
POINT
  5
16D7
330
2C10
100
AcDbEntity
  8
DEFPOINTS
 62
     0
100
AcDbPoint
 10
-25509.51823276502
 20
7685.702971374808
 30
0.0
  0
POINT
  5
16D8
330
2C10
100
AcDbEntity
  8
DEFPOINTS
 62
     0
100
AcDbPoint
 10
-25509.51823276502
 20
7911.282433493766
 30
0.0
  0
ENDBLK
  5
16D9
330
2C10
100
AcDbEntity
  8
0
100
AcDbBlockEnd
  0
BLOCK
  5
2C13
330
2C12
100
AcDbEntity
  8
0
100
AcDbBlockBegin
  2
*U50
 70
     1
 10
0.0
 20
0.0
 30
0.0
  3
*U50
  1

  0
TEXT
  5
1F2D
330
2C12
100
AcDbEntity
  8
SIZE
 62
     0
100
AcDbText
 10
-25735.58966133645
 20
7921.282433493766
 30
0.0
 40
64.0
  1
315
 41
0.9
100
AcDbText
  0
ENDBLK
  5
1F2F
330
2C12
100
AcDbEntity
  8
0
100
AcDbBlockEnd
  0
BLOCK
  5
2C15
330
2C14
100
AcDbEntity
  8
0
100
AcDbBlockBegin
  2
*D51
 70
     1
 10
0.0
 20
0.0
 30
0.0
  3
*D51
  1

  0
LINE
  5
1D83
330
2C14
100
AcDbEntity
  8
SIZE
 62
     0
100
AcDbLine
 10
-134.5
 20
-320.0
 30
0.0
 11
-134.5
 21
-468.0173952306001
 31
0.0
  0
LINE
  5
1D84
330
2C14
100
AcDbEntity
  8
SIZE
 62
     0
100
AcDbLine
 10
134.5
 20
-320.0
 30
0.0
 11
134.5
 21
-468.0173952306001
 31
0.0
  0
LINE
  5
1D85
330
2C14
100
AcDbEntity
  8
SIZE
 62
     0
100
AcDbLine
 10
-122.5
 20
-448.0173952306
 30
0.0
 11
122.5
 21
-448.0173952306
 31
0.0
  0
INSERT
  5
1D86
330
2C14
100
AcDbEntity
  8
SIZE
 62
     0
100
AcDbBlockReference
  2
_DOTBLANK
 10
-134.5
 20
-448.0173952306
 30
0.0
 41
12.0
 42
12.0
 43
12.0
 50
180.0
  0
INSERT
  5
1D87
330
2C14
100
AcDbEntity
  8
SIZE
 62
     0
100
AcDbBlockReference
  2
_DOTBLANK
 10
134.5
 20
-448.0173952306
 30
0.0
 41
12.0
 42
12.0
 43
12.0
  0
INSERT
  5
1D88
330
2C14
100
AcDbEntity
  8
0
100
AcDbBlockReference
  2
*U52
 10
0.0
 20
0.0
 30
0.0
  0
POINT
  5
1D89
330
2C14
100
AcDbEntity
  8
DEFPOINTS
 62
     0
100
AcDbPoint
 10
-134.5
 20
-300.0
 30
0.0
  0
POINT
  5
1D8A
330
2C14
100
AcDbEntity
  8
DEFPOINTS
 62
     0
100
AcDbPoint
 10
134.5
 20
-300.0
 30
0.0
  0
POINT
  5
1D8B
330
2C14
100
AcDbEntity
  8
DEFPOINTS
 62
     0
100
AcDbPoint
 10
134.5
 20
-448.0173952306
 30
0.0
  0
ENDBLK
  5
173D
330
2C14
100
AcDbEntity
  8
0
100
AcDbBlockEnd
  0
BLOCK
  5
2C17
330
2C16
100
AcDbEntity
  8
0
100
AcDbBlockBegin
  2
*U52
 70
     1
 10
0.0
 20
0.0
 30
0.0
  3
*U52
  1

  0
TEXT
  5
1F31
330
2C16
100
AcDbEntity
  8
SIZE
 62
     0
100
AcDbText
 10
-72.68571428571426
 20
-438.0173952306003
 30
0.0
 40
64.0
  1
269
 41
0.9
100
AcDbText
  0
ENDBLK
  5
1F33
330
2C16
100
AcDbEntity
  8
0
100
AcDbBlockEnd
  0
BLOCK
  5
2C19
330
2C18
100
AcDbEntity
  8
0
100
AcDbBlockBegin
  2
*D53
 70
     1
 10
0.0
 20
0.0
 30
0.0
  3
*D53
  1

  0
LINE
  5
1D8C
330
2C18
100
AcDbEntity
  8
SIZE
 62
     0
100
AcDbLine
 10
154.5
 20
-300.0
 30
0.0
 11
304.6432844803784
 21
-300.0
 31
0.0
  0
LINE
  5
1D8D
330
2C18
100
AcDbEntity
  8
SIZE
 62
     0
100
AcDbLine
 10
177.5
 20
-0.0000000000000057
 30
0.0
 11
304.6432844803785
 21
-0.0000000000000417
 31
0.0
  0
LINE
  5
1D8E
330
2C18
100
AcDbEntity
  8
SIZE
 62
     0
100
AcDbLine
 10
284.6432844803784
 20
-288.0
 30
0.0
 11
284.6432844803785
 21
-12.00000000000003
 31
0.0
  0
INSERT
  5
1D8F
330
2C18
100
AcDbEntity
  8
SIZE
 62
     0
100
AcDbBlockReference
  2
_DOTBLANK
 10
284.6432844803784
 20
-300.0
 30
0.0
 41
12.0
 42
12.0
 43
12.0
 50
270.0
  0
INSERT
  5
1D90
330
2C18
100
AcDbEntity
  8
SIZE
 62
     0
100
AcDbBlockReference
  2
_DOTBLANK
 10
284.6432844803785
 20
-0.000000000000036
 30
0.0
 41
12.0
 42
12.0
 43
12.0
 50
90.0
  0
INSERT
  5
1D91
330
2C18
100
AcDbEntity
  8
0
100
AcDbBlockReference
  2
*U54
 10
0.0
 20
0.0
 30
0.0
  0
POINT
  5
1D92
330
2C18
100
AcDbEntity
  8
DEFPOINTS
 62
     0
100
AcDbPoint
 10
134.5
 20
-300.0
 30
0.0
  0
POINT
  5
1D93
330
2C18
100
AcDbEntity
  8
DEFPOINTS
 62
     0
100
AcDbPoint
 10
157.5
 20
0.0
 30
0.0
  0
POINT
  5
1D94
330
2C18
100
AcDbEntity
  8
DEFPOINTS
 62
     0
100
AcDbPoint
 10
284.6432844803785
 20
-0.000000000000036
 30
0.0
  0
ENDBLK
  5
1749
330
2C18
100
AcDbEntity
  8
0
100
AcDbBlockEnd
  0
BLOCK
  5
2C1B
330
2C1A
100
AcDbEntity
  8
0
100
AcDbBlockBegin
  2
*U54
 70
     1
 10
0.0
 20
0.0
 30
0.0
  3
*U54
  1

  0
TEXT
  5
1F35
330
2C1A
100
AcDbEntity
  8
SIZE
 62
     0
100
AcDbText
 10
274.6432844803785
 20
-224.0571428571429
 30
0.0
 40
64.0
  1
300
 50
90.0
 41
0.9
100
AcDbText
  0
ENDBLK
  5
1F37
330
2C1A
100
AcDbEntity
  8
0
100
AcDbBlockEnd
  0
BLOCK
  5
2C1D
330
2C1C
100
AcDbEntity
  8
0
100
AcDbBlockBegin
  2
*D55
 70
     1
 10
0.0
 20
0.0
 30
0.0
  3
*D55
  1

  0
LINE
  5
1D95
330
2C1C
100
AcDbEntity
  8
SIZE
 62
     0
100
AcDbLine
 10
-140.0
 20
32.46448280219375
 30
0.0
 11
-140.0
 21
136.4516878685508
 31
0.0
  0
LINE
  5
1D96
330
2C1C
100
AcDbEntity
  8
SIZE
 62
     0
100
AcDbLine
 10
140.0
 20
32.46448280219375
 30
0.0
 11
140.0
 21
136.4516878685508
 31
0.0
  0
LINE
  5
1D97
330
2C1C
100
AcDbEntity
  8
SIZE
 62
     0
100
AcDbLine
 10
-128.0
 20
116.4516878685508
 30
0.0
 11
128.0
 21
116.4516878685508
 31
0.0
  0
INSERT
  5
1D98
330
2C1C
100
AcDbEntity
  8
SIZE
 62
     0
100
AcDbBlockReference
  2
_DOTBLANK
 10
-140.0
 20
116.4516878685508
 30
0.0
 41
12.0
 42
12.0
 43
12.0
 50
180.0
  0
INSERT
  5
1D99
330
2C1C
100
AcDbEntity
  8
SIZE
 62
     0
100
AcDbBlockReference
  2
_DOTBLANK
 10
140.0
 20
116.4516878685508
 30
0.0
 41
12.0
 42
12.0
 43
12.0
  0
INSERT
  5
1D9A
330
2C1C
100
AcDbEntity
  8
0
100
AcDbBlockReference
  2
*U56
 10
0.0
 20
0.0
 30
0.0
  0
POINT
  5
1D9B
330
2C1C
100
AcDbEntity
  8
DEFPOINTS
 62
     0
100
AcDbPoint
 10
-140.0
 20
12.46448280219374
 30
0.0
  0
POINT
  5
1D9C
330
2C1C
100
AcDbEntity
  8
DEFPOINTS
 62
     0
100
AcDbPoint
 10
140.0
 20
12.46448280219374
 30
0.0
  0
POINT
  5
1D9D
330
2C1C
100
AcDbEntity
  8
DEFPOINTS
 62
     0
100
AcDbPoint
 10
140.0
 20
116.4516878685508
 30
0.0
  0
ENDBLK
  5
1755
330
2C1C
100
AcDbEntity
  8
0
100
AcDbBlockEnd
  0
BLOCK
  5
2C1F
330
2C1E
100
AcDbEntity
  8
0
100
AcDbBlockBegin
  2
*U56
 70
     1
 10
0.0
 20
0.0
 30
0.0
  3
*U56
  1

  0
TEXT
  5
1F39
330
2C1E
100
AcDbEntity
  8
SIZE
 62
     0
100
AcDbText
 10
-74.05714285714283
 20
126.4516878685508
 30
0.0
 40
64.0
  1
280
 41
0.9
100
AcDbText
  0
ENDBLK
  5
1F3B
330
2C1E
100
AcDbEntity
  8
0
100
AcDbBlockEnd
  0
BLOCK
  5
2C21
330
2C20
100
AcDbEntity
  8
0
100
AcDbBlockBegin
  2
*D57
 70
     1
 10
0.0
 20
0.0
 30
0.0
  3
*D57
  1

  0
LINE
  5
1D9E
330
2C20
100
AcDbEntity
  8
SIZE
 62
     0
100
AcDbLine
 10
-157.5
 20
20.0
 30
0.0
 11
-157.5
 21
245.5794621189598
 31
0.0
  0
LINE
  5
1D9F
330
2C20
100
AcDbEntity
  8
SIZE
 62
     0
100
AcDbLine
 10
157.5
 20
20.0
 30
0.0
 11
157.5
 21
245.5794621189598
 31
0.0
  0
LINE
  5
1DA0
330
2C20
100
AcDbEntity
  8
SIZE
 62
     0
100
AcDbLine
 10
-145.5
 20
225.5794621189598
 30
0.0
 11
145.5
 21
225.5794621189598
 31
0.0
  0
INSERT
  5
1DA1
330
2C20
100
AcDbEntity
  8
SIZE
 62
     0
100
AcDbBlockReference
  2
_DOTBLANK
 10
-157.5
 20
225.5794621189598
 30
0.0
 41
12.0
 42
12.0
 43
12.0
 50
180.0
  0
INSERT
  5
1DA2
330
2C20
100
AcDbEntity
  8
SIZE
 62
     0
100
AcDbBlockReference
  2
_DOTBLANK
 10
157.5
 20
225.5794621189598
 30
0.0
 41
12.0
 42
12.0
 43
12.0
  0
INSERT
  5
1DA3
330
2C20
100
AcDbEntity
  8
0
100
AcDbBlockReference
  2
*U58
 10
0.0
 20
0.0
 30
0.0
  0
POINT
  5
1DA4
330
2C20
100
AcDbEntity
  8
DEFPOINTS
 62
     0
100
AcDbPoint
 10
-157.5
 20
0.0
 30
0.0
  0
POINT
  5
1DA5
330
2C20
100
AcDbEntity
  8
DEFPOINTS
 62
     0
100
AcDbPoint
 10
157.5
 20
0.0
 30
0.0
  0
POINT
  5
1DA6
330
2C20
100
AcDbEntity
  8
DEFPOINTS
 62
     0
100
AcDbPoint
 10
157.5
 20
225.5794621189598
 30
0.0
  0
ENDBLK
  5
1761
330
2C20
100
AcDbEntity
  8
0
100
AcDbBlockEnd
  0
BLOCK
  5
2C23
330
2C22
100
AcDbEntity
  8
0
100
AcDbBlockBegin
  2
*U58
 70
     1
 10
0.0
 20
0.0
 30
0.0
  3
*U58
  1

  0
TEXT
  5
1F3D
330
2C22
100
AcDbEntity
  8
SIZE
 62
     0
100
AcDbText
 10
-68.57142857142857
 20
235.5794621189599
 30
0.0
 40
64.0
  1
315
 41
0.9
100
AcDbText
  0
ENDBLK
  5
1F3F
330
2C22
100
AcDbEntity
  8
0
100
AcDbBlockEnd
  0
BLOCK
  5
2C25
330
2C24
100
AcDbEntity
  8
0
100
AcDbBlockBegin
  2
*D59
 70
     1
 10
0.0
 20
0.0
 30
0.0
  3
*D59
  1

  0
LINE
  5
1DA7
330
2C24
100
AcDbEntity
  8
SIZE
 62
     0
100
AcDbLine
 10
-177.5
 20
0.0000000000000057
 30
0.0
 11
-314.0264221186908
 21
0.0000000000000443
 31
0.0
  0
LINE
  5
1DA8
330
2C24
100
AcDbEntity
  8
SIZE
 62
     0
100
AcDbLine
 10
-177.5
 20
-7.999999999999993
 30
0.0
 11
-314.0264221186908
 21
-7.999999999999958
 31
0.0
  0
LINE
  5
1DA9
330
2C24
100
AcDbEntity
  8
SIZE
 62
     0
100
AcDbLine
 10
-294.0264221186908
 20
12.00000000000003
 30
0.0
 11
-294.0264221186908
 21
24.00000000000004
 31
0.0
  0
LINE
  5
1DAA
330
2C24
100
AcDbEntity
  8
SIZE
 62
     0
100
AcDbLine
 10
-294.0264221186908
 20
-19.99999999999996
 30
0.0
 11
-294.0264221186908
 21
-90.39999999999997
 31
0.0
  0
INSERT
  5
1DAB
330
2C24
100
AcDbEntity
  8
SIZE
 62
     0
100
AcDbBlockReference
  2
_DOTBLANK
 10
-294.0264221186908
 20
0.0000000000000387
 30
0.0
 41
12.0
 42
12.0
 43
12.0
 50
270.0
  0
INSERT
  5
1DAC
330
2C24
100
AcDbEntity
  8
SIZE
 62
     0
100
AcDbBlockReference
  2
_DOTBLANK
 10
-294.0264221186908
 20
-7.999999999999961
 30
0.0
 41
12.0
 42
12.0
 43
12.0
 50
90.0
  0
INSERT
  5
1DAD
330
2C24
100
AcDbEntity
  8
0
100
AcDbBlockReference
  2
*U60
 10
0.0
 20
0.0
 30
0.0
  0
POINT
  5
1DAE
330
2C24
100
AcDbEntity
  8
DEFPOINTS
 62
     0
100
AcDbPoint
 10
-157.5
 20
0.0
 30
0.0
  0
POINT
  5
1DAF
330
2C24
100
AcDbEntity
  8
DEFPOINTS
 62
     0
100
AcDbPoint
 10
-157.5
 20
-8.000000000000003
 30
0.0
  0
POINT
  5
1DB0
330
2C24
100
AcDbEntity
  8
DEFPOINTS
 62
     0
100
AcDbPoint
 10
-294.0264221186908
 20
-7.999999999999961
 30
0.0
  0
ENDBLK
  5
176D
330
2C24
100
AcDbEntity
  8
0
100
AcDbBlockEnd
  0
BLOCK
  5
2C27
330
2C26
100
AcDbEntity
  8
0
100
AcDbBlockBegin
  2
*U60
 70
     1
 10
0.0
 20
0.0
 30
0.0
  3
*U60
  1

  0
TEXT
  5
1F41
330
2C26
100
AcDbEntity
  8
SIZE
 62
     0
100
AcDbText
 10
-304.0264221186908
 20
-80.4
 30
0.0
 40
64.0
  1
8
 50
90.0
 41
0.9
100
AcDbText
  0
ENDBLK
  5
1F43
330
2C26
100
AcDbEntity
  8
0
100
AcDbBlockEnd
  0
BLOCK
  5
2C29
330
2C28
100
AcDbEntity
  8
0
100
AcDbBlockBegin
  2
*D61
 70
     1
 10
0.0
 20
0.0
 30
0.0
  3
*D61
  1

  0
LINE
  5
1DB1
330
2C28
100
AcDbEntity
  8
SIZE
 62
     0
100
AcDbLine
 10
154.5
 20
-300.0
 30
0.0
 11
304.6432844803785
 21
-300.0
 31
0.0
  0
LINE
  5
1DB2
330
2C28
100
AcDbEntity
  8
SIZE
 62
     0
100
AcDbLine
 10
143.5
 20
-312.0
 30
0.0
 11
304.6432844803785
 21
-312.0
 31
0.0
  0
LINE
  5
1DB3
330
2C28
100
AcDbEntity
  8
SIZE
 62
     0
100
AcDbLine
 10
284.6432844803785
 20
-288.0
 30
0.0
 11
284.6432844803785
 21
-276.0
 31
0.0
  0
LINE
  5
1DB4
330
2C28
100
AcDbEntity
  8
SIZE
 62
     0
100
AcDbLine
 10
284.6432844803785
 20
-324.0000000000001
 30
0.0
 11
284.6432844803784
 21
-438.2857142857143
 31
0.0
  0
INSERT
  5
1DB5
330
2C28
100
AcDbEntity
  8
SIZE
 62
     0
100
AcDbBlockReference
  2
_DOTBLANK
 10
284.6432844803785
 20
-300.0
 30
0.0
 41
12.0
 42
12.0
 43
12.0
 50
270.0
  0
INSERT
  5
1DB6
330
2C28
100
AcDbEntity
  8
SIZE
 62
     0
100
AcDbBlockReference
  2
_DOTBLANK
 10
284.6432844803785
 20
-312.0
 30
0.0
 41
12.0
 42
12.0
 43
12.0
 50
90.0
  0
INSERT
  5
1DB7
330
2C28
100
AcDbEntity
  8
0
100
AcDbBlockReference
  2
*U62
 10
0.0
 20
0.0
 30
0.0
  0
POINT
  5
1DB8
330
2C28
100
AcDbEntity
  8
DEFPOINTS
 62
     0
100
AcDbPoint
 10
134.5
 20
-300.0
 30
0.0
  0
POINT
  5
1DB9
330
2C28
100
AcDbEntity
  8
DEFPOINTS
 62
     0
100
AcDbPoint
 10
123.5
 20
-312.0
 30
0.0
  0
POINT
  5
1DBA
330
2C28
100
AcDbEntity
  8
DEFPOINTS
 62
     0
100
AcDbPoint
 10
284.6432844803785
 20
-312.0
 30
0.0
  0
ENDBLK
  5
177B
330
2C28
100
AcDbEntity
  8
0
100
AcDbBlockEnd
  0
BLOCK
  5
2C2B
330
2C2A
100
AcDbEntity
  8
0
100
AcDbBlockBegin
  2
*U62
 70
     1
 10
0.0
 20
0.0
 30
0.0
  3
*U62
  1

  0
TEXT
  5
1F45
330
2C2A
100
AcDbEntity
  8
SIZE
 62
     0
100
AcDbText
 10
274.6432844803785
 20
-428.2857142857142
 30
0.0
 40
64.0
  1
12
 50
90.0
 41
0.9
100
AcDbText
  0
ENDBLK
  5
1F47
330
2C2A
100
AcDbEntity
  8
0
100
AcDbBlockEnd
  0
BLOCK
  5
2C2D
330
2C2C
100
AcDbEntity
  8
0
100
AcDbBlockBegin
  2
*U63
 70
     1
 10
0.0
 20
0.0
 30
0.0
  3
*U63
  1

  0
ENDBLK
  5
1D57
330
2C2C
100
AcDbEntity
  8
0
100
AcDbBlockEnd
  0
BLOCK
  5
2C2F
330
2C2E
100
AcDbEntity
  8
0
100
AcDbBlockBegin
  2
*U64
 70
     1
 10
0.0
 20
0.0
 30
0.0
  3
*U64
  1

  0
INSERT
  5
2088
330
2C2E
100
AcDbEntity
  8
NOTE
100
AcDbBlockReference
  2
_OPEN30
 10
-140.0
 20
0.0
 30
0.0
 41
12.0
 42
12.0
 43
12.0
 50
312.6090116116894
  0
POLYLINE
  5
2089
330
2C2E
100
AcDbEntity
  8
NOTE
100
AcDb2dPolyline
 66
     1
 10
0.0
 20
0.0
 30
0.0
  0
VERTEX
  5
2124
330
2089
100
AcDbEntity
  8
NOTE
100
AcDbVertex
100
AcDb2dVertex
 10
-148.1239008361894
 20
8.831887408915472
 30
0.0
  0
VERTEX
  5
2125
330
2089
100
AcDbEntity
  8
NOTE
100
AcDbVertex
100
AcDb2dVertex
 10
-227.8693999922543
 20
95.52709505801338
 30
0.0
  0
VERTEX
  5
2126
330
2089
100
AcDbEntity
  8
NOTE
100
AcDbVertex
100
AcDb2dVertex
 10
-773.7093999922541
 20
95.52709505801338
 30
0.0
  0
SEQEND
  5
2127
330
2089
100
AcDbEntity
  8
NOTE
  0
ENDBLK
  5
208A
330
2C2E
100
AcDbEntity
  8
0
100
AcDbBlockEnd
  0
BLOCK
  5
2C31
330
2C30
100
AcDbEntity
  8
0
100
AcDbBlockBegin
  2
*U65
 70
     1
 10
0.0
 20
0.0
 30
0.0
  3
*U65
  1

  0
TEXT
  5
208D
330
2C30
100
AcDbEntity
  8
NOTE
100
AcDbText
 10
-773.7093999922541
 20
113.5270950580134
 30
0.0
 40
64.0
  1
4×φ10取付穴
 41
0.9
100
AcDbText
  0
ENDBLK
  5
208E
330
2C30
100
AcDbEntity
  8
0
100
AcDbBlockEnd
  0
BLOCK
  5
2C33
330
2C32
100
AcDbEntity
  8
0
100
AcDbBlockBegin
  2
*U66
 70
     1
 10
0.0
 20
0.0
 30
0.0
  3
*U66
  1

  0
INSERT
  5
25A0
330
2C32
100
AcDbEntity
  8
NOTE
100
AcDbBlockReference
  2
_OPEN30
 10
-165.0
 20
0.0
 30
0.0
 41
12.0
 42
12.0
 43
12.0
 50
312.6090116116894
  0
POLYLINE
  5
25A1
330
2C32
100
AcDbEntity
  8
NOTE
100
AcDb2dPolyline
 66
     1
 10
0.0
 20
0.0
 30
0.0
  0
VERTEX
  5
25A2
330
25A1
100
AcDbEntity
  8
NOTE
100
AcDbVertex
100
AcDb2dVertex
 10
-173.1239008361894
 20
8.831887408915475
 30
0.0
  0
VERTEX
  5
25A3
330
25A1
100
AcDbEntity
  8
NOTE
100
AcDbVertex
100
AcDb2dVertex
 10
-252.8693999922543
 20
95.52709505801338
 30
0.0
  0
VERTEX
  5
25A4
330
25A1
100
AcDbEntity
  8
NOTE
100
AcDbVertex
100
AcDb2dVertex
 10
-798.7093999922541
 20
95.52709505801338
 30
0.0
  0
SEQEND
  5
25A5
330
25A1
100
AcDbEntity
  8
NOTE
  0
ENDBLK
  5
25A6
330
2C32
100
AcDbEntity
  8
0
100
AcDbBlockEnd
  0
BLOCK
  5
2C35
330
2C34
100
AcDbEntity
  8
0
100
AcDbBlockBegin
  2
*U67
 70
     1
 10
0.0
 20
0.0
 30
0.0
  3
*U67
  1

  0
TEXT
  5
25A9
330
2C34
100
AcDbEntity
  8
NOTE
100
AcDbText
 10
-798.7093999922541
 20
113.5270950580134
 30
0.0
 40
64.0
  1
4×φ10取付穴
 41
0.9
100
AcDbText
  0
ENDBLK
  5
25AA
330
2C34
100
AcDbEntity
  8
0
100
AcDbBlockEnd
  0
BLOCK
  5
2C37
330
2C36
100
AcDbEntity
  8
0
100
AcDbBlockBegin
  2
*X68
 70
     1
 10
0.0
 20
0.0
 30
0.0
  3
*X68
  1

  0
LINE
  5
25AD
330
2C36
100
AcDbEntity
  8
0
 62
     0
100
AcDbLine
 10
132.2515696609152
 20
-281.4000000000015
 30
0.0
 11
132.8999999999923
 21
-280.9677142111394
 31
0.0
  0
LINE
  5
25AE
330
2C36
100
AcDbEntity
  8
0
 62
     0
100
AcDbLine
 10
127.7516083670307
 20
-281.4000000000015
 30
0.0
 11
132.8999999999942
 21
-277.9677476757224
 31
0.0
  0
LINE
  5
25AF
330
2C36
100
AcDbEntity
  8
0
 62
     0
100
AcDbLine
 10
123.2516470731443
 20
-281.4000000000015
 30
0.0
 11
132.8999999999942
 21
-274.9677811403053
 31
0.0
  0
LINE
  5
25B0
330
2C36
100
AcDbEntity
  8
0
 62
     0
100
AcDbLine
 10
118.7516857792616
 20
-281.4000000000015
 30
0.0
 11
132.8999999999942
 21
-271.96781460489
 31
0.0
  0
LINE
  5
25B1
330
2C36
100
AcDbEntity
  8
0
 62
     0
100
AcDbLine
 10
114.2517244853734
 20
-281.4000000000033
 30
0.0
 11
132.8999999999923
 21
-268.9678480694766
 31
0.0
  0
LINE
  5
25B2
330
2C36
100
AcDbEntity
  8
0
 62
     0
100
AcDbLine
 10
109.7517631914907
 20
-281.3999999999996
 30
0.0
 11
132.8999999999942
 21
-265.9678815340576
 31
0.0
  0
LINE
  5
25B3
330
2C36
100
AcDbEntity
  8
0
 62
     0
100
AcDbLine
 10
105.2518018976007
 20
-281.4000000000015
 30
0.0
 11
132.8999999999923
 21
-262.9679149986423
 31
0.0
  0
LINE
  5
25B4
330
2C36
100
AcDbEntity
  8
0
 62
     0
100
AcDbLine
 10
100.7518406037179
 20
-281.4000000000015
 30
0.0
 11
132.8999999999923
 21
-259.9679484632252
 31
0.0
  0
LINE
  5
25B5
330
2C36
100
AcDbEntity
  8
0
 62
     0
100
AcDbLine
 10
96.25187930983157
 20
-281.4000000000033
 30
0.0
 11
132.8999999999923
 21
-256.9679819278117
 31
0.0
  0
LINE
  5
25B6
330
2C36
100
AcDbEntity
  8
0
 62
     0
100
AcDbLine
 10
91.75191801594698
 20
-281.4000000000033
 30
0.0
 11
132.8999999999942
 21
-253.9680153923946
 31
0.0
  0
LINE
  5
25B7
330
2C36
100
AcDbEntity
  8
0
 62
     0
100
AcDbLine
 10
87.25195672205883
 20
-281.4000000000033
 30
0.0
 11
132.8999999999942
 21
-250.9680488569757
 31
0.0
  0
LINE
  5
25B8
330
2C36
100
AcDbEntity
  8
0
 62
     0
100
AcDbLine
 10
82.75199542817606
 20
-281.3999999999996
 30
0.0
 11
132.8999999999923
 21
-247.9680823215604
 31
0.0
  0
LINE
  5
25B9
330
2C36
100
AcDbEntity
  8
0
 62
     0
100
AcDbLine
 10
130.7521681946673
 20
-246.4000000000015
 30
0.0
 11
132.8999999999887
 21
-244.9681157861487
 31
0.0
  0
LINE
  5
25BA
330
2C36
100
AcDbEntity
  8
0
 62
     0
100
AcDbLine
 10
78.2520341342897
 20
-281.4000000000015
 30
0.0
 11
130.7521681946673
 21
-246.4000000000015
 31
0.0
  0
LINE
  5
25BB
330
2C36
100
AcDbEntity
  8
0
 62
     0
100
AcDbLine
 10
126.2522069007809
 20
-246.4000000000033
 30
0.0
 11
132.8999999999887
 21
-241.9681492507316
 31
0.0
  0
LINE
  5
25BC
330
2C36
100
AcDbEntity
  8
0
 62
     0
100
AcDbLine
 10
73.75207284040334
 20
-281.4000000000033
 30
0.0
 11
126.2522069007809
 21
-246.4000000000033
 31
0.0
  0
LINE
  5
25BD
330
2C36
100
AcDbEntity
  8
0
 62
     0
100
AcDbLine
 10
121.7522456068927
 20
-246.4000000000015
 30
0.0
 11
132.8999999999869
 21
-238.9681827153163
 31
0.0
  0
LINE
  5
25BE
330
2C36
100
AcDbEntity
  8
0
 62
     0
100
AcDbLine
 10
69.25211154651515
 20
-281.4000000000033
 30
0.0
 11
121.7522456068927
 21
-246.4000000000015
 31
0.0
  0
LINE
  5
25BF
330
2C36
100
AcDbEntity
  8
0
 62
     0
100
AcDbLine
 10
117.2522843130118
 20
-246.3999999999996
 30
0.0
 11
132.8999999999887
 21
-235.9682161798974
 31
0.0
  0
LINE
  5
25C0
330
2C36
100
AcDbEntity
  8
0
 62
     0
100
AcDbLine
 10
64.75215025263422
 20
-281.3999999999996
 30
0.0
 11
117.2522843130118
 21
-246.3999999999996
 31
0.0
  0
LINE
  5
25C1
330
2C36
100
AcDbEntity
  8
0
 62
     0
100
AcDbLine
 10
112.7523230191236
 20
-246.4000000000015
 30
0.0
 11
132.8999999999905
 21
-232.9682496444821
 31
0.0
  0
LINE
  5
25C2
330
2C36
100
AcDbEntity
  8
0
 62
     0
100
AcDbLine
 10
60.25218895874604
 20
-281.4000000000015
 30
0.0
 11
112.7523230191236
 21
-246.4000000000015
 31
0.0
  0
LINE
  5
25C3
330
2C36
100
AcDbEntity
  8
0
 62
     0
100
AcDbLine
 10
108.2523617252373
 20
-246.4000000000033
 30
0.0
 11
132.8999999999869
 21
-229.9682831090668
 31
0.0
  0
LINE
  5
25C4
330
2C36
100
AcDbEntity
  8
0
 62
     0
100
AcDbLine
 10
55.75222766485968
 20
-281.4000000000033
 30
0.0
 11
108.2523617252373
 21
-246.4000000000033
 31
0.0
  0
LINE
  5
25C5
330
2C36
100
AcDbEntity
  8
0
 62
     0
100
AcDbLine
 10
103.7524004313545
 20
-246.4000000000015
 30
0.0
 11
132.8999999999905
 21
-226.9683165736497
 31
0.0
  0
LINE
  5
25C6
330
2C36
100
AcDbEntity
  8
0
 62
     0
100
AcDbLine
 10
51.25226637097693
 20
-281.4000000000015
 30
0.0
 11
103.7524004313545
 21
-246.4000000000015
 31
0.0
  0
LINE
  5
25C7
330
2C36
100
AcDbEntity
  8
0
 62
     0
100
AcDbLine
 10
99.25243913746999
 20
-246.3999999999996
 30
0.0
 11
132.8999999999887
 21
-223.9683500382343
 31
0.0
  0
LINE
  5
25C8
330
2C36
100
AcDbEntity
  8
0
 62
     0
100
AcDbLine
 10
46.75230507709239
 20
-281.4000000000015
 30
0.0
 11
99.25243913746635
 21
-246.4000000000015
 31
0.0
  0
LINE
  5
25C9
330
2C36
100
AcDbEntity
  8
0
 62
     0
100
AcDbLine
 10
94.75247784358177
 20
-246.4000000000015
 30
0.0
 11
132.8999999999887
 21
-220.9683835028172
 31
0.0
  0
LINE
  5
25CA
330
2C36
100
AcDbEntity
  8
0
 62
     0
100
AcDbLine
 10
42.25234378320418
 20
-281.4000000000033
 30
0.0
 11
94.75247784358177
 21
-246.4000000000015
 31
0.0
  0
LINE
  5
25CB
330
2C36
100
AcDbEntity
  8
0
 62
     0
100
AcDbLine
 10
90.25251654969542
 20
-246.4000000000033
 30
0.0
 11
132.8999999999869
 21
-217.9684169674036
 31
0.0
  0
LINE
  5
25CC
330
2C36
100
AcDbEntity
  8
0
 62
     0
100
AcDbLine
 10
37.75238248931783
 20
-281.4000000000033
 30
0.0
 11
90.25251654969542
 21
-246.4000000000033
 31
0.0
  0
LINE
  5
25CD
330
2C36
100
AcDbEntity
  8
0
 62
     0
100
AcDbLine
 10
85.75255525581265
 20
-246.4000000000015
 30
0.0
 11
132.8999999999887
 21
-214.9684504319848
 31
0.0
  0
LINE
  5
25CE
330
2C36
100
AcDbEntity
  8
0
 62
     0
100
AcDbLine
 10
33.25242119543509
 20
-281.4000000000015
 30
0.0
 11
85.75255525581265
 21
-246.4000000000015
 31
0.0
  0
LINE
  5
25CF
330
2C36
100
AcDbEntity
  8
0
 62
     0
100
AcDbLine
 10
81.25259396192268
 20
-246.4000000000033
 30
0.0
 11
132.8999999999905
 21
-211.9684838965677
 31
0.0
  0
LINE
  5
25D0
330
2C36
100
AcDbEntity
  8
0
 62
     0
100
AcDbLine
 10
28.75245990154872
 20
-281.4000000000015
 30
0.0
 11
81.25259396192268
 21
-246.4000000000033
 31
0.0
  0
LINE
  5
25D1
330
2C36
100
AcDbEntity
  8
0
 62
     0
100
AcDbLine
 10
76.75263266803812
 20
-246.3999999999996
 30
0.0
 11
132.8999999999869
 21
-208.9685173611524
 31
0.0
  0
LINE
  5
25D2
330
2C36
100
AcDbEntity
  8
0
 62
     0
100
AcDbLine
 10
24.25249860766053
 20
-281.4000000000015
 30
0.0
 11
76.75263266803812
 21
-246.3999999999996
 31
0.0
  0
LINE
  5
25D3
330
2C36
100
AcDbEntity
  8
0
 62
     0
100
AcDbLine
 10
72.25267137415356
 20
-246.4000000000015
 30
0.0
 11
132.8999999999905
 21
-205.9685508257353
 31
0.0
  0
LINE
  5
25D4
330
2C36
100
AcDbEntity
  8
0
 62
     0
100
AcDbLine
 10
19.75253731377597
 20
-281.4000000000033
 30
0.0
 11
72.25267137415356
 21
-246.4000000000015
 31
0.0
  0
LINE
  5
25D5
330
2C36
100
AcDbEntity
  8
0
 62
     0
100
AcDbLine
 10
67.75271008027086
 20
-246.4000000000015
 30
0.0
 11
132.8999999999887
 21
-202.9685842903217
 31
0.0
  0
LINE
  5
25D6
330
2C36
100
AcDbEntity
  8
0
 62
     0
100
AcDbLine
 10
15.25257601989324
 20
-281.4000000000015
 30
0.0
 11
67.75271008027086
 21
-246.4000000000015
 31
0.0
  0
LINE
  5
25D7
330
2C36
100
AcDbEntity
  8
0
 62
     0
100
AcDbLine
 10
63.25274878638445
 20
-246.4000000000015
 30
0.0
 11
132.8999999999905
 21
-199.9686177549029
 31
0.0
  0
LINE
  5
25D8
330
2C36
100
AcDbEntity
  8
0
 62
     0
100
AcDbLine
 10
10.75261472600687
 20
-281.4000000000015
 30
0.0
 11
63.25274878638445
 21
-246.4000000000015
 31
0.0
  0
LINE
  5
25D9
330
2C36
100
AcDbEntity
  8
0
 62
     0
100
AcDbLine
 10
58.75278749249628
 20
-246.4000000000015
 30
0.0
 11
132.8999999999869
 21
-196.9686512194876
 31
0.0
  0
LINE
  5
25DA
330
2C36
100
AcDbEntity
  8
0
 62
     0
100
AcDbLine
 10
6.252653432118676
 20
-281.4000000000015
 30
0.0
 11
58.75278749249628
 21
-246.4000000000015
 31
0.0
  0
LINE
  5
25DB
330
2C36
100
AcDbEntity
  8
0
 62
     0
100
AcDbLine
 10
54.25282619861537
 20
-246.3999999999996
 30
0.0
 11
132.8999999999905
 21
-193.9686846840722
 31
0.0
  0
LINE
  5
25DC
330
2C36
100
AcDbEntity
  8
0
 62
     0
100
AcDbLine
 10
1.75269213823776
 20
-281.4000000000015
 30
0.0
 11
54.25282619861537
 21
-246.3999999999996
 31
0.0
  0
LINE
  5
25DD
330
2C36
100
AcDbEntity
  8
0
 62
     0
100
AcDbLine
 10
49.75286490472718
 20
-246.4000000000015
 30
0.0
 11
132.8999999999869
 21
-190.9687181486569
 31
0.0
  0
LINE
  5
25DE
330
2C36
100
AcDbEntity
  8
0
 62
     0
100
AcDbLine
 10
-2.747269155650426
 20
-281.4000000000033
 30
0.0
 11
49.75286490472536
 21
-246.4000000000033
 31
0.0
  0
LINE
  5
25DF
330
2C36
100
AcDbEntity
  8
0
 62
     0
100
AcDbLine
 10
45.2529036108408
 20
-246.4000000000015
 30
0.0
 11
132.8999999999887
 21
-187.9687516132396
 31
0.0
  0
LINE
  5
25E0
330
2C36
100
AcDbEntity
  8
0
 62
     0
100
AcDbLine
 10
-7.247230449536798
 20
-281.4000000000015
 30
0.0
 11
45.2529036108408
 21
-246.4000000000015
 31
0.0
  0
LINE
  5
25E1
330
2C36
100
AcDbEntity
  8
0
 62
     0
100
AcDbLine
 10
40.75294231695443
 20
-246.4000000000015
 30
0.0
 11
132.8999999999905
 21
-184.9687850778209
 31
0.0
  0
LINE
  5
25E2
330
2C36
100
AcDbEntity
  8
0
 62
     0
100
AcDbLine
 10
-11.74719174342135
 20
-281.4000000000015
 30
0.0
 11
40.75294231695443
 21
-246.4000000000015
 31
0.0
  0
LINE
  5
25E3
330
2C36
100
AcDbEntity
  8
0
 62
     0
100
AcDbLine
 10
36.25298102307353
 20
-246.4000000000015
 30
0.0
 11
132.8999999999905
 21
-181.9688185424075
 31
0.0
  0
LINE
  5
25E4
330
2C36
100
AcDbEntity
  8
0
 62
     0
100
AcDbLine
 10
-16.24715303730409
 20
-281.4000000000015
 30
0.0
 11
36.25298102307353
 21
-246.4000000000015
 31
0.0
  0
LINE
  5
25E5
330
2C36
100
AcDbEntity
  8
0
 62
     0
100
AcDbLine
 10
31.75301972918169
 20
-246.4000000000051
 30
0.0
 11
132.8999999999887
 21
-178.9688520069922
 31
0.0
  0
LINE
  5
25E6
330
2C36
100
AcDbEntity
  8
0
 62
     0
100
AcDbLine
 10
-20.7471143311941
 20
-281.4000000000033
 30
0.0
 11
31.75301972918169
 21
-246.4000000000051
 31
0.0
  0
LINE
  5
25E7
330
2C36
100
AcDbEntity
  8
0
 62
     0
100
AcDbLine
 10
27.25305843529895
 20
-246.4000000000015
 30
0.0
 11
132.8999999999887
 21
-175.968885471575
 31
0.0
  0
LINE
  5
25E8
330
2C36
100
AcDbEntity
  8
0
 62
     0
100
AcDbLine
 10
-25.24707562507865
 20
-281.4000000000033
 30
0.0
 11
27.25305843529895
 21
-246.4000000000015
 31
0.0
  0
LINE
  5
25E9
330
2C36
100
AcDbEntity
  8
0
 62
     0
100
AcDbLine
 10
22.75309714141259
 20
-246.4000000000015
 30
0.0
 11
132.8999999999905
 21
-172.9689189361579
 31
0.0
  0
LINE
  5
25EA
330
2C36
100
AcDbEntity
  8
0
 62
     0
100
AcDbLine
 10
-29.74703691896321
 20
-281.4000000000015
 30
0.0
 11
22.75309714141259
 21
-246.4000000000015
 31
0.0
  0
LINE
  5
25EB
330
2C36
100
AcDbEntity
  8
0
 62
     0
100
AcDbLine
 10
18.25313584752985
 20
-246.3999999999996
 30
0.0
 11
132.8999999999887
 21
-169.9689524007408
 31
0.0
  0
LINE
  5
25EC
330
2C36
100
AcDbEntity
  8
0
 62
     0
100
AcDbLine
 10
-34.24699821284777
 20
-281.3999999999996
 30
0.0
 11
18.25313584752985
 21
-246.3999999999996
 31
0.0
  0
LINE
  5
25ED
330
2C36
100
AcDbEntity
  8
0
 62
     0
100
AcDbLine
 10
13.75317455363983
 20
-246.4000000000033
 30
0.0
 11
132.8999999999887
 21
-166.9689858653254
 31
0.0
  0
LINE
  5
25EE
330
2C36
100
AcDbEntity
  8
0
 62
     0
100
AcDbLine
 10
-38.74695950673777
 20
-281.4000000000033
 30
0.0
 11
13.75317455363983
 21
-246.4000000000033
 31
0.0
  0
LINE
  5
25EF
330
2C36
100
AcDbEntity
  8
0
 62
     0
100
AcDbLine
 10
9.253213259757103
 20
-246.4000000000015
 30
0.0
 11
132.8999999999887
 21
-163.969019329912
 31
0.0
  0
LINE
  5
25F0
330
2C36
100
AcDbEntity
  8
0
 62
     0
100
AcDbLine
 10
-43.24692080062049
 20
-281.4000000000033
 30
0.0
 11
9.253213259757103
 21
-246.4000000000015
 31
0.0
  0
LINE
  5
25F1
330
2C36
100
AcDbEntity
  8
0
 62
     0
100
AcDbLine
 10
4.753251965870728
 20
-246.4000000000015
 30
0.0
 11
132.8999999999887
 21
-160.9690527944931
 31
0.0
  0
LINE
  5
25F2
330
2C36
100
AcDbEntity
  8
0
 62
     0
100
AcDbLine
 10
-47.74688209450685
 20
-281.4000000000033
 30
0.0
 11
4.753251965870728
 21
-246.4000000000015
 31
0.0
  0
LINE
  5
25F3
330
2C36
100
AcDbEntity
  8
0
 62
     0
100
AcDbLine
 10
0.2532906719861785
 20
-246.3999999999996
 30
0.0
 11
132.8999999999887
 21
-157.969086259076
 31
0.0
  0
LINE
  5
25F4
330
2C36
100
AcDbEntity
  8
0
 62
     0
100
AcDbLine
 10
-52.24684338839143
 20
-281.3999999999996
 30
0.0
 11
0.2532906719825405
 21
-246.4000000000015
 31
0.0
  0
LINE
  5
25F5
330
2C36
100
AcDbEntity
  8
0
 62
     0
100
AcDbLine
 10
-4.246670621900189
 20
-246.4000000000015
 30
0.0
 11
132.8999999999887
 21
-154.9691197236606
 31
0.0
  0
LINE
  5
25F6
330
2C36
100
AcDbEntity
  8
0
 62
     0
100
AcDbLine
 10
-56.74680468227778
 20
-281.4000000000015
 30
0.0
 11
-4.246670621900189
 21
-246.4000000000015
 31
0.0
  0
LINE
  5
25F7
330
2C36
100
AcDbEntity
  8
0
 62
     0
100
AcDbLine
 10
-8.746631915784744
 20
-246.4000000000033
 30
0.0
 11
132.8999999999905
 21
-151.9691531882454
 31
0.0
  0
LINE
  5
25F8
330
2C36
100
AcDbEntity
  8
0
 62
     0
100
AcDbLine
 10
-61.24676597616235
 20
-281.4000000000033
 30
0.0
 11
-8.746631915784744
 21
-246.4000000000033
 31
0.0
  0
LINE
  5
25F9
330
2C36
100
AcDbEntity
  8
0
 62
     0
100
AcDbLine
 10
-13.2465932096693
 20
-246.3999999999996
 30
0.0
 11
132.8999999999887
 21
-148.9691866528301
 31
0.0
  0
LINE
  5
25FA
330
2C36
100
AcDbEntity
  8
0
 62
     0
100
AcDbLine
 10
-65.7467272700469
 20
-281.4000000000015
 30
0.0
 11
-13.2465932096693
 21
-246.3999999999996
 31
0.0
  0
LINE
  5
25FB
330
2C36
100
AcDbEntity
  8
0
 62
     0
100
AcDbLine
 10
-17.74655450355931
 20
-246.4000000000015
 30
0.0
 11
132.8999999999923
 21
-145.9692201174093
 31
0.0
  0
LINE
  5
25FC
330
2C36
100
AcDbEntity
  8
0
 62
     0
100
AcDbLine
 10
-70.24668856393327
 20
-281.4000000000015
 30
0.0
 11
-17.74655450355931
 21
-246.4000000000015
 31
0.0
  0
LINE
  5
25FD
330
2C36
100
AcDbEntity
  8
0
 62
     0
100
AcDbLine
 10
-22.24651579744204
 20
-246.4000000000015
 30
0.0
 11
132.8999999999923
 21
-142.9692535819959
 31
0.0
  0
LINE
  5
25FE
330
2C36
100
AcDbEntity
  8
0
 62
     0
100
AcDbLine
 10
-74.74664985781784
 20
-281.4000000000015
 30
0.0
 11
-22.24651579744204
 21
-246.4000000000015
 31
0.0
  0
LINE
  5
25FF
330
2C36
100
AcDbEntity
  8
0
 62
     0
100
AcDbLine
 10
-26.74647709132841
 20
-246.4000000000033
 30
0.0
 11
132.8999999999923
 21
-139.9692870465787
 31
0.0
  0
LINE
  5
2600
330
2C36
100
AcDbEntity
  8
0
 62
     0
100
AcDbLine
 10
-79.24661115170602
 20
-281.4000000000033
 30
0.0
 11
-26.74647709132841
 21
-246.4000000000033
 31
0.0
  0
LINE
  5
2601
330
2C36
100
AcDbEntity
  8
0
 62
     0
100
AcDbLine
 10
-31.24643838521297
 20
-246.4000000000015
 30
0.0
 11
132.8999999999923
 21
-136.9693205111616
 31
0.0
  0
LINE
  5
2602
330
2C36
100
AcDbEntity
  8
0
 62
     0
100
AcDbLine
 10
-83.74657244559058
 20
-281.4000000000015
 30
0.0
 11
-31.24643838521297
 21
-246.4000000000015
 31
0.0
  0
LINE
  5
2603
330
2C36
100
AcDbEntity
  8
0
 62
     0
100
AcDbLine
 10
-35.74639967910116
 20
-246.4000000000033
 30
0.0
 11
132.8999999999923
 21
-133.9693539757445
 31
0.0
  0
LINE
  5
2604
330
2C36
100
AcDbEntity
  8
0
 62
     0
100
AcDbLine
 10
-88.24653373947873
 20
-281.4000000000033
 30
0.0
 11
-35.74639967910116
 21
-246.4000000000033
 31
0.0
  0
LINE
  5
2605
330
2C36
100
AcDbEntity
  8
0
 62
     0
100
AcDbLine
 10
-40.24636097298389
 20
-246.3999999999996
 30
0.0
 11
132.8999999999942
 21
-130.9693874403274
 31
0.0
  0
LINE
  5
2606
330
2C36
100
AcDbEntity
  8
0
 62
     0
100
AcDbLine
 10
-92.74649503335968
 20
-281.4000000000015
 30
0.0
 11
-40.24636097298389
 21
-246.3999999999996
 31
0.0
  0
LINE
  5
2607
330
2C36
100
AcDbEntity
  8
0
 62
     0
100
AcDbLine
 10
-44.74632226687027
 20
-246.4000000000015
 30
0.0
 11
132.8999999999923
 21
-127.9694209049139
 31
0.0
  0
LINE
  5
2608
330
2C36
100
AcDbEntity
  8
0
 62
     0
100
AcDbLine
 10
-97.24645632724785
 20
-281.4000000000015
 30
0.0
 11
-44.74632226687027
 21
-246.4000000000015
 31
0.0
  0
LINE
  5
2609
330
2C36
100
AcDbEntity
  8
0
 62
     0
100
AcDbLine
 10
-49.24628356075483
 20
-246.4000000000015
 30
0.0
 11
132.8999999999923
 21
-124.9694543694968
 31
0.0
  0
LINE
  5
260A
330
2C36
100
AcDbEntity
  8
0
 62
     0
100
AcDbLine
 10
-101.7464176211324
 20
-281.4000000000015
 30
0.0
 11
-49.24628356075665
 21
-246.4000000000033
 31
0.0
  0
LINE
  5
260B
330
2C36
100
AcDbEntity
  8
0
 62
     0
100
AcDbLine
 10
-53.74624485463936
 20
-246.4000000000015
 30
0.0
 11
132.8999999999923
 21
-121.9694878340815
 31
0.0
  0
LINE
  5
260C
330
2C36
100
AcDbEntity
  8
0
 62
     0
100
AcDbLine
 10
-106.246378915017
 20
-281.4000000000015
 30
0.0
 11
-53.74624485463936
 21
-246.4000000000015
 31
0.0
  0
LINE
  5
260D
330
2C36
100
AcDbEntity
  8
0
 62
     0
100
AcDbLine
 10
-58.24620614852574
 20
-246.3999999999996
 30
0.0
 11
132.8999999999923
 21
-118.9695212986626
 31
0.0
  0
LINE
  5
260E
330
2C36
100
AcDbEntity
  8
0
 62
     0
100
AcDbLine
 10
-110.7463402089033
 20
-281.4000000000015
 30
0.0
 11
-58.24620614852574
 21
-246.3999999999996
 31
0.0
  0
LINE
  5
260F
330
2C36
100
AcDbEntity
  8
0
 62
     0
100
AcDbLine
 10
-62.74616744241029
 20
-246.3999999999996
 30
0.0
 11
132.8999999999905
 21
-115.9695547632491
 31
0.0
  0
LINE
  5
2610
330
2C36
100
AcDbEntity
  8
0
 62
     0
100
AcDbLine
 10
-115.2463015027879
 20
-281.4000000000015
 30
0.0
 11
-62.74616744241029
 21
-246.3999999999996
 31
0.0
  0
LINE
  5
2611
330
2C36
100
AcDbEntity
  8
0
 62
     0
100
AcDbLine
 10
-67.24612873629846
 20
-246.4000000000033
 30
0.0
 11
132.8999999999923
 21
-112.9695882278338
 31
0.0
  0
LINE
  5
2612
330
2C36
100
AcDbEntity
  8
0
 62
     0
100
AcDbLine
 10
-119.7462627966743
 20
-281.4000000000015
 30
0.0
 11
-67.24612873629846
 21
-246.4000000000033
 31
0.0
  0
LINE
  5
2613
330
2C36
100
AcDbEntity
  8
0
 62
     0
100
AcDbLine
 10
-71.74609003018305
 20
-246.4000000000015
 30
0.0
 11
132.8999999999942
 21
-109.9696216924149
 31
0.0
  0
LINE
  5
2614
330
2C36
100
AcDbEntity
  8
0
 62
     0
100
AcDbLine
 10
-124.2462240905606
 20
-281.4000000000015
 30
0.0
 11
-71.74609003018305
 21
-246.4000000000015
 31
0.0
  0
LINE
  5
2615
330
2C36
100
AcDbEntity
  8
0
 62
     0
100
AcDbLine
 10
-76.2460513240694
 20
-246.4000000000015
 30
0.0
 11
132.8999999999905
 21
-106.9696551569996
 31
0.0
  0
LINE
  5
2616
330
2C36
100
AcDbEntity
  8
0
 62
     0
100
AcDbLine
 10
-128.746185384447
 20
-281.4000000000015
 30
0.0
 11
-76.2460513240694
 21
-246.4000000000015
 31
0.0
  0
LINE
  5
2617
330
2C36
100
AcDbEntity
  8
0
 62
     0
100
AcDbLine
 10
-80.74601261795214
 20
-246.3999999999996
 30
0.0
 11
132.8999999999923
 21
-103.9696886215824
 31
0.0
  0
LINE
  5
2618
330
2C36
100
AcDbEntity
  8
0
 62
     0
100
AcDbLine
 10
-132.9000000000142
 20
-281.1692361370533
 30
0.0
 11
-80.74601261795214
 21
-246.3999999999996
 31
0.0
  0
LINE
  5
2619
330
2C36
100
AcDbEntity
  8
0
 62
     0
100
AcDbLine
 10
-82.90000000000324
 20
-244.8360213857814
 30
0.0
 11
132.8999999999923
 21
-100.969722086169
 31
0.0
  0
LINE
  5
261A
330
2C36
100
AcDbEntity
  8
0
 62
     0
100
AcDbLine
 10
-132.9000000000123
 20
-278.1692696016362
 30
0.0
 11
-82.90000000000324
 21
-244.8360213857814
 31
0.0
  0
LINE
  5
261B
330
2C36
100
AcDbEntity
  8
0
 62
     0
100
AcDbLine
 10
-82.9000000000069
 20
-241.8360548503642
 30
0.0
 11
132.8999999999923
 21
-97.96975555075187
 31
0.0
  0
LINE
  5
261C
330
2C36
100
AcDbEntity
  8
0
 62
     0
100
AcDbLine
 10
-132.9000000000142
 20
-275.1693030662209
 30
0.0
 11
-82.9000000000069
 21
-241.8360548503642
 31
0.0
  0
LINE
  5
261D
330
2C36
100
AcDbEntity
  8
0
 62
     0
100
AcDbLine
 10
-82.90000000000508
 20
-238.8360883149471
 30
0.0
 11
132.8999999999905
 21
-94.96978901533475
 31
0.0
  0
LINE
  5
261E
330
2C36
100
AcDbEntity
  8
0
 62
     0
100
AcDbLine
 10
-132.9000000000142
 20
-272.1693365308038
 30
0.0
 11
-82.90000000000508
 21
-238.8360883149471
 31
0.0
  0
LINE
  5
261F
330
2C36
100
AcDbEntity
  8
0
 62
     0
100
AcDbLine
 10
-82.9000000000069
 20
-235.83612177953
 30
0.0
 11
132.8999999999923
 21
-91.96982247991764
 31
0.0
  0
LINE
  5
2620
330
2C36
100
AcDbEntity
  8
0
 62
     0
100
AcDbLine
 10
-132.9000000000142
 20
-269.1693699953867
 30
0.0
 11
-82.9000000000069
 21
-235.83612177953
 31
0.0
  0
LINE
  5
2621
330
2C36
100
AcDbEntity
  8
0
 62
     0
100
AcDbLine
 10
-82.90000000000508
 20
-232.8361552441148
 30
0.0
 11
132.8999999999942
 21
-88.96985594450052
 31
0.0
  0
LINE
  5
2622
330
2C36
100
AcDbEntity
  8
0
 62
     0
100
AcDbLine
 10
-132.9000000000142
 20
-266.1694034599713
 30
0.0
 11
-82.90000000000508
 21
-232.8361552441148
 31
0.0
  0
LINE
  5
2623
330
2C36
100
AcDbEntity
  8
0
 62
     0
100
AcDbLine
 10
-82.90000000000873
 20
-229.8361887087012
 30
0.0
 11
132.8999999999905
 21
-85.96988940908705
 31
0.0
  0
LINE
  5
2624
330
2C36
100
AcDbEntity
  8
0
 62
     0
100
AcDbLine
 10
-132.900000000016
 20
-263.1694369245561
 30
0.0
 11
-82.90000000000873
 21
-229.8361887087012
 31
0.0
  0
LINE
  5
2625
330
2C36
100
AcDbEntity
  8
0
 62
     0
100
AcDbLine
 10
-82.90000000000508
 20
-226.8362221732822
 30
0.0
 11
132.8999999999942
 21
-82.9699228736681
 31
0.0
  0
LINE
  5
2626
330
2C36
100
AcDbEntity
  8
0
 62
     0
100
AcDbLine
 10
-132.9000000000142
 20
-260.1694703891389
 30
0.0
 11
-82.90000000000508
 21
-226.8362221732822
 31
0.0
  0
LINE
  5
2627
330
2C36
100
AcDbEntity
  8
0
 62
     0
100
AcDbLine
 10
-82.90000000000324
 20
-223.8362556378652
 30
0.0
 11
132.8999999999923
 21
-79.96995633825282
 31
0.0
  0
LINE
  5
2628
330
2C36
100
AcDbEntity
  8
0
 62
     0
100
AcDbLine
 10
-132.9000000000142
 20
-257.1695038537237
 30
0.0
 11
-82.90000000000324
 21
-223.8362556378652
 31
0.0
  0
LINE
  5
2629
330
2C36
100
AcDbEntity
  8
0
 62
     0
100
AcDbLine
 10
-82.90000000000508
 20
-220.8362891024499
 30
0.0
 11
132.8999999999942
 21
-76.96998980283749
 31
0.0
  0
LINE
  5
262A
330
2C36
100
AcDbEntity
  8
0
 62
     0
100
AcDbLine
 10
-132.9000000000142
 20
-254.1695373183066
 30
0.0
 11
-82.90000000000508
 21
-220.8362891024499
 31
0.0
  0
LINE
  5
262B
330
2C36
100
AcDbEntity
  8
0
 62
     0
100
AcDbLine
 10
-82.90000000000508
 20
-217.8363225670346
 30
0.0
 11
132.8999999999905
 21
-73.97002326742222
 31
0.0
  0
LINE
  5
262C
330
2C36
100
AcDbEntity
  8
0
 62
     0
100
AcDbLine
 10
-132.900000000016
 20
-251.1695707828931
 30
0.0
 11
-82.90000000000508
 21
-217.8363225670346
 31
0.0
  0
LINE
  5
262D
330
2C36
100
AcDbEntity
  8
0
 62
     0
100
AcDbLine
 10
-82.90000000000508
 20
-214.8363560316193
 30
0.0
 11
132.8999999999942
 21
-70.9700567320051
 31
0.0
  0
LINE
  5
262E
330
2C36
100
AcDbEntity
  8
0
 62
     0
100
AcDbLine
 10
-132.9000000000142
 20
-248.1696042474741
 30
0.0
 11
-82.90000000000508
 21
-214.8363560316193
 31
0.0
  0
LINE
  5
262F
330
2C36
100
AcDbEntity
  8
0
 62
     0
100
AcDbLine
 10
-82.90000000000508
 20
-211.8363894962004
 30
0.0
 11
132.8999999999942
 21
-67.97009019658617
 31
0.0
  0
LINE
  5
2630
330
2C36
100
AcDbEntity
  8
0
 62
     0
100
AcDbLine
 10
-132.9000000000123
 20
-245.169637712057
 30
0.0
 11
-82.90000000000508
 21
-211.8363894962004
 31
0.0
  0
LINE
  5
2631
330
2C36
100
AcDbEntity
  8
0
 62
     0
100
AcDbLine
 10
-82.9000000000069
 20
-208.8364229607869
 30
0.0
 11
132.8999999999923
 21
-64.97012366117269
 31
0.0
  0
LINE
  5
2632
330
2C36
100
AcDbEntity
  8
0
 62
     0
100
AcDbLine
 10
-132.900000000016
 20
-242.1696711766435
 30
0.0
 11
-82.9000000000069
 21
-208.8364229607869
 31
0.0
  0
LINE
  5
2633
330
2C36
100
AcDbEntity
  8
0
 62
     0
100
AcDbLine
 10
-82.90000000000508
 20
-205.8364564253698
 30
0.0
 11
132.8999999999942
 21
-61.9701571257574
 31
0.0
  0
LINE
  5
2634
330
2C36
100
AcDbEntity
  8
0
 62
     0
100
AcDbLine
 10
-132.9000000000123
 20
-239.1697046412264
 30
0.0
 11
-82.90000000000508
 21
-205.8364564253698
 31
0.0
  0
LINE
  5
2635
330
2C36
100
AcDbEntity
  8
0
 62
     0
100
AcDbLine
 10
-82.90000000000508
 20
-202.8364898899545
 30
0.0
 11
132.8999999999942
 21
-58.97019059034028
 31
0.0
  0
LINE
  5
2636
330
2C36
100
AcDbEntity
  8
0
 62
     0
100
AcDbLine
 10
-132.9000000000142
 20
-236.1697381058111
 30
0.0
 11
-82.90000000000508
 21
-202.8364898899545
 31
0.0
  0
LINE
  5
2637
330
2C36
100
AcDbEntity
  8
0
 62
     0
100
AcDbLine
 10
-82.9000000000069
 20
-199.8365233545372
 30
0.0
 11
132.8999999999923
 21
-55.97022405492315
 31
0.0
  0
LINE
  5
2638
330
2C36
100
AcDbEntity
  8
0
 62
     0
100
AcDbLine
 10
-132.9000000000142
 20
-233.1697715703922
 30
0.0
 11
-82.9000000000069
 21
-199.8365233545372
 31
0.0
  0
LINE
  5
2639
330
2C36
100
AcDbEntity
  8
0
 62
     0
100
AcDbLine
 10
-82.90000000000873
 20
-196.8365568191202
 30
0.0
 11
132.8999999999923
 21
-52.97025751950602
 31
0.0
  0
LINE
  5
263A
330
2C36
100
AcDbEntity
  8
0
 62
     0
100
AcDbLine
 10
-132.900000000016
 20
-230.1698050349769
 30
0.0
 11
-82.90000000000873
 21
-196.8365568191202
 31
0.0
  0
LINE
  5
263B
330
2C36
100
AcDbEntity
  8
0
 62
     0
100
AcDbLine
 10
-82.90000000000508
 20
-193.8365902837048
 30
0.0
 11
128.9554264035632
 21
-52.60000000000218
 31
0.0
  0
LINE
  5
263C
330
2C36
100
AcDbEntity
  8
0
 62
     0
100
AcDbLine
 10
-132.9000000000123
 20
-227.1698384995616
 30
0.0
 11
-82.90000000000508
 21
-193.8365902837048
 31
0.0
  0
LINE
  5
263D
330
2C36
100
AcDbEntity
  8
0
 62
     0
100
AcDbLine
 10
-82.90000000000508
 20
-190.8366237482877
 30
0.0
 11
124.4554651096787
 21
-52.60000000000037
 31
0.0
  0
LINE
  5
263E
330
2C36
100
AcDbEntity
  8
0
 62
     0
100
AcDbLine
 10
-132.9000000000123
 20
-224.1698719641445
 30
0.0
 11
-82.90000000000508
 21
-190.8366237482877
 31
0.0
  0
LINE
  5
263F
330
2C36
100
AcDbEntity
  8
0
 62
     0
100
AcDbLine
 10
-82.9000000000069
 20
-187.8366572128725
 30
0.0
 11
119.9555038157923
 21
-52.60000000000037
 31
0.0
  0
LINE
  5
2640
330
2C36
100
AcDbEntity
  8
0
 62
     0
100
AcDbLine
 10
-132.9000000000142
 20
-221.1699054287292
 30
0.0
 11
-82.9000000000069
 21
-187.8366572128725
 31
0.0
  0
LINE
  5
2641
330
2C36
100
AcDbEntity
  8
0
 62
     0
100
AcDbLine
 10
-82.90000000000508
 20
-184.8366906774536
 30
0.0
 11
115.4555425219059
 21
-52.60000000000037
 31
0.0
  0
LINE
  5
2642
330
2C36
100
AcDbEntity
  8
0
 62
     0
100
AcDbLine
 10
-132.9000000000123
 20
-218.1699388933104
 30
0.0
 11
-82.90000000000508
 21
-184.8366906774536
 31
0.0
  0
LINE
  5
2643
330
2C36
100
AcDbEntity
  8
0
 62
     0
100
AcDbLine
 10
-82.9000000000069
 20
-181.8367241420401
 30
0.0
 11
110.9555812280232
 21
-52.60000000000037
 31
0.0
  0
LINE
  5
2644
330
2C36
100
AcDbEntity
  8
0
 62
     0
100
AcDbLine
 10
-132.9000000000142
 20
-215.1699723578968
 30
0.0
 11
-82.9000000000069
 21
-181.8367241420401
 31
0.0
  0
LINE
  5
2645
330
2C36
100
AcDbEntity
  8
0
 62
     0
100
AcDbLine
 10
-82.9000000000069
 20
-178.8367576066248
 30
0.0
 11
106.455619934135
 21
-52.60000000000218
 31
0.0
  0
LINE
  5
2646
330
2C36
100
AcDbEntity
  8
0
 62
     0
100
AcDbLine
 10
-132.9000000000142
 20
-212.1700058224815
 30
0.0
 11
-82.9000000000069
 21
-178.8367576066248
 31
0.0
  0
LINE
  5
2647
330
2C36
100
AcDbEntity
  8
0
 62
     0
100
AcDbLine
 10
-82.9000000000069
 20
-175.8367910712077
 30
0.0
 11
101.9556586402504
 21
-52.60000000000037
 31
0.0
  0
LINE
  5
2648
330
2C36
100
AcDbEntity
  8
0
 62
     0
100
AcDbLine
 10
-132.9000000000142
 20
-209.1700392870643
 30
0.0
 11
-82.9000000000069
 21
-175.8367910712077
 31
0.0
  0
LINE
  5
2649
330
2C36
100
AcDbEntity
  8
0
 62
     0
100
AcDbLine
 10
-82.90000000000508
 20
-172.8368245357906
 30
0.0
 11
97.45569734636411
 21
-52.60000000000037
 31
0.0
  0
LINE
  5
264A
330
2C36
100
AcDbEntity
  8
0
 62
     0
100
AcDbLine
 10
-132.9000000000123
 20
-206.1700727516472
 30
0.0
 11
-82.90000000000508
 21
-172.8368245357906
 31
0.0
  0
LINE
  5
264B
330
2C36
100
AcDbEntity
  8
0
 62
     0
100
AcDbLine
 10
-82.90000000000508
 20
-169.8368580003734
 30
0.0
 11
92.95573605248137
 21
-52.60000000000037
 31
0.0
  0
LINE
  5
264C
330
2C36
100
AcDbEntity
  8
0
 62
     0
100
AcDbLine
 10
-132.9000000000123
 20
-203.1701062162301
 30
0.0
 11
-82.90000000000508
 21
-169.8368580003734
 31
0.0
  0
LINE
  5
264D
330
2C36
100
AcDbEntity
  8
0
 62
     0
100
AcDbLine
 10
-82.9000000000069
 20
-166.83689146496
 30
0.0
 11
88.45577475859135
 21
-52.60000000000399
 31
0.0
  0
LINE
  5
264E
330
2C36
100
AcDbEntity
  8
0
 62
     0
100
AcDbLine
 10
-132.9000000000142
 20
-200.1701396808166
 30
0.0
 11
-82.9000000000069
 21
-166.83689146496
 31
0.0
  0
LINE
  5
264F
330
2C36
100
AcDbEntity
  8
0
 62
     0
100
AcDbLine
 10
-82.90000000000508
 20
-163.8369249295428
 30
0.0
 11
83.95581346470862
 21
-52.60000000000218
 31
0.0
  0
LINE
  5
2650
330
2C36
100
AcDbEntity
  8
0
 62
     0
100
AcDbLine
 10
-132.9000000000123
 20
-197.1701731453977
 30
0.0
 11
-82.90000000000508
 21
-163.8369249295428
 31
0.0
  0
LINE
  5
2651
330
2C36
100
AcDbEntity
  8
0
 62
     0
100
AcDbLine
 10
-82.9000000000069
 20
-160.8369583941257
 30
0.0
 11
79.45585217082044
 21
-52.60000000000037
 31
0.0
  0
LINE
  5
2652
330
2C36
100
AcDbEntity
  8
0
 62
     0
100
AcDbLine
 10
-132.9000000000142
 20
-194.1702066099824
 30
0.0
 11
-82.9000000000069
 21
-160.8369583941257
 31
0.0
  0
LINE
  5
2653
330
2C36
100
AcDbEntity
  8
0
 62
     0
100
AcDbLine
 10
-82.9000000000069
 20
-157.8369918587086
 30
0.0
 11
74.9558908769377
 21
-52.59999999999855
 31
0.0
  0
LINE
  5
2654
330
2C36
100
AcDbEntity
  8
0
 62
     0
100
AcDbLine
 10
-132.9000000000142
 20
-191.1702400745653
 30
0.0
 11
-82.9000000000069
 21
-157.8369918587086
 31
0.0
  0
LINE
  5
2655
330
2C36
100
AcDbEntity
  8
0
 62
     0
100
AcDbLine
 10
-82.9000000000069
 20
-154.8370253232952
 30
0.0
 11
70.45592958304951
 21
-52.60000000000218
 31
0.0
  0
LINE
  5
2656
330
2C36
100
AcDbEntity
  8
0
 62
     0
100
AcDbLine
 10
-132.9000000000142
 20
-188.17027353915
 30
0.0
 11
-82.9000000000069
 21
-154.8370253232952
 31
0.0
  0
LINE
  5
2657
330
2C36
100
AcDbEntity
  8
0
 62
     0
100
AcDbLine
 10
-82.90000000000508
 20
-151.837058787878
 30
0.0
 11
65.95596828916679
 21
-52.60000000000218
 31
0.0
  0
LINE
  5
2658
330
2C36
100
AcDbEntity
  8
0
 62
     0
100
AcDbLine
 10
-132.9000000000123
 20
-185.1703070037347
 30
0.0
 11
-82.90000000000508
 21
-151.837058787878
 31
0.0
  0
LINE
  5
2659
330
2C36
100
AcDbEntity
  8
0
 62
     0
100
AcDbLine
 10
-82.90000000000324
 20
-148.8370922524609
 30
0.0
 11
61.45600699527857
 21
-52.60000000000218
 31
0.0
  0
LINE
  5
265A
330
2C36
100
AcDbEntity
  8
0
 62
     0
100
AcDbLine
 10
-132.9000000000142
 20
-182.1703404683194
 30
0.0
 11
-82.9000000000069
 21
-148.8370922524627
 31
0.0
  0
LINE
  5
265B
330
2C36
100
AcDbEntity
  8
0
 62
     0
100
AcDbLine
 10
-82.9000000000069
 20
-145.8371257170438
 30
0.0
 11
56.95604570139586
 21
-52.59999999999855
 31
0.0
  0
LINE
  5
265C
330
2C36
100
AcDbEntity
  8
0
 62
     0
100
AcDbLine
 10
-132.9000000000142
 20
-179.1703739329004
 30
0.0
 11
-82.9000000000069
 21
-145.8371257170438
 31
0.0
  0
LINE
  5
265D
330
2C36
100
AcDbEntity
  8
0
 62
     0
100
AcDbLine
 10
-82.9000000000069
 20
-142.8371591816303
 30
0.0
 11
52.45608440750948
 21
-52.60000000000037
 31
0.0
  0
LINE
  5
265E
330
2C36
100
AcDbEntity
  8
0
 62
     0
100
AcDbLine
 10
-132.9000000000142
 20
-176.170407397487
 30
0.0
 11
-82.9000000000069
 21
-142.8371591816303
 31
0.0
  0
LINE
  5
265F
330
2C36
100
AcDbEntity
  8
0
 62
     0
100
AcDbLine
 10
-82.9000000000069
 20
-139.8371926462132
 30
0.0
 11
47.95612311362311
 21
-52.60000000000218
 31
0.0
  0
LINE
  5
2660
330
2C36
100
AcDbEntity
  8
0
 62
     0
100
AcDbLine
 10
-132.9000000000142
 20
-173.1704408620698
 30
0.0
 11
-82.9000000000069
 21
-139.8371926462132
 31
0.0
  0
LINE
  5
2661
330
2C36
100
AcDbEntity
  8
0
 62
     0
100
AcDbLine
 10
-82.90000000000508
 20
-136.8372261107961
 30
0.0
 11
43.45616181973855
 21
-52.60000000000037
 31
0.0
  0
LINE
  5
2662
330
2C36
100
AcDbEntity
  8
0
 62
     0
100
AcDbLine
 10
-132.9000000000142
 20
-170.1704743266527
 30
0.0
 11
-82.90000000000508
 21
-136.8372261107961
 31
0.0
  0
LINE
  5
2663
330
2C36
100
AcDbEntity
  8
0
 62
     0
100
AcDbLine
 10
-82.9000000000069
 20
-133.8372595753808
 30
0.0
 11
38.95620052585036
 21
-52.60000000000218
 31
0.0
  0
LINE
  5
2664
330
2C36
100
AcDbEntity
  8
0
 62
     0
100
AcDbLine
 10
-132.9000000000105
 20
-167.1705077912338
 30
0.0
 11
-82.9000000000069
 21
-133.8372595753808
 31
0.0
  0
LINE
  5
2665
330
2C36
100
AcDbEntity
  8
0
 62
     0
100
AcDbLine
 10
-82.90000000000324
 20
-130.8372930399637
 30
0.0
 11
34.45623923196763
 21
-52.60000000000037
 31
0.0
  0
LINE
  5
2666
330
2C36
100
AcDbEntity
  8
0
 62
     0
100
AcDbLine
 10
-132.9000000000087
 20
-164.1705412558185
 30
0.0
 11
-82.90000000000324
 21
-130.8372930399637
 31
0.0
  0
LINE
  5
2667
330
2C36
100
AcDbEntity
  8
0
 62
     0
100
AcDbLine
 10
-82.90000000000873
 20
-127.8373265045502
 30
0.0
 11
29.95627793807944
 21
-52.60000000000218
 31
0.0
  0
LINE
  5
2668
330
2C36
100
AcDbEntity
  8
0
 62
     0
100
AcDbLine
 10
-132.9000000000123
 20
-161.170574720405
 30
0.0
 11
-82.90000000000873
 21
-127.8373265045502
 31
0.0
  0
LINE
  5
2669
330
2C36
100
AcDbEntity
  8
0
 62
     0
100
AcDbLine
 10
-82.90000000000508
 20
-124.8373599691313
 30
0.0
 11
25.45631664419671
 21
-52.60000000000037
 31
0.0
  0
LINE
  5
266A
330
2C36
100
AcDbEntity
  8
0
 62
     0
100
AcDbLine
 10
-132.9000000000105
 20
-158.1706081849861
 30
0.0
 11
-82.90000000000508
 21
-124.8373599691313
 31
0.0
  0
LINE
  5
266B
330
2C36
100
AcDbEntity
  8
0
 62
     0
100
AcDbLine
 10
-82.9000000000069
 20
-121.837393433716
 30
0.0
 11
20.95635535030851
 21
-52.60000000000218
 31
0.0
  0
LINE
  5
266C
330
2C36
100
AcDbEntity
  8
0
 62
     0
100
AcDbLine
 10
-132.9000000000105
 20
-155.1706416495708
 30
0.0
 11
-82.9000000000069
 21
-121.837393433716
 31
0.0
  0
LINE
  5
266D
330
2C36
100
AcDbEntity
  8
0
 62
     0
100
AcDbLine
 10
-82.90000000000508
 20
-118.8374268982989
 30
0.0
 11
16.45639405642396
 21
-52.60000000000037
 31
0.0
  0
LINE
  5
266E
330
2C36
100
AcDbEntity
  8
0
 62
     0
100
AcDbLine
 10
-132.9000000000105
 20
-152.1706751141519
 30
0.0
 11
-82.90000000000508
 21
-118.8374268982989
 31
0.0
  0
LINE
  5
266F
330
2C36
100
AcDbEntity
  8
0
 62
     0
100
AcDbLine
 10
-82.90000000000508
 20
-115.8374603628817
 30
0.0
 11
11.95643276253758
 21
-52.60000000000037
 31
0.0
  0
LINE
  5
2670
330
2C36
100
AcDbEntity
  8
0
 62
     0
100
AcDbLine
 10
-132.9000000000123
 20
-149.1707085787384
 30
0.0
 11
-82.90000000000508
 21
-115.8374603628817
 31
0.0
  0
LINE
  5
2671
330
2C36
100
AcDbEntity
  8
0
 62
     0
100
AcDbLine
 10
-82.90000000000508
 20
-112.8374938274683
 30
0.0
 11
7.456471468653035
 21
-52.60000000000218
 31
0.0
  0
LINE
  5
2672
330
2C36
100
AcDbEntity
  8
0
 62
     0
100
AcDbLine
 10
-132.9000000000105
 20
-146.1707420433231
 30
0.0
 11
-82.90000000000508
 21
-112.8374938274683
 31
0.0
  0
LINE
  5
2673
330
2C36
100
AcDbEntity
  8
0
 62
     0
100
AcDbLine
 10
-82.90000000000508
 20
-109.8375272920493
 30
0.0
 11
2.956510174768482
 21
-52.60000000000037
 31
0.0
  0
LINE
  5
2674
330
2C36
100
AcDbEntity
  8
0
 62
     0
100
AcDbLine
 10
-132.9000000000105
 20
-143.1707755079042
 30
0.0
 11
-82.90000000000508
 21
-109.8375272920493
 31
0.0
  0
LINE
  5
2675
330
2C36
100
AcDbEntity
  8
0
 62
     0
100
AcDbLine
 10
-82.9000000000069
 20
-106.837560756634
 30
0.0
 11
-1.543451119119708
 21
-52.60000000000037
 31
0.0
  0
LINE
  5
2676
330
2C36
100
AcDbEntity
  8
0
 62
     0
100
AcDbLine
 10
-132.9000000000123
 20
-140.1708089724889
 30
0.0
 11
-82.9000000000069
 21
-106.837560756634
 31
0.0
  0
LINE
  5
2677
330
2C36
100
AcDbEntity
  8
0
 62
     0
100
AcDbLine
 10
-82.90000000000508
 20
-103.8375942212186
 30
0.0
 11
-6.043412413000622
 21
-52.60000000000037
 31
0.0
  0
LINE
  5
2678
330
2C36
100
AcDbEntity
  8
0
 62
     0
100
AcDbLine
 10
-132.9000000000105
 20
-137.1708424370718
 30
0.0
 11
-82.90000000000508
 21
-103.8375942212186
 31
0.0
  0
LINE
  5
2679
330
2C36
100
AcDbEntity
  8
0
 62
     0
100
AcDbLine
 10
-82.90000000000508
 20
-100.8376276858034
 30
0.0
 11
-10.54337370688881
 21
-52.60000000000218
 31
0.0
  0
LINE
  5
267A
330
2C36
100
AcDbEntity
  8
0
 62
     0
100
AcDbLine
 10
-132.9000000000105
 20
-134.1708759016583
 30
0.0
 11
-82.90000000000508
 21
-100.8376276858034
 31
0.0
  0
LINE
  5
267B
330
2C36
100
AcDbEntity
  8
0
 62
     0
100
AcDbLine
 10
-82.90000000000508
 20
-97.83766115038636
 30
0.0
 11
-15.04333500077336
 21
-52.60000000000037
 31
0.0
  0
LINE
  5
267C
330
2C36
100
AcDbEntity
  8
0
 62
     0
100
AcDbLine
 10
-132.9000000000105
 20
-131.1709093662393
 30
0.0
 11
-82.90000000000508
 21
-97.83766115038636
 31
0.0
  0
LINE
  5
267D
330
2C36
100
AcDbEntity
  8
0
 62
     0
100
AcDbLine
 10
-82.90000000000508
 20
-94.8376946149674
 30
0.0
 11
-19.54329629466156
 21
-52.60000000000037
 31
0.0
  0
LINE
  5
267E
330
2C36
100
AcDbEntity
  8
0
 62
     0
100
AcDbLine
 10
-132.9000000000123
 20
-128.170942830824
 30
0.0
 11
-82.9000000000069
 21
-94.83769461496921
 31
0.0
  0
LINE
  5
267F
330
2C36
100
AcDbEntity
  8
0
 62
     0
100
AcDbLine
 10
-82.90000000000508
 20
-91.83772807955392
 30
0.0
 11
-24.04325758854611
 21
-52.60000000000218
 31
0.0
  0
LINE
  5
2680
330
2C36
100
AcDbEntity
  8
0
 62
     0
100
AcDbLine
 10
-132.9000000000105
 20
-125.1709762954087
 30
0.0
 11
-82.90000000000508
 21
-91.83772807955392
 31
0.0
  0
LINE
  5
2681
330
2C36
100
AcDbEntity
  8
0
 62
     0
100
AcDbLine
 10
-82.90000000000508
 20
-88.83776154413864
 30
0.0
 11
-28.54321888243248
 21
-52.60000000000399
 31
0.0
  0
LINE
  5
2682
330
2C36
100
AcDbEntity
  8
0
 62
     0
100
AcDbLine
 10
-132.9000000000087
 20
-122.1710097599916
 30
0.0
 11
-82.9000000000069
 21
-88.83776154414045
 31
0.0
  0
LINE
  5
2683
330
2C36
100
AcDbEntity
  8
0
 62
     0
100
AcDbLine
 10
-82.9000000000069
 20
-85.8377950087215
 30
0.0
 11
-33.04318017631704
 21
-52.60000000000037
 31
0.0
  0
LINE
  5
2684
330
2C36
100
AcDbEntity
  8
0
 62
     0
100
AcDbLine
 10
-132.9000000000123
 20
-119.1710432245763
 30
0.0
 11
-82.9000000000069
 21
-85.8377950087215
 31
0.0
  0
LINE
  5
2685
330
2C36
100
AcDbEntity
  8
0
 62
     0
100
AcDbLine
 10
-82.90000000000508
 20
-82.83782847330437
 30
0.0
 11
-37.54314147020159
 21
-52.60000000000037
 31
0.0
  0
LINE
  5
2686
330
2C36
100
AcDbEntity
  8
0
 62
     0
100
AcDbLine
 10
-132.9000000000087
 20
-116.1710766891574
 30
0.0
 11
-82.90000000000508
 21
-82.83782847330437
 31
0.0
  0
LINE
  5
2687
330
2C36
100
AcDbEntity
  8
0
 62
     0
100
AcDbLine
 10
-82.90000000000508
 20
-79.83786193788728
 30
0.0
 11
-42.04310276408796
 21
-52.60000000000037
 31
0.0
  0
LINE
  5
2688
330
2C36
100
AcDbEntity
  8
0
 62
     0
100
AcDbLine
 10
-132.9000000000105
 20
-113.1711101537421
 30
0.0
 11
-82.90000000000508
 21
-79.83786193788728
 31
0.0
  0
LINE
  5
2689
330
2C36
100
AcDbEntity
  8
0
 62
     0
100
AcDbLine
 10
-82.9000000000069
 20
-76.83789540247198
 30
0.0
 11
-46.54306405797615
 21
-52.60000000000218
 31
0.0
  0
LINE
  5
268A
330
2C36
100
AcDbEntity
  8
0
 62
     0
100
AcDbLine
 10
-132.9000000000105
 20
-110.1711436183268
 30
0.0
 11
-82.9000000000069
 21
-76.83789540247198
 31
0.0
  0
LINE
  5
268B
330
2C36
100
AcDbEntity
  8
0
 62
     0
100
AcDbLine
 10
-82.9000000000069
 20
-73.83792886705849
 30
0.0
 11
-51.04302535185889
 21
-52.60000000000218
 31
0.0
  0
LINE
  5
268C
330
2C36
100
AcDbEntity
  8
0
 62
     0
100
AcDbLine
 10
-132.9000000000123
 20
-107.1711770829115
 30
0.0
 11
-82.9000000000069
 21
-73.83792886705849
 31
0.0
  0
LINE
  5
268D
330
2C36
100
AcDbEntity
  8
0
 62
     0
100
AcDbLine
 10
-82.90000000000508
 20
-70.83796233163956
 30
0.0
 11
-55.54298664574344
 21
-52.60000000000037
 31
0.0
  0
LINE
  5
268E
330
2C36
100
AcDbEntity
  8
0
 62
     0
100
AcDbLine
 10
-132.9000000000087
 20
-104.1712105474944
 30
0.0
 11
-82.90000000000508
 21
-70.83796233163956
 31
0.0
  0
LINE
  5
268F
330
2C36
100
AcDbEntity
  8
0
 62
     0
100
AcDbLine
 10
-82.9000000000069
 20
-67.83799579622428
 30
0.0
 11
-60.04294793963163
 21
-52.60000000000037
 31
0.0
  0
LINE
  5
2690
330
2C36
100
AcDbEntity
  8
0
 62
     0
100
AcDbLine
 10
-132.9000000000087
 20
-101.1712440120754
 30
0.0
 11
-82.9000000000069
 21
-67.83799579622428
 31
0.0
  0
LINE
  5
2691
330
2C36
100
AcDbEntity
  8
0
 62
     0
100
AcDbLine
 10
-82.9000000000069
 20
-64.83802926080715
 30
0.0
 11
-64.54290923351618
 21
-52.60000000000037
 31
0.0
  0
LINE
  5
2692
330
2C36
100
AcDbEntity
  8
0
 62
     0
100
AcDbLine
 10
-132.9000000000105
 20
-98.17127747666201
 30
0.0
 11
-82.9000000000069
 21
-64.83802926080715
 31
0.0
  0
LINE
  5
2693
330
2C36
100
AcDbEntity
  8
0
 62
     0
100
AcDbLine
 10
-82.90000000000508
 20
-61.83806272539186
 30
0.0
 11
-69.04287052740073
 21
-52.60000000000218
 31
0.0
  0
LINE
  5
2694
330
2C36
100
AcDbEntity
  8
0
 62
     0
100
AcDbLine
 10
-132.9000000000087
 20
-95.17131094124669
 30
0.0
 11
-82.90000000000508
 21
-61.83806272539186
 31
0.0
  0
LINE
  5
2695
330
2C36
100
AcDbEntity
  8
0
 62
     0
100
AcDbLine
 10
-82.9000000000069
 20
-58.83809618997656
 30
0.0
 11
-73.5428318212871
 21
-52.60000000000218
 31
0.0
  0
LINE
  5
2696
330
2C36
100
AcDbEntity
  8
0
 62
     0
100
AcDbLine
 10
-132.9000000000105
 20
-92.17134440582958
 30
0.0
 11
-82.9000000000069
 21
-58.83809618997656
 31
0.0
  0
LINE
  5
2697
330
2C36
100
AcDbEntity
  8
0
 62
     0
100
AcDbLine
 10
-82.9000000000069
 20
-55.83812965455763
 30
0.0
 11
-78.0427931151753
 21
-52.60000000000218
 31
0.0
  0
LINE
  5
2698
330
2C36
100
AcDbEntity
  8
0
 62
     0
100
AcDbLine
 10
-132.9000000000105
 20
-89.17137787041244
 30
0.0
 11
-82.9000000000069
 21
-55.83812965455763
 31
0.0
  0
LINE
  5
2699
330
2C36
100
AcDbEntity
  8
0
 62
     0
100
AcDbLine
 10
-82.9000000000069
 20
-52.83816311914414
 30
0.0
 11
-82.54275440905804
 21
-52.60000000000037
 31
0.0
  0
LINE
  5
269A
330
2C36
100
AcDbEntity
  8
0
 62
     0
100
AcDbLine
 10
-132.9000000000105
 20
-86.17141133499718
 30
0.0
 11
-82.9000000000069
 21
-52.83816311914414
 31
0.0
  0
LINE
  5
269B
330
2C36
100
AcDbEntity
  8
0
 62
     0
100
AcDbLine
 10
-132.9000000000087
 20
-83.17144479958185
 30
0.0
 11
-87.04271570294258
 21
-52.60000000000218
 31
0.0
  0
LINE
  5
269C
330
2C36
100
AcDbEntity
  8
0
 62
     0
100
AcDbLine
 10
-132.9000000000087
 20
-80.17147826416476
 30
0.0
 11
-91.54267699682714
 21
-52.60000000000037
 31
0.0
  0
LINE
  5
269D
330
2C36
100
AcDbEntity
  8
0
 62
     0
100
AcDbLine
 10
-132.9000000000105
 20
-77.17151172874766
 30
0.0
 11
-96.04263829071717
 21
-52.60000000000218
 31
0.0
  0
LINE
  5
269E
330
2C36
100
AcDbEntity
  8
0
 62
     0
100
AcDbLine
 10
-132.9000000000087
 20
-74.17154519333235
 30
0.0
 11
-100.542599584598
 21
-52.60000000000037
 31
0.0
  0
LINE
  5
269F
330
2C36
100
AcDbEntity
  8
0
 62
     0
100
AcDbLine
 10
-132.9000000000105
 20
-71.17157865791523
 30
0.0
 11
-105.0425608784862
 21
-52.60000000000037
 31
0.0
  0
LINE
  5
26A0
330
2C36
100
AcDbEntity
  8
0
 62
     0
100
AcDbLine
 10
-132.9000000000105
 20
-68.17161212249994
 30
0.0
 11
-109.5425221723708
 21
-52.60000000000037
 31
0.0
  0
LINE
  5
26A1
330
2C36
100
AcDbEntity
  8
0
 62
     0
100
AcDbLine
 10
-132.9000000000105
 20
-65.17164558708464
 30
0.0
 11
-114.0424834662553
 21
-52.60000000000037
 31
0.0
  0
LINE
  5
26A2
330
2C36
100
AcDbEntity
  8
0
 62
     0
100
AcDbLine
 10
-132.9000000000087
 20
-62.1716790516657
 30
0.0
 11
-118.5424447601399
 21
-52.60000000000037
 31
0.0
  0
LINE
  5
26A3
330
2C36
100
AcDbEntity
  8
0
 62
     0
100
AcDbLine
 10
-132.9000000000105
 20
-59.17171251625222
 30
0.0
 11
-123.0424060540245
 21
-52.59999999999855
 31
0.0
  0
LINE
  5
26A4
330
2C36
100
AcDbEntity
  8
0
 62
     0
100
AcDbLine
 10
-132.9000000000105
 20
-56.17174598083511
 30
0.0
 11
-127.5423673479145
 21
-52.60000000000218
 31
0.0
  0
LINE
  5
26A5
330
2C36
100
AcDbEntity
  8
0
 62
     0
100
AcDbLine
 10
-132.9000000000105
 20
-53.17177944541981
 30
0.0
 11
-132.0423286417972
 21
-52.60000000000037
 31
0.0
  0
ENDBLK
  5
26A6
330
2C36
100
AcDbEntity
  8
0
100
AcDbBlockEnd
  0
BLOCK
  5
2C39
330
2C38
100
AcDbEntity
  8
0
100
AcDbBlockBegin
  2
*X69
 70
     1
 10
0.0
 20
0.0
 30
0.0
  3
*X69
  1

  0
LINE
  5
26A9
330
2C38
100
AcDbEntity
  8
0
 62
     0
100
AcDbLine
 10
-132.9000000000069
 20
-279.0192890395574
 30
0.0
 11
-129.3289244405114
 21
-281.4000000000015
 31
0.0
  0
LINE
  5
26AA
330
2C38
100
AcDbEntity
  8
0
 62
     0
100
AcDbLine
 10
-132.9000000000087
 20
-276.0193225041421
 30
0.0
 11
-124.8289631466232
 21
-281.4000000000051
 31
0.0
  0
LINE
  5
26AB
330
2C38
100
AcDbEntity
  8
0
 62
     0
100
AcDbLine
 10
-132.9000000000087
 20
-273.019355968725
 30
0.0
 11
-120.3290018527404
 21
-281.4000000000033
 31
0.0
  0
LINE
  5
26AC
330
2C38
100
AcDbEntity
  8
0
 62
     0
100
AcDbLine
 10
-132.9000000000087
 20
-270.0193894333079
 30
0.0
 11
-115.8290405588541
 21
-281.4000000000051
 31
0.0
  0
LINE
  5
26AD
330
2C38
100
AcDbEntity
  8
0
 62
     0
100
AcDbLine
 10
-132.9000000000069
 20
-267.0194228978926
 30
0.0
 11
-111.3290792649695
 21
-281.4000000000015
 31
0.0
  0
LINE
  5
26AE
330
2C38
100
AcDbEntity
  8
0
 62
     0
100
AcDbLine
 10
-132.9000000000087
 20
-264.0194563624773
 30
0.0
 11
-106.829117971085
 21
-281.4000000000033
 31
0.0
  0
LINE
  5
26AF
330
2C38
100
AcDbEntity
  8
0
 62
     0
100
AcDbLine
 10
-132.9000000000087
 20
-261.0194898270602
 30
0.0
 11
-102.3291566771968
 21
-281.4000000000033
 31
0.0
  0
LINE
  5
26B0
330
2C38
100
AcDbEntity
  8
0
 62
     0
100
AcDbLine
 10
-132.9000000000069
 20
-258.0195232916449
 30
0.0
 11
-97.82919538331222
 21
-281.4000000000024
 31
0.0
  0
LINE
  5
26B1
330
2C38
100
AcDbEntity
  8
0
 62
     0
100
AcDbLine
 10
-132.9000000000087
 20
-255.0195567562278
 30
0.0
 11
-93.3292340894277
 21
-281.4000000000024
 31
0.0
  0
LINE
  5
26B2
330
2C38
100
AcDbEntity
  8
0
 62
     0
100
AcDbLine
 10
-132.9000000000087
 20
-252.0195902208125
 30
0.0
 11
-88.82927279554314
 21
-281.4000000000042
 31
0.0
  0
LINE
  5
26B3
330
2C38
100
AcDbEntity
  8
0
 62
     0
100
AcDbLine
 10
-132.9000000000087
 20
-249.0196236853953
 30
0.0
 11
-84.32931150165494
 21
-281.4000000000033
 31
0.0
  0
LINE
  5
26B4
330
2C38
100
AcDbEntity
  8
0
 62
     0
100
AcDbLine
 10
-132.9000000000069
 20
-246.0196571499801
 30
0.0
 11
-79.8293502077704
 21
-281.4000000000033
 31
0.0
  0
LINE
  5
26B5
330
2C38
100
AcDbEntity
  8
0
 62
     0
100
AcDbLine
 10
-132.9000000000087
 20
-243.0196906145629
 30
0.0
 11
-75.32938891388579
 21
-281.4000000000033
 31
0.0
  0
LINE
  5
26B6
330
2C38
100
AcDbEntity
  8
0
 62
     0
100
AcDbLine
 10
-132.9000000000069
 20
-240.0197240791476
 30
0.0
 11
-70.82942761999948
 21
-281.4000000000042
 31
0.0
  0
LINE
  5
26B7
330
2C38
100
AcDbEntity
  8
0
 62
     0
100
AcDbLine
 10
-132.9000000000087
 20
-237.0197575437305
 30
0.0
 11
-66.32946632611129
 21
-281.4000000000042
 31
0.0
  0
LINE
  5
26B8
330
2C38
100
AcDbEntity
  8
0
 62
     0
100
AcDbLine
 10
-132.9000000000069
 20
-234.0197910083152
 30
0.0
 11
-61.82950503222855
 21
-281.4000000000015
 31
0.0
  0
LINE
  5
26B9
330
2C38
100
AcDbEntity
  8
0
 62
     0
100
AcDbLine
 10
-132.9000000000105
 20
-231.0198244728981
 30
0.0
 11
-57.329543738344
 21
-281.4000000000033
 31
0.0
  0
LINE
  5
26BA
330
2C38
100
AcDbEntity
  8
0
 62
     0
100
AcDbLine
 10
-132.9000000000069
 20
-228.019857937481
 30
0.0
 11
-52.8295824444558
 21
-281.4000000000033
 31
0.0
  0
LINE
  5
26BB
330
2C38
100
AcDbEntity
  8
0
 62
     0
100
AcDbLine
 10
-132.9000000000087
 20
-225.0198914020657
 30
0.0
 11
-48.32962115057306
 21
-281.4000000000024
 31
0.0
  0
LINE
  5
26BC
330
2C38
100
AcDbEntity
  8
0
 62
     0
100
AcDbLine
 10
-132.9000000000087
 20
-222.0199248666504
 30
0.0
 11
-43.82965985668852
 21
-281.4000000000024
 31
0.0
  0
LINE
  5
26BD
330
2C38
100
AcDbEntity
  8
0
 62
     0
100
AcDbLine
 10
-132.9000000000087
 20
-219.0199583312351
 30
0.0
 11
-39.32969856280033
 21
-281.4000000000033
 31
0.0
  0
LINE
  5
26BE
330
2C38
100
AcDbEntity
  8
0
 62
     0
100
AcDbLine
 10
-132.9000000000069
 20
-216.019991795818
 30
0.0
 11
-34.82973726891396
 21
-281.4000000000033
 31
0.0
  0
LINE
  5
26BF
330
2C38
100
AcDbEntity
  8
0
 62
     0
100
AcDbLine
 10
-82.89999999999961
 20
-246.3532734762584
 30
0.0
 11
-82.82991003540884
 21
-246.4000000000023
 31
0.0
  0
LINE
  5
26C0
330
2C38
100
AcDbEntity
  8
0
 62
     0
100
AcDbLine
 10
-82.82991003540884
 20
-246.4000000000023
 30
0.0
 11
-30.32977597503123
 21
-281.4000000000033
 31
0.0
  0
LINE
  5
26C1
330
2C38
100
AcDbEntity
  8
0
 62
     0
100
AcDbLine
 10
-132.9000000000087
 20
-213.0200252604027
 30
0.0
 11
-82.90000000000508
 21
-246.3532734762557
 31
0.0
  0
LINE
  5
26C2
330
2C38
100
AcDbEntity
  8
0
 62
     0
100
AcDbLine
 10
-82.89999999999961
 20
-243.3533069408422
 30
0.0
 11
-78.32994874152062
 21
-246.4000000000023
 31
0.0
  0
LINE
  5
26C3
330
2C38
100
AcDbEntity
  8
0
 62
     0
100
AcDbLine
 10
-78.32994874152062
 20
-246.4000000000023
 30
0.0
 11
-25.82981468114486
 21
-281.4000000000024
 31
0.0
  0
LINE
  5
26C4
330
2C38
100
AcDbEntity
  8
0
 62
     0
100
AcDbLine
 10
-132.9000000000069
 20
-210.0200587249856
 30
0.0
 11
-82.90000000000324
 21
-243.3533069408385
 31
0.0
  0
LINE
  5
26C5
330
2C38
100
AcDbEntity
  8
0
 62
     0
100
AcDbLine
 10
-82.89999999999782
 20
-240.3533404054269
 30
0.0
 11
-73.82998744763426
 21
-246.4000000000033
 31
0.0
  0
LINE
  5
26C6
330
2C38
100
AcDbEntity
  8
0
 62
     0
100
AcDbLine
 10
-73.82998744763426
 20
-246.4000000000033
 30
0.0
 11
-21.32985338725665
 21
-281.4000000000042
 31
0.0
  0
LINE
  5
26C7
330
2C38
100
AcDbEntity
  8
0
 62
     0
100
AcDbLine
 10
-132.9000000000069
 20
-207.0200921895703
 30
0.0
 11
-82.90000000000324
 21
-240.3533404054233
 31
0.0
  0
LINE
  5
26C8
330
2C38
100
AcDbEntity
  8
0
 62
     0
100
AcDbLine
 10
-82.89999999999961
 20
-237.3533738700098
 30
0.0
 11
-69.33002615374971
 21
-246.4000000000033
 31
0.0
  0
LINE
  5
26C9
330
2C38
100
AcDbEntity
  8
0
 62
     0
100
AcDbLine
 10
-69.33002615374971
 20
-246.4000000000033
 30
0.0
 11
-16.8298920933721
 21
-281.4000000000042
 31
0.0
  0
LINE
  5
26CA
330
2C38
100
AcDbEntity
  8
0
 62
     0
100
AcDbLine
 10
-132.9000000000087
 20
-204.0201256541532
 30
0.0
 11
-82.90000000000324
 21
-237.3533738700062
 31
0.0
  0
LINE
  5
26CB
330
2C38
100
AcDbEntity
  8
0
 62
     0
100
AcDbLine
 10
-82.89999999999961
 20
-234.3534073345945
 30
0.0
 11
-64.83006485986696
 21
-246.4000000000023
 31
0.0
  0
LINE
  5
26CC
330
2C38
100
AcDbEntity
  8
0
 62
     0
100
AcDbLine
 10
-64.83006485986696
 20
-246.4000000000023
 30
0.0
 11
-12.32993079948937
 21
-281.4000000000033
 31
0.0
  0
LINE
  5
26CD
330
2C38
100
AcDbEntity
  8
0
 62
     0
100
AcDbLine
 10
-132.9000000000087
 20
-201.0201591187378
 30
0.0
 11
-82.90000000000508
 21
-234.3534073345909
 31
0.0
  0
LINE
  5
26CE
330
2C38
100
AcDbEntity
  8
0
 62
     0
100
AcDbLine
 10
-82.90000000000146
 20
-231.3534407991774
 30
0.0
 11
-60.33010356598061
 21
-246.4000000000023
 31
0.0
  0
LINE
  5
26CF
330
2C38
100
AcDbEntity
  8
0
 62
     0
100
AcDbLine
 10
-60.33010356597697
 20
-246.4000000000042
 30
0.0
 11
-7.829969505603003
 21
-281.4000000000033
 31
0.0
  0
LINE
  5
26D0
330
2C38
100
AcDbEntity
  8
0
 62
     0
100
AcDbLine
 10
-132.9000000000087
 20
-198.0201925833203
 30
0.0
 11
-82.90000000000324
 21
-231.3534407991756
 31
0.0
  0
LINE
  5
26D1
330
2C38
100
AcDbEntity
  8
0
 62
     0
100
AcDbLine
 10
-82.89999999999782
 20
-228.3534742637603
 30
0.0
 11
-55.83014227209242
 21
-246.4000000000023
 31
0.0
  0
LINE
  5
26D2
330
2C38
100
AcDbEntity
  8
0
 62
     0
100
AcDbLine
 10
-55.83014227209242
 20
-246.4000000000023
 30
0.0
 11
-3.330008211714812
 21
-281.4000000000024
 31
0.0
  0
LINE
  5
26D3
330
2C38
100
AcDbEntity
  8
0
 62
     0
100
AcDbLine
 10
-132.9000000000069
 20
-195.0202260479036
 30
0.0
 11
-82.90000000000508
 21
-228.3534742637566
 31
0.0
  0
LINE
  5
26D4
330
2C38
100
AcDbEntity
  8
0
 62
     0
100
AcDbLine
 10
-82.90000000000146
 20
-225.353507728345
 30
0.0
 11
-51.33018097820785
 21
-246.4000000000033
 31
0.0
  0
LINE
  5
26D5
330
2C38
100
AcDbEntity
  8
0
 62
     0
100
AcDbLine
 10
-51.33018097820785
 20
-246.4000000000033
 30
0.0
 11
1.169953082169739
 21
-281.4000000000042
 31
0.0
  0
LINE
  5
26D6
330
2C38
100
AcDbEntity
  8
0
 62
     0
100
AcDbLine
 10
-132.9000000000087
 20
-192.0202595124883
 30
0.0
 11
-82.90000000000324
 21
-225.3535077283432
 31
0.0
  0
LINE
  5
26D7
330
2C38
100
AcDbEntity
  8
0
 62
     0
100
AcDbLine
 10
-82.89999999999961
 20
-222.3535411929279
 30
0.0
 11
-46.8302196843233
 21
-246.4000000000015
 31
0.0
  0
LINE
  5
26D8
330
2C38
100
AcDbEntity
  8
0
 62
     0
100
AcDbLine
 10
-46.8302196843233
 20
-246.4000000000015
 30
0.0
 11
5.669914376054292
 21
-281.4000000000015
 31
0.0
  0
LINE
  5
26D9
330
2C38
100
AcDbEntity
  8
0
 62
     0
100
AcDbLine
 10
-132.9000000000069
 20
-189.0202929770712
 30
0.0
 11
-82.90000000000508
 21
-222.3535411929242
 31
0.0
  0
LINE
  5
26DA
330
2C38
100
AcDbEntity
  8
0
 62
     0
100
AcDbLine
 10
-82.89999999999961
 20
-219.3535746575126
 30
0.0
 11
-42.33025839043693
 21
-246.4000000000023
 31
0.0
  0
LINE
  5
26DB
330
2C38
100
AcDbEntity
  8
0
 62
     0
100
AcDbLine
 10
-42.33025839043693
 20
-246.4000000000023
 30
0.0
 11
10.16987566994066
 21
-281.4000000000033
 31
0.0
  0
LINE
  5
26DC
330
2C38
100
AcDbEntity
  8
0
 62
     0
100
AcDbLine
 10
-132.9000000000069
 20
-186.0203264416559
 30
0.0
 11
-82.90000000000324
 21
-219.3535746575089
 31
0.0
  0
LINE
  5
26DD
330
2C38
100
AcDbEntity
  8
0
 62
     0
100
AcDbLine
 10
-82.89999999999961
 20
-216.3536081220954
 30
0.0
 11
-37.83029709655057
 21
-246.4000000000023
 31
0.0
  0
LINE
  5
26DE
330
2C38
100
AcDbEntity
  8
0
 62
     0
100
AcDbLine
 10
-37.83029709655057
 20
-246.4000000000023
 30
0.0
 11
14.66983696382704
 21
-281.4000000000033
 31
0.0
  0
LINE
  5
26DF
330
2C38
100
AcDbEntity
  8
0
 62
     0
100
AcDbLine
 10
-132.9000000000069
 20
-183.0203599062388
 30
0.0
 11
-82.90000000000508
 21
-216.3536081220918
 31
0.0
  0
LINE
  5
26E0
330
2C38
100
AcDbEntity
  8
0
 62
     0
100
AcDbLine
 10
-82.90000000000146
 20
-213.3536415866802
 30
0.0
 11
-33.33033580266782
 21
-246.4000000000023
 31
0.0
  0
LINE
  5
26E1
330
2C38
100
AcDbEntity
  8
0
 62
     0
100
AcDbLine
 10
-33.33033580266782
 20
-246.4000000000023
 30
0.0
 11
19.16979825770795
 21
-281.4000000000024
 31
0.0
  0
LINE
  5
26E2
330
2C38
100
AcDbEntity
  8
0
 62
     0
100
AcDbLine
 10
-132.9000000000087
 20
-180.0203933708235
 30
0.0
 11
-82.90000000000508
 21
-213.3536415866783
 31
0.0
  0
LINE
  5
26E3
330
2C38
100
AcDbEntity
  8
0
 62
     0
100
AcDbLine
 10
-82.90000000000146
 20
-210.3536750512631
 30
0.0
 11
-28.83037450878146
 21
-246.4000000000015
 31
0.0
  0
LINE
  5
26E4
330
2C38
100
AcDbEntity
  8
0
 62
     0
100
AcDbLine
 10
-28.83037450878146
 20
-246.4000000000015
 30
0.0
 11
23.66975955159615
 21
-281.4000000000024
 31
0.0
  0
LINE
  5
26E5
330
2C38
100
AcDbEntity
  8
0
 62
     0
100
AcDbLine
 10
-132.9000000000087
 20
-177.0204268354064
 30
0.0
 11
-82.90000000000508
 21
-210.3536750512613
 31
0.0
  0
LINE
  5
26E6
330
2C38
100
AcDbEntity
  8
0
 62
     0
100
AcDbLine
 10
-82.89999999999961
 20
-207.3537085158478
 30
0.0
 11
-24.33041321489509
 21
-246.4000000000033
 31
0.0
  0
LINE
  5
26E7
330
2C38
100
AcDbEntity
  8
0
 62
     0
100
AcDbLine
 10
-24.33041321489509
 20
-246.4000000000033
 30
0.0
 11
28.16972084548252
 21
-281.4000000000033
 31
0.0
  0
LINE
  5
26E8
330
2C38
100
AcDbEntity
  8
0
 62
     0
100
AcDbLine
 10
-132.9000000000069
 20
-174.0204602999928
 30
0.0
 11
-82.90000000000324
 21
-207.3537085158459
 31
0.0
  0
LINE
  5
26E9
330
2C38
100
AcDbEntity
  8
0
 62
     0
100
AcDbLine
 10
-82.90000000000146
 20
-204.3537419804307
 30
0.0
 11
-19.83045192100872
 21
-246.4000000000033
 31
0.0
  0
LINE
  5
26EA
330
2C38
100
AcDbEntity
  8
0
 62
     0
100
AcDbLine
 10
-19.83045192100872
 20
-246.4000000000033
 30
0.0
 11
32.66968213936891
 21
-281.4000000000033
 31
0.0
  0
LINE
  5
26EB
330
2C38
100
AcDbEntity
  8
0
 62
     0
100
AcDbLine
 10
-132.9000000000087
 20
-171.0204937645739
 30
0.0
 11
-82.90000000000508
 21
-204.3537419804288
 31
0.0
  0
LINE
  5
26EC
330
2C38
100
AcDbEntity
  8
0
 62
     0
100
AcDbLine
 10
-82.89999999999961
 20
-201.3537754450153
 30
0.0
 11
-15.33049062712416
 21
-246.4000000000023
 31
0.0
  0
LINE
  5
26ED
330
2C38
100
AcDbEntity
  8
0
 62
     0
100
AcDbLine
 10
-15.33049062712416
 20
-246.4000000000023
 30
0.0
 11
37.16964343325162
 21
-281.4000000000033
 31
0.0
  0
LINE
  5
26EE
330
2C38
100
AcDbEntity
  8
0
 62
     0
100
AcDbLine
 10
-132.900000000005
 20
-168.0205272291605
 30
0.0
 11
-82.90000000000508
 21
-201.3537754450117
 31
0.0
  0
LINE
  5
26EF
330
2C38
100
AcDbEntity
  8
0
 62
     0
100
AcDbLine
 10
-82.89999999999961
 20
-198.3538089095982
 30
0.0
 11
-10.83052933323779
 21
-246.4000000000023
 31
0.0
  0
LINE
  5
26F0
330
2C38
100
AcDbEntity
  8
0
 62
     0
100
AcDbLine
 10
-10.83052933323415
 20
-246.4000000000042
 30
0.0
 11
41.66960472713981
 21
-281.4000000000024
 31
0.0
  0
LINE
  5
26F1
330
2C38
100
AcDbEntity
  8
0
 62
     0
100
AcDbLine
 10
-132.9000000000033
 20
-165.0205606937434
 30
0.0
 11
-82.90000000000324
 21
-198.3538089095964
 31
0.0
  0
LINE
  5
26F2
330
2C38
100
AcDbEntity
  8
0
 62
     0
100
AcDbLine
 10
-82.89999999999961
 20
-195.3538423741829
 30
0.0
 11
-6.330568039353238
 21
-246.4000000000033
 31
0.0
  0
LINE
  5
26F3
330
2C38
100
AcDbEntity
  8
0
 62
     0
100
AcDbLine
 10
-6.330568039353238
 20
-246.4000000000033
 30
0.0
 11
46.16956602102436
 21
-281.4000000000042
 31
0.0
  0
LINE
  5
26F4
330
2C38
100
AcDbEntity
  8
0
 62
     0
100
AcDbLine
 10
-132.900000000005
 20
-162.0205941583299
 30
0.0
 11
-82.90000000000508
 21
-195.3538423741811
 31
0.0
  0
LINE
  5
26F5
330
2C38
100
AcDbEntity
  8
0
 62
     0
100
AcDbLine
 10
-82.90000000000146
 20
-192.3538758387657
 30
0.0
 11
-1.830606745466866
 21
-246.4000000000033
 31
0.0
  0
LINE
  5
26F6
330
2C38
100
AcDbEntity
  8
0
 62
     0
100
AcDbLine
 10
-1.830606745466866
 20
-246.4000000000033
 30
0.0
 11
50.66952731491074
 21
-281.4000000000042
 31
0.0
  0
LINE
  5
26F7
330
2C38
100
AcDbEntity
  8
0
 62
     0
100
AcDbLine
 10
-132.900000000005
 20
-159.0206276229128
 30
0.0
 11
-82.90000000000508
 21
-192.353875838764
 31
0.0
  0
LINE
  5
26F8
330
2C38
100
AcDbEntity
  8
0
 62
     0
100
AcDbLine
 10
-82.89999999999782
 20
-189.3539093033487
 30
0.0
 11
2.669354548417686
 21
-246.4000000000005
 31
0.0
  0
LINE
  5
26F9
330
2C38
100
AcDbEntity
  8
0
 62
     0
100
AcDbLine
 10
2.669354548417686
 20
-246.4000000000005
 30
0.0
 11
55.16948860879529
 21
-281.4000000000015
 31
0.0
  0
LINE
  5
26FA
330
2C38
100
AcDbEntity
  8
0
 62
     0
100
AcDbLine
 10
-132.9000000000033
 20
-156.0206610874957
 30
0.0
 11
-82.90000000000324
 21
-189.3539093033468
 31
0.0
  0
LINE
  5
26FB
330
2C38
100
AcDbEntity
  8
0
 62
     0
100
AcDbLine
 10
-82.89999999999961
 20
-186.3539427679352
 30
0.0
 11
7.169315842304055
 21
-246.4000000000023
 31
0.0
  0
LINE
  5
26FC
330
2C38
100
AcDbEntity
  8
0
 62
     0
100
AcDbLine
 10
7.169315842304055
 20
-246.4000000000023
 30
0.0
 11
59.66944990268165
 21
-281.4000000000033
 31
0.0
  0
LINE
  5
26FD
330
2C38
100
AcDbEntity
  8
0
 62
     0
100
AcDbLine
 10
-132.9000000000033
 20
-153.0206945520804
 30
0.0
 11
-82.90000000000324
 21
-186.3539427679316
 31
0.0
  0
LINE
  5
26FE
330
2C38
100
AcDbEntity
  8
0
 62
     0
100
AcDbLine
 10
-82.90000000000146
 20
-183.3539762325163
 30
0.0
 11
11.66927713618861
 21
-246.4000000000023
 31
0.0
  0
LINE
  5
26FF
330
2C38
100
AcDbEntity
  8
0
 62
     0
100
AcDbLine
 10
11.66927713618861
 20
-246.4000000000023
 30
0.0
 11
64.16941119656621
 21
-281.4000000000024
 31
0.0
  0
LINE
  5
2700
330
2C38
100
AcDbEntity
  8
0
 62
     0
100
AcDbLine
 10
-132.900000000005
 20
-150.0207280166632
 30
0.0
 11
-82.90000000000508
 21
-183.3539762325145
 31
0.0
  0
LINE
  5
2701
330
2C38
100
AcDbEntity
  8
0
 62
     0
100
AcDbLine
 10
-82.89999999999961
 20
-180.3540096971028
 30
0.0
 11
16.16923843007316
 21
-246.4000000000015
 31
0.0
  0
LINE
  5
2702
330
2C38
100
AcDbEntity
  8
0
 62
     0
100
AcDbLine
 10
16.16923843007316
 20
-246.4000000000015
 30
0.0
 11
68.66937249045077
 21
-281.4000000000024
 31
0.0
  0
LINE
  5
2703
330
2C38
100
AcDbEntity
  8
0
 62
     0
100
AcDbLine
 10
-132.9000000000033
 20
-147.020761481248
 30
0.0
 11
-82.90000000000324
 21
-180.3540096970992
 31
0.0
  0
LINE
  5
2704
330
2C38
100
AcDbEntity
  8
0
 62
     0
100
AcDbLine
 10
-82.89999999999961
 20
-177.3540431616839
 30
0.0
 11
20.66919972395954
 21
-246.4000000000015
 31
0.0
  0
LINE
  5
2705
330
2C38
100
AcDbEntity
  8
0
 62
     0
100
AcDbLine
 10
20.66919972395954
 20
-246.4000000000015
 30
0.0
 11
73.16933378433714
 21
-281.4000000000015
 31
0.0
  0
LINE
  5
2706
330
2C38
100
AcDbEntity
  8
0
 62
     0
100
AcDbLine
 10
-132.900000000005
 20
-144.0207949458308
 30
0.0
 11
-82.90000000000324
 21
-177.354043161682
 31
0.0
  0
LINE
  5
2707
330
2C38
100
AcDbEntity
  8
0
 62
     0
100
AcDbLine
 10
-82.90000000000146
 20
-174.3540766262686
 30
0.0
 11
25.16916101784592
 21
-246.4000000000023
 31
0.0
  0
LINE
  5
2708
330
2C38
100
AcDbEntity
  8
0
 62
     0
100
AcDbLine
 10
25.16916101784592
 20
-246.4000000000023
 30
0.0
 11
77.66929507821988
 21
-281.4000000000015
 31
0.0
  0
LINE
  5
2709
330
2C38
100
AcDbEntity
  8
0
 62
     0
100
AcDbLine
 10
-132.9000000000033
 20
-141.0208284104155
 30
0.0
 11
-82.90000000000508
 21
-174.3540766262666
 31
0.0
  0
LINE
  5
270A
330
2C38
100
AcDbEntity
  8
0
 62
     0
100
AcDbLine
 10
-82.89999999999961
 20
-171.3541100908533
 30
0.0
 11
29.66912231173229
 21
-246.4000000000023
 31
0.0
  0
LINE
  5
270B
330
2C38
100
AcDbEntity
  8
0
 62
     0
100
AcDbLine
 10
29.66912231173229
 20
-246.4000000000023
 30
0.0
 11
82.16925637210989
 21
-281.4000000000033
 31
0.0
  0
LINE
  5
270C
330
2C38
100
AcDbEntity
  8
0
 62
     0
100
AcDbLine
 10
-132.900000000005
 20
-138.0208618749984
 30
0.0
 11
-82.90000000000324
 21
-171.3541100908496
 31
0.0
  0
LINE
  5
270D
330
2C38
100
AcDbEntity
  8
0
 62
     0
100
AcDbLine
 10
-82.89999999999961
 20
-168.354143555438
 30
0.0
 11
34.16908360561683
 21
-246.4000000000023
 31
0.0
  0
LINE
  5
270E
330
2C38
100
AcDbEntity
  8
0
 62
     0
100
AcDbLine
 10
34.16908360561683
 20
-246.4000000000023
 30
0.0
 11
86.66921766599442
 21
-281.4000000000024
 31
0.0
  0
LINE
  5
270F
330
2C38
100
AcDbEntity
  8
0
 62
     0
100
AcDbLine
 10
-132.9000000000033
 20
-135.020895339583
 30
0.0
 11
-82.90000000000324
 21
-168.3541435554343
 31
0.0
  0
LINE
  5
2710
330
2C38
100
AcDbEntity
  8
0
 62
     0
100
AcDbLine
 10
-82.89999999999961
 20
-165.3541770200208
 30
0.0
 11
38.66904489950138
 21
-246.4000000000015
 31
0.0
  0
LINE
  5
2711
330
2C38
100
AcDbEntity
  8
0
 62
     0
100
AcDbLine
 10
38.66904489950138
 20
-246.4000000000015
 30
0.0
 11
91.16917895987899
 21
-281.4000000000024
 31
0.0
  0
LINE
  5
2712
330
2C38
100
AcDbEntity
  8
0
 62
     0
100
AcDbLine
 10
-132.900000000005
 20
-132.020928804166
 30
0.0
 11
-82.90000000000508
 21
-165.3541770200171
 31
0.0
  0
LINE
  5
2713
330
2C38
100
AcDbEntity
  8
0
 62
     0
100
AcDbLine
 10
-82.90000000000146
 20
-162.3542104846056
 30
0.0
 11
43.16900619338776
 21
-246.4000000000033
 31
0.0
  0
LINE
  5
2714
330
2C38
100
AcDbEntity
  8
0
 62
     0
100
AcDbLine
 10
43.16900619338776
 20
-246.4000000000033
 30
0.0
 11
95.66914025376535
 21
-281.4000000000042
 31
0.0
  0
LINE
  5
2715
330
2C38
100
AcDbEntity
  8
0
 62
     0
100
AcDbLine
 10
-132.900000000005
 20
-129.0209622687507
 30
0.0
 11
-82.90000000000508
 21
-162.3542104846019
 31
0.0
  0
LINE
  5
2716
330
2C38
100
AcDbEntity
  8
0
 62
     0
100
AcDbLine
 10
-82.89999999999961
 20
-159.3542439491884
 30
0.0
 11
47.66896748727413
 21
-246.4000000000033
 31
0.0
  0
LINE
  5
2717
330
2C38
100
AcDbEntity
  8
0
 62
     0
100
AcDbLine
 10
47.66896748727413
 20
-246.4000000000033
 30
0.0
 11
100.1691015476517
 21
-281.4000000000033
 31
0.0
  0
LINE
  5
2718
330
2C38
100
AcDbEntity
  8
0
 62
     0
100
AcDbLine
 10
-132.900000000005
 20
-126.0209957333336
 30
0.0
 11
-82.90000000000508
 21
-159.3542439491848
 31
0.0
  0
LINE
  5
2719
330
2C38
100
AcDbEntity
  8
0
 62
     0
100
AcDbLine
 10
-82.89999999999961
 20
-156.3542774137713
 30
0.0
 11
52.16892878115864
 21
-246.4000000000023
 31
0.0
  0
LINE
  5
271A
330
2C38
100
AcDbEntity
  8
0
 62
     0
100
AcDbLine
 10
52.16892878115864
 20
-246.4000000000023
 30
0.0
 11
104.6690628415363
 21
-281.4000000000033
 31
0.0
  0
LINE
  5
271B
330
2C38
100
AcDbEntity
  8
0
 62
     0
100
AcDbLine
 10
-132.9000000000033
 20
-123.0210291979183
 30
0.0
 11
-82.90000000000324
 21
-156.3542774137694
 31
0.0
  0
LINE
  5
271C
330
2C38
100
AcDbEntity
  8
0
 62
     0
100
AcDbLine
 10
-82.89999999999961
 20
-153.3543108783559
 30
0.0
 11
56.66889007504686
 21
-246.4000000000042
 31
0.0
  0
LINE
  5
271D
330
2C38
100
AcDbEntity
  8
0
 62
     0
100
AcDbLine
 10
56.66889007504686
 20
-246.4000000000042
 30
0.0
 11
109.1690241354208
 21
-281.4000000000024
 31
0.0
  0
LINE
  5
271E
330
2C38
100
AcDbEntity
  8
0
 62
     0
100
AcDbLine
 10
-132.900000000005
 20
-120.0210626625012
 30
0.0
 11
-82.90000000000508
 21
-153.3543108783524
 31
0.0
  0
LINE
  5
271F
330
2C38
100
AcDbEntity
  8
0
 62
     0
100
AcDbLine
 10
-82.89999999999961
 20
-150.3543443429389
 30
0.0
 11
61.16885136893142
 21
-246.4000000000015
 31
0.0
  0
LINE
  5
2720
330
2C38
100
AcDbEntity
  8
0
 62
     0
100
AcDbLine
 10
61.16885136893142
 20
-246.4000000000015
 30
0.0
 11
113.668985429309
 21
-281.4000000000024
 31
0.0
  0
LINE
  5
2721
330
2C38
100
AcDbEntity
  8
0
 62
     0
100
AcDbLine
 10
-132.9000000000033
 20
-117.0210961270859
 30
0.0
 11
-82.90000000000324
 21
-150.3543443429371
 31
0.0
  0
LINE
  5
2722
330
2C38
100
AcDbEntity
  8
0
 62
     0
100
AcDbLine
 10
-82.89999999999961
 20
-147.3543778075236
 30
0.0
 11
65.6688126628178
 21
-246.4000000000033
 31
0.0
  0
LINE
  5
2723
330
2C38
100
AcDbEntity
  8
0
 62
     0
100
AcDbLine
 10
65.6688126628178
 20
-246.4000000000033
 30
0.0
 11
118.1689467231954
 21
-281.4000000000042
 31
0.0
  0
LINE
  5
2724
330
2C38
100
AcDbEntity
  8
0
 62
     0
100
AcDbLine
 10
-132.9000000000033
 20
-114.0211295916706
 30
0.0
 11
-82.90000000000324
 21
-147.35437780752
 31
0.0
  0
LINE
  5
2725
330
2C38
100
AcDbEntity
  8
0
 62
     0
100
AcDbLine
 10
-82.89999999999961
 20
-144.3544112721065
 30
0.0
 11
70.16877395670054
 21
-246.4000000000005
 31
0.0
  0
LINE
  5
2726
330
2C38
100
AcDbEntity
  8
0
 62
     0
100
AcDbLine
 10
70.16877395670054
 20
-246.4000000000005
 30
0.0
 11
122.6689080170781
 21
-281.4000000000015
 31
0.0
  0
LINE
  5
2727
330
2C38
100
AcDbEntity
  8
0
 62
     0
100
AcDbLine
 10
-132.900000000005
 20
-111.0211630562517
 30
0.0
 11
-82.90000000000324
 21
-144.3544112721045
 31
0.0
  0
LINE
  5
2728
330
2C38
100
AcDbEntity
  8
0
 62
     0
100
AcDbLine
 10
-82.90000000000146
 20
-141.3544447366912
 30
0.0
 11
74.6687352505851
 21
-246.4000000000023
 31
0.0
  0
LINE
  5
2729
330
2C38
100
AcDbEntity
  8
0
 62
     0
100
AcDbLine
 10
74.6687352505851
 20
-246.4000000000023
 30
0.0
 11
127.1688693109627
 21
-281.4000000000033
 31
0.0
  0
LINE
  5
272A
330
2C38
100
AcDbEntity
  8
0
 62
     0
100
AcDbLine
 10
-132.900000000005
 20
-108.0211965208364
 30
0.0
 11
-82.90000000000508
 21
-141.3544447366876
 31
0.0
  0
LINE
  5
272B
330
2C38
100
AcDbEntity
  8
0
 62
     0
100
AcDbLine
 10
-82.89999999999782
 20
-138.3544782012741
 30
0.0
 11
79.16869654447509
 21
-246.4000000000023
 31
0.0
  0
LINE
  5
272C
330
2C38
100
AcDbEntity
  8
0
 62
     0
100
AcDbLine
 10
79.16869654447509
 20
-246.4000000000023
 30
0.0
 11
131.6688306048527
 21
-281.4000000000024
 31
0.0
  0
LINE
  5
272D
330
2C38
100
AcDbEntity
  8
0
 62
     0
100
AcDbLine
 10
-132.9000000000033
 20
-105.0212299854192
 30
0.0
 11
-82.90000000000324
 21
-138.3544782012704
 31
0.0
  0
LINE
  5
272E
330
2C38
100
AcDbEntity
  8
0
 62
     0
100
AcDbLine
 10
-82.89999999999961
 20
-135.3545116658588
 30
0.0
 11
83.66865783835601
 21
-246.4000000000015
 31
0.0
  0
LINE
  5
272F
330
2C38
100
AcDbEntity
  8
0
 62
     0
100
AcDbLine
 10
83.66865783835601
 20
-246.4000000000015
 30
0.0
 11
132.8999999999978
 21
-279.2208109654721
 31
0.0
  0
LINE
  5
2730
330
2C38
100
AcDbEntity
  8
0
 62
     0
100
AcDbLine
 10
-132.9000000000033
 20
-102.0212634500039
 30
0.0
 11
-82.90000000000324
 21
-135.354511665857
 31
0.0
  0
LINE
  5
2731
330
2C38
100
AcDbEntity
  8
0
 62
     0
100
AcDbLine
 10
-82.89999999999961
 20
-132.3545451304417
 30
0.0
 11
88.16861913224235
 21
-246.4000000000015
 31
0.0
  0
LINE
  5
2732
330
2C38
100
AcDbEntity
  8
0
 62
     0
100
AcDbLine
 10
88.16861913224235
 20
-246.4000000000015
 30
0.0
 11
132.8999999999996
 21
-276.2208444300559
 31
0.0
  0
LINE
  5
2733
330
2C38
100
AcDbEntity
  8
0
 62
     0
100
AcDbLine
 10
-132.900000000005
 20
-99.02129691458867
 30
0.0
 11
-82.90000000000508
 21
-132.3545451304398
 31
0.0
  0
LINE
  5
2734
330
2C38
100
AcDbEntity
  8
0
 62
     0
100
AcDbLine
 10
-82.90000000000146
 20
-129.3545785950264
 30
0.0
 11
92.66858042612877
 21
-246.4000000000033
 31
0.0
  0
LINE
  5
2735
330
2C38
100
AcDbEntity
  8
0
 62
     0
100
AcDbLine
 10
92.66858042612877
 20
-246.4000000000033
 30
0.0
 11
132.8999999999978
 21
-273.2208778946397
 31
0.0
  0
LINE
  5
2736
330
2C38
100
AcDbEntity
  8
0
 62
     0
100
AcDbLine
 10
-132.9000000000033
 20
-96.02133037917338
 30
0.0
 11
-82.90000000000324
 21
-129.3545785950245
 31
0.0
  0
LINE
  5
2737
330
2C38
100
AcDbEntity
  8
0
 62
     0
100
AcDbLine
 10
-82.89999999999782
 20
-126.3546120596111
 30
0.0
 11
97.16854172001696
 21
-246.4000000000023
 31
0.0
  0
LINE
  5
2738
330
2C38
100
AcDbEntity
  8
0
 62
     0
100
AcDbLine
 10
97.16854172001696
 20
-246.4000000000023
 30
0.0
 11
132.8999999999996
 21
-270.2209113592226
 31
0.0
  0
LINE
  5
2739
330
2C38
100
AcDbEntity
  8
0
 62
     0
100
AcDbLine
 10
-132.9000000000033
 20
-93.02136384375627
 30
0.0
 11
-82.90000000000324
 21
-126.3546120596074
 31
0.0
  0
LINE
  5
273A
330
2C38
100
AcDbEntity
  8
0
 62
     0
100
AcDbLine
 10
-82.90000000000146
 20
-123.354645524194
 30
0.0
 11
101.6685030138978
 21
-246.4000000000023
 31
0.0
  0
LINE
  5
273B
330
2C38
100
AcDbEntity
  8
0
 62
     0
100
AcDbLine
 10
101.6685030138978
 20
-246.4000000000023
 30
0.0
 11
132.8999999999978
 21
-267.2209448238082
 31
0.0
  0
LINE
  5
273C
330
2C38
100
AcDbEntity
  8
0
 62
     0
100
AcDbLine
 10
-132.9000000000033
 20
-90.02139730834093
 30
0.0
 11
-82.90000000000324
 21
-123.3546455241921
 31
0.0
  0
LINE
  5
273D
330
2C38
100
AcDbEntity
  8
0
 62
     0
100
AcDbLine
 10
-82.89999999999961
 20
-120.3546789887768
 30
0.0
 11
106.168464307786
 21
-246.4000000000015
 31
0.0
  0
LINE
  5
273E
330
2C38
100
AcDbEntity
  8
0
 62
     0
100
AcDbLine
 10
106.1684643077879
 20
-246.4000000000042
 30
0.0
 11
132.8999999999996
 21
-264.220978288391
 31
0.0
  0
LINE
  5
273F
330
2C38
100
AcDbEntity
  8
0
 62
     0
100
AcDbLine
 10
-132.9000000000033
 20
-87.02143077292385
 30
0.0
 11
-82.90000000000508
 21
-120.3546789887732
 31
0.0
  0
LINE
  5
2740
330
2C38
100
AcDbEntity
  8
0
 62
     0
100
AcDbLine
 10
-82.89999999999961
 20
-117.3547124533615
 30
0.0
 11
110.6684256016724
 21
-246.4000000000033
 31
0.0
  0
LINE
  5
2741
330
2C38
100
AcDbEntity
  8
0
 62
     0
100
AcDbLine
 10
110.6684256016724
 20
-246.4000000000033
 30
0.0
 11
132.8999999999996
 21
-261.2210117529758
 31
0.0
  0
LINE
  5
2742
330
2C38
100
AcDbEntity
  8
0
 62
     0
100
AcDbLine
 10
-132.9000000000033
 20
-84.02146423750854
 30
0.0
 11
-82.90000000000146
 21
-117.3547124533597
 31
0.0
  0
LINE
  5
2743
330
2C38
100
AcDbEntity
  8
0
 62
     0
100
AcDbLine
 10
-82.89999999999961
 20
-114.3547459179444
 30
0.0
 11
115.1683868955588
 21
-246.4000000000033
 31
0.0
  0
LINE
  5
2744
330
2C38
100
AcDbEntity
  8
0
 62
     0
100
AcDbLine
 10
115.1683868955588
 20
-246.4000000000033
 30
0.0
 11
132.8999999999996
 21
-258.2210452175587
 31
0.0
  0
LINE
  5
2745
330
2C38
100
AcDbEntity
  8
0
 62
     0
100
AcDbLine
 10
-132.9000000000033
 20
-81.02149770209143
 30
0.0
 11
-82.90000000000508
 21
-114.3547459179426
 31
0.0
  0
LINE
  5
2746
330
2C38
100
AcDbEntity
  8
0
 62
     0
100
AcDbLine
 10
-82.90000000000146
 20
-111.3547793825273
 30
0.0
 11
119.6683481894397
 21
-246.4000000000005
 31
0.0
  0
LINE
  5
2747
330
2C38
100
AcDbEntity
  8
0
 62
     0
100
AcDbLine
 10
119.6683481894397
 20
-246.4000000000005
 30
0.0
 11
132.8999999999978
 21
-255.2210786821415
 31
0.0
  0
LINE
  5
2748
330
2C38
100
AcDbEntity
  8
0
 62
     0
100
AcDbLine
 10
-132.900000000005
 20
-78.0215311666743
 30
0.0
 11
-82.90000000000508
 21
-111.3547793825255
 31
0.0
  0
LINE
  5
2749
330
2C38
100
AcDbEntity
  8
0
 62
     0
100
AcDbLine
 10
-82.89999999999961
 20
-108.3548128471138
 30
0.0
 11
124.1683094833279
 21
-246.4000000000023
 31
0.0
  0
LINE
  5
274A
330
2C38
100
AcDbEntity
  8
0
 62
     0
100
AcDbLine
 10
124.1683094833279
 20
-246.4000000000023
 30
0.0
 11
132.8999999999978
 21
-252.2211121467253
 31
0.0
  0
LINE
  5
274B
330
2C38
100
AcDbEntity
  8
0
 62
     0
100
AcDbLine
 10
-132.9000000000033
 20
-75.02156463125901
 30
0.0
 11
-82.90000000000508
 21
-108.3548128471102
 31
0.0
  0
LINE
  5
274C
330
2C38
100
AcDbEntity
  8
0
 62
     0
100
AcDbLine
 10
-82.89999999999961
 20
-105.3548463116967
 30
0.0
 11
128.6682707772142
 21
-246.4000000000015
 31
0.0
  0
LINE
  5
274D
330
2C38
100
AcDbEntity
  8
0
 62
     0
100
AcDbLine
 10
128.6682707772142
 20
-246.4000000000015
 30
0.0
 11
132.8999999999996
 21
-249.2211456113091
 31
0.0
  0
LINE
  5
274E
330
2C38
100
AcDbEntity
  8
0
 62
     0
100
AcDbLine
 10
-132.9000000000033
 20
-72.02159809584191
 30
0.0
 11
-82.90000000000324
 21
-105.354846311693
 31
0.0
  0
LINE
  5
274F
330
2C38
100
AcDbEntity
  8
0
 62
     0
100
AcDbLine
 10
-82.90000000000146
 20
-102.3548797762796
 30
0.0
 11
132.8999999999978
 21
-246.2211790758938
 31
0.0
  0
LINE
  5
2750
330
2C38
100
AcDbEntity
  8
0
 62
     0
100
AcDbLine
 10
-132.900000000005
 20
-69.02163156042661
 30
0.0
 11
-82.90000000000508
 21
-102.3548797762778
 31
0.0
  0
LINE
  5
2751
330
2C38
100
AcDbEntity
  8
0
 62
     0
100
AcDbLine
 10
-82.89999999999961
 20
-99.35491324086251
 30
0.0
 11
132.8999999999996
 21
-243.2212125404767
 31
0.0
  0
LINE
  5
2752
330
2C38
100
AcDbEntity
  8
0
 62
     0
100
AcDbLine
 10
-132.9000000000033
 20
-66.02166502500948
 30
0.0
 11
-82.90000000000324
 21
-99.3549132408607
 31
0.0
  0
LINE
  5
2753
330
2C38
100
AcDbEntity
  8
0
 62
     0
100
AcDbLine
 10
-82.89999999999961
 20
-96.35494670544723
 30
0.0
 11
132.8999999999996
 21
-240.2212460050614
 31
0.0
  0
LINE
  5
2754
330
2C38
100
AcDbEntity
  8
0
 62
     0
100
AcDbLine
 10
-132.9000000000033
 20
-63.0216984895942
 30
0.0
 11
-82.90000000000324
 21
-96.3549467054454
 31
0.0
  0
LINE
  5
2755
330
2C38
100
AcDbEntity
  8
0
 62
     0
100
AcDbLine
 10
-82.89999999999961
 20
-93.35498017003192
 30
0.0
 11
132.8999999999996
 21
-237.2212794696443
 31
0.0
  0
LINE
  5
2756
330
2C38
100
AcDbEntity
  8
0
 62
     0
100
AcDbLine
 10
-132.9000000000033
 20
-60.02173195417707
 30
0.0
 11
-82.90000000000508
 21
-93.35498017002828
 31
0.0
  0
LINE
  5
2757
330
2C38
100
AcDbEntity
  8
0
 62
     0
100
AcDbLine
 10
-82.90000000000146
 20
-90.35501363461662
 30
0.0
 11
132.8999999999978
 21
-234.2213129342299
 31
0.0
  0
LINE
  5
2758
330
2C38
100
AcDbEntity
  8
0
 62
     0
100
AcDbLine
 10
-132.900000000005
 20
-57.02176541876178
 30
0.0
 11
-82.90000000000508
 21
-90.35501363461298
 31
0.0
  0
LINE
  5
2759
330
2C38
100
AcDbEntity
  8
0
 62
     0
100
AcDbLine
 10
-82.89999999999961
 20
-87.35504709919949
 30
0.0
 11
132.8999999999996
 21
-231.2213463988129
 31
0.0
  0
LINE
  5
275A
330
2C38
100
AcDbEntity
  8
0
 62
     0
100
AcDbLine
 10
-132.9000000000033
 20
-54.02179888334649
 30
0.0
 11
-82.90000000000508
 21
-87.35504709919588
 31
0.0
  0
LINE
  5
275B
330
2C38
100
AcDbEntity
  8
0
 62
     0
100
AcDbLine
 10
-82.89999999999961
 20
-84.3550805637842
 30
0.0
 11
132.8999999999996
 21
-228.2213798633975
 31
0.0
  0
LINE
  5
275C
330
2C38
100
AcDbEntity
  8
0
 62
     0
100
AcDbLine
 10
-130.5327424770476
 20
-52.60000000000037
 30
0.0
 11
-82.90000000000324
 21
-84.35508056378058
 31
0.0
  0
LINE
  5
275D
330
2C38
100
AcDbEntity
  8
0
 62
     0
100
AcDbLine
 10
-82.90000000000146
 20
-81.35511402836526
 30
0.0
 11
132.8999999999978
 21
-225.2214133279795
 31
0.0
  0
LINE
  5
275E
330
2C38
100
AcDbEntity
  8
0
 62
     0
100
AcDbLine
 10
-126.0327811831594
 20
-52.60000000000218
 30
0.0
 11
-82.90000000000508
 21
-81.35511402836346
 31
0.0
  0
LINE
  5
275F
330
2C38
100
AcDbEntity
  8
0
 62
     0
100
AcDbLine
 10
-82.89999999999961
 20
-78.35514749295182
 30
0.0
 11
132.8999999999978
 21
-222.2214467925642
 31
0.0
  0
LINE
  5
2760
330
2C38
100
AcDbEntity
  8
0
 62
     0
100
AcDbLine
 10
-121.5328198892748
 20
-52.60000000000218
 30
0.0
 11
-82.90000000000324
 21
-78.35514749294816
 31
0.0
  0
LINE
  5
2761
330
2C38
100
AcDbEntity
  8
0
 62
     0
100
AcDbLine
 10
-82.89999999999961
 20
-75.35518095753468
 30
0.0
 11
132.8999999999996
 21
-219.221480257148
 31
0.0
  0
LINE
  5
2762
330
2C38
100
AcDbEntity
  8
0
 62
     0
100
AcDbLine
 10
-117.0328585953866
 20
-52.60000000000218
 30
0.0
 11
-82.90000000000324
 21
-75.35518095753102
 31
0.0
  0
LINE
  5
2763
330
2C38
100
AcDbEntity
  8
0
 62
     0
100
AcDbLine
 10
-82.90000000000146
 20
-72.35521442211939
 30
0.0
 11
132.8999999999978
 21
-216.2215137217327
 31
0.0
  0
LINE
  5
2764
330
2C38
100
AcDbEntity
  8
0
 62
     0
100
AcDbLine
 10
-112.5328973015021
 20
-52.60000000000399
 30
0.0
 11
-82.90000000000324
 21
-72.35521442211759
 31
0.0
  0
LINE
  5
2765
330
2C38
100
AcDbEntity
  8
0
 62
     0
100
AcDbLine
 10
-82.90000000000146
 20
-69.35524788670227
 30
0.0
 11
132.8999999999978
 21
-213.2215471863156
 31
0.0
  0
LINE
  5
2766
330
2C38
100
AcDbEntity
  8
0
 62
     0
100
AcDbLine
 10
-108.0329360076175
 20
-52.60000000000218
 30
0.0
 11
-82.90000000000508
 21
-69.35524788670045
 31
0.0
  0
LINE
  5
2767
330
2C38
100
AcDbEntity
  8
0
 62
     0
100
AcDbLine
 10
-82.89999999999961
 20
-66.35528135128516
 30
0.0
 11
132.8999999999996
 21
-210.2215806508984
 31
0.0
  0
LINE
  5
2768
330
2C38
100
AcDbEntity
  8
0
 62
     0
100
AcDbLine
 10
-103.5329747137311
 20
-52.60000000000037
 30
0.0
 11
-82.90000000000324
 21
-66.35528135128152
 31
0.0
  0
LINE
  5
2769
330
2C38
100
AcDbEntity
  8
0
 62
     0
100
AcDbLine
 10
-82.89999999999961
 20
-63.35531481586985
 30
0.0
 11
132.8999999999996
 21
-207.2216141154831
 31
0.0
  0
LINE
  5
276A
330
2C38
100
AcDbEntity
  8
0
 62
     0
100
AcDbLine
 10
-99.0330134198448
 20
-52.60000000000218
 30
0.0
 11
-82.90000000000324
 21
-63.35531481586802
 31
0.0
  0
LINE
  5
276B
330
2C38
100
AcDbEntity
  8
0
 62
     0
100
AcDbLine
 10
-82.90000000000146
 20
-60.35534828045275
 30
0.0
 11
132.8999999999978
 21
-204.2216475800651
 31
0.0
  0
LINE
  5
276C
330
2C38
100
AcDbEntity
  8
0
 62
     0
100
AcDbLine
 10
-94.53305212596024
 20
-52.60000000000218
 30
0.0
 11
-82.90000000000508
 21
-60.35534828044911
 31
0.0
  0
LINE
  5
276D
330
2C38
100
AcDbEntity
  8
0
 62
     0
100
AcDbLine
 10
-82.89999999999961
 20
-57.35538174503744
 30
0.0
 11
132.8999999999996
 21
-201.2216810446517
 31
0.0
  0
LINE
  5
276E
330
2C38
100
AcDbEntity
  8
0
 62
     0
100
AcDbLine
 10
-90.03309083207568
 20
-52.60000000000218
 30
0.0
 11
-82.90000000000508
 21
-57.35538174503381
 31
0.0
  0
LINE
  5
276F
330
2C38
100
AcDbEntity
  8
0
 62
     0
100
AcDbLine
 10
-82.90000000000146
 20
-54.35541520962033
 30
0.0
 11
132.8999999999996
 21
-198.2217145092334
 31
0.0
  0
LINE
  5
2770
330
2C38
100
AcDbEntity
  8
0
 62
     0
100
AcDbLine
 10
-85.5331295381856
 20
-52.60000000000399
 30
0.0
 11
-82.90000000000324
 21
-54.35541520961852
 31
0.0
  0
LINE
  5
2771
330
2C38
100
AcDbEntity
  8
0
 62
     0
100
AcDbLine
 10
-81.03316824430477
 20
-52.60000000000218
 30
0.0
 11
132.8999999999978
 21
-195.2217479738183
 31
0.0
  0
LINE
  5
2772
330
2C38
100
AcDbEntity
  8
0
 62
     0
100
AcDbLine
 10
-76.53320695041657
 20
-52.60000000000218
 30
0.0
 11
132.8999999999996
 21
-192.2217814384012
 31
0.0
  0
LINE
  5
2773
330
2C38
100
AcDbEntity
  8
0
 62
     0
100
AcDbLine
 10
-72.03324565653018
 20
-52.60000000000399
 30
0.0
 11
132.8999999999996
 21
-189.2218149029868
 31
0.0
  0
LINE
  5
2774
330
2C38
100
AcDbEntity
  8
0
 62
     0
100
AcDbLine
 10
-67.53328436264382
 20
-52.60000000000399
 30
0.0
 11
132.8999999999996
 21
-186.2218483675697
 31
0.0
  0
LINE
  5
2775
330
2C38
100
AcDbEntity
  8
0
 62
     0
100
AcDbLine
 10
-63.03332306876289
 20
-52.60000000000218
 30
0.0
 11
132.8999999999978
 21
-183.2218818321544
 31
0.0
  0
LINE
  5
2776
330
2C38
100
AcDbEntity
  8
0
 62
     0
100
AcDbLine
 10
-58.5333617748747
 20
-52.60000000000218
 30
0.0
 11
132.8999999999996
 21
-180.2219152967373
 31
0.0
  0
LINE
  5
2777
330
2C38
100
AcDbEntity
  8
0
 62
     0
100
AcDbLine
 10
-54.03340048098834
 20
-52.60000000000399
 30
0.0
 11
132.8999999999978
 21
-177.221948761321
 31
0.0
  0
LINE
  5
2778
330
2C38
100
AcDbEntity
  8
0
 62
     0
100
AcDbLine
 10
-49.53343918710562
 20
-52.60000000000218
 30
0.0
 11
132.8999999999978
 21
-174.2219822259039
 31
0.0
  0
LINE
  5
2779
330
2C38
100
AcDbEntity
  8
0
 62
     0
100
AcDbLine
 10
-45.03347789321924
 20
-52.60000000000218
 30
0.0
 11
132.8999999999978
 21
-171.2220156904877
 31
0.0
  0
LINE
  5
277A
330
2C38
100
AcDbEntity
  8
0
 62
     0
100
AcDbLine
 10
-40.53351659933102
 20
-52.60000000000399
 30
0.0
 11
132.8999999999996
 21
-168.2220491550724
 31
0.0
  0
LINE
  5
277B
330
2C38
100
AcDbEntity
  8
0
 62
     0
100
AcDbLine
 10
-36.03355530544649
 20
-52.60000000000218
 30
0.0
 11
132.8999999999978
 21
-165.2220826196553
 31
0.0
  0
LINE
  5
277C
330
2C38
100
AcDbEntity
  8
0
 62
     0
100
AcDbLine
 10
-31.53359401156377
 20
-52.60000000000218
 30
0.0
 11
132.8999999999978
 21
-162.22211608424
 31
0.0
  0
LINE
  5
277D
330
2C38
100
AcDbEntity
  8
0
 62
     0
100
AcDbLine
 10
-27.03363271767557
 20
-52.60000000000218
 30
0.0
 11
132.8999999999996
 21
-159.2221495488229
 31
0.0
  0
LINE
  5
277E
330
2C38
100
AcDbEntity
  8
0
 62
     0
100
AcDbLine
 10
-22.5336714237892
 20
-52.60000000000399
 30
0.0
 11
132.8999999999978
 21
-156.2221830134076
 31
0.0
  0
LINE
  5
277F
330
2C38
100
AcDbEntity
  8
0
 62
     0
100
AcDbLine
 10
-18.03371012990465
 20
-52.60000000000399
 30
0.0
 11
132.8999999999978
 21
-153.2222164779905
 31
0.0
  0
LINE
  5
2780
330
2C38
100
AcDbEntity
  8
0
 62
     0
100
AcDbLine
 10
-13.53374883602009
 20
-52.60000000000218
 30
0.0
 11
132.8999999999942
 21
-150.2222499425734
 31
0.0
  0
LINE
  5
2781
330
2C38
100
AcDbEntity
  8
0
 62
     0
100
AcDbLine
 10
-9.033787542133724
 20
-52.60000000000218
 30
0.0
 11
132.899999999996
 21
-147.2222834071563
 31
0.0
  0
LINE
  5
2782
330
2C38
100
AcDbEntity
  8
0
 62
     0
100
AcDbLine
 10
-4.533826248247351
 20
-52.60000000000399
 30
0.0
 11
132.8999999999942
 21
-144.222316871741
 31
0.0
  0
LINE
  5
2783
330
2C38
100
AcDbEntity
  8
0
 62
     0
100
AcDbLine
 10
-0.033864954360979
 20
-52.60000000000399
 30
0.0
 11
132.899999999996
 21
-141.2223503363238
 31
0.0
  0
LINE
  5
2784
330
2C38
100
AcDbEntity
  8
0
 62
     0
100
AcDbLine
 10
4.466096339523573
 20
-52.60000000000399
 30
0.0
 11
132.8999999999978
 21
-138.2223838009094
 31
0.0
  0
LINE
  5
2785
330
2C38
100
AcDbEntity
  8
0
 62
     0
100
AcDbLine
 10
8.966057633408127
 20
-52.60000000000218
 30
0.0
 11
132.899999999996
 21
-135.2224172654924
 31
0.0
  0
LINE
  5
2786
330
2C38
100
AcDbEntity
  8
0
 62
     0
100
AcDbLine
 10
13.4660189272945
 20
-52.60000000000218
 30
0.0
 11
132.899999999996
 21
-132.2224507300752
 31
0.0
  0
LINE
  5
2787
330
2C38
100
AcDbEntity
  8
0
 62
     0
100
AcDbLine
 10
17.96598022117722
 20
-52.60000000000218
 30
0.0
 11
132.8999999999942
 21
-129.222484194659
 31
0.0
  0
LINE
  5
2788
330
2C38
100
AcDbEntity
  8
0
 62
     0
100
AcDbLine
 10
22.46594151506542
 20
-52.60000000000218
 30
0.0
 11
132.899999999996
 21
-126.2225176592419
 31
0.0
  0
LINE
  5
2789
330
2C38
100
AcDbEntity
  8
0
 62
     0
100
AcDbLine
 10
26.96590280894998
 20
-52.60000000000399
 30
0.0
 11
132.8999999999942
 21
-123.2225511238266
 31
0.0
  0
LINE
  5
278A
330
2C38
100
AcDbEntity
  8
0
 62
     0
100
AcDbLine
 10
31.46586410283817
 20
-52.60000000000218
 30
0.0
 11
132.899999999996
 21
-120.2225845884104
 31
0.0
  0
LINE
  5
278B
330
2C38
100
AcDbEntity
  8
0
 62
     0
100
AcDbLine
 10
35.9658253967209
 20
-52.60000000000218
 30
0.0
 11
132.899999999996
 21
-117.2226180529951
 31
0.0
  0
LINE
  5
278C
330
2C38
100
AcDbEntity
  8
0
 62
     0
100
AcDbLine
 10
40.46578669060727
 20
-52.60000000000218
 30
0.0
 11
132.899999999996
 21
-114.222651517578
 31
0.0
  0
LINE
  5
278D
330
2C38
100
AcDbEntity
  8
0
 62
     0
100
AcDbLine
 10
44.96574798449183
 20
-52.60000000000399
 30
0.0
 11
132.8999999999942
 21
-111.2226849821627
 31
0.0
  0
LINE
  5
278E
330
2C38
100
AcDbEntity
  8
0
 62
     0
100
AcDbLine
 10
49.46570927838003
 20
-52.60000000000309
 30
0.0
 11
132.8999999999942
 21
-108.2227184467447
 31
0.0
  0
LINE
  5
278F
330
2C38
100
AcDbEntity
  8
0
 62
     0
100
AcDbLine
 10
53.96567057226275
 20
-52.60000000000309
 30
0.0
 11
132.8999999999942
 21
-105.2227519113303
 31
0.0
  0
LINE
  5
2790
330
2C38
100
AcDbEntity
  8
0
 62
     0
100
AcDbLine
 10
58.46563186614911
 20
-52.60000000000218
 30
0.0
 11
132.8999999999942
 21
-102.2227853759132
 31
0.0
  0
LINE
  5
2791
330
2C38
100
AcDbEntity
  8
0
 62
     0
100
AcDbLine
 10
62.96559316003549
 20
-52.60000000000399
 30
0.0
 11
132.8999999999942
 21
-99.22281884049786
 31
0.0
  0
LINE
  5
2792
330
2C38
100
AcDbEntity
  8
0
 62
     0
100
AcDbLine
 10
67.46555445392004
 20
-52.60000000000128
 30
0.0
 11
132.899999999996
 21
-96.22285230508076
 31
0.0
  0
LINE
  5
2793
330
2C38
100
AcDbEntity
  8
0
 62
     0
100
AcDbLine
 10
71.96551574780457
 20
-52.60000000000128
 30
0.0
 11
132.8999999999942
 21
-93.22288576966366
 31
0.0
  0
LINE
  5
2794
330
2C38
100
AcDbEntity
  8
0
 62
     0
100
AcDbLine
 10
76.46547704169099
 20
-52.60000000000309
 30
0.0
 11
132.8999999999942
 21
-90.22291923424928
 31
0.0
  0
LINE
  5
2795
330
2C38
100
AcDbEntity
  8
0
 62
     0
100
AcDbLine
 10
80.96543833557918
 20
-52.60000000000218
 30
0.0
 11
132.899999999996
 21
-87.22295269883124
 31
0.0
  0
LINE
  5
2796
330
2C38
100
AcDbEntity
  8
0
 62
     0
100
AcDbLine
 10
85.46539962946189
 20
-52.60000000000218
 30
0.0
 11
132.8999999999942
 21
-84.22298616341596
 31
0.0
  0
LINE
  5
2797
330
2C38
100
AcDbEntity
  8
0
 62
     0
100
AcDbLine
 10
89.96536092334647
 20
-52.60000000000218
 30
0.0
 11
132.8999999999942
 21
-81.22301962799886
 31
0.0
  0
LINE
  5
2798
330
2C38
100
AcDbEntity
  8
0
 62
     0
100
AcDbLine
 10
94.46532221723463
 20
-52.60000000000309
 30
0.0
 11
132.8999999999942
 21
-78.22305309258355
 31
0.0
  0
LINE
  5
2799
330
2C38
100
AcDbEntity
  8
0
 62
     0
100
AcDbLine
 10
98.96528351112101
 20
-52.60000000000309
 30
0.0
 11
132.899999999996
 21
-75.22308655716642
 31
0.0
  0
LINE
  5
279A
330
2C38
100
AcDbEntity
  8
0
 62
     0
100
AcDbLine
 10
103.4652448050037
 20
-52.60000000000218
 30
0.0
 11
132.8999999999942
 21
-72.22312002175204
 31
0.0
  0
LINE
  5
279B
330
2C38
100
AcDbEntity
  8
0
 62
     0
100
AcDbLine
 10
107.9652060988937
 20
-52.60000000000399
 30
0.0
 11
132.899999999996
 21
-69.22315348633492
 31
0.0
  0
LINE
  5
279C
330
2C38
100
AcDbEntity
  8
0
 62
     0
100
AcDbLine
 10
112.4651673927783
 20
-52.60000000000399
 30
0.0
 11
132.8999999999942
 21
-66.22318695091871
 31
0.0
  0
LINE
  5
279D
330
2C38
100
AcDbEntity
  8
0
 62
     0
100
AcDbLine
 10
116.9651286866628
 20
-52.60000000000309
 30
0.0
 11
132.8999999999942
 21
-63.2232204155016
 31
0.0
  0
LINE
  5
279E
330
2C38
100
AcDbEntity
  8
0
 62
     0
100
AcDbLine
 10
121.4650899805456
 20
-52.60000000000309
 30
0.0
 11
132.8999999999923
 21
-60.2232538800863
 31
0.0
  0
LINE
  5
279F
330
2C38
100
AcDbEntity
  8
0
 62
     0
100
AcDbLine
 10
125.965051274432
 20
-52.60000000000218
 30
0.0
 11
132.8999999999942
 21
-57.22328734467009
 31
0.0
  0
LINE
  5
27A0
330
2C38
100
AcDbEntity
  8
0
 62
     0
100
AcDbLine
 10
130.4650125683183
 20
-52.60000000000218
 30
0.0
 11
132.8999999999942
 21
-54.22332080925297
 31
0.0
  0
ENDBLK
  5
27A1
330
2C38
100
AcDbEntity
  8
0
100
AcDbBlockEnd
  0
ENDSEC
  0
SECTION
  2
ENTITIES
  0
TEXT
  5
953
330
2B64
100
AcDbEntity
  8
OUTLINE
  6
Continuous
 62
     3
100
AcDbText
 10
-418.231467
 20
13.715189
 30
0.0
 40
64.0
  1
 
 41
0.9
100
AcDbText
  0
TEXT
  5
954
330
2B64
100
AcDbEntity
  8
OUTLINE
  6
Continuous
 62
     3
100
AcDbText
 10
-418.231467
 20
13.715189
 30
0.0
 40
64.0
  1
 
 41
0.9
100
AcDbText
  0
TEXT
  5
955
330
2B64
100
AcDbEntity
  8
OUTLINE
  6
Continuous
 62
     3
100
AcDbText
 10
1341.41903
 20
-706.0588199999997
 30
0.0
 40
64.0
  1
 
 41
0.9
100
AcDbText
  0
TEXT
  5
956
330
2B64
100
AcDbEntity
  8
OUTLINE
  6
Continuous
 62
     3
100
AcDbText
 10
1341.41903
 20
-706.0588199999997
 30
0.0
 40
64.0
  1
 
 41
0.9
100
AcDbText
  0
TEXT
  5
957
330
2B64
100
AcDbEntity
  8
OUTLINE
  6
Continuous
 62
     3
100
AcDbText
 10
1341.41903
 20
-706.0588199999997
 30
0.0
 40
64.0
  1
 
 41
0.9
100
AcDbText
  0
TEXT
  5
958
330
2B64
100
AcDbEntity
  8
OUTLINE
  6
Continuous
 62
     3
100
AcDbText
 10
1341.41903
 20
-706.0588199999997
 30
0.0
 40
64.0
  1
 
 41
0.9
100
AcDbText
  0
TEXT
  5
27FF
330
2B64
100
AcDbEntity
  8
ETC
100
AcDbText
 10
256.2468308916468
 20
475.6269765773618
 30
0.0
 40
64.0
  1
システム部材
 41
0.9
100
AcDbText
  0
TEXT
  5
2800
330
2B64
100
AcDbEntity
  8
ETC
100
AcDbText
 10
262.4548288916449
 20
576.5103025773615
 30
0.0
 40
64.0
  1
W-25SDAFCM_6
 41
0.9
100
AcDbText
  0
TEXT
  5
2801
330
2B64
100
AcDbEntity
  8
ETC
100
AcDbText
 10
256.2468308916468
 20
375.6269765773619
 30
0.0
 40
64.0
  1
W-25SDAFCM
 41
0.9
100
AcDbText
  0
POINT
  5
2802
330
2B64
100
AcDbEntity
  8
ARRANGE
100
AcDbPoint
 10
0.0
 20
0.0
 30
0.0
 39
50.0
  0
CIRCLE
  5
2803
330
2B64
100
AcDbEntity
  8
ARRANGE
100
AcDbCircle
 10
0.0
 20
0.0
 30
0.0
 40
40.0
  0
LINE
  5
2804
330
2B64
100
AcDbEntity
  8
BASIS
100
AcDbLine
 10
0.0
 20
25.0
 30
0.0
 11
0.0
 21
-322.0
 31
0.0
  0
LINE
  5
2805
330
2B64
100
AcDbEntity
  8
DETAIL
100
AcDbLine
 10
132.9000000000014
 20
-52.60000000000037
 30
0.0
 11
132.9000000000014
 21
-281.3999999999996
 31
0.0
  0
LINE
  5
2806
330
2B64
100
AcDbEntity
  8
DETAIL
100
AcDbLine
 10
-132.9000000000014
 20
-52.60000000000037
 30
0.0
 11
-132.9000000000014
 21
-281.3999999999996
 31
0.0
  0
LINE
  5
2807
330
2B64
100
AcDbEntity
  8
DETAIL
100
AcDbLine
 10
148.5
 20
-2.600000000000362
 30
0.0
 11
148.5
 21
-297.0
 31
0.0
  0
LINE
  5
2808
330
2B64
100
AcDbEntity
  8
OUTLINE
100
AcDbLine
 10
-148.5
 20
-2.600000000000362
 30
0.0
 11
-148.5
 21
-297.0
 31
0.0
  0
LINE
  5
2809
330
2B64
100
AcDbEntity
  8
DETAIL
100
AcDbLine
 10
-148.5
 20
-2.600000000000362
 30
0.0
 11
-148.5
 21
-297.0
 31
0.0
  0
LINE
  5
280A
330
2B64
100
AcDbEntity
  8
DETAIL
100
AcDbLine
 10
-132.9000000000014
 20
-52.60000000000037
 30
0.0
 11
132.9000000000014
 21
-52.60000000000037
 31
0.0
  0
LINE
  5
280B
330
2B64
100
AcDbEntity
  8
DETAIL
100
AcDbLine
 10
-148.5
 20
-37.0
 30
0.0
 11
148.4999999999963
 21
-37.0
 31
0.0
  0
POLYLINE
  5
280C
330
2B64
100
AcDbEntity
  8
DETAIL
100
AcDb2dPolyline
 66
     1
 10
0.0
 20
0.0
 30
0.0
  0
VERTEX
  5
280D
330
280C
100
AcDbEntity
  8
DETAIL
100
AcDbVertex
100
AcDb2dVertex
 10
-182.5
 20
0.0
 30
0.0
  0
VERTEX
  5
280E
330
280C
100
AcDbEntity
  8
DETAIL
100
AcDbVertex
100
AcDb2dVertex
 10
182.5
 20
0.0
 30
0.0
  0
SEQEND
  5
280F
330
280C
100
AcDbEntity
  8
DETAIL
  0
POLYLINE
  5
2810
330
2B64
100
AcDbEntity
  8
DETAIL
100
AcDb2dPolyline
 66
     1
 10
0.0
 20
0.0
 30
0.0
  0
VERTEX
  5
2811
330
2810
100
AcDbEntity
  8
DETAIL
100
AcDbVertex
100
AcDb2dVertex
 10
-182.5
 20
-2.600000000000362
 30
0.0
  0
VERTEX
  5
2812
330
2810
100
AcDbEntity
  8
DETAIL
100
AcDbVertex
100
AcDb2dVertex
 10
182.5
 20
-2.600000000000362
 30
0.0
  0
SEQEND
  5
2813
330
2810
100
AcDbEntity
  8
DETAIL
  0
LINE
  5
2814
330
2B64
100
AcDbEntity
  8
DETAIL
100
AcDbLine
 10
-182.5
 20
0.0
 30
0.0
 11
-182.5
 21
-2.600000000000362
 31
0.0
  0
LINE
  5
2815
330
2B64
100
AcDbEntity
  8
NOTE
100
AcDbLine
 10
-165.0
 20
-12.5
 30
0.0
 11
-165.0
 21
12.5
 31
0.0
  0
LINE
  5
2816
330
2B64
100
AcDbEntity
  8
NOTE
100
AcDbLine
 10
165.0
 20
12.5
 30
0.0
 11
165.0
 21
-12.5
 31
0.0
  0
LINE
  5
2817
330
2B64
100
AcDbEntity
  8
DETAIL
100
AcDbLine
 10
182.5
 20
0.0
 30
0.0
 11
182.5
 21
-2.600000000000362
 31
0.0
  0
LINE
  5
2818
330
2B64
100
AcDbEntity
  8
DETAIL
100
AcDbLine
 10
-132.9000000000014
 20
-281.3999999999996
 30
0.0
 11
132.9000000000014
 21
-281.3999999999996
 31
0.0
  0
LINE
  5
2819
330
2B64
100
AcDbEntity
  8
OUTLINE
100
AcDbLine
 10
-148.5
 20
-297.0
 30
0.0
 11
148.5
 21
-297.0
 31
0.0
  0
LINE
  5
281A
330
2B64
100
AcDbEntity
  8
DETAIL
100
AcDbLine
 10
-148.5
 20
-297.0
 30
0.0
 11
148.5
 21
-297.0
 31
0.0
  0
INSERT
  5
281B
330
2B64
100
AcDbEntity
  8
0
100
AcDbBlockReference
  2
*U66
 10
0.0
 20
0.0
 30
0.0
1001
ACAD
1000
DSTYLE
1002
{
1070
    41
1040
12.0
1070
    42
1040
20.0
1070
    43
1040
200.0
1070
    44
1040
20.0
1070
    73
1070
     0
1070
    74
1070
     0
1070
    77
1070
     1
1070
    78
1070
     8
1070
   140
1040
64.0
1070
   147
1040
50.0
1070
   172
1070
     1
1070
   174
1070
     1
1070
   275
1070
     0
1070
   284
1070
     0
1070
   285
1070
     0
1070
   286
1070
     0
1070
   341
1005
0
1070
   342
1005
0
1002
}
  0
INSERT
  5
281C
330
2B64
100
AcDbEntity
  8
0
100
AcDbBlockReference
  2
*U67
 10
0.0
 20
0.0
 30
0.0
  0
LINE
  5
281D
330
2B64
100
AcDbEntity
  8
NOTE
100
AcDbLine
 39
50.0
 10
-177.5
 20
0.0
 30
0.0
 11
-152.5
 21
0.0
 31
0.0
  0
LINE
  5
281E
330
2B64
100
AcDbEntity
  8
NOTE
100
AcDbLine
 39
50.0
 10
152.5
 20
0.0
 30
0.0
 11
177.5
 21
0.0
 31
0.0
  0
LINE
  5
281F
330
2B64
100
AcDbEntity
  8
OUTLINE
100
AcDbLine
 10
148.5
 20
-2.600000000000362
 30
0.0
 11
148.5
 21
-297.0
 31
0.0
  0
LINE
  5
2820
330
2B64
100
AcDbEntity
  8
OUTLINE
100
AcDbLine
 10
-148.5
 20
-2.600000000000362
 30
0.0
 11
-148.5
 21
-297.0
 31
0.0
  0
LINE
  5
2821
330
2B64
100
AcDbEntity
  8
OUTLINE
100
AcDbLine
 10
-148.5
 20
-37.0
 30
0.0
 11
148.4999999999963
 21
-37.0
 31
0.0
  0
POLYLINE
  5
2822
330
2B64
100
AcDbEntity
  8
OUTLINE
100
AcDb2dPolyline
 66
     1
 10
0.0
 20
0.0
 30
0.0
  0
VERTEX
  5
2823
330
2822
100
AcDbEntity
  8
OUTLINE
100
AcDbVertex
100
AcDb2dVertex
 10
-182.5
 20
-2.600000000000362
 30
0.0
  0
VERTEX
  5
2824
330
2822
100
AcDbEntity
  8
OUTLINE
100
AcDbVertex
100
AcDb2dVertex
 10
182.5
 20
-2.600000000000362
 30
0.0
  0
SEQEND
  5
2825
330
2822
100
AcDbEntity
  8
OUTLINE
  0
LINE
  5
2826
330
2B64
100
AcDbEntity
  8
OUTLINE
100
AcDbLine
 10
-148.5
 20
-297.0
 30
0.0
 11
148.5
 21
-297.0
 31
0.0
  0
LINE
  5
2827
330
2B64
100
AcDbEntity
  8
OUTLINE
100
AcDbLine
 39
50.0
 10
-182.5
 20
-2.600000000000362
 30
0.0
 11
-182.5
 21
0.0
 31
0.0
  0
LINE
  5
2828
330
2B64
100
AcDbEntity
  8
OUTLINE
100
AcDbLine
 39
50.0
 10
-182.5
 20
0.0
 30
0.0
 11
182.5
 21
0.0
 31
0.0
  0
LINE
  5
2829
330
2B64
100
AcDbEntity
  8
OUTLINE
100
AcDbLine
 39
50.0
 10
182.5
 20
0.0
 30
0.0
 11
182.5
 21
-2.600000000000362
 31
0.0
  0
LINE
  5
282A
330
2B64
100
AcDbEntity
  8
DETAIL
100
AcDbLine
 10
132.9000000000014
 20
-52.60000000000037
 30
0.0
 11
132.9000000000014
 21
-281.3999999999996
 31
0.0
  0
LINE
  5
282B
330
2B64
100
AcDbEntity
  8
DETAIL
100
AcDbLine
 10
-132.9000000000014
 20
-52.60000000000037
 30
0.0
 11
-132.9000000000014
 21
-281.3999999999996
 31
0.0
  0
LINE
  5
282C
330
2B64
100
AcDbEntity
  8
DETAIL
100
AcDbLine
 10
-132.9000000000014
 20
-52.60000000000037
 30
0.0
 11
132.9000000000014
 21
-52.60000000000037
 31
0.0
  0
LINE
  5
282D
330
2B64
100
AcDbEntity
  8
DETAIL
100
AcDbLine
 10
-132.9000000000014
 20
-281.3999999999996
 30
0.0
 11
132.9000000000014
 21
-281.3999999999996
 31
0.0
  0
LINE
  5
282E
330
2B64
100
AcDbEntity
  8
DETAIL
100
AcDbLine
 10
-132.9000000000014
 20
-52.60000000000037
 30
0.0
 11
132.9000000000014
 21
-52.60000000000037
 31
0.0
  0
LINE
  5
282F
330
2B64
100
AcDbEntity
  8
DETAIL
100
AcDbLine
 10
-132.9000000000014
 20
-281.4000000000005
 30
0.0
 11
132.9000000000014
 21
-281.4000000000005
 31
0.0
  0
LINE
  5
2830
330
2B64
100
AcDbEntity
  8
DETAIL
100
AcDbLine
 10
-132.9000000000014
 20
-52.60000000000037
 30
0.0
 11
-132.9000000000014
 21
-281.4000000000005
 31
0.0
  0
LINE
  5
2831
330
2B64
100
AcDbEntity
  8
DETAIL
100
AcDbLine
 10
132.9000000000014
 20
-52.60000000000037
 30
0.0
 11
132.9000000000014
 21
-281.4000000000005
 31
0.0
  0
INSERT
  5
2832
330
2B64
100
AcDbEntity
  8
DETAIL
100
AcDbBlockReference
  2
*X68
 10
0.0
 20
0.0
 30
0.0
1001
ACADANNOTATIVE
1000
AnnotativeData
1002
{
1070
     1
1070
     0
1002
}
1001
ACAD
1000
HATCH
1002
{
1070
    19
1000
LINE
1040
19.969
1040
0.5880014249968896
1000
R14_HATCH_DATA
1000
7EFE
1011
1.0
1021
0.0
1031
0.0
1011
0.0
1021
1.0
1031
0.0
1011
0.0
1021
0.0
1031
1.0
1040
0.0
1010
0.0
1020
0.0
1030
1.0
1000
LINE
1070
     0
1070
     0
1071
        2
1071
        7
1070
     0
1070
     1
1071
        6
1040
132.9000000000014
1040
-246.4000000000005
1040
-82.89999999999782
1040
-246.4000000000005
1040
-82.89999999999782
1040
-52.60000000000037
1040
-132.9000000000014
1040
-52.60000000000037
1040
-132.900000000005
1040
-281.4000000000005
1040
132.9000000000014
1040
-281.4000000000005
1071
        0
1071
       23
1070
     0
1070
     1
1071
        4
1040
132.9000000000014
1040
-52.60000000000037
1040
-82.89999999999782
1040
-52.60000000000128
1040
-82.89999999999782
1040
-246.4000000000005
1040
132.8999999999978
1040
-246.4000000000005
1071
        0
1070
     0
1070
     1
1040
0.5880014249968896
1040
19.969
1070
     0
1070
     1
1040
0.5880014249968896
1040
20309.78664191569
1040
3720.361112389202
1040
-1.384598579568018
1040
2.076903172775084
1070
     0
1040
1.068793041557356
1071
        2
1040
-11.95284125236867
1040
-267.1606853719295
1040
0.0
1040
63.48330888505007
1040
-171.3214214842228
1040
0.0
1002
}
  0
INSERT
  5
2833
330
2B64
100
AcDbEntity
  8
DETAIL
100
AcDbBlockReference
  2
*X69
 10
0.0
 20
0.0
 30
0.0
1001
ACADANNOTATIVE
1000
AnnotativeData
1002
{
1070
     1
1070
     0
1002
}
1001
ACAD
1000
HATCH
1002
{
1070
    19
1000
LINE
1040
19.969
1040
5.695183882182695
1000
R14_HATCH_DATA
1000
7F04
1011
1.0
1021
0.0
1031
0.0
1011
0.0
1021
1.0
1031
0.0
1011
0.0
1021
0.0
1031
1.0
1040
0.0
1010
0.0
1020
0.0
1030
1.0
1000
LINE
1070
     0
1070
     0
1071
        2
1071
        7
1070
     0
1070
     1
1071
        6
1040
132.9000000000014
1040
-246.3999999999996
1040
-82.89999999999782
1040
-246.4000000000005
1040
-82.89999999999782
1040
-52.60000000000037
1040
-132.9000000000014
1040
-52.60000000000037
1040
-132.900000000005
1040
-281.4000000000005
1040
132.9000000000014
1040
-281.4000000000005
1071
        0
1071
       23
1070
     0
1070
     1
1071
        4
1040
-82.90000000000146
1040
-52.60000000000128
1040
-82.90000000000146
1040
-246.4000000000005
1040
132.9000000000014
1040
-246.4000000000005
1040
132.8999999999978
1040
-52.60000000000037
1071
        0
1070
     0
1070
     1
1040
5.695183882182695
1040
19.969
1070
     0
1070
     1
1040
5.695183882182695
1040
20309.78664191569
1040
3720.361112389202
1040
1.384598579568018
1040
2.076903172775084
1070
     0
1040
0.422143423134065
1071
        2
1040
-76.87434985552319
1040
-262.0730159982795
1040
0.0
1040
28.47801823268674
1040
-97.96932302824281
1040
0.0
1002
}
  0
LINE
  5
2834
330
2B64
100
AcDbEntity
  8
DETAIL
100
AcDbLine
 10
-132.9000000000014
 20
-52.60000000000037
 30
0.0
 11
132.9000000000014
 21
-52.60000000000037
 31
0.0
  0
LINE
  5
2835
330
2B64
100
AcDbEntity
  8
DETAIL
100
AcDbLine
 10
-132.9000000000014
 20
-281.4000000000005
 30
0.0
 11
132.9000000000014
 21
-281.4000000000005
 31
0.0
  0
LINE
  5
2836
330
2B64
100
AcDbEntity
  8
DETAIL
100
AcDbLine
 10
-132.9000000000014
 20
-52.60000000000037
 30
0.0
 11
-132.9000000000014
 21
-281.4000000000005
 31
0.0
  0
LINE
  5
2837
330
2B64
100
AcDbEntity
  8
DETAIL
100
AcDbLine
 10
132.9000000000014
 20
-52.60000000000037
 30
0.0
 11
132.9000000000014
 21
-281.4000000000005
 31
0.0
  0
LINE
  5
2838
330
2B64
100
AcDbEntity
  8
SIZE
100
AcDbLine
 10
182.5
 20
20.0
 30
0.0
 11
182.5
 21
298.8865929365165
 31
0.0
  0
LINE
  5
2839
330
2B64
100
AcDbEntity
  8
SIZE
100
AcDbLine
 10
-182.5
 20
20.0
 30
0.0
 11
-182.5
 21
298.8865929365165
 31
0.0
  0
LINE
  5
283A
330
2B64
100
AcDbEntity
  8
SIZE
100
AcDbLine
 10
170.5
 20
278.8865929365165
 30
0.0
 11
-170.5
 21
278.8865929365165
 31
0.0
  0
INSERT
  5
283B
330
2B64
100
AcDbEntity
  8
SIZE
100
AcDbBlockReference
  2
_DOTBLANK
 10
182.5
 20
278.8865929365165
 30
0.0
 41
12.0
 42
12.0
 43
12.0
  0
INSERT
  5
283C
330
2B64
100
AcDbEntity
  8
SIZE
100
AcDbBlockReference
  2
_DOTBLANK
 10
-182.5
 20
278.8865929365165
 30
0.0
 41
12.0
 42
12.0
 43
12.0
 50
180.0
  0
LINE
  5
283D
330
2B64
100
AcDbEntity
  8
SIZE
100
AcDbLine
 10
165.0
 20
32.5
 30
0.0
 11
165.0
 21
180.3320910096172
 31
0.0
  0
LINE
  5
283E
330
2B64
100
AcDbEntity
  8
SIZE
100
AcDbLine
 10
-165.0
 20
32.5
 30
0.0
 11
-165.0
 21
180.3320910096172
 31
0.0
  0
LINE
  5
283F
330
2B64
100
AcDbEntity
  8
SIZE
100
AcDbLine
 10
153.0
 20
160.3320910096172
 30
0.0
 11
-153.0
 21
160.3320910096172
 31
0.0
  0
INSERT
  5
2840
330
2B64
100
AcDbEntity
  8
SIZE
100
AcDbBlockReference
  2
_DOTBLANK
 10
165.0
 20
160.3320910096172
 30
0.0
 41
12.0
 42
12.0
 43
12.0
  0
INSERT
  5
2841
330
2B64
100
AcDbEntity
  8
SIZE
100
AcDbBlockReference
  2
_DOTBLANK
 10
-165.0
 20
160.3320910096172
 30
0.0
 41
12.0
 42
12.0
 43
12.0
 50
180.0
  0
LINE
  5
2842
330
2B64
100
AcDbEntity
  8
SIZE
100
AcDbLine
 10
-168.5
 20
-297.0
 30
0.0
 11
-345.3170819897096
 21
-297.0
 31
0.0
  0
LINE
  5
2843
330
2B64
100
AcDbEntity
  8
SIZE
100
AcDbLine
 10
-202.5
 20
0.0
 30
0.0
 11
-345.3170819897096
 21
0.0000000000000568
 31
0.0
  0
LINE
  5
2844
330
2B64
100
AcDbEntity
  8
SIZE
100
AcDbLine
 10
-325.3170819897095
 20
-285.0
 30
0.0
 11
-325.3170819897095
 21
-11.99999999999994
 31
0.0
  0
INSERT
  5
2845
330
2B64
100
AcDbEntity
  8
SIZE
100
AcDbBlockReference
  2
_DOTBLANK
 10
-325.3170819897095
 20
-297.0
 30
0.0
 41
12.0
 42
12.0
 43
12.0
 50
270.0
  0
INSERT
  5
2846
330
2B64
100
AcDbEntity
  8
SIZE
100
AcDbBlockReference
  2
_DOTBLANK
 10
-325.3170819897095
 20
0.0000000000000568
 30
0.0
 41
12.0
 42
12.0
 43
12.0
 50
90.0
  0
LINE
  5
2847
330
2B64
100
AcDbEntity
  8
SIZE
100
AcDbLine
 10
148.5
 20
-317.0
 30
0.0
 11
148.5
 21
-471.1034436566069
 31
0.0
  0
LINE
  5
2848
330
2B64
100
AcDbEntity
  8
SIZE
100
AcDbLine
 10
-148.5
 20
-317.0
 30
0.0
 11
-148.5
 21
-471.1034436566069
 31
0.0
  0
LINE
  5
2849
330
2B64
100
AcDbEntity
  8
SIZE
100
AcDbLine
 10
136.5
 20
-451.1034436566069
 30
0.0
 11
-136.5
 21
-451.1034436566069
 31
0.0
  0
INSERT
  5
284A
330
2B64
100
AcDbEntity
  8
SIZE
100
AcDbBlockReference
  2
_DOTBLANK
 10
148.5
 20
-451.1034436566069
 30
0.0
 41
12.0
 42
12.0
 43
12.0
  0
INSERT
  5
284B
330
2B64
100
AcDbEntity
  8
SIZE
100
AcDbBlockReference
  2
_DOTBLANK
 10
-148.5
 20
-451.1034436566069
 30
0.0
 41
12.0
 42
12.0
 43
12.0
 50
180.0
  0
TEXT
  5
284C
330
2B64
100
AcDbEntity
  8
SIZE
100
AcDbText
 10
-74.05714285714272
 20
-441.1034436566068
 30
0.0
 40
64.0
  1
297
 41
0.9
100
AcDbText
  0
TEXT
  5
284D
330
2B64
100
AcDbEntity
  8
SIZE
100
AcDbText
 10
-335.3170819897095
 20
-220.9686591952512
 30
0.0
 40
64.0
  1
297
 50
90.0
 41
0.9
100
AcDbText
  0
TEXT
  5
284E
330
2B64
100
AcDbEntity
  8
SIZE
100
AcDbText
 10
-74.61302049113578
 20
170.3320910096172
 30
0.0
 40
64.0
  1
330
 41
0.9
100
AcDbText
  0
TEXT
  5
284F
330
2B64
100
AcDbEntity
  8
SIZE
100
AcDbText
 10
-74.05714285714272
 20
288.8865929365165
 30
0.0
 40
64.0
  1
365
 41
0.9
100
AcDbText
  0
ENDSEC
  0
SECTION
  2
OBJECTS
  0
DICTIONARY
  5
2AFC
330
0
100
AcDbDictionary
281
     1
  3
ACAD_2007HEADERVARS_RT
350
2D45
  3
ACAD_COLOR
350
2B5A
  3
ACAD_GROUP
350
2AFD
  3
ACAD_LAYOUT
350
2B59
  3
ACAD_MATERIAL
350
2B00
  3
ACAD_MLEADERSTYLE
350
2B5D
  3
ACAD_MLINESTYLE
350
2B56
  3
ACAD_PLOTSETTINGS
350
2B58
  3
ACAD_PLOTSTYLENAME
350
2AFE
  3
ACAD_SCALELIST
350
2B2A
  3
ACAD_TABLESTYLE
350
2B5B
  3
ACAD_VISUALSTYLE
350
2B19
  3
ACDB_RECOMPOSE_DATA
350
2D43
  3
AcDbVariableDictionary
350
2D3A
  3
AcmDictionary
350
2CED
  3
AMG
350
2C3A
  3
DWGPROPS
350
2D44
  3
MAPISURF_MODULE
350
2CBA
  0
DICTIONARY
  5
2D15
330
2B4C
100
AcDbDictionary
280
     1
281
     1
  3
ADSK_XREC_LAYER_RECONCILED
360
2D16
  0
DICTIONARY
  5
2D17
330
2B7B
100
AcDbDictionary
280
     1
281
     1
  3
ADSK_XREC_LAYER_RECONCILED
360
2D18
  0
DICTIONARY
  5
2D19
330
2B7C
100
AcDbDictionary
280
     1
281
     1
  3
ADSK_XREC_LAYER_RECONCILED
360
2D1A
  0
DICTIONARY
  5
2D1B
330
2B7D
100
AcDbDictionary
280
     1
281
     1
  3
ADSK_XREC_LAYER_RECONCILED
360
2D1C
  0
DICTIONARY
  5
2D1D
330
2B7E
100
AcDbDictionary
280
     1
281
     1
  3
ADSK_XREC_LAYER_RECONCILED
360
2D1E
  0
DICTIONARY
  5
2D1F
330
2B7F
100
AcDbDictionary
280
     1
281
     1
  3
ADSK_XREC_LAYER_RECONCILED
360
2D20
  0
DICTIONARY
  5
2D21
330
2B81
100
AcDbDictionary
280
     1
281
     1
  3
ADSK_XREC_LAYER_RECONCILED
360
2D22
  0
DICTIONARY
  5
2D23
330
2B82
100
AcDbDictionary
280
     1
281
     1
  3
ADSK_XREC_LAYER_RECONCILED
360
2D24
  0
DICTIONARY
  5
2D25
330
2B83
100
AcDbDictionary
280
     1
281
     1
  3
ADSK_XREC_LAYER_RECONCILED
360
2D26
  0
DICTIONARY
  5
2D27
330
2B84
100
AcDbDictionary
280
     1
281
     1
  3
ADSK_XREC_LAYER_RECONCILED
360
2D28
  0
DICTIONARY
  5
2D29
330
2B85
100
AcDbDictionary
280
     1
281
     1
  3
ADSK_XREC_LAYER_RECONCILED
360
2D2A
  0
DICTIONARY
  5
2D2B
330
2B64
100
AcDbDictionary
280
     1
281
     1
  3
ACAD_INDEX
360
2D2C
  0
DICTIONARY
  5
2D45
102
{ACAD_REACTORS
330
2AFC
102
}
330
2AFC
100
AcDbDictionary
281
     1
  3
DIMARCSYM
350
2D46
  3
DIMLTEX1
350
2D48
  3
DIMLTEX2
350
2D49
  3
DIMLTYPE
350
2D47
  0
DICTIONARY
  5
2B5A
102
{ACAD_REACTORS
330
2AFC
102
}
330
2AFC
100
AcDbDictionary
281
     1
  0
DICTIONARY
  5
2AFD
102
{ACAD_REACTORS
330
2AFC
102
}
330
2AFC
100
AcDbDictionary
281
     1
  0
DICTIONARY
  5
2B59
102
{ACAD_REACTORS
330
2AFC
102
}
330
2AFC
100
AcDbDictionary
281
     1
  3
Model
350
2B67
  3
レイアウト1
350
2B63
  0
DICTIONARY
  5
2B00
102
{ACAD_REACTORS
330
2AFC
102
}
330
2AFC
100
AcDbDictionary
281
     1
  3
ByBlock
350
2B09
  3
ByLayer
350
2B01
  3
Global
350
2B11
  0
DICTIONARY
  5
2B5D
102
{ACAD_REACTORS
330
2AFC
102
}
330
2AFC
100
AcDbDictionary
281
     1
  3
Standard
350
2B5E
  0
DICTIONARY
  5
2B56
102
{ACAD_REACTORS
330
2AFC
102
}
330
2AFC
100
AcDbDictionary
281
     1
  3
Standard
350
2B57
  0
DICTIONARY
  5
2B58
102
{ACAD_REACTORS
330
2AFC
102
}
330
2AFC
100
AcDbDictionary
281
     1
  0
ACDBDICTIONARYWDFLT
  5
2AFE
102
{ACAD_REACTORS
330
2AFC
102
}
330
2AFC
100
AcDbDictionary
281
     1
  3
Normal
350
2AFF
100
AcDbDictionaryWithDefault
340
2AFF
  0
DICTIONARY
  5
2B2A
102
{ACAD_REACTORS
330
2AFC
102
}
330
2AFC
100
AcDbDictionary
281
     1
  3
A0
350
2B2B
  3
A1
350
2B2C
  3
A2
350
2B2D
  3
A3
350
2B2E
  3
A4
350
2B2F
  3
A5
350
2B30
  3
A6
350
2B31
  3
A7
350
2B32
  3
A8
350
2B33
  3
A9
350
2B34
  3
B0
350
2B35
  3
B1
350
2B36
  3
B2
350
2B37
  3
B3
350
2B38
  3
B4
350
2B39
  3
B5
350
2B3A
  3
B6
350
2B3B
  3
B7
350
2B3C
  3
B8
350
2B3D
  3
B9
350
2B3E
  3
C0
350
2B3F
  3
C1
350
2B40
  3
C2
350
2B41
  3
C3
350
2B42
  3
C4
350
2B43
  3
C5
350
2B44
  3
C6
350
2B45
  3
C7
350
2B46
  3
C8
350
2B47
  3
C9
350
2B48
  3
D0
350
2B49
  3
D1
350
2B4A
  3
D2
350
2B4B
  0
DICTIONARY
  5
2B5B
102
{ACAD_REACTORS
330
2AFC
102
}
330
2AFC
100
AcDbDictionary
281
     1
  3
Standard
350
2B5C
  0
DICTIONARY
  5
2B19
102
{ACAD_REACTORS
330
2AFC
102
}
330
2AFC
100
AcDbDictionary
281
     1
  3
2dWireframe
350
2B1F
  3
3D Hidden
350
2B21
  3
3dWireframe
350
2B20
  3
Basic
350
2B1E
  3
Brighten
350
2B25
  3
ColorChange
350
2B29
  3
Conceptual
350
2B22
  3
Dim
350
2B24
  3
Facepattern
350
2B28
  3
Flat
350
2B1A
  3
FlatWithEdges
350
2B1B
  3
Gouraud
350
2B1C
  3
GouraudWithEdges
350
2B1D
  3
Linepattern
350
2B27
  3
Realistic
350
2B23
  3
Thicken
350
2B26
  0
XRECORD
  5
2D43
102
{ACAD_REACTORS
330
2AFC
102
}
330
2AFC
100
AcDbXrecord
280
     1
 90
        1
330
2B5C
  0
DICTIONARY
  5
2D3A
102
{ACAD_REACTORS
330
2AFC
102
}
330
2AFC
100
AcDbDictionary
281
     1
  3
CANNOSCALE
350
2D3D
  3
CMLEADERSTYLE
350
2D3C
  3
CTABLESTYLE
350
2D3B
  3
DIMASSOC
350
2D40
  3
INDEXCTL
350
2D3F
  3
SORTENTS
350
2D3E
  0
DICTIONARY
  5
2CED
102
{ACAD_REACTORS
330
2AFC
102
}
330
2AFC
100
AcDbDictionary
281
     1
  3
AcmStdDictionary
350
2CFB
  0
DICTIONARY
  5
2C3A
102
{ACAD_REACTORS
330
2AFC
102
}
330
2AFC
100
AcDbDictionary
281
     1
  3
AcMgSettings
350
2C3B
  0
XRECORD
  5
2D44
102
{ACAD_REACTORS
330
2AFC
102
}
330
2AFC
100
AcDbXrecord
280
     1
  1
DWGPROPS COOKIE
  2

  3

  4

  6

  7

  8
A090053
  9

300
AmdtFileType=84
301
=
302
=
303
=
304
=
305
=
306
=
307
=
308
=
309
=
 40
1.041156006944444
 41
2452321.396199653
 42
2456211.552129653
  1

 90
        1
  0
XRECORD
  5
2D16
102
{ACAD_REACTORS
330
2D15
102
}
330
2D15
100
AcDbXrecord
280
     1
290
     1
  0
XRECORD
  5
2D18
102
{ACAD_REACTORS
330
2D17
102
}
330
2D17
100
AcDbXrecord
280
     1
290
     1
  0
XRECORD
  5
2D1A
102
{ACAD_REACTORS
330
2D19
102
}
330
2D19
100
AcDbXrecord
280
     1
290
     1
  0
XRECORD
  5
2D1C
102
{ACAD_REACTORS
330
2D1B
102
}
330
2D1B
100
AcDbXrecord
280
     1
290
     1
  0
XRECORD
  5
2D1E
102
{ACAD_REACTORS
330
2D1D
102
}
330
2D1D
100
AcDbXrecord
280
     1
290
     1
  0
XRECORD
  5
2D20
102
{ACAD_REACTORS
330
2D1F
102
}
330
2D1F
100
AcDbXrecord
280
     1
290
     1
  0
XRECORD
  5
2D22
102
{ACAD_REACTORS
330
2D21
102
}
330
2D21
100
AcDbXrecord
280
     1
290
     1
  0
XRECORD
  5
2D24
102
{ACAD_REACTORS
330
2D23
102
}
330
2D23
100
AcDbXrecord
280
     1
290
     1
  0
XRECORD
  5
2D26
102
{ACAD_REACTORS
330
2D25
102
}
330
2D25
100
AcDbXrecord
280
     1
290
     1
  0
XRECORD
  5
2D28
102
{ACAD_REACTORS
330
2D27
102
}
330
2D27
100
AcDbXrecord
280
     1
290
     1
  0
XRECORD
  5
2D2A
102
{ACAD_REACTORS
330
2D29
102
}
330
2D29
100
AcDbXrecord
280
     1
290
     1
  0
DICTIONARY
  5
2D2C
102
{ACAD_REACTORS
330
2D2B
102
}
330
2D2B
100
AcDbDictionary
281
     1
  3
*A1
350
2D2D
  0
XRECORD
  5
2D46
102
{ACAD_REACTORS
330
2D45
102
}
330
2D45
100
AcDbXrecord
280
     1
 70
     1
  0
XRECORD
  5
2D48
102
{ACAD_REACTORS
330
2D45
102
}
330
2D45
100
AcDbXrecord
280
     1
340
2B52
  0
XRECORD
  5
2D49
102
{ACAD_REACTORS
330
2D45
102
}
330
2D45
100
AcDbXrecord
280
     1
340
2B52
  0
XRECORD
  5
2D47
102
{ACAD_REACTORS
330
2D45
102
}
330
2D45
100
AcDbXrecord
280
     1
340
2B52
  0
LAYOUT
  5
2B67
102
{ACAD_XDICTIONARY
360
2D50
102
}
102
{ACAD_REACTORS
330
2B59
102
}
330
2B59
100
AcDbPlotSettings
  1

  2
自動 EPSON LP-9600S (W2450527 上)
  4

  6

 40
0.0
 41
0.0
 42
0.0
 43
0.0
 44
0.0
 45
0.0
 46
0.0
 47
0.0
 48
0.0
 49
0.0
140
0.0
141
0.0
142
1.0
143
1.0
 70
  1712
 72
     0
 73
     0
 74
     0
  7

 75
     0
147
1.0
148
0.0
149
0.0
100
AcDbLayout
  1
Model
 70
     1
 71
     0
 10
0.0
 20
0.0
 11
12.0
 21
9.0
 12
0.0
 22
0.0
 32
0.0
 14
0.0
 24
0.0
 34
0.0
 15
0.0
 25
0.0
 35
0.0
146
0.0
 13
0.0
 23
0.0
 33
0.0
 16
1.0
 26
0.0
 36
0.0
 17
0.0
 27
1.0
 37
0.0
 76
     0
330
2B64
331
2B68
  0
LAYOUT
  5
2B63
102
{ACAD_XDICTIONARY
360
2D4E
102
}
102
{ACAD_REACTORS
330
2B59
102
}
330
2B59
100
AcDbPlotSettings
  1

  2
自動 EPSON LP-9600S (W2450527 上)
  4

  6

 40
0.0
 41
0.0
 42
0.0
 43
0.0
 44
0.0
 45
0.0
 46
0.0
 47
0.0
 48
0.0
 49
0.0
140
0.0
141
0.0
142
1.0
143
1.0
 70
   688
 72
     0
 73
     0
 74
     5
  7

 75
    16
147
1.0
148
0.0
149
0.0
100
AcDbLayout
  1
レイアウト1
 70
     1
 71
     1
 10
0.0
 20
0.0
 11
12.0
 21
9.0
 12
0.0
 22
0.0
 32
0.0
 14
1.000000000000000E+20
 24
1.000000000000000E+20
 34
1.000000000000000E+20
 15
-1.000000000000000E+20
 25
-1.000000000000000E+20
 35
-1.000000000000000E+20
146
0.0
 13
0.0
 23
0.0
 33
0.0
 16
1.0
 26
0.0
 36
0.0
 17
0.0
 27
1.0
 37
0.0
 76
     0
330
2B60
  0
MATERIAL
  5
2B09
102
{ACAD_XDICTIONARY
360
2B0A
102
}
102
{ACAD_REACTORS
330
2B00
102
}
330
2B00
100
AcDbMaterial
  1
ByBlock
 72
     0
 43
0.0208333333333333
 43
0.0
 43
0.0
 43
0.0
 43
0.0
 43
0.0208333333333333
 43
0.0
 43
0.0
 43
0.0
 43
0.0
 43
1.0
 43
0.0
 43
0.0
 43
0.0
 43
0.0
 43
1.0
 77
     0
 47
0.0208333333333333
 47
0.0
 47
0.0
 47
0.0
 47
0.0
 47
0.0208333333333333
 47
0.0
 47
0.0
 47
0.0
 47
0.0
 47
1.0
 47
0.0
 47
0.0
 47
0.0
 47
0.0
 47
1.0
171
     0
 49
0.0208333333333333
 49
0.0
 49
0.0
 49
0.0
 49
0.0
 49
0.0208333333333333
 49
0.0
 49
0.0
 49
0.0
 49
0.0
 49
1.0
 49
0.0
 49
0.0
 49
0.0
 49
0.0
 49
1.0
175
     0
142
0.0208333333333333
142
0.0
142
0.0
142
0.0
142
0.0
142
0.0208333333333333
142
0.0
142
0.0
142
0.0
142
0.0
142
1.0
142
0.0
142
0.0
142
0.0
142
0.0
142
1.0
179
     0
144
0.0208333333333333
144
0.0
144
0.0
144
0.0
144
0.0
144
0.0208333333333333
144
0.0
144
0.0
144
0.0
144
0.0
144
1.0
144
0.0
144
0.0
144
0.0
144
0.0
144
1.0
147
0.0208333333333333
147
0.0
147
0.0
147
0.0
147
0.0
147
0.0208333333333333
147
0.0
147
0.0
147
0.0
147
0.0
147
1.0
147
0.0
147
0.0
147
0.0
147
0.0
147
1.0
  0
MATERIAL
  5
2B01
102
{ACAD_XDICTIONARY
360
2B02
102
}
102
{ACAD_REACTORS
330
2B00
102
}
330
2B00
100
AcDbMaterial
  1
ByLayer
 72
     0
 43
0.0208333333333333
 43
0.0
 43
0.0
 43
0.0
 43
0.0
 43
0.0208333333333333
 43
0.0
 43
0.0
 43
0.0
 43
0.0
 43
1.0
 43
0.0
 43
0.0
 43
0.0
 43
0.0
 43
1.0
 77
     0
 47
0.0208333333333333
 47
0.0
 47
0.0
 47
0.0
 47
0.0
 47
0.0208333333333333
 47
0.0
 47
0.0
 47
0.0
 47
0.0
 47
1.0
 47
0.0
 47
0.0
 47
0.0
 47
0.0
 47
1.0
171
     0
 49
0.0208333333333333
 49
0.0
 49
0.0
 49
0.0
 49
0.0
 49
0.0208333333333333
 49
0.0
 49
0.0
 49
0.0
 49
0.0
 49
1.0
 49
0.0
 49
0.0
 49
0.0
 49
0.0
 49
1.0
175
     0
142
0.0208333333333333
142
0.0
142
0.0
142
0.0
142
0.0
142
0.0208333333333333
142
0.0
142
0.0
142
0.0
142
0.0
142
1.0
142
0.0
142
0.0
142
0.0
142
0.0
142
1.0
179
     0
144
0.0208333333333333
144
0.0
144
0.0
144
0.0
144
0.0
144
0.0208333333333333
144
0.0
144
0.0
144
0.0
144
0.0
144
1.0
144
0.0
144
0.0
144
0.0
144
0.0
144
1.0
147
0.0208333333333333
147
0.0
147
0.0
147
0.0
147
0.0
147
0.0208333333333333
147
0.0
147
0.0
147
0.0
147
0.0
147
1.0
147
0.0
147
0.0
147
0.0
147
0.0
147
1.0
  0
MATERIAL
  5
2B11
102
{ACAD_XDICTIONARY
360
2B12
102
}
102
{ACAD_REACTORS
330
2B00
102
}
330
2B00
100
AcDbMaterial
  1
Global
 72
     0
 43
0.0208333333333333
 43
0.0
 43
0.0
 43
0.0
 43
0.0
 43
0.0208333333333333
 43
0.0
 43
0.0
 43
0.0
 43
0.0
 43
1.0
 43
0.0
 43
0.0
 43
0.0
 43
0.0
 43
1.0
 77
     0
 47
0.0208333333333333
 47
0.0
 47
0.0
 47
0.0
 47
0.0
 47
0.0208333333333333
 47
0.0
 47
0.0
 47
0.0
 47
0.0
 47
1.0
 47
0.0
 47
0.0
 47
0.0
 47
0.0
 47
1.0
171
     0
 49
0.0208333333333333
 49
0.0
 49
0.0
 49
0.0
 49
0.0
 49
0.0208333333333333
 49
0.0
 49
0.0
 49
0.0
 49
0.0
 49
1.0
 49
0.0
 49
0.0
 49
0.0
 49
0.0
 49
1.0
175
     0
142
0.0208333333333333
142
0.0
142
0.0
142
0.0
142
0.0
142
0.0208333333333333
142
0.0
142
0.0
142
0.0
142
0.0
142
1.0
142
0.0
142
0.0
142
0.0
142
0.0
142
1.0
179
     0
144
0.0208333333333333
144
0.0
144
0.0
144
0.0
144
0.0
144
0.0208333333333333
144
0.0
144
0.0
144
0.0
144
0.0
144
1.0
144
0.0
144
0.0
144
0.0
144
0.0
144
1.0
147
0.0208333333333333
147
0.0
147
0.0
147
0.0
147
0.0
147
0.0208333333333333
147
0.0
147
0.0
147
0.0
147
0.0
147
1.0
147
0.0
147
0.0
147
0.0
147
0.0
147
1.0
  0
MLEADERSTYLE
  5
2B5E
102
{ACAD_REACTORS
330
2B5D
102
}
330
2B5D
100
AcDbMLeaderStyle
170
     2
171
     1
172
     0
 90
        2
 40
0.0
 41
0.0
173
     1
 91
-1056964608
340
2B52
 92
       -2
290
     1
 42
0.09
291
     1
 43
0.36
  3
Standard
 44
0.18
300

342
2B4D
174
     1
178
     6
175
     1
176
     0
 93
-1056964608
 45
0.18
292
     0
297
     0
 46
0.18
 94
-1056964608
 47
1.0
 49
1.0
140
1.0
293
     1
141
0.0
294
     1
177
     0
142
1.0
295
     0
296
     0
143
0.125
1001
ACAD_MLEADERVER
1070
     2
  0
MLINESTYLE
  5
2B57
102
{ACAD_REACTORS
330
2B56
102
}
330
2B56
100
AcDbMlineStyle
  2
STANDARD
 70
     0
  3

 62
   256
 51
90.0
 52
90.0
 71
     2
 49
0.5
 62
   256
  6
BYLAYER
 49
-0.5
 62
   256
  6
BYLAYER
  0
ACDBPLACEHOLDER
  5
2AFF
102
{ACAD_REACTORS
330
2AFE
102
}
330
2AFE
  0
SCALE
  5
2B2B
102
{ACAD_REACTORS
330
2B2A
102
}
330
2B2A
100
AcDbScale
 70
     0
300
1:1
140
1.0
141
1.0
290
     1
  0
SCALE
  5
2B2C
102
{ACAD_REACTORS
330
2B2A
102
}
330
2B2A
100
AcDbScale
 70
     0
300
1:2
140
1.0
141
2.0
290
     0
  0
SCALE
  5
2B2D
102
{ACAD_REACTORS
330
2B2A
102
}
330
2B2A
100
AcDbScale
 70
     0
300
1:4
140
1.0
141
4.0
290
     0
  0
SCALE
  5
2B2E
102
{ACAD_REACTORS
330
2B2A
102
}
330
2B2A
100
AcDbScale
 70
     0
300
1:5
140
1.0
141
5.0
290
     0
  0
SCALE
  5
2B2F
102
{ACAD_REACTORS
330
2B2A
102
}
330
2B2A
100
AcDbScale
 70
     0
300
1:8
140
1.0
141
8.0
290
     0
  0
SCALE
  5
2B30
102
{ACAD_REACTORS
330
2B2A
102
}
330
2B2A
100
AcDbScale
 70
     0
300
1:10
140
1.0
141
10.0
290
     0
  0
SCALE
  5
2B31
102
{ACAD_REACTORS
330
2B2A
102
}
330
2B2A
100
AcDbScale
 70
     0
300
1:16
140
1.0
141
16.0
290
     0
  0
SCALE
  5
2B32
102
{ACAD_REACTORS
330
2B2A
102
}
330
2B2A
100
AcDbScale
 70
     0
300
1:20
140
1.0
141
20.0
290
     0
  0
SCALE
  5
2B33
102
{ACAD_REACTORS
330
2B2A
102
}
330
2B2A
100
AcDbScale
 70
     0
300
1:30
140
1.0
141
30.0
290
     0
  0
SCALE
  5
2B34
102
{ACAD_REACTORS
330
2B2A
102
}
330
2B2A
100
AcDbScale
 70
     0
300
1:40
140
1.0
141
40.0
290
     0
  0
SCALE
  5
2B35
102
{ACAD_REACTORS
330
2B2A
102
}
330
2B2A
100
AcDbScale
 70
     0
300
1:50
140
1.0
141
50.0
290
     0
  0
SCALE
  5
2B36
102
{ACAD_REACTORS
330
2B2A
102
}
330
2B2A
100
AcDbScale
 70
     0
300
1:100
140
1.0
141
100.0
290
     0
  0
SCALE
  5
2B37
102
{ACAD_REACTORS
330
2B2A
102
}
330
2B2A
100
AcDbScale
 70
     0
300
2:1
140
2.0
141
1.0
290
     0
  0
SCALE
  5
2B38
102
{ACAD_REACTORS
330
2B2A
102
}
330
2B2A
100
AcDbScale
 70
     0
300
4:1
140
4.0
141
1.0
290
     0
  0
SCALE
  5
2B39
102
{ACAD_REACTORS
330
2B2A
102
}
330
2B2A
100
AcDbScale
 70
     0
300
8:1
140
8.0
141
1.0
290
     0
  0
SCALE
  5
2B3A
102
{ACAD_REACTORS
330
2B2A
102
}
330
2B2A
100
AcDbScale
 70
     0
300
10:1
140
10.0
141
1.0
290
     0
  0
SCALE
  5
2B3B
102
{ACAD_REACTORS
330
2B2A
102
}
330
2B2A
100
AcDbScale
 70
     0
300
100:1
140
100.0
141
1.0
290
     0
  0
SCALE
  5
2B3C
102
{ACAD_REACTORS
330
2B2A
102
}
330
2B2A
100
AcDbScale
 70
     0
300
1/128" = 1'-0"
140
0.0078125
141
12.0
290
     0
  0
SCALE
  5
2B3D
102
{ACAD_REACTORS
330
2B2A
102
}
330
2B2A
100
AcDbScale
 70
     0
300
1/64" = 1'-0"
140
0.015625
141
12.0
290
     0
  0
SCALE
  5
2B3E
102
{ACAD_REACTORS
330
2B2A
102
}
330
2B2A
100
AcDbScale
 70
     0
300
1/32" = 1'-0"
140
0.03125
141
12.0
290
     0
  0
SCALE
  5
2B3F
102
{ACAD_REACTORS
330
2B2A
102
}
330
2B2A
100
AcDbScale
 70
     0
300
1/16" = 1'-0"
140
0.0625
141
12.0
290
     0
  0
SCALE
  5
2B40
102
{ACAD_REACTORS
330
2B2A
102
}
330
2B2A
100
AcDbScale
 70
     0
300
3/32" = 1'-0"
140
0.09375
141
12.0
290
     0
  0
SCALE
  5
2B41
102
{ACAD_REACTORS
330
2B2A
102
}
330
2B2A
100
AcDbScale
 70
     0
300
1/8" = 1'-0"
140
0.125
141
12.0
290
     0
  0
SCALE
  5
2B42
102
{ACAD_REACTORS
330
2B2A
102
}
330
2B2A
100
AcDbScale
 70
     0
300
3/16" = 1'-0"
140
0.1875
141
12.0
290
     0
  0
SCALE
  5
2B43
102
{ACAD_REACTORS
330
2B2A
102
}
330
2B2A
100
AcDbScale
 70
     0
300
1/4" = 1'-0"
140
0.25
141
12.0
290
     0
  0
SCALE
  5
2B44
102
{ACAD_REACTORS
330
2B2A
102
}
330
2B2A
100
AcDbScale
 70
     0
300
3/8" = 1'-0"
140
0.375
141
12.0
290
     0
  0
SCALE
  5
2B45
102
{ACAD_REACTORS
330
2B2A
102
}
330
2B2A
100
AcDbScale
 70
     0
300
1/2" = 1'-0"
140
0.5
141
12.0
290
     0
  0
SCALE
  5
2B46
102
{ACAD_REACTORS
330
2B2A
102
}
330
2B2A
100
AcDbScale
 70
     0
300
3/4" = 1'-0"
140
0.75
141
12.0
290
     0
  0
SCALE
  5
2B47
102
{ACAD_REACTORS
330
2B2A
102
}
330
2B2A
100
AcDbScale
 70
     0
300
1" = 1'-0"
140
1.0
141
12.0
290
     0
  0
SCALE
  5
2B48
102
{ACAD_REACTORS
330
2B2A
102
}
330
2B2A
100
AcDbScale
 70
     0
300
1-1/2" = 1'-0"
140
1.5
141
12.0
290
     0
  0
SCALE
  5
2B49
102
{ACAD_REACTORS
330
2B2A
102
}
330
2B2A
100
AcDbScale
 70
     0
300
3" = 1'-0"
140
3.0
141
12.0
290
     0
  0
SCALE
  5
2B4A
102
{ACAD_REACTORS
330
2B2A
102
}
330
2B2A
100
AcDbScale
 70
     0
300
6" = 1'-0"
140
6.0
141
12.0
290
     0
  0
SCALE
  5
2B4B
102
{ACAD_REACTORS
330
2B2A
102
}
330
2B2A
100
AcDbScale
 70
     0
300
1'-0" = 1'-0"
140
12.0
141
12.0
290
     0
  0
TABLESTYLE
  5
2B5C
102
{ACAD_XDICTIONARY
360
2D41
102
}
102
{ACAD_REACTORS
330
2B5B
102
}
330
2B5B
100
AcDbTableStyle
  3
Standard
 70
     0
 71
     0
 40
0.06
 41
0.06
280
     0
281
     0
  7
STANDARD
140
0.18
170
     2
 62
     0
 63
     7
283
     0
274
    -2
284
     1
 64
     0
275
    -2
285
     1
 65
     0
276
    -2
286
     1
 66
     0
277
    -2
287
     1
 67
     0
278
    -2
288
     1
 68
     0
279
    -2
289
     1
 69
     0
  7
STANDARD
140
0.25
170
     5
 62
     0
 63
     7
283
     0
274
    -2
284
     1
 64
     0
275
    -2
285
     1
 65
     0
276
    -2
286
     1
 66
     0
277
    -2
287
     1
 67
     0
278
    -2
288
     1
 68
     0
279
    -2
289
     1
 69
     0
  7
STANDARD
140
0.18
170
     5
 62
     0
 63
     7
283
     0
274
    -2
284
     1
 64
     0
275
    -2
285
     1
 65
     0
276
    -2
286
     1
 66
     0
277
    -2
287
     1
 67
     0
278
    -2
288
     1
 68
     0
279
    -2
289
     1
 69
     0
  0
VISUALSTYLE
  5
2B1F
102
{ACAD_REACTORS
330
2B19
102
}
330
2B19
100
AcDbVisualStyle
  2
2dWireframe
 70
     4
 71
     0
 72
     2
 73
     0
 90
        0
 40
-0.6
 41
-30.0
 62
     5
 63
     7
 74
     1
 91
        4
 64
     7
 65
   257
 75
     1
175
     1
 42
1.0
 92
        0
 66
   257
 43
1.0
 76
     1
 77
     6
 78
     2
 67
     7
 79
     5
170
     0
171
     0
290
     0
174
     0
 93
        1
 44
0.0
173
     0
291
     0
 45
0.0
1001
ACAD
1000
AcDbSavedByObjectVersion
1070
     0
  0
VISUALSTYLE
  5
2B21
102
{ACAD_REACTORS
330
2B19
102
}
330
2B19
100
AcDbVisualStyle
  2
3D Hidden
 70
     6
 71
     1
 72
     2
 73
     2
 90
        0
 40
-0.6
 41
-30.0
 62
     5
 63
     7
 74
     2
 91
        2
 64
     7
 65
   257
 75
     2
175
     1
 42
40.0
 92
        0
 66
   257
 43
1.0
 76
     1
 77
     6
 78
     2
 67
     7
 79
     3
170
     0
171
     0
290
     0
174
     0
 93
        1
 44
0.0
173
     0
291
     0
 45
0.0
1001
ACAD
1000
AcDbSavedByObjectVersion
1070
     0
  0
VISUALSTYLE
  5
2B20
102
{ACAD_REACTORS
330
2B19
102
}
330
2B19
100
AcDbVisualStyle
  2
3dWireframe
 70
     5
 71
     0
 72
     2
 73
     0
 90
        0
 40
-0.6
 41
-30.0
 62
     5
 63
     7
 74
     1
 91
        4
 64
     7
 65
   257
 75
     1
175
     1
 42
1.0
 92
        0
 66
   257
 43
1.0
 76
     1
 77
     6
 78
     2
 67
     7
 79
     5
170
     0
171
     0
290
     0
174
     0
 93
        1
 44
0.0
173
     0
291
     0
 45
0.0
1001
ACAD
1000
AcDbSavedByObjectVersion
1070
     0
  0
VISUALSTYLE
  5
2B1E
102
{ACAD_REACTORS
330
2B19
102
}
330
2B19
100
AcDbVisualStyle
  2
Basic
 70
     7
 71
     1
 72
     0
 73
     1
 90
        0
 40
-0.6
 41
-30.0
 62
     5
 63
     7
 74
     0
 91
        4
 64
     7
 65
   257
 75
     1
175
     1
 42
1.0
 92
        8
 66
     7
 43
1.0
 76
     1
 77
     6
 78
     2
 67
     7
 79
     5
170
     0
171
     0
290
     0
174
     0
 93
        1
 44
0.0
173
     0
291
     1
 45
0.0
1001
ACAD
1000
AcDbSavedByObjectVersion
1070
     0
  0
VISUALSTYLE
  5
2B25
102
{ACAD_REACTORS
330
2B19
102
}
330
2B19
100
AcDbVisualStyle
  2
Brighten
 70
    12
 71
     2
 72
     2
 73
     0
 90
        0
 40
-0.6
 41
-30.0
 62
     5
 63
     7
 74
     1
 91
        4
 64
     7
 65
   257
 75
     1
175
     1
 42
1.0
 92
        8
 66
     7
 43
1.0
 76
     1
 77
     6
 78
     2
 67
     7
 79
     5
170
     0
171
     0
290
     0
174
     0
 93
        1
 44
50.0
173
     0
291
     1
 45
0.0
1001
ACAD
1000
AcDbSavedByObjectVersion
1070
     0
  0
VISUALSTYLE
  5
2B29
102
{ACAD_REACTORS
330
2B19
102
}
330
2B19
100
AcDbVisualStyle
  2
ColorChange
 70
    16
 71
     2
 72
     2
 73
     3
 90
        0
 40
-0.6
 41
-30.0
 62
     5
 63
     8
 74
     1
 91
        4
 64
     7
 65
   257
 75
     1
175
     1
 42
1.0
 92
        8
 66
     8
 43
1.0
 76
     1
 77
     6
 78
     2
 67
     7
 79
     5
170
     0
171
     0
290
     0
174
     0
 93
        1
 44
0.0
173
     0
291
     1
 45
0.0
1001
ACAD
1000
AcDbSavedByObjectVersion
1070
     0
  0
VISUALSTYLE
  5
2B22
102
{ACAD_REACTORS
330
2B19
102
}
330
2B19
100
AcDbVisualStyle
  2
Conceptual
 70
     9
 71
     3
 72
     2
 73
     0
 90
        0
 40
-0.6
 41
-30.0
 62
     5
 63
     7
 74
     2
 91
        2
 64
     7
 65
   257
 75
     1
175
     1
 42
40.0
 92
        8
 66
     7
 43
1.0
 76
     1
 77
     6
 78
     2
 67
     7
 79
     3
170
     0
171
     0
290
     0
174
     0
 93
        1
 44
0.0
173
     0
291
     0
 45
0.0
1001
ACAD
1000
AcDbSavedByObjectVersion
1070
     0
  0
VISUALSTYLE
  5
2B24
102
{ACAD_REACTORS
330
2B19
102
}
330
2B19
100
AcDbVisualStyle
  2
Dim
 70
    11
 71
     2
 72
     2
 73
     0
 90
        0
 40
-0.6
 41
-30.0
 62
     5
 63
     7
 74
     1
 91
        4
 64
     7
 65
   257
 75
     1
175
     1
 42
1.0
 92
        8
 66
     7
 43
1.0
 76
     1
 77
     6
 78
     2
 67
     7
 79
     5
170
     0
171
     0
290
     0
174
     0
 93
        1
 44
-50.0
173
     0
291
     1
 45
0.0
1001
ACAD
1000
AcDbSavedByObjectVersion
1070
     0
  0
VISUALSTYLE
  5
2B28
102
{ACAD_REACTORS
330
2B19
102
}
330
2B19
100
AcDbVisualStyle
  2
Facepattern
 70
    15
 71
     2
 72
     2
 73
     0
 90
        0
 40
-0.6
 41
-30.0
 62
     5
 63
     7
 74
     1
 91
        4
 64
     7
 65
   257
 75
     1
175
     1
 42
1.0
 92
        8
 66
     7
 43
1.0
 76
     1
 77
     6
 78
     2
 67
     7
 79
     5
170
     0
171
     0
290
     0
174
     0
 93
        1
 44
0.0
173
     0
291
     1
 45
0.0
1001
ACAD
1000
AcDbSavedByObjectVersion
1070
     0
  0
VISUALSTYLE
  5
2B1A
102
{ACAD_REACTORS
330
2B19
102
}
330
2B19
100
AcDbVisualStyle
  2
Flat
 70
     0
 71
     2
 72
     1
 73
     1
 90
        2
 40
-0.6
 41
30.0
 62
     5
 63
     7
 74
     0
 91
        4
 64
     7
 65
   257
 75
     1
175
     1
 42
1.0
 92
        8
 66
     7
 43
1.0
 76
     1
 77
     6
 78
     2
 67
     7
 79
     5
170
     0
171
     0
290
     0
174
     0
 93
       13
 44
0.0
173
     0
291
     1
 45
0.0
1001
ACAD
1000
AcDbSavedByObjectVersion
1070
     0
  0
VISUALSTYLE
  5
2B1B
102
{ACAD_REACTORS
330
2B19
102
}
330
2B19
100
AcDbVisualStyle
  2
FlatWithEdges
 70
     1
 71
     2
 72
     1
 73
     1
 90
        2
 40
-0.6
 41
30.0
 62
     5
 63
     7
 74
     1
 91
        4
 64
     7
 65
   257
 75
     1
175
     1
 42
1.0
 92
        0
 66
   257
 43
1.0
 76
     1
 77
     6
 78
     2
 67
     7
 79
     5
170
     0
171
     0
290
     0
174
     0
 93
       13
 44
0.0
173
     0
291
     1
 45
0.0
1001
ACAD
1000
AcDbSavedByObjectVersion
1070
     0
  0
VISUALSTYLE
  5
2B1C
102
{ACAD_REACTORS
330
2B19
102
}
330
2B19
100
AcDbVisualStyle
  2
Gouraud
 70
     2
 71
     2
 72
     2
 73
     1
 90
        2
 40
-0.6
 41
30.0
 62
     5
 63
     7
 74
     0
 91
        4
 64
     7
 65
   257
 75
     1
175
     1
 42
1.0
 92
        0
 66
     7
 43
1.0
 76
     1
 77
     6
 78
     2
 67
     7
 79
     5
170
     0
171
     0
290
     0
174
     0
 93
       13
 44
0.0
173
     0
291
     1
 45
0.0
1001
ACAD
1000
AcDbSavedByObjectVersion
1070
     0
  0
VISUALSTYLE
  5
2B1D
102
{ACAD_REACTORS
330
2B19
102
}
330
2B19
100
AcDbVisualStyle
  2
GouraudWithEdges
 70
     3
 71
     2
 72
     2
 73
     1
 90
        2
 40
-0.6
 41
30.0
 62
     5
 63
     7
 74
     1
 91
        4
 64
     7
 65
   257
 75
     1
175
     1
 42
1.0
 92
        0
 66
   257
 43
1.0
 76
     1
 77
     6
 78
     2
 67
     7
 79
     5
170
     0
171
     0
290
     0
174
     0
 93
       13
 44
0.0
173
     0
291
     1
 45
0.0
1001
ACAD
1000
AcDbSavedByObjectVersion
1070
     0
  0
VISUALSTYLE
  5
2B27
102
{ACAD_REACTORS
330
2B19
102
}
330
2B19
100
AcDbVisualStyle
  2
Linepattern
 70
    14
 71
     2
 72
     2
 73
     0
 90
        0
 40
-0.6
 41
-30.0
 62
     5
 63
     7
 74
     1
 91
        4
 64
     7
 65
   257
 75
     7
175
     7
 42
1.0
 92
        8
 66
     7
 43
1.0
 76
     1
 77
     6
 78
     2
 67
     7
 79
     5
170
     0
171
     0
290
     0
174
     0
 93
        1
 44
0.0
173
     0
291
     1
 45
0.0
1001
ACAD
1000
AcDbSavedByObjectVersion
1070
     0
  0
VISUALSTYLE
  5
2B23
102
{ACAD_REACTORS
330
2B19
102
}
330
2B19
100
AcDbVisualStyle
  2
Realistic
 70
     8
 71
     2
 72
     2
 73
     0
 90
        0
 40
-0.6
 41
-30.0
 62
     5
 63
     7
 74
     1
 91
        0
 64
     7
 65
   257
 75
     1
175
     1
 42
1.0
 92
        8
 66
     8
 43
1.0
 76
     1
 77
     6
 78
     2
 67
     7
 79
     5
170
     0
171
     0
290
     0
174
     0
 93
       13
 44
0.0
173
     0
291
     0
 45
0.0
1001
ACAD
1000
AcDbSavedByObjectVersion
1070
     0
  0
VISUALSTYLE
  5
2B26
102
{ACAD_REACTORS
330
2B19
102
}
330
2B19
100
AcDbVisualStyle
  2
Thicken
 70
    13
 71
     2
 72
     2
 73
     0
 90
        0
 40
-0.6
 41
-30.0
 62
     5
 63
     7
 74
     1
 91
        4
 64
     7
 65
   257
 75
     1
175
     1
 42
1.0
 92
       12
 66
     7
 43
1.0
 76
     1
 77
     6
 78
     2
 67
     7
 79
     5
170
     0
171
     0
290
     0
174
     0
 93
        1
 44
0.0
173
     0
291
     1
 45
0.0
1001
ACAD
1000
AcDbSavedByObjectVersion
1070
     0
  0
DICTIONARYVAR
  5
2D3D
102
{ACAD_REACTORS
330
2D3A
102
}
330
2D3A
100
DictionaryVariables
280
     0
  1
1:1
  0
DICTIONARYVAR
  5
2D3C
102
{ACAD_REACTORS
330
2D3A
102
}
330
2D3A
100
DictionaryVariables
280
     0
  1
STANDARD
  0
DICTIONARYVAR
  5
2D3B
102
{ACAD_REACTORS
330
2D3A
102
}
330
2D3A
100
DictionaryVariables
280
     0
  1
STANDARD
  0
DICTIONARYVAR
  5
2D40
102
{ACAD_REACTORS
330
2D3A
102
}
330
2D3A
100
DictionaryVariables
280
     0
  1
1
  0
DICTIONARYVAR
  5
2D3F
102
{ACAD_REACTORS
330
2D3A
102
}
330
2D3A
100
DictionaryVariables
280
     0
  1
1
  0
DICTIONARYVAR
  5
2D3E
102
{ACAD_REACTORS
330
2D3A
102
}
330
2D3A
100
DictionaryVariables
280
     0
  1
127
  0
DICTIONARY
  5
2CFB
102
{ACAD_REACTORS
330
2CED
102
}
330
2CED
100
AcDbDictionary
281
     1
  0
DICTIONARY
  5
2C3B
102
{ACAD_REACTORS
330
2C3A
102
}
330
2C3A
100
AcDbDictionary
281
     1
  3
DWGSETTINGS
350
2C3C
  3
TRANSSETTINGS
350
2C3D
  0
LAYER_INDEX
  5
2D2D
102
{ACAD_REACTORS
330
2D2C
102
}
330
2D2C
100
AcDbIndex
 40
2456211.552129653
100
AcDbLayerIndex
  8
0
360
2D2E
 90
        2
  8
OUTLINE
360
2D2F
 90
       16
  8
SIZE
360
2D30
 90
       24
  8
BASIS
360
2D31
 90
        1
  8
DETAIL
360
2D32
 90
       26
  8
ARRANGE
360
2D33
 90
        2
  8
DEFPOINTS
360
2D34
 90
        0
  8
ETC
360
2D35
 90
        3
  8
FIX
360
2D36
 90
        0
  8
NOTE
360
2D37
 90
        4
  8
SERVICESPACE
360
2D38
 90
        0
  8
SYMBOLLINE
360
2D39
 90
        0
  0
DICTIONARY
  5
2D50
330
2B67
100
AcDbDictionary
280
     1
281
     1
  3
ACAD_XREC_ROUNDTRIP
360
2D51
  0
DICTIONARY
  5
2D4E
330
2B63
100
AcDbDictionary
280
     1
281
     1
  3
ACAD_XREC_ROUNDTRIP
360
2D4F
  0
DICTIONARY
  5
2B0A
330
2B09
100
AcDbDictionary
280
     1
281
     1
  3
ACAD_XREC_ROUNDTRIP
360
2D4B
  3
BUMPTILE
360
2B0C
  3
DIFFUSETILE
360
2B0B
  3
OPACITYTILE
360
2B0F
  3
REFLECTIONTILE
360
2B0E
  3
REFRACTIONTILE
360
2B10
  3
SPECULARTILE
360
2B0D
  0
DICTIONARY
  5
2B02
330
2B01
100
AcDbDictionary
280
     1
281
     1
  3
ACAD_XREC_ROUNDTRIP
360
2D4A
  3
BUMPTILE
360
2B04
  3
DIFFUSETILE
360
2B03
  3
OPACITYTILE
360
2B07
  3
REFLECTIONTILE
360
2B06
  3
REFRACTIONTILE
360
2B08
  3
SPECULARTILE
360
2B05
  0
DICTIONARY
  5
2B12
330
2B11
100
AcDbDictionary
280
     1
281
     1
  3
ACAD_XREC_ROUNDTRIP
360
2D4C
  3
BUMPTILE
360
2B14
  3
DIFFUSETILE
360
2B13
  3
OPACITYTILE
360
2B17
  3
REFLECTIONTILE
360
2B16
  3
REFRACTIONTILE
360
2B18
  3
SPECULARTILE
360
2B15
  0
DICTIONARY
  5
2D41
330
2B5C
100
AcDbDictionary
280
     1
281
     1
  3
ACAD_ROUNDTRIP_2008_TABLESTYLE_CELLSTYLEMAP
360
2D42
  3
ACAD_XREC_ROUNDTRIP
360
2D4D
  0
IDBUFFER
  5
2D2E
330
0
100
AcDbIdBuffer
330
281B
330
281C
  0
IDBUFFER
  5
2D2F
330
0
100
AcDbIdBuffer
330
953
330
954
330
955
330
956
330
957
330
958
330
2808
330
2819
330
281F
330
2820
330
2821
330
2822
330
2826
330
2827
330
2828
330
2829
  0
IDBUFFER
  5
2D30
330
0
100
AcDbIdBuffer
330
2848
330
2849
330
284A
330
284B
330
284C
330
284D
330
284E
330
284F
330
2838
330
2839
330
283A
330
283B
330
283C
330
283D
330
283E
330
283F
330
2840
330
2841
330
2842
330
2843
330
2844
330
2845
330
2846
330
2847
  0
IDBUFFER
  5
2D31
330
0
100
AcDbIdBuffer
330
2804
  0
IDBUFFER
  5
2D32
330
0
100
AcDbIdBuffer
330
282E
330
282F
330
2830
330
2831
330
2832
330
2833
330
2834
330
2835
330
2836
330
2837
330
2805
330
2806
330
2807
330
2809
330
280A
330
280B
330
280C
330
2810
330
2814
330
2817
330
2818
330
281A
330
282A
330
282B
330
282C
330
282D
  0
IDBUFFER
  5
2D33
330
0
100
AcDbIdBuffer
330
2802
330
2803
  0
IDBUFFER
  5
2D34
330
0
100
AcDbIdBuffer
  0
IDBUFFER
  5
2D35
330
0
100
AcDbIdBuffer
330
27FF
330
2800
330
2801
  0
IDBUFFER
  5
2D36
330
0
100
AcDbIdBuffer
  0
IDBUFFER
  5
2D37
330
0
100
AcDbIdBuffer
330
2815
330
2816
330
281D
330
281E
  0
IDBUFFER
  5
2D38
330
0
100
AcDbIdBuffer
  0
IDBUFFER
  5
2D39
330
0
100
AcDbIdBuffer
  0
XRECORD
  5
2D51
102
{ACAD_REACTORS
330
2D50
102
}
330
2D50
100
AcDbXrecord
280
     1
102
SHADEPLOT
 70
     0
102
SHADEPLOTRESLEVEL
 70
     2
102
SHADEPLOTCUSTOMDPI
 70
   300
  0
XRECORD
  5
2D4F
102
{ACAD_REACTORS
330
2D4E
102
}
330
2D4E
100
AcDbXrecord
280
     1
102
SHADEPLOT
 70
     0
102
SHADEPLOTRESLEVEL
 70
     2
102
SHADEPLOTCUSTOMDPI
 70
   300
  0
XRECORD
  5
2D4B
102
{ACAD_REACTORS
330
2B0A
102
}
330
2B0A
100
AcDbXrecord
280
     1
102
MATERIAL
148
0.0
149
0.0
149
0.0
 93
        0
 94
      127
282
     0
 72
     0
 77
     0
171
     0
175
     0
179
     0
273
     0
  0
XRECORD
  5
2B0C
102
{ACAD_REACTORS
330
2B0A
102
}
330
2B0A
100
AcDbXrecord
280
     1
270
     1
271
     1
  0
XRECORD
  5
2B0B
102
{ACAD_REACTORS
330
2B0A
102
}
330
2B0A
100
AcDbXrecord
280
     1
270
     1
271
     1
  0
XRECORD
  5
2B0F
102
{ACAD_REACTORS
330
2B0A
102
}
330
2B0A
100
AcDbXrecord
280
     1
270
     1
271
     1
  0
XRECORD
  5
2B0E
102
{ACAD_REACTORS
330
2B0A
102
}
330
2B0A
100
AcDbXrecord
280
     1
270
     1
271
     1
  0
XRECORD
  5
2B10
102
{ACAD_REACTORS
330
2B0A
102
}
330
2B0A
100
AcDbXrecord
280
     1
270
     1
271
     1
  0
XRECORD
  5
2B0D
102
{ACAD_REACTORS
330
2B0A
102
}
330
2B0A
100
AcDbXrecord
280
     1
270
     1
271
     1
  0
XRECORD
  5
2D4A
102
{ACAD_REACTORS
330
2B02
102
}
330
2B02
100
AcDbXrecord
280
     1
102
MATERIAL
148
0.0
149
0.0
149
0.0
 93
        0
 94
      127
282
     0
 72
     0
 77
     0
171
     0
175
     0
179
     0
273
     0
  0
XRECORD
  5
2B04
102
{ACAD_REACTORS
330
2B02
102
}
330
2B02
100
AcDbXrecord
280
     1
270
     1
271
     1
  0
XRECORD
  5
2B03
102
{ACAD_REACTORS
330
2B02
102
}
330
2B02
100
AcDbXrecord
280
     1
270
     1
271
     1
  0
XRECORD
  5
2B07
102
{ACAD_REACTORS
330
2B02
102
}
330
2B02
100
AcDbXrecord
280
     1
270
     1
271
     1
  0
XRECORD
  5
2B06
102
{ACAD_REACTORS
330
2B02
102
}
330
2B02
100
AcDbXrecord
280
     1
270
     1
271
     1
  0
XRECORD
  5
2B08
102
{ACAD_REACTORS
330
2B02
102
}
330
2B02
100
AcDbXrecord
280
     1
270
     1
271
     1
  0
XRECORD
  5
2B05
102
{ACAD_REACTORS
330
2B02
102
}
330
2B02
100
AcDbXrecord
280
     1
270
     1
271
     1
  0
XRECORD
  5
2D4C
102
{ACAD_REACTORS
330
2B12
102
}
330
2B12
100
AcDbXrecord
280
     1
102
MATERIAL
148
0.0
149
0.0
149
0.0
 93
        0
 94
      127
282
     0
 72
     0
 77
     0
171
     0
175
     0
179
     0
273
     0
  0
XRECORD
  5
2B14
102
{ACAD_REACTORS
330
2B12
102
}
330
2B12
100
AcDbXrecord
280
     1
270
     1
271
     1
  0
XRECORD
  5
2B13
102
{ACAD_REACTORS
330
2B12
102
}
330
2B12
100
AcDbXrecord
280
     1
270
     1
271
     1
  0
XRECORD
  5
2B17
102
{ACAD_REACTORS
330
2B12
102
}
330
2B12
100
AcDbXrecord
280
     1
270
     1
271
     1
  0
XRECORD
  5
2B16
102
{ACAD_REACTORS
330
2B12
102
}
330
2B12
100
AcDbXrecord
280
     1
270
     1
271
     1
  0
XRECORD
  5
2B18
102
{ACAD_REACTORS
330
2B12
102
}
330
2B12
100
AcDbXrecord
280
     1
270
     1
271
     1
  0
XRECORD
  5
2B15
102
{ACAD_REACTORS
330
2B12
102
}
330
2B12
100
AcDbXrecord
280
     1
270
     1
271
     1
  0
CELLSTYLEMAP
  5
2D42
102
{ACAD_REACTORS
330
2D41
102
}
330
2D41
100
AcDbCellStyleMap
 90
        3
300
CELLSTYLE
  1
TABLEFORMAT_BEGIN
 90
        5
170
     1
 91
        0
 92
    32768
 62
   257
 93
        1
300
CONTENTFORMAT
  1
CONTENTFORMAT_BEGIN
 90
        0
 91
        0
 92
      512
 93
        0
300

 40
0.0
140
1.0
 94
        5
 62
     0
340
2B4D
144
0.25
309
CONTENTFORMAT_END
171
     0
 94
        0
309
TABLEFORMAT_END
  1
CELLSTYLE_BEGIN
 90
        1
 91
        1
300
_TITLE
309
CELLSTYLE_END
300
CELLSTYLE
  1
TABLEFORMAT_BEGIN
 90
        5
170
     1
 91
        0
 92
        0
 62
   257
 93
        1
300
CONTENTFORMAT
  1
CONTENTFORMAT_BEGIN
 90
        0
 91
        0
 92
      512
 93
        0
300

 40
0.0
140
1.0
 94
        5
 62
     0
340
2B4D
144
0.18
309
CONTENTFORMAT_END
171
     0
 94
        0
309
TABLEFORMAT_END
  1
CELLSTYLE_BEGIN
 90
        2
 91
        1
300
_HEADER
309
CELLSTYLE_END
300
CELLSTYLE
  1
TABLEFORMAT_BEGIN
 90
        5
170
     1
 91
        0
 92
        0
 62
   257
 93
        1
300
CONTENTFORMAT
  1
CONTENTFORMAT_BEGIN
 90
        0
 91
        0
 92
      512
 93
        0
300

 40
0.0
140
1.0
 94
        2
 62
     0
340
2B4D
144
0.18
309
CONTENTFORMAT_END
171
     0
 94
        0
309
TABLEFORMAT_END
  1
CELLSTYLE_BEGIN
 90
        3
 91
        2
300
_DATA
309
CELLSTYLE_END
  0
XRECORD
  5
2D4D
102
{ACAD_REACTORS
330
2D41
102
}
330
2D41
100
AcDbXrecord
280
     1
102
ACAD_ROUNDTRIP_PRE2007_TABLESTYLE
 90
      512
 91
        0
  1

 92
      512
 93
        0
  2

 94
      512
 95
        0
  3

  0
ENDSEC
  0
EOF
