  0
SECTION
  2
HEADER
  9
$ACADVER
  1
AC1018
  9
$ACADMAINTVER
 70
   104
  9
$DWGCODEPAGE
  3
ANSI_932
  9
$LASTSAVEDBY
  1
a080061
  9
$CUSTOMPROPERTYTAG
  1
AmdtFileType
  9
$CUSTOMPROPERTY
  1
84
  9
$INSBASE
 10
0.0
 20
0.0
 30
0.0
  9
$EXTMIN
 10
-1281.610091626191
 20
607.2235236726974
 30
-0.0015257624927045
  9
$EXTMAX
 10
367.0806992765047
 20
1719.13147906206
 30
50.00152599532333
  9
$LIMMIN
 10
-2970.0
 20
-2100.0
  9
$LIMMAX
 10
2970.0
 20
2100.0
  9
$ORTHOMODE
 70
     1
  9
$REGENMODE
 70
     0
  9
$FILLMODE
 70
     1
  9
$QTEXTMODE
 70
     0
  9
$MIRRTEXT
 70
     0
  9
$LTSCALE
 40
20.0
  9
$ATTMODE
 70
     1
  9
$TEXTSIZE
 40
64.0
  9
$TRACEWID
 40
0.05
  9
$TEXTSTYLE
  7
STANDARD
  9
$CLAYER
  8
0
  9
$CELTYPE
  6
ByLayer
  9
$CECOLOR
 62
   256
  9
$CELTSCALE
 40
1.0
  9
$DISPSILH
 70
     0
  9
$DIMSCALE
 40
1.0
  9
$DIMASZ
 40
0.12
  9
$DIMEXO
 40
0.05
  9
$DIMDLI
 40
0.5
  9
$DIMRND
 40
0.0
  9
$DIMDLE
 40
0.0
  9
$DIMEXE
 40
0.1
  9
$DIMTP
 40
0.1
  9
$DIMTM
 40
0.1
  9
$DIMTXT
 40
0.12
  9
$DIMCEN
 40
0.0
  9
$DIMTSZ
 40
0.0
  9
$DIMTOL
 70
     0
  9
$DIMLIM
 70
     0
  9
$DIMTIH
 70
     1
  9
$DIMTOH
 70
     1
  9
$DIMSE1
 70
     0
  9
$DIMSE2
 70
     0
  9
$DIMTAD
 70
     0
  9
$DIMZIN
 70
     7
  9
$DIMBLK
  1

  9
$DIMASO
 70
     1
  9
$DIMSHO
 70
     0
  9
$DIMPOST
  1

  9
$DIMAPOST
  1
mm
  9
$DIMALT
 70
     0
  9
$DIMALTD
 70
     2
  9
$DIMALTF
 40
25.4
  9
$DIMLFAC
 40
1.0
  9
$DIMTOFL
 70
     0
  9
$DIMTVP
 40
0.0
  9
$DIMTIX
 70
     0
  9
$DIMSOXD
 70
     0
  9
$DIMSAH
 70
     0
  9
$DIMBLK1
  1

  9
$DIMBLK2
  1

  9
$DIMSTYLE
  2
AM_ANSI
  9
$DIMCLRD
 70
   256
  9
$DIMCLRE
 70
   256
  9
$DIMCLRT
 70
     2
  9
$DIMTFAC
 40
0.71
  9
$DIMGAP
 40
0.06
  9
$DIMJUST
 70
     0
  9
$DIMSD1
 70
     0
  9
$DIMSD2
 70
     0
  9
$DIMTOLJ
 70
     1
  9
$DIMTZIN
 70
     7
  9
$DIMALTZ
 70
     0
  9
$DIMALTTZ
 70
     0
  9
$DIMUPT
 70
     0
  9
$DIMDEC
 70
     4
  9
$DIMTDEC
 70
     4
  9
$DIMALTU
 70
     2
  9
$DIMALTTD
 70
     4
  9
$DIMTXSTY
  7
STANDARD
  9
$DIMAUNIT
 70
     0
  9
$DIMADEC
 70
     0
  9
$DIMALTRND
 40
0.0
  9
$DIMAZIN
 70
     2
  9
$DIMDSEP
 70
    46
  9
$DIMATFIT
 70
     3
  9
$DIMFRAC
 70
     0
  9
$DIMLDRBLK
  1

  9
$DIMLUNIT
 70
     2
  9
$DIMLWD
 70
    -1
  9
$DIMLWE
 70
    -1
  9
$DIMTMOVE
 70
     0
  9
$LUNITS
 70
     2
  9
$LUPREC
 70
     4
  9
$SKETCHINC
 40
0.1
  9
$FILLETRAD
 40
4.0
  9
$AUNITS
 70
     1
  9
$AUPREC
 70
     3
  9
$MENU
  1
ACAD
  9
$ELEVATION
 40
0.0
  9
$PELEVATION
 40
0.0
  9
$THICKNESS
 40
50.0
  9
$LIMCHECK
 70
     0
  9
$CHAMFERA
 40
0.0
  9
$CHAMFERB
 40
0.0
  9
$CHAMFERC
 40
0.0
  9
$CHAMFERD
 40
0.0
  9
$SKPOLY
 70
     0
  9
$TDCREATE
 40
2452321.396199653
  9
$TDUCREATE
 40
2452321.021199653
  9
$TDUPDATE
 40
2457491.692252998
  9
$TDUUPDATE
 40
2457491.317252998
  9
$TDINDWG
 40
1.0439572569
  9
$TDUSRTIMER
 40
1.0439515046
  9
$USRTIMER
 70
     1
  9
$ANGBASE
 50
0.0
  9
$ANGDIR
 70
     0
  9
$PDMODE
 70
     3
  9
$PDSIZE
 40
-2.0
  9
$PLINEWID
 40
0.0
  9
$SPLFRAME
 70
     0
  9
$SPLINETYPE
 70
     6
  9
$SPLINESEGS
 70
     8
  9
$HANDSEED
  5
3076
  9
$SURFTAB1
 70
     6
  9
$SURFTAB2
 70
     6
  9
$SURFTYPE
 70
     6
  9
$SURFU
 70
     6
  9
$SURFV
 70
     6
  9
$UCSBASE
  2

  9
$UCSNAME
  2

  9
$UCSORG
 10
0.0
 20
0.0
 30
0.0
  9
$UCSXDIR
 10
1.0
 20
0.0
 30
0.0
  9
$UCSYDIR
 10
0.0
 20
1.0
 30
0.0
  9
$UCSORTHOREF
  2

  9
$UCSORTHOVIEW
 70
     0
  9
$UCSORGTOP
 10
0.0
 20
0.0
 30
0.0
  9
$UCSORGBOTTOM
 10
0.0
 20
0.0
 30
0.0
  9
$UCSORGLEFT
 10
0.0
 20
0.0
 30
0.0
  9
$UCSORGRIGHT
 10
0.0
 20
0.0
 30
0.0
  9
$UCSORGFRONT
 10
0.0
 20
0.0
 30
0.0
  9
$UCSORGBACK
 10
0.0
 20
0.0
 30
0.0
  9
$PUCSBASE
  2

  9
$PUCSNAME
  2

  9
$PUCSORG
 10
0.0
 20
0.0
 30
0.0
  9
$PUCSXDIR
 10
1.0
 20
0.0
 30
0.0
  9
$PUCSYDIR
 10
0.0
 20
1.0
 30
0.0
  9
$PUCSORTHOREF
  2

  9
$PUCSORTHOVIEW
 70
     0
  9
$PUCSORGTOP
 10
0.0
 20
0.0
 30
0.0
  9
$PUCSORGBOTTOM
 10
0.0
 20
0.0
 30
0.0
  9
$PUCSORGLEFT
 10
0.0
 20
0.0
 30
0.0
  9
$PUCSORGRIGHT
 10
0.0
 20
0.0
 30
0.0
  9
$PUCSORGFRONT
 10
0.0
 20
0.0
 30
0.0
  9
$PUCSORGBACK
 10
0.0
 20
0.0
 30
0.0
  9
$USERI1
 70
     0
  9
$USERI2
 70
     0
  9
$USERI3
 70
     0
  9
$USERI4
 70
     0
  9
$USERI5
 70
     0
  9
$USERR1
 40
20.0
  9
$USERR2
 40
0.0
  9
$USERR3
 40
0.0
  9
$USERR4
 40
0.0
  9
$USERR5
 40
0.0
  9
$WORLDVIEW
 70
     1
  9
$SHADEDGE
 70
     3
  9
$SHADEDIF
 70
    70
  9
$TILEMODE
 70
     1
  9
$MAXACTVP
 70
    64
  9
$PINSBASE
 10
0.0
 20
0.0
 30
0.0
  9
$PLIMCHECK
 70
     0
  9
$PEXTMIN
 10
1.000000000000000E+20
 20
1.000000000000000E+20
 30
1.000000000000000E+20
  9
$PEXTMAX
 10
-1.000000000000000E+20
 20
-1.000000000000000E+20
 30
-1.000000000000000E+20
  9
$PLIMMIN
 10
0.0
 20
0.0
  9
$PLIMMAX
 10
12.0
 20
9.0
  9
$UNITMODE
 70
     0
  9
$VISRETAIN
 70
     1
  9
$PLINEGEN
 70
     0
  9
$PSLTSCALE
 70
     1
  9
$TREEDEPTH
 70
  3020
  9
$CMLSTYLE
  2
Standard
  9
$CMLJUST
 70
     0
  9
$CMLSCALE
 40
1.0
  9
$PROXYGRAPHICS
 70
     1
  9
$MEASUREMENT
 70
     0
  9
$CELWEIGHT
370
    -1
  9
$ENDCAPS
280
     0
  9
$JOINSTYLE
280
     0
  9
$LWDISPLAY
290
     0
  9
$INSUNITS
 70
     0
  9
$HYPERLINKBASE
  1

  9
$STYLESHEET
  1

  9
$XEDIT
290
     1
  9
$CEPSNTYPE
380
     0
  9
$PSTYLEMODE
290
     1
  9
$FINGERPRINTGUID
  2
{88959374-796F-4225-AEA5-0B655919E114}
  9
$VERSIONGUID
  2
{21EBA7D7-6FFF-49E4-95AA-E15EE13A0F8B}
  9
$EXTNAMES
290
     1
  9
$PSVPSCALE
 40
0.0
  9
$OLESTARTUP
290
     0
  9
$SORTENTS
280
   127
  9
$INDEXCTL
280
     1
  9
$HIDETEXT
280
     0
  9
$XCLIPFRAME
290
     0
  9
$HALOGAP
280
     0
  9
$OBSCOLOR
 70
   257
  9
$OBSLTYPE
280
     0
  9
$INTERSECTIONDISPLAY
280
     0
  9
$INTERSECTIONCOLOR
 70
   257
  9
$DIMASSOC
280
     1
  9
$PROJECTNAME
  1

  0
ENDSEC
  0
SECTION
  2
CLASSES
  0
CLASS
  1
ACDBDICTIONARYWDFLT
  2
AcDbDictionaryWithDefault
  3
ObjectDBX Classes
 90
        0
 91
        1
280
     0
281
     0
  0
CLASS
  1
MATERIAL
  2
AcDbMaterial
  3
ObjectDBX Classes
 90
     1153
 91
        3
280
     0
281
     0
  0
CLASS
  1
VISUALSTYLE
  2
AcDbVisualStyle
  3
ObjectDBX Classes
 90
     4095
 91
       16
280
     0
281
     0
  0
CLASS
  1
SCALE
  2
AcDbScale
  3
ObjectDBX Classes
 90
     1153
 91
       33
280
     0
281
     0
  0
CLASS
  1
TABLESTYLE
  2
AcDbTableStyle
  3
ObjectDBX Classes
 90
     4095
 91
        1
280
     0
281
     0
  0
CLASS
  1
MLEADERSTYLE
  2
AcDbMLeaderStyle
  3
ACDB_MLEADERSTYLE_CLASS
 90
     4095
 91
        1
280
     0
281
     0
  0
CLASS
  1
AMGSETTINGSOBJ
  2
AmgSettingsObj
  3
"AcadM|Product Description: AutoCAD Mechanical|Company: Autodesk, Inc."
 90
     1024
 91
        2
280
     0
281
     0
  0
CLASS
  1
ACME_DOCUMENT
  2
AcMeDbDoc
  3
AcMeServices
 90
     1024
 91
        1
280
     0
281
     0
  0
CLASS
  1
ACMESCOPE
  2
AcMeScope
  3
AcMeServices
 90
     1024
 91
        1
280
     0
281
     0
  0
CLASS
  1
ACMECOMMANDHISTORY
  2
AcMeCommandHistory
  3
AcMeServices
 90
     1024
 91
        1
280
     0
281
     0
  0
CLASS
  1
ACIMSYSVARMAN
  2
AcImSysVarManager
  3
AcMeServices
 90
     1024
 91
        6
280
     0
281
     0
  0
CLASS
  1
ACIMREALSYSVAR
  2
AcImRealSysVar
  3
AcMeServices
 90
     1024
 91
        1
280
     0
281
     0
  0
CLASS
  1
ACIMINTSYSVAR
  2
AcImIntSysVar
  3
AcMeServices
 90
     1024
 91
       27
280
     0
281
     0
  0
CLASS
  1
ACMEDRAWINGMAN
  2
AcMeDrawingMan
  3
AcMeServices
 90
     1024
 91
        1
280
     0
281
     0
  0
CLASS
  1
ACMEVIEW
  2
AcMeView
  3
AcMeServices
 90
     1024
 91
        1
280
     0
281
     0
  0
CLASS
  1
ACDBENTITYCACHE
  2
AcMeEntityCache
  3
AcMeServices
 90
     1024
 91
        1
280
     0
281
     0
  0
CLASS
  1
GSMANAGER
  2
AcMeGSManager
  3
AcMeServices
 90
     1024
 91
        1
280
     0
281
     0
  0
CLASS
  1
AMDTINTERNALREACTOR
  2
AmdtInternalReactor
  3
AcMeServices
 90
     1024
 91
        2
280
     0
281
     0
  0
CLASS
  1
ACMESTATEMGR
  2
AcMeStateMgr
  3
AcMeServices
 90
     1024
 91
        1
280
     0
281
     0
  0
CLASS
  1
ACGREFMASTER
  2
AcGrefMaster
  3
AcAttribServices
 90
     1024
 91
        1
280
     0
281
     0
  0
CLASS
  1
AM_DRAWING_MGR
  2
AcDmDwgMgr
  3
AcMechDwgViewMgmt
 90
     1024
 91
        1
280
     0
281
     0
  0
CLASS
  1
AM_DWG_DOCUMENT
  2
AcDmDwgDocument
  3
AcMechDwgViewMgmt
 90
     1024
 91
        1
280
     0
281
     0
  0
CLASS
  1
AM_DWG_SHEET
  2
AcDmSheet
  3
AcMechDwgViewMgmt
 90
     1024
 91
        1
280
     0
281
     0
  0
CLASS
  1
AM_VIEWDIMPARMAP
  2
AcDmViewDimParMap
  3
AcMechDwgViewMgmt
 90
     1024
 91
        1
280
     0
281
     0
  0
CLASS
  1
AM_DWGMGR_NAME
  2
AcDmDwgMgrName
  3
AcMechDwgViewMgmt
 90
     1024
 91
        1
280
     0
281
     0
  0
CLASS
  1
ACME_DATABASE
  2
AcMeDbDatabase
  3
AcMeServices
 90
     1024
 91
        1
280
     0
281
     0
  0
CLASS
  1
ACRFINSADJUSTERMGR
  2
AcRfInsAdjusterMgr
  3
AcMeServices
 90
     1024
 91
        1
280
     0
281
     0
  0
CLASS
  1
ACGREFACADMASTER
  2
AcGrefacadMaster
  3
AcGrefServices
 90
     1024
 91
        1
280
     0
281
     0
  0
CLASS
  1
AMDTMENUSTATEMGR
  2
AmdtMenuStateMgr
  3
McadcomServices
 90
     1024
 91
        1
280
     0
281
     0
  0
CLASS
  1
AMDTMCOMMENUSTATE
  2
AmdtMcomMenuState
  3
McadcomServices
 90
     1024
 91
        1
280
     0
281
     0
  0
CLASS
  1
AMIMASTER
  2
AmiMaster
  3
AmiServices
 90
     1024
 91
        1
280
     0
281
     0
  0
CLASS
  1
ASAPP
  2
AcAsAppObject
  3
AutoSurfServices
 90
     1024
 91
        0
280
     0
281
     0
  0
CLASS
  1
IM_STATIC_MAN
  2
AcImStaticVarManager
  3
AcMeServices
 90
     1024
 91
        0
280
     0
281
     0
  0
CLASS
  1
ACIMSTRSYSVAR
  2
AcImStrSysVar
  3
AcMeServices
 90
     1024
 91
        6
280
     0
281
     0
  0
CLASS
  1
ACIMDBLSTATICVAR
  2
AcImDblStaticVar
  3
AcMeServices
 90
     1024
 91
        0
280
     0
281
     0
  0
CLASS
  1
ACIMSTRSTATICVAR
  2
AcImStrStaticVar
  3
AcMeServices
 90
     1024
 91
        0
280
     0
281
     0
  0
CLASS
  1
ACIMINTSTATICVAR
  2
AcImIntStaticVar
  3
AcMeServices
 90
     1024
 91
        0
280
     0
281
     0
  0
CLASS
  1
ACASGREFMASTER
  2
AcAsGrefMaster
  3
AutoSurfResolverServices
 90
     1024
 91
        0
280
     0
281
     0
  0
CLASS
  1
ACADGREFMODULE
  2
AcAdGrefModule
  3
AdGrefServices
 90
     1024
 91
        0
280
     0
281
     0
  0
CLASS
  1
AMDTMAPISURFMOUDULE
  2
AmdtMApiSurfModule
  3
MApiSurfServices
 90
     1024
 91
        0
280
     0
281
     0
  0
CLASS
  1
MAPIAMMOUDLE
  2
MApiAmModule
  3
MApiAmServices
 90
     1024
 91
        1
280
     0
281
     0
  0
CLASS
  1
AMDTADMENUSTATE
  2
AmdtAdMenuState
  3
DesignerServices
 90
     1024
 91
        1
280
     0
281
     0
  0
CLASS
  1
ADAPPL
  2
AcAdAppl
  3
DesignerServices
 90
     1024
 91
        1
280
     0
281
     0
  0
CLASS
  1
DEPMGR
  2
AcAdDepMgr
  3
DesignerServices
 90
     1024
 91
        1
280
     0
281
     0
  0
CLASS
  1
PARAMMGR
  2
AcAdParamMgr
  3
DesignerServices
 90
     1024
 91
        1
280
     0
281
     0
  0
CLASS
  1
PARAMSCOPE
  2
AcAdParamScope
  3
DesignerServices
 90
     1024
 91
        1
280
     0
281
     0
  0
CLASS
  1
NAMEDAPPL
  2
AcAdNamedAppl
  3
DesignerServices
 90
     1024
 91
        1
280
     0
281
     0
  0
CLASS
  1
AMDTDMMENUSTATE
  2
AmdtDmMenuState
  3
AcMechDwgViewMgmt
 90
     1024
 91
        1
280
     0
281
     0
  0
CLASS
  1
MAPIADMODULE
  2
MApiAdModule
  3
MApiAdServices
 90
     1024
 91
        0
280
     0
281
     0
  0
CLASS
  1
AMDTAMMENUSTATE
  2
AmdtAmMenuState
  3
DesignerAssemblies
 90
     1024
 91
        1
280
     0
281
     0
  0
CLASS
  1
ACAMPROJECT
  2
AcAmProject
  3
DesignerAssemblies
 90
     1024
 91
        1
280
     0
281
     0
  0
CLASS
  1
ACAMGRCOMPDEF
  2
AcAmGrCompDef
  3
DesignerAssemblies
 90
     1024
 91
        1
280
     0
281
     0
  0
CLASS
  1
ACCMCONTEXT
  2
AcCmContext
  3
DesignerAssemblies
 90
     1024
 91
        1
280
     0
281
     0
  0
CLASS
  1
ACAMCOMPDEF
  2
AcAmCompDef
  3
DesignerAssemblies
 90
     1024
 91
        1
280
     0
281
     0
  0
CLASS
  1
ACAMCOMPDEFMGR
  2
AcAmCompDefMgr
  3
DesignerAssemblies
 90
     1024
 91
        1
280
     0
281
     0
  0
CLASS
  1
AMCONTEXTMGR
  2
AcAmContextMgr
  3
DesignerAssemblies
 90
     1024
 91
        1
280
     0
281
     0
  0
CLASS
  1
ACAMCONTEXTMODELER
  2
AcAmContextModeler
  3
DesignerAssemblies
 90
     1024
 91
        1
280
     0
281
     0
  0
CLASS
  1
ACMDATADICTIONARY
  2
AcmDataDictionary
  3
"AcmSymBB|Product Description: AutoCAD Mechanical|Company: Autodesk, Inc."
 90
     1024
 91
        1
280
     0
281
     0
  0
CLASS
  1
ACMDATAENTRYBLOCK
  2
AcmDataEntryBlock
  3
AcmSymBB|Product Description: AutoCAD Mechanical|Company: Autodesk, Inc.
 90
     1024
 91
        0
280
     0
281
     0
  0
CLASS
  1
ACRFATTGENMGR
  2
AcRfAttGeneralMgr
  3
AcAttribServices
 90
     1024
 91
        0
280
     0
281
     0
  0
CLASS
  1
ACRFOBJATTMGR
  2
AcRfObjAttGroupMgr
  3
AcAttribServices
 90
     1024
 91
        0
280
     0
281
     0
  0
CLASS
  1
ACRFMCADAPIATTHOLDER
  2
AcRfMCADAPIAttHolder
  3
AcAttribServices
 90
     1024
 91
        0
280
     0
281
     0
  0
CLASS
  1
AMDTSYSATTR
  2
AmdtSystemAttribute
  3
AcAttribServices
 90
     1024
 91
        0
280
     0
281
     0
  0
CLASS
  1
CATALOGSTATE
  2
AcAmCatalogState
  3
DesignerAssemblies
 90
     1024
 91
        1
280
     0
281
     0
  0
CLASS
  1
ACAMGRCOMPDEFSET
  2
AcAmGrCompDefSet
  3
DesignerAssemblies
 90
     1024
 91
        1
280
     0
281
     0
  0
CLASS
  1
AMDTBROWSERDBTAB
  2
AmdtBrowserDbTab
  3
McadcomServices
 90
     1024
 91
        1
280
     0
281
     0
  0
CLASS
  1
CBROWSERAPPOBJECT
  2
CBrowserAppObject
  3
McadcomServices
 90
     1024
 91
        3
280
     0
281
     0
  0
CLASS
  1
DM_PLACEHOLDER
  2
AcDmSelsetPlaceholder
  3
AcMechDwgViewMgmt
 90
     1024
 91
        1
280
     0
281
     0
  0
CLASS
  1
ACMSTANDARDANSI
  2
AcmStandardANSI
  3
"Amdt_StdImp|Product Description: AutoCAD Mechanical|Company: Autodesk, Inc."
 90
     1024
 91
        1
280
     0
281
     0
  0
CLASS
  1
ACMSURFSTANDARDANSI
  2
AcmSurfTextStdANSI
  3
"Amdt_StdImp|Product Description: AutoCAD Mechanical|Company: Autodesk, Inc."
 90
     1024
 91
        1
280
     0
281
     0
  0
CLASS
  1
ACMFCFSTANDARDANSI
  2
AcmFCFStdANSI
  3
"Amdt_StdImp|Product Description: AutoCAD Mechanical|Company: Autodesk, Inc."
 90
     1024
 91
        1
280
     0
281
     0
  0
CLASS
  1
ACMWELDSTANDARDANSI
  2
AcmWeldingStdANSI
  3
"Amdt_StdImp|Product Description: AutoCAD Mechanical|Company: Autodesk, Inc."
 90
     1024
 91
        1
280
     0
281
     0
  0
CLASS
  1
ACMIDSTANDARDANSI
  2
AcmIdStdANSI
  3
"Amdt_StdImp|Product Description: AutoCAD Mechanical|Company: Autodesk, Inc."
 90
     1024
 91
        1
280
     0
281
     0
  0
CLASS
  1
ACMDATUMSTANDARDANSI
  2
AcmDatumStdANSI
  3
"Amdt_StdImp|Product Description: AutoCAD Mechanical|Company: Autodesk, Inc."
 90
     1024
 91
        1
280
     0
281
     0
  0
CLASS
  1
ACMBOMSTANDARDANSI
  2
AcmBOMStdANSI
  3
"Amdt_StdImp|Product Description: AutoCAD Mechanical|Company: Autodesk, Inc."
 90
     1024
 91
        1
280
     0
281
     0
  0
CLASS
  1
ACMDETAILSTANDARDANSI
  2
AmdtDetailSymStdANSI
  3
"Amdt_StdImp|Product Description: AutoCAD Mechanical|Company: Autodesk, Inc."
 90
     1024
 91
        1
280
     0
281
     0
  0
CLASS
  1
ACMSECTIONSTANDARDANSI
  2
AmdtSectionSymStdANSI
  3
"Amdt_StdImp|Product Description: AutoCAD Mechanical|Company: Autodesk, Inc."
 90
     1024
 91
        1
280
     0
281
     0
  0
CLASS
  1
ACMCENTERLINESTANDARDANSI
  2
AmdtCenterLineStdANSI
  3
"Amdt_StdImp|Product Description: AutoCAD Mechanical|Company: Autodesk, Inc."
 90
     1024
 91
        1
280
     0
281
     0
  0
CLASS
  1
ACMTHREADLINESTANDARDANSI
  2
AmdtThreadLineStdANSI
  3
"Amdt_StdImp|Product Description: AutoCAD Mechanical|Company: Autodesk, Inc."
 90
     1024
 91
        1
280
     0
281
     0
  0
CLASS
  1
ACMNOTESTANDARDANSI
  2
AmdtNoteStdANSI
  3
"Amdt_StdImp|Product Description: AutoCAD Mechanical|Company: Autodesk, Inc."
 90
     1024
 91
        1
280
     0
281
     0
  0
CLASS
  1
ACMTAPERSTANDARDANSI
  2
AcmTaperStdANSI
  3
"Amdt_StdImp|Product Description: AutoCAD Mechanical|Company: Autodesk, Inc."
 90
     1024
 91
        1
280
     0
281
     0
  0
CLASS
  1
ACMANOOTATIONVIEWSTANDARDANSI
  2
AmdtAnViewStdANSI
  3
"Amdt_StdImp|Product Description: AutoCAD Mechanical|Company: Autodesk, Inc."
 90
     1024
 91
        1
280
     0
281
     0
  0
CLASS
  1
ACAMGLAYSTD
  2
AcAmgLayStd
  3
"AmgLay|Product Description: AutoCAD Mechanical|Company: Autodesk, Inc."
 90
     1024
 91
        1
280
     0
281
     0
  0
CLASS
  1
ACAMGDIMSTD
  2
AcAmgDimStd
  3
"AmgDim|Product Description: AutoCAD Mechanical|Company: Autodesk, Inc."
 90
     1024
 91
        1
280
     0
281
     0
  0
CLASS
  1
ACAMGHOLECHARTSTDANSI
  2
AcAmgHoleChartStdANSI
  3
AmgDim|Product Description: AutoCAD Mechanical|Company: Autodesk, Inc.
 90
     1024
 91
        1
280
     0
281
     0
  0
CLASS
  1
AMGOBJPROPCFG
  2
AmgObjPropCfg
  3
"AmgLay|Product Description: AutoCAD Mechanical|Company: Autodesk, Inc."
 90
     1025
 91
        1
280
     0
281
     0
  0
CLASS
  1
ACAMGTITLESTD
  2
AcAmgTitleStd
  3
"AmgTitle|Product Description: AutoCAD Mechanical|Company: Autodesk, Inc."
 90
     4095
 91
        1
280
     0
281
     0
  0
CLASS
  1
AMDTNOTETEMPLATEDB
  2
AmdtNoteTemplateDB
  3
AcmSymBB|Product Description: AutoCAD Mechanical|Company: Autodesk, Inc.
 90
     1024
 91
        6
280
     0
281
     0
  0
CLASS
  1
LAYER_INDEX
  2
AcDbLayerIndex
  3
ObjectDBX Classes
 90
        0
 91
        1
280
     0
281
     0
  0
CLASS
  1
IDBUFFER
  2
AcDbIdBuffer
  3
ObjectDBX Classes
 90
        0
 91
       12
280
     0
281
     0
  0
CLASS
  1
DICTIONARYVAR
  2
AcDbDictionaryVar
  3
ObjectDBX Classes
 90
        0
 91
       13
280
     0
281
     0
  0
CLASS
  1
CELLSTYLEMAP
  2
AcDbCellStyleMap
  3
ObjectDBX Classes
 90
     1152
 91
        2
280
     0
281
     0
  0
CLASS
  1
ACAMGFILTERDAT
  2
AcAmgFilterDat
  3
"AcadM|Product Description: AutoCAD Mechanical|Company: Autodesk, Inc."
 90
     1024
 91
        6
280
     0
281
     0
  0
CLASS
  1
SORTENTSTABLE
  2
AcDbSortentsTable
  3
ObjectDBX Classes
 90
        0
 91
        0
280
     0
281
     0
  0
ENDSEC
  0
SECTION
  2
TABLES
  0
TABLE
  2
VPORT
  5
2A12
330
0
100
AcDbSymbolTable
 70
     1
  0
VPORT
  5
2A82
330
2A12
100
AcDbSymbolTableRecord
100
AcDbViewportTableRecord
  2
*ACTIVE
 70
     0
 10
0.0
 20
0.0
 11
1.0
 21
1.0
 12
-1410.391517368329
 22
0.0000000000006821
 13
0.0
 23
0.0
 14
1.0
 24
1.0
 15
0.0
 25
0.0
 16
0.0
 26
0.0
 36
1.0
 17
953.1268211934863
 27
1163.177501367378
 37
0.0
 40
1297.483256976235
 41
1.280672268907562
 42
50.0
 43
0.0
 44
0.0
 50
0.0
 51
0.0
 71
     0
 72
   100
 73
     1
 74
     0
 75
     0
 76
     0
 77
     0
 78
     0
281
     0
 65
     0
110
0.0
120
0.0
130
0.0
111
1.0
121
0.0
131
0.0
112
0.0
122
1.0
132
0.0
 79
     0
146
0.0
  0
ENDTAB
  0
TABLE
  2
LTYPE
  5
2A0F
330
0
100
AcDbSymbolTable
 70
    19
  0
LTYPE
  5
2A6C
330
2A0F
100
AcDbSymbolTableRecord
100
AcDbLinetypeTableRecord
  2
ByBlock
 70
     0
  3

 72
    65
 73
     0
 40
0.0
  0
LTYPE
  5
2A6D
330
2A0F
100
AcDbSymbolTableRecord
100
AcDbLinetypeTableRecord
  2
ByLayer
 70
     0
  3

 72
    65
 73
     0
 40
0.0
  0
LTYPE
  5
2A6E
330
2A0F
100
AcDbSymbolTableRecord
100
AcDbLinetypeTableRecord
  2
CONTINUOUS
 70
     0
  3
実線
 72
    65
 73
     0
 40
0.0
  0
LTYPE
  5
2A83
330
2A0F
100
AcDbSymbolTableRecord
100
AcDbLinetypeTableRecord
  2
DASHDOT
 70
     0
  3
____ _ ____ _ ____ _ ____ _ ____ _ ____ _ ____
 72
    65
 73
     4
 40
5.5
 49
4.0
 74
     0
 49
-0.6
 74
     0
 49
0.3
 74
     0
 49
-0.6
 74
     0
  0
LTYPE
  5
2A84
330
2A0F
100
AcDbSymbolTableRecord
100
AcDbLinetypeTableRecord
  2
HIDDEN
 70
     0
  3
Hidden __ __ __ __ __ __ __ __ __ __ __ __ __ _
 72
    65
 73
     2
 40
0.375
 49
0.25
 74
     0
 49
-0.125
 74
     0
  0
LTYPE
  5
2A85
330
2A0F
100
AcDbSymbolTableRecord
100
AcDbLinetypeTableRecord
  2
PHANTOM2
 70
     0
  3
Phantom (.5x) ___ _ _ ___ _ _ ___ _ _ ___ _ _
 72
    65
 73
     6
 40
1.25
 49
0.625
 74
     0
 49
-0.125
 74
     0
 49
0.125
 74
     0
 49
-0.125
 74
     0
 49
0.125
 74
     0
 49
-0.125
 74
     0
  0
LTYPE
  5
2A86
330
2A0F
100
AcDbSymbolTableRecord
100
AcDbLinetypeTableRecord
  2
CENTER
 70
     0
  3
Center ____ _ ____ _ ____ _ ____ _ ____ _ ____
 72
    65
 73
     4
 40
2.0
 49
1.25
 74
     0
 49
-0.25
 74
     0
 49
0.25
 74
     0
 49
-0.25
 74
     0
  0
LTYPE
  5
2A87
330
2A0F
100
AcDbSymbolTableRecord
100
AcDbLinetypeTableRecord
  2
ASULTYPE
 70
     0
  3
実線
 72
    65
 73
     2
 40
3.0
 49
2.5
 74
     0
 49
0.5
 74
     0
  0
LTYPE
  5
2A88
330
2A0F
100
AcDbSymbolTableRecord
100
AcDbLinetypeTableRecord
  2
ASVLTYPE
 70
     0
  3
__ __ __ __ __ __ __ __ __ __ __ __ __ __ __ __ __ __ __ __ __
 72
    65
 73
     2
 40
0.75
 49
0.5
 74
     0
 49
-0.25
 74
     0
  0
LTYPE
  5
2A89
330
2A0F
100
AcDbSymbolTableRecord
100
AcDbLinetypeTableRecord
  2
AM_ISO02W050
 70
     0
  3
__ __ __ __ __ __ __ __ __ __ __ __ __ __ __
 72
    65
 73
     2
 40
7.5
 49
6.0
 74
     0
 49
-1.5
 74
     0
  0
LTYPE
  5
2A8A
330
2A0F
100
AcDbSymbolTableRecord
100
AcDbLinetypeTableRecord
  2
AM_ISO08W050
 70
     0
  3
____ . ____ . ____ . ____ . ____ . ____ . ____
 72
    65
 73
     4
 40
18.0
 49
12.0
 74
     0
 49
-1.5
 74
     0
 49
3.0
 74
     0
 49
-1.5
 74
     0
  0
LTYPE
  5
2A8B
330
2A0F
100
AcDbSymbolTableRecord
100
AcDbLinetypeTableRecord
  2
AM_ISO09W050
 70
     0
  3
_____ . . _____ . . _____ . . ____ .. ____
 72
    65
 73
     6
 40
22.5
 49
12.0
 74
     0
 49
-1.5
 74
     0
 49
3.0
 74
     0
 49
-1.5
 74
     0
 49
3.0
 74
     0
 49
-1.5
 74
     0
  0
LTYPE
  5
2A8C
330
2A0F
100
AcDbSymbolTableRecord
100
AcDbLinetypeTableRecord
  2
AMCONSTR
 70
     0
  3
_______________________
 72
    65
 73
     2
 40
9999.0
 49
9999.0
 74
     0
 49
0.0
 74
     0
  0
LTYPE
  5
2A8D
330
2A0F
100
AcDbSymbolTableRecord
100
AcDbLinetypeTableRecord
  2
AM_ISO08W050X2
 70
     0
  3
__ . __ . __ . __ . __ . __
 72
    65
 73
     4
 40
9.0
 49
6.0
 74
     0
 49
-0.75
 74
     0
 49
1.5
 74
     0
 49
-0.75
 74
     0
  0
LTYPE
  5
2A8E
330
2A0F
100
AcDbSymbolTableRecord
100
AcDbLinetypeTableRecord
  2
AM_ISO02W050X2
 70
     0
  3
 _ _ _ _ _ _ _ _ _ _ _ _
 72
    65
 73
     2
 40
3.75
 49
3.0
 74
     0
 49
-0.75
 74
     0
  0
LTYPE
  5
2A8F
330
2A0F
100
AcDbSymbolTableRecord
100
AcDbLinetypeTableRecord
  2
AMZIGZAG
 70
     0
  3
/\/-/\/-/\/-/\/-/\/-/\/
 72
    65
 73
     2
 40
11.0001
 49
0.0001
 74
     0
 49
-11.0
 74
     0
  0
LTYPE
  5
2A90
330
2A0F
100
AcDbSymbolTableRecord
100
AcDbLinetypeTableRecord
  2
CENTER2
 70
     0
  3
Center (.5x) ___ _ ___ _ ___ _ ___ _ ___ _ ___
 72
    65
 73
     4
 40
1.125
 49
0.75
 74
     0
 49
-0.125
 74
     0
 49
0.125
 74
     0
 49
-0.125
 74
     0
  0
LTYPE
  5
2A91
330
2A0F
100
AcDbSymbolTableRecord
100
AcDbLinetypeTableRecord
  2
HIDDEN2
 70
     0
  3
Hidden (.5x) _ _ _ _ _ _ _ _ _ _ _ _ _ _ _ _ _
 72
    65
 73
     2
 40
0.1875
 49
0.125
 74
     0
 49
-0.0625
 74
     0
  0
LTYPE
  5
2A92
330
2A0F
100
AcDbSymbolTableRecord
100
AcDbLinetypeTableRecord
  2
AMZIGZAG2
 70
     0
  3
/\/-/\/-/\/-/\/-/\/-/\/
 72
    65
 73
     2
 40
0.4401
 49
0.0001
 74
     0
 49
-0.4400000000000003
 74
     0
  0
LTYPE
  5
2A93
330
2A0F
100
AcDbSymbolTableRecord
100
AcDbLinetypeTableRecord
  2
ACANSTGB
 70
     0
  3
__ . . __ . .
 72
    65
 73
     6
 40
0.35433070866
 49
0.15748031496
 74
     0
 49
-0.03937007874
 74
     0
 49
0.03937007874
 74
     0
 49
-0.03937007874
 74
     0
 49
0.03937007874
 74
     0
 49
-0.03937007874
 74
     0
  0
LTYPE
  5
2A94
330
2A0F
100
AcDbSymbolTableRecord
100
AcDbLinetypeTableRecord
  2
ACANSTGL
 70
     0
  3
_ _ _ _ _
 72
    65
 73
     2
 40
0.11811023622
 49
0.07874015748
 74
     0
 49
-0.03937007874
 74
     0
  0
ENDTAB
  0
TABLE
  2
LAYER
  5
2A0C
102
{ACAD_XDICTIONARY
360
2D5B
102
}
330
0
100
AcDbSymbolTable
 70
    12
  0
LAYER
  5
2A66
102
{ACAD_XDICTIONARY
360
2C33
102
}
330
2A0C
100
AcDbSymbolTableRecord
100
AcDbLayerTableRecord
  2
0
 70
     0
 62
     7
  6
CONTINUOUS
370
    -3
390
2A19
  0
LAYER
  5
2A95
102
{ACAD_XDICTIONARY
360
2C35
102
}
330
2A0C
100
AcDbSymbolTableRecord
100
AcDbLayerTableRecord
  2
OUTLINE
 70
     0
 62
     3
  6
CONTINUOUS
370
    -3
390
2A19
  0
LAYER
  5
2A96
102
{ACAD_XDICTIONARY
360
2C37
102
}
330
2A0C
100
AcDbSymbolTableRecord
100
AcDbLayerTableRecord
  2
SIZE
 70
     0
 62
    30
  6
CONTINUOUS
370
    -3
390
2A19
  0
LAYER
  5
2A97
102
{ACAD_XDICTIONARY
360
2C39
102
}
330
2A0C
100
AcDbSymbolTableRecord
100
AcDbLayerTableRecord
  2
BASIS
 70
     0
 62
     6
  6
DASHDOT
370
    -3
390
2A19
  0
LAYER
  5
2A98
102
{ACAD_XDICTIONARY
360
2C3B
102
}
330
2A0C
100
AcDbSymbolTableRecord
100
AcDbLayerTableRecord
  2
DETAIL
 70
     0
 62
     5
  6
CONTINUOUS
370
    -3
390
2A19
  0
LAYER
  5
2A99
102
{ACAD_XDICTIONARY
360
2C3D
102
}
330
2A0C
100
AcDbSymbolTableRecord
100
AcDbLayerTableRecord
  2
ARRANGE
 70
     0
 62
     1
  6
CONTINUOUS
370
    -3
390
2A19
  0
LAYER
  5
2A9A
330
2A0C
100
AcDbSymbolTableRecord
100
AcDbLayerTableRecord
  2
DEFPOINTS
 70
     0
 62
     7
  6
CONTINUOUS
290
     0
370
    -3
390
2A19
  0
LAYER
  5
2A9B
102
{ACAD_XDICTIONARY
360
2C3F
102
}
330
2A0C
100
AcDbSymbolTableRecord
100
AcDbLayerTableRecord
  2
ETC
 70
     0
 62
    61
  6
CONTINUOUS
370
    -3
390
2A19
  0
LAYER
  5
2A9C
102
{ACAD_XDICTIONARY
360
2C41
102
}
330
2A0C
100
AcDbSymbolTableRecord
100
AcDbLayerTableRecord
  2
FIX
 70
     0
 62
    11
  6
CONTINUOUS
370
    -3
390
2A19
  0
LAYER
  5
2A9D
102
{ACAD_XDICTIONARY
360
2C43
102
}
330
2A0C
100
AcDbSymbolTableRecord
100
AcDbLayerTableRecord
  2
NOTE
 70
     0
 62
     4
  6
CONTINUOUS
370
    -3
390
2A19
  0
LAYER
  5
2A9E
102
{ACAD_XDICTIONARY
360
2C45
102
}
330
2A0C
100
AcDbSymbolTableRecord
100
AcDbLayerTableRecord
  2
SERVICESPACE
 70
     0
 62
     2
  6
DASHDOT
370
    -3
390
2A19
  0
LAYER
  5
2A9F
102
{ACAD_XDICTIONARY
360
2C47
102
}
330
2A0C
100
AcDbSymbolTableRecord
100
AcDbLayerTableRecord
  2
SYMBOLLINE
 70
     0
 62
    15
  6
CONTINUOUS
370
    -3
390
2A19
  0
ENDTAB
  0
TABLE
  2
STYLE
  5
2A0D
330
0
100
AcDbSymbolTable
 70
     5
  0
STYLE
  5
2A67
330
2A0D
100
AcDbSymbolTableRecord
100
AcDbTextStyleTableRecord
  2
STANDARD
 70
     0
 40
64.0
 41
0.9
 50
0.0
 71
     0
 42
64.0
  3
SIMPLEX.shx
  4
BIGFONT.shx
  0
STYLE
  5
2A6B
330
2A0D
100
AcDbSymbolTableRecord
100
AcDbTextStyleTableRecord
  2
ANNOTATIVE
 70
     0
 40
0.0
 41
1.0
 50
0.0
 71
     0
 42
0.2
  3
txt
  4

1001
ACADANNOTATIVE
1000
AnnotativeData
1002
{
1070
     1
1070
     1
1002
}
  0
STYLE
  5
2AA0
330
2A0D
100
AcDbSymbolTableRecord
100
AcDbTextStyleTableRecord
  2

 70
     1
 40
0.0
 41
1.0
 50
0.0
 71
     0
 42
64.0
  3
genltshp.shx
  4

  0
STYLE
  5
2AA1
330
2A0D
100
AcDbSymbolTableRecord
100
AcDbTextStyleTableRecord
  2
ACANSTS
 70
     0
 40
1.0
 41
1.0
 50
0.0
 71
     0
 42
64.0
  3
romans.shx
  4
extfont.shx
  0
STYLE
  5
2AA2
330
2A0D
100
AcDbSymbolTableRecord
100
AcDbTextStyleTableRecord
  2
ACANSGDT
 70
     0
 40
0.0
 41
1.0
 50
0.0
 71
     0
 42
64.0
  3
amgdt.shx
  4

  0
ENDTAB
  0
TABLE
  2
VIEW
  5
2A10
330
0
100
AcDbSymbolTable
 70
     2
  0
VIEW
  5
2AA3
330
2A10
100
AcDbSymbolTableRecord
100
AcDbViewTableRecord
  2
ALL
 70
     0
 40
4282.619807999997
 10
0.0
 20
41.30990399999999
 41
5940.0
 11
0.0
 21
0.0
 31
1.0
 12
0.0
 22
0.0
 32
0.0
 42
50.0
 43
0.0
 44
0.0
 50
0.0
 71
     0
281
     0
 72
     1
110
0.0
120
0.0
130
0.0
111
1.0
121
0.0
131
0.0
112
0.0
122
1.0
132
0.0
 79
     0
146
0.0
  0
ENDTAB
  0
TABLE
  2
UCS
  5
2A11
330
0
100
AcDbSymbolTable
 70
     0
  0
ENDTAB
  0
TABLE
  2
APPID
  5
2A13
330
0
100
AcDbSymbolTable
 70
    30
  0
APPID
  5
2A68
330
2A13
100
AcDbSymbolTableRecord
100
AcDbRegAppTableRecord
  2
ACAD
 70
     0
  0
APPID
  5
2A6F
330
2A13
100
AcDbSymbolTableRecord
100
AcDbRegAppTableRecord
  2
ACADANNOTATIVE
 70
     0
  0
APPID
  5
2A79
330
2A13
100
AcDbSymbolTableRecord
100
AcDbRegAppTableRecord
  2
ACAD_MLEADERVER
 70
     0
  0
APPID
  5
2AA4
330
2A13
100
AcDbSymbolTableRecord
100
AcDbRegAppTableRecord
  2
GENIUS_GENDIM_13
 70
     0
  0
APPID
  5
2AA5
330
2A13
100
AcDbSymbolTableRecord
100
AcDbRegAppTableRecord
  2
GENIUS_GENDTOL_13
 70
     0
  0
APPID
  5
2AA6
330
2A13
100
AcDbSymbolTableRecord
100
AcDbRegAppTableRecord
  2
GENIUS_GE3DTOL_13
 70
     0
  0
APPID
  5
2AA7
330
2A13
100
AcDbSymbolTableRecord
100
AcDbRegAppTableRecord
  2
MCAD_NO_VIS
 70
     0
  0
APPID
  5
2AA8
330
2A13
100
AcDbSymbolTableRecord
100
AcDbRegAppTableRecord
  2
ACAD_TEMP_GRAPHIC
 70
     0
  0
APPID
  5
2AA9
330
2A13
100
AcDbSymbolTableRecord
100
AcDbRegAppTableRecord
  2
AD_DRAW
 70
     0
  0
APPID
  5
2AAA
330
2A13
100
AcDbSymbolTableRecord
100
AcDbRegAppTableRecord
  2
ACATTRIBSERVICES
 70
     0
  0
APPID
  5
2AAB
330
2A13
100
AcDbSymbolTableRecord
100
AcDbRegAppTableRecord
  2
ASURF_PCURVE_APPNAME
 70
     0
  0
APPID
  5
2AAC
330
2A13
100
AcDbSymbolTableRecord
100
AcDbRegAppTableRecord
  2
AMG_3D2D_5_0
 70
     0
  0
APPID
  5
2AAD
330
2A13
100
AcDbSymbolTableRecord
100
AcDbRegAppTableRecord
  2
DESIGNERASSEMBLIES
 70
     0
  0
APPID
  5
2AAE
330
2A13
100
AcDbSymbolTableRecord
100
AcDbRegAppTableRecord
  2
ACADM_DIM_EDIT
 70
     0
  0
APPID
  5
2AAF
330
2A13
100
AcDbSymbolTableRecord
100
AcDbRegAppTableRecord
  2
AMDT_DM_ADJ
 70
     0
  0
APPID
  5
2AB0
330
2A13
100
AcDbSymbolTableRecord
100
AcDbRegAppTableRecord
  2
ACAD_DSTYLE_DIMARC_LENGTH_
 70
     0
  0
APPID
  5
2AB1
330
2A13
100
AcDbSymbolTableRecord
100
AcDbRegAppTableRecord
  2
ACAD_DSTYLE_DIMJOGGED_JOGA
 70
     0
  0
APPID
  5
2AB2
330
2A13
100
AcDbSymbolTableRecord
100
AcDbRegAppTableRecord
  2
ACAD_PSEXT
 70
     0
  0
APPID
  5
2AB3
330
2A13
100
AcDbSymbolTableRecord
100
AcDbRegAppTableRecord
  2
ACAD_EXEMPT_FROM_CAD_STANDARDS
 70
     0
  0
APPID
  5
2AB4
330
2A13
100
AcDbSymbolTableRecord
100
AcDbRegAppTableRecord
  2
ACAD_DSTYLE_DIMJAG
 70
     0
  0
APPID
  5
2AB5
330
2A13
100
AcDbSymbolTableRecord
100
AcDbRegAppTableRecord
  2
ACAD_DSTYLE_DIMTALN
 70
     0
  0
APPID
  5
2AB6
330
2A13
100
AcDbSymbolTableRecord
100
AcDbRegAppTableRecord
  2
AMG_3D2D_5_00
 70
     0
  0
APPID
  5
2AB7
330
2A13
100
AcDbSymbolTableRecord
100
AcDbRegAppTableRecord
  2
AMG_3D2D_5_01
 70
     0
  0
APPID
  5
2AB8
330
2A13
100
AcDbSymbolTableRecord
100
AcDbRegAppTableRecord
  2
AMG_3D2D_5_02
 70
     0
  0
APPID
  5
2BDA
330
2A13
100
AcDbSymbolTableRecord
100
AcDbRegAppTableRecord
  2
AMG_3D2D_5.0
 70
     0
  0
APPID
  5
2C70
330
2A13
100
AcDbSymbolTableRecord
100
AcDbRegAppTableRecord
  2
ACAD_DSTYLE_DIMARC_LENGTH_SYMBOL
 70
     0
  0
APPID
  5
2C71
330
2A13
100
AcDbSymbolTableRecord
100
AcDbRegAppTableRecord
  2
ACAD_DSTYLE_DIM_LINETYPE
 70
     0
  0
APPID
  5
2C72
330
2A13
100
AcDbSymbolTableRecord
100
AcDbRegAppTableRecord
  2
ACAD_DSTYLE_DIM_EXT1_LINETYPE
 70
     0
  0
APPID
  5
2C73
330
2A13
100
AcDbSymbolTableRecord
100
AcDbRegAppTableRecord
  2
ACAD_DSTYLE_DIM_EXT2_LINETYPE
 70
     0
  0
APPID
  5
2D5A
330
2A13
100
AcDbSymbolTableRecord
100
AcDbRegAppTableRecord
  2
ACAD_DSTYLE_DIMJOGGED_JOGANGLE_SYMBOL
 70
     0
  0
ENDTAB
  0
TABLE
  2
DIMSTYLE
  5
2A14
330
0
100
AcDbSymbolTable
 70
    10
100
AcDbDimStyleTable
 71
     1
340
2AB9
  0
DIMSTYLE
105
2A69
330
2A14
100
AcDbSymbolTableRecord
100
AcDbDimStyleTableRecord
  2
STANDARD
 70
     0
 41
12.0
 42
20.0
 44
20.0
 77
     1
 78
     8
140
64.0
141
0.0
147
10.0
275
     1
279
     2
284
     7
285
     7
286
     7
340
2A67
  0
DIMSTYLE
105
2A6A
330
2A14
100
AcDbSymbolTableRecord
100
AcDbDimStyleTableRecord
  2
ANNOTATIVE
 70
     0
275
     1
279
     2
284
     7
285
     7
286
     7
340
2A67
1001
ACADANNOTATIVE
1000
AnnotativeData
1002
{
1070
     1
1070
     1
1002
}
  0
DIMSTYLE
105
2AB9
102
{ACAD_REACTORS
330
304E
102
}
330
2A14
100
AcDbSymbolTableRecord
100
AcDbDimStyleTableRecord
  2
AM_ANSI
 70
     0
  4
mm
 41
0.12
 42
0.05
 43
0.5
 44
0.1
 47
0.1
 48
0.1
 78
     7
 79
     2
140
0.12
141
0.0
146
0.71
147
0.06
176
   256
177
   256
178
     2
274
     4
284
     7
340
2A67
371
    -1
372
    -1
1001
ACAD_DSTYLE_DIMARC_LENGTH_SYMBOL
1070
   379
1070
     1
1001
ACAD_DSTYLE_DIM_LINETYPE
1070
   380
1005
2A6C
1001
ACAD_DSTYLE_DIM_EXT1_LINETYPE
1070
   381
1005
2A6C
1001
ACAD_DSTYLE_DIM_EXT2_LINETYPE
1070
   382
1005
2A6C
  0
DIMSTYLE
105
2ABA
330
2A14
100
AcDbSymbolTableRecord
100
AcDbDimStyleTableRecord
  2
AM_ANSI$3
 70
     0
  4
mm
 41
0.12
 42
0.05
 43
0.5
 44
0.1
 47
0.1
 48
0.1
 78
     7
 79
     2
140
0.12
141
0.0
146
0.71
147
0.06
176
   256
177
   256
178
     2
274
     4
284
     7
288
     1
289
     0
340
2A67
371
    -1
372
    -1
1001
ACAD_DSTYLE_DIMARC_LENGTH_SYMBOL
1070
   379
1070
     1
1001
ACAD_DSTYLE_DIM_LINETYPE
1070
   380
1005
2A6C
1001
ACAD_DSTYLE_DIM_EXT1_LINETYPE
1070
   381
1005
2A6C
1001
ACAD_DSTYLE_DIM_EXT2_LINETYPE
1070
   382
1005
2A6C
  0
DIMSTYLE
105
2ABB
330
2A14
100
AcDbSymbolTableRecord
100
AcDbDimStyleTableRecord
  2
AM_ANSI$4
 70
     0
  4
mm
 41
0.12
 42
0.05
 43
0.5
 44
0.1
 47
0.1
 48
0.1
 78
     7
 79
     2
140
0.12
141
0.0
146
0.71
147
0.06
176
   256
177
   256
178
     2
274
     4
284
     7
340
2A67
371
    -1
372
    -1
1001
ACAD_DSTYLE_DIMARC_LENGTH_SYMBOL
1070
   379
1070
     1
1001
ACAD_DSTYLE_DIM_LINETYPE
1070
   380
1005
2A6C
1001
ACAD_DSTYLE_DIM_EXT1_LINETYPE
1070
   381
1005
2A6C
1001
ACAD_DSTYLE_DIM_EXT2_LINETYPE
1070
   382
1005
2A6C
  0
DIMSTYLE
105
2ABC
330
2A14
100
AcDbSymbolTableRecord
100
AcDbDimStyleTableRecord
  2
AM_ANSI$7
 70
     0
  4
mm
 41
0.12
 42
0.05
 43
0.5
 44
0.1
 47
0.1
 48
0.1
 78
     7
 79
     2
140
0.12
141
0.0
146
0.71
147
0.06
176
   256
177
   256
178
     2
274
     4
284
     7
340
2A67
371
    -1
372
    -1
1001
ACAD_DSTYLE_DIMARC_LENGTH_SYMBOL
1070
   379
1070
     1
1001
ACAD_DSTYLE_DIM_LINETYPE
1070
   380
1005
2A6C
1001
ACAD_DSTYLE_DIM_EXT1_LINETYPE
1070
   381
1005
2A6C
1001
ACAD_DSTYLE_DIM_EXT2_LINETYPE
1070
   382
1005
2A6C
  0
DIMSTYLE
105
2ABD
330
2A14
100
AcDbSymbolTableRecord
100
AcDbDimStyleTableRecord
  2
AM_ANSI$SF
 70
     0
  4
mm
 41
0.12
 42
0.05
 43
0.5
 44
0.1
 47
0.1
 48
0.1
 75
     1
 76
     1
 78
     7
 79
     2
140
0.12
141
0.0
146
0.71
147
0.06
176
   256
177
   256
178
     2
274
     4
284
     7
340
2A67
371
    -1
372
    -1
1001
ACAD_DSTYLE_DIMARC_LENGTH_SYMBOL
1070
   379
1070
     1
1001
ACAD_DSTYLE_DIM_LINETYPE
1070
   380
1005
2A6C
1001
ACAD_DSTYLE_DIM_EXT1_LINETYPE
1070
   381
1005
2A6C
1001
ACAD_DSTYLE_DIM_EXT2_LINETYPE
1070
   382
1005
2A6C
  0
DIMSTYLE
105
2ABE
330
2A14
100
AcDbSymbolTableRecord
100
AcDbDimStyleTableRecord
  2
AM_ANSI$SH
 70
     0
  4
mm
 41
0.12
 42
0.05
 43
0.5
 44
0.1
 47
0.1
 48
0.1
 75
     1
 76
     1
 78
     7
 79
     2
140
0.12
141
0.0
146
0.71
147
0.06
173
     1
176
   256
177
   256
178
     2
274
     4
284
     7
340
2A67
343
2ADE
371
    -1
372
    -1
1001
ACAD_DSTYLE_DIMARC_LENGTH_SYMBOL
1070
   379
1070
     1
1001
ACAD_DSTYLE_DIM_LINETYPE
1070
   380
1005
2A6C
1001
ACAD_DSTYLE_DIM_EXT1_LINETYPE
1070
   381
1005
2A6C
1001
ACAD_DSTYLE_DIM_EXT2_LINETYPE
1070
   382
1005
2A6C
  0
DIMSTYLE
105
2ABF
330
2A14
100
AcDbSymbolTableRecord
100
AcDbDimStyleTableRecord
  2
STANDARD1
 70
     0
 40
6.0
 41
2.5
 42
0.625
 43
6.0
 44
1.25
 47
1.0
 48
0.5
 77
     1
 78
     8
140
2.5
141
0.0
146
0.6
147
1.0
173
     1
275
     1
279
     2
284
     7
285
     7
286
     7
340
2A67
  0
DIMSTYLE
105
2AC0
330
2A14
100
AcDbSymbolTableRecord
100
AcDbDimStyleTableRecord
  2
STANDARD$0
 70
     0
 41
12.0
 42
20.0
 44
20.0
 73
     0
 74
     0
 77
     1
 78
     8
140
64.0
141
0.0
147
10.0
275
     1
279
     2
284
     7
285
     7
286
     7
340
2A67
  0
ENDTAB
  0
TABLE
  2
BLOCK_RECORD
  5
2A0B
330
0
100
AcDbSymbolTable
 70
    75
  0
BLOCK_RECORD
  5
2A7E
102
{ACAD_XDICTIONARY
360
2C49
102
}
330
2A0B
100
AcDbSymbolTableRecord
100
AcDbBlockTableRecord
  2
*Model_Space
340
2A81
  0
BLOCK_RECORD
  5
2A7A
330
2A0B
100
AcDbSymbolTableRecord
100
AcDbBlockTableRecord
  2
*Paper_Space
340
2A7D
  0
BLOCK_RECORD
  5
2AC8
330
2A0B
100
AcDbSymbolTableRecord
100
AcDbBlockTableRecord
  2
$MODEL_SPACE
340
0
  0
BLOCK_RECORD
  5
2ACA
330
2A0B
100
AcDbSymbolTableRecord
100
AcDbBlockTableRecord
  2
$PAPER_SPACE
340
0
  0
BLOCK_RECORD
  5
2ACC
330
2A0B
100
AcDbSymbolTableRecord
100
AcDbBlockTableRecord
  2
_ORIGIN
340
0
  0
BLOCK_RECORD
  5
2ACE
330
2A0B
100
AcDbSymbolTableRecord
100
AcDbBlockTableRecord
  2
_DOTBLANK
340
0
102
{BLKREFS
331
1299
331
129A
331
11AA
331
11AB
331
E80
331
E81
331
1123
331
1124
331
11C2
331
11C3
331
11EC
331
11ED
331
11F9
331
11FA
331
1287
331
1288
331
1417
331
1418
331
1423
331
1424
331
142F
331
1430
331
143B
331
143C
331
166E
331
166F
331
1677
331
1678
331
1680
331
1681
331
1689
331
168A
331
1696
331
1697
331
16A3
331
16A4
331
16AF
331
16B0
331
16BB
331
16BC
331
16C7
331
16C8
331
16D3
331
16D4
331
1D86
331
1D87
331
1D8F
331
1D90
331
1D98
331
1D99
331
1DA1
331
1DA2
331
1DAB
331
1DAC
331
1DB5
331
1DB6
331
2E3B
331
2E3C
331
2E41
331
2E42
331
2E47
331
2E48
331
2E4D
331
2E4E
331
2F03
331
2F04
102
}
  0
BLOCK_RECORD
  5
2AD0
330
2A0B
100
AcDbSymbolTableRecord
100
AcDbBlockTableRecord
  2
_OPEN30
340
0
102
{BLKREFS
331
2088
331
25A0
331
288E
331
2E63
102
}
  0
BLOCK_RECORD
  5
2AD2
330
2A0B
100
AcDbSymbolTableRecord
100
AcDbBlockTableRecord
  2
*D5
340
0
  0
BLOCK_RECORD
  5
2AD4
330
2A0B
100
AcDbSymbolTableRecord
100
AcDbBlockTableRecord
  2
*U6
340
0
102
{BLKREFS
331
129B
102
}
  0
BLOCK_RECORD
  5
2AD6
330
2A0B
100
AcDbSymbolTableRecord
100
AcDbBlockTableRecord
  2
*D7
340
0
  0
BLOCK_RECORD
  5
2AD8
330
2A0B
100
AcDbSymbolTableRecord
100
AcDbBlockTableRecord
  2
*U8
340
0
102
{BLKREFS
331
11AC
102
}
  0
BLOCK_RECORD
  5
2ADA
330
2A0B
100
AcDbSymbolTableRecord
100
AcDbBlockTableRecord
  2
*D9
340
0
  0
BLOCK_RECORD
  5
2ADC
330
2A0B
100
AcDbSymbolTableRecord
100
AcDbBlockTableRecord
  2
*U10
340
0
102
{BLKREFS
331
E82
102
}
  0
BLOCK_RECORD
  5
2ADE
330
2A0B
100
AcDbSymbolTableRecord
100
AcDbBlockTableRecord
  2
GENAXEH
340
0
  0
BLOCK_RECORD
  5
2AE0
330
2A0B
100
AcDbSymbolTableRecord
100
AcDbBlockTableRecord
  2
*D12
340
0
  0
BLOCK_RECORD
  5
2AE2
330
2A0B
100
AcDbSymbolTableRecord
100
AcDbBlockTableRecord
  2
*U13
340
0
102
{BLKREFS
331
1125
102
}
  0
BLOCK_RECORD
  5
2AE4
330
2A0B
100
AcDbSymbolTableRecord
100
AcDbBlockTableRecord
  2
*D14
340
0
  0
BLOCK_RECORD
  5
2AE6
330
2A0B
100
AcDbSymbolTableRecord
100
AcDbBlockTableRecord
  2
*U15
340
0
102
{BLKREFS
331
11C4
102
}
  0
BLOCK_RECORD
  5
2AE8
330
2A0B
100
AcDbSymbolTableRecord
100
AcDbBlockTableRecord
  2
*D16
340
0
  0
BLOCK_RECORD
  5
2AEA
330
2A0B
100
AcDbSymbolTableRecord
100
AcDbBlockTableRecord
  2
*U17
340
0
102
{BLKREFS
331
11EE
102
}
  0
BLOCK_RECORD
  5
2AEC
330
2A0B
100
AcDbSymbolTableRecord
100
AcDbBlockTableRecord
  2
*D18
340
0
  0
BLOCK_RECORD
  5
2AEE
330
2A0B
100
AcDbSymbolTableRecord
100
AcDbBlockTableRecord
  2
*U19
340
0
102
{BLKREFS
331
11FB
102
}
  0
BLOCK_RECORD
  5
2AF0
330
2A0B
100
AcDbSymbolTableRecord
100
AcDbBlockTableRecord
  2
*D20
340
0
  0
BLOCK_RECORD
  5
2AF2
330
2A0B
100
AcDbSymbolTableRecord
100
AcDbBlockTableRecord
  2
*U21
340
0
102
{BLKREFS
331
1289
102
}
  0
BLOCK_RECORD
  5
2AF4
330
2A0B
100
AcDbSymbolTableRecord
100
AcDbBlockTableRecord
  2
*D22
340
0
  0
BLOCK_RECORD
  5
2AF6
330
2A0B
100
AcDbSymbolTableRecord
100
AcDbBlockTableRecord
  2
*U23
340
0
102
{BLKREFS
331
1419
102
}
  0
BLOCK_RECORD
  5
2AF8
330
2A0B
100
AcDbSymbolTableRecord
100
AcDbBlockTableRecord
  2
*D24
340
0
  0
BLOCK_RECORD
  5
2AFA
330
2A0B
100
AcDbSymbolTableRecord
100
AcDbBlockTableRecord
  2
*U25
340
0
102
{BLKREFS
331
1425
102
}
  0
BLOCK_RECORD
  5
2AFC
330
2A0B
100
AcDbSymbolTableRecord
100
AcDbBlockTableRecord
  2
*D26
340
0
  0
BLOCK_RECORD
  5
2AFE
330
2A0B
100
AcDbSymbolTableRecord
100
AcDbBlockTableRecord
  2
*U27
340
0
102
{BLKREFS
331
1431
102
}
  0
BLOCK_RECORD
  5
2B00
330
2A0B
100
AcDbSymbolTableRecord
100
AcDbBlockTableRecord
  2
*D28
340
0
  0
BLOCK_RECORD
  5
2B02
330
2A0B
100
AcDbSymbolTableRecord
100
AcDbBlockTableRecord
  2
*U29
340
0
102
{BLKREFS
331
143D
102
}
  0
BLOCK_RECORD
  5
2B04
330
2A0B
100
AcDbSymbolTableRecord
100
AcDbBlockTableRecord
  2
*D30
340
0
  0
BLOCK_RECORD
  5
2B06
330
2A0B
100
AcDbSymbolTableRecord
100
AcDbBlockTableRecord
  2
*U31
340
0
102
{BLKREFS
331
1670
102
}
  0
BLOCK_RECORD
  5
2B08
330
2A0B
100
AcDbSymbolTableRecord
100
AcDbBlockTableRecord
  2
*D32
340
0
  0
BLOCK_RECORD
  5
2B0A
330
2A0B
100
AcDbSymbolTableRecord
100
AcDbBlockTableRecord
  2
*U33
340
0
102
{BLKREFS
331
1679
102
}
  0
BLOCK_RECORD
  5
2B0C
330
2A0B
100
AcDbSymbolTableRecord
100
AcDbBlockTableRecord
  2
*D34
340
0
  0
BLOCK_RECORD
  5
2B0E
330
2A0B
100
AcDbSymbolTableRecord
100
AcDbBlockTableRecord
  2
*U35
340
0
102
{BLKREFS
331
1682
102
}
  0
BLOCK_RECORD
  5
2B10
330
2A0B
100
AcDbSymbolTableRecord
100
AcDbBlockTableRecord
  2
*D36
340
0
  0
BLOCK_RECORD
  5
2B12
330
2A0B
100
AcDbSymbolTableRecord
100
AcDbBlockTableRecord
  2
*U37
340
0
102
{BLKREFS
331
168B
102
}
  0
BLOCK_RECORD
  5
2B14
330
2A0B
100
AcDbSymbolTableRecord
100
AcDbBlockTableRecord
  2
*U38
340
0
  0
BLOCK_RECORD
  5
2B16
330
2A0B
100
AcDbSymbolTableRecord
100
AcDbBlockTableRecord
  2
*D39
340
0
  0
BLOCK_RECORD
  5
2B18
330
2A0B
100
AcDbSymbolTableRecord
100
AcDbBlockTableRecord
  2
*U40
340
0
102
{BLKREFS
331
1698
102
}
  0
BLOCK_RECORD
  5
2B1A
330
2A0B
100
AcDbSymbolTableRecord
100
AcDbBlockTableRecord
  2
*D41
340
0
  0
BLOCK_RECORD
  5
2B1C
330
2A0B
100
AcDbSymbolTableRecord
100
AcDbBlockTableRecord
  2
*U42
340
0
102
{BLKREFS
331
16A5
102
}
  0
BLOCK_RECORD
  5
2B1E
330
2A0B
100
AcDbSymbolTableRecord
100
AcDbBlockTableRecord
  2
*D43
340
0
  0
BLOCK_RECORD
  5
2B20
330
2A0B
100
AcDbSymbolTableRecord
100
AcDbBlockTableRecord
  2
*U44
340
0
102
{BLKREFS
331
16B1
102
}
  0
BLOCK_RECORD
  5
2B22
330
2A0B
100
AcDbSymbolTableRecord
100
AcDbBlockTableRecord
  2
*D45
340
0
  0
BLOCK_RECORD
  5
2B24
330
2A0B
100
AcDbSymbolTableRecord
100
AcDbBlockTableRecord
  2
*U46
340
0
102
{BLKREFS
331
16BD
102
}
  0
BLOCK_RECORD
  5
2B26
330
2A0B
100
AcDbSymbolTableRecord
100
AcDbBlockTableRecord
  2
*D47
340
0
  0
BLOCK_RECORD
  5
2B28
330
2A0B
100
AcDbSymbolTableRecord
100
AcDbBlockTableRecord
  2
*U48
340
0
102
{BLKREFS
331
16C9
102
}
  0
BLOCK_RECORD
  5
2B2A
330
2A0B
100
AcDbSymbolTableRecord
100
AcDbBlockTableRecord
  2
*D49
340
0
  0
BLOCK_RECORD
  5
2B2C
330
2A0B
100
AcDbSymbolTableRecord
100
AcDbBlockTableRecord
  2
*U50
340
0
102
{BLKREFS
331
16D5
102
}
  0
BLOCK_RECORD
  5
2B2E
330
2A0B
100
AcDbSymbolTableRecord
100
AcDbBlockTableRecord
  2
*D51
340
0
  0
BLOCK_RECORD
  5
2B30
330
2A0B
100
AcDbSymbolTableRecord
100
AcDbBlockTableRecord
  2
*U52
340
0
102
{BLKREFS
331
1D88
102
}
  0
BLOCK_RECORD
  5
2B32
330
2A0B
100
AcDbSymbolTableRecord
100
AcDbBlockTableRecord
  2
*D53
340
0
  0
BLOCK_RECORD
  5
2B34
330
2A0B
100
AcDbSymbolTableRecord
100
AcDbBlockTableRecord
  2
*U54
340
0
102
{BLKREFS
331
1D91
102
}
  0
BLOCK_RECORD
  5
2B36
330
2A0B
100
AcDbSymbolTableRecord
100
AcDbBlockTableRecord
  2
*D55
340
0
  0
BLOCK_RECORD
  5
2B38
330
2A0B
100
AcDbSymbolTableRecord
100
AcDbBlockTableRecord
  2
*U56
340
0
102
{BLKREFS
331
1D9A
102
}
  0
BLOCK_RECORD
  5
2B3A
330
2A0B
100
AcDbSymbolTableRecord
100
AcDbBlockTableRecord
  2
*D57
340
0
  0
BLOCK_RECORD
  5
2B3C
330
2A0B
100
AcDbSymbolTableRecord
100
AcDbBlockTableRecord
  2
*U58
340
0
102
{BLKREFS
331
1DA3
102
}
  0
BLOCK_RECORD
  5
2B3E
330
2A0B
100
AcDbSymbolTableRecord
100
AcDbBlockTableRecord
  2
*D59
340
0
  0
BLOCK_RECORD
  5
2B40
330
2A0B
100
AcDbSymbolTableRecord
100
AcDbBlockTableRecord
  2
*U60
340
0
102
{BLKREFS
331
1DAD
102
}
  0
BLOCK_RECORD
  5
2B42
330
2A0B
100
AcDbSymbolTableRecord
100
AcDbBlockTableRecord
  2
*D61
340
0
  0
BLOCK_RECORD
  5
2B44
330
2A0B
100
AcDbSymbolTableRecord
100
AcDbBlockTableRecord
  2
*U62
340
0
102
{BLKREFS
331
1DB7
102
}
  0
BLOCK_RECORD
  5
2B46
330
2A0B
100
AcDbSymbolTableRecord
100
AcDbBlockTableRecord
  2
*U63
340
0
  0
BLOCK_RECORD
  5
2B48
330
2A0B
100
AcDbSymbolTableRecord
100
AcDbBlockTableRecord
  2
*U64
340
0
  0
BLOCK_RECORD
  5
2B4A
330
2A0B
100
AcDbSymbolTableRecord
100
AcDbBlockTableRecord
  2
*U65
340
0
  0
BLOCK_RECORD
  5
2B4C
330
2A0B
100
AcDbSymbolTableRecord
100
AcDbBlockTableRecord
  2
*U66
340
0
  0
BLOCK_RECORD
  5
2B4E
330
2A0B
100
AcDbSymbolTableRecord
100
AcDbBlockTableRecord
  2
*U67
340
0
  0
BLOCK_RECORD
  5
2B50
330
2A0B
100
AcDbSymbolTableRecord
100
AcDbBlockTableRecord
  2
*U68
340
0
  0
BLOCK_RECORD
  5
2B52
330
2A0B
100
AcDbSymbolTableRecord
100
AcDbBlockTableRecord
  2
*U69
340
0
  0
BLOCK_RECORD
  5
2B54
330
2A0B
100
AcDbSymbolTableRecord
100
AcDbBlockTableRecord
  2
*X70
340
0
  0
BLOCK_RECORD
  5
2B56
330
2A0B
100
AcDbSymbolTableRecord
100
AcDbBlockTableRecord
  2
*X71
340
0
  0
BLOCK_RECORD
  5
2D23
330
2A0B
100
AcDbSymbolTableRecord
100
AcDbBlockTableRecord
  2
*U72
340
0
  0
BLOCK_RECORD
  5
2FBB
330
2A0B
100
AcDbSymbolTableRecord
100
AcDbBlockTableRecord
  2
*U73
340
0
  0
ENDTAB
  0
ENDSEC
  0
SECTION
  2
BLOCKS
  0
BLOCK
  5
2A7F
330
2A7E
100
AcDbEntity
  8
0
100
AcDbBlockBegin
  2
*Model_Space
 70
     0
 10
0.0
 20
0.0
 30
0.0
  3
*Model_Space
  1

  0
ENDBLK
  5
2A80
330
2A7E
100
AcDbEntity
  8
0
100
AcDbBlockEnd
  0
BLOCK
  5
2A7B
330
2A7A
100
AcDbEntity
 67
     1
  8
0
100
AcDbBlockBegin
  2
*Paper_Space
 70
     0
 10
0.0
 20
0.0
 30
0.0
  3
*Paper_Space
  1

  0
ENDBLK
  5
2A7C
330
2A7A
100
AcDbEntity
 67
     1
  8
0
100
AcDbBlockEnd
  0
BLOCK
  5
2AC9
330
2AC8
100
AcDbEntity
  8
0
100
AcDbBlockBegin
  2
$MODEL_SPACE
 70
     0
 10
0.0
 20
0.0
 30
0.0
  3
$MODEL_SPACE
  1

  0
ENDBLK
  5
26E1
330
2AC8
100
AcDbEntity
  8
0
100
AcDbBlockEnd
  0
BLOCK
  5
2ACB
330
2ACA
100
AcDbEntity
  8
0
100
AcDbBlockBegin
  2
$PAPER_SPACE
 70
     0
 10
0.0
 20
0.0
 30
0.0
  3
$PAPER_SPACE
  1

  0
ENDBLK
  5
26DD
330
2ACA
100
AcDbEntity
  8
0
100
AcDbBlockEnd
  0
BLOCK
  5
2ACD
330
2ACC
100
AcDbEntity
  8
0
100
AcDbBlockBegin
  2
_ORIGIN
 70
     0
 10
0.0
 20
0.0
 30
0.0
  3
_ORIGIN
  1

  0
CIRCLE
  5
880
330
2ACC
100
AcDbEntity
  8
0
  6
Continuous
 62
     7
100
AcDbCircle
 10
0.0
 20
0.0
 30
0.0
 40
0.5
  0
LINE
  5
881
330
2ACC
100
AcDbEntity
  8
0
  6
Continuous
 62
     7
100
AcDbLine
 10
0.0
 20
0.0
 30
0.0
 11
-1.0
 21
0.0
 31
0.0
  0
ENDBLK
  5
882
330
2ACC
100
AcDbEntity
  8
0
100
AcDbBlockEnd
  0
BLOCK
  5
2ACF
330
2ACE
100
AcDbEntity
  8
0
 62
     1
100
AcDbBlockBegin
  2
_DOTBLANK
 70
     0
 10
0.0
 20
0.0
 30
0.0
  3
_DOTBLANK
  1

  0
CIRCLE
  5
AB3
330
2ACE
100
AcDbEntity
  8
0
  6
ByBlock
 62
     0
100
AcDbCircle
 10
0.0
 20
0.0
 30
0.0
 40
0.5
  0
LINE
  5
AB4
330
2ACE
100
AcDbEntity
  8
0
  6
ByBlock
 62
     0
100
AcDbLine
 10
-0.5
 20
0.0
 30
0.0
 11
-1.0
 21
0.0
 31
0.0
  0
ENDBLK
  5
AB6
330
2ACE
100
AcDbEntity
  8
0
 62
     1
100
AcDbBlockEnd
  0
BLOCK
  5
2AD1
330
2AD0
100
AcDbEntity
  8
0
 62
     1
100
AcDbBlockBegin
  2
_OPEN30
 70
     0
 10
0.0
 20
0.0
 30
0.0
  3
_OPEN30
  1

  0
LINE
  5
AB8
330
2AD0
100
AcDbEntity
  8
0
  6
ByBlock
 62
     0
100
AcDbLine
 10
-1.0
 20
0.26794919
 30
0.0
 11
0.0
 21
0.0
 31
0.0
  0
LINE
  5
AB9
330
2AD0
100
AcDbEntity
  8
0
  6
ByBlock
 62
     0
100
AcDbLine
 10
0.0
 20
0.0
 30
0.0
 11
-1.0
 21
-0.26794919
 31
0.0
  0
LINE
  5
ABA
330
2AD0
100
AcDbEntity
  8
0
  6
ByBlock
 62
     0
100
AcDbLine
 10
0.0
 20
0.0
 30
0.0
 11
-1.0
 21
0.0
 31
0.0
  0
ENDBLK
  5
ABC
330
2AD0
100
AcDbEntity
  8
0
 62
     1
100
AcDbBlockEnd
  0
BLOCK
  5
2AD3
330
2AD2
100
AcDbEntity
  8
0
100
AcDbBlockBegin
  2
*D5
 70
     1
 10
0.0
 20
0.0
 30
0.0
  3
*D5
  1

  0
LINE
  5
1296
330
2AD2
100
AcDbEntity
  8
SIZE
 62
     0
100
AcDbLine
 10
-134.5
 20
-320.0
 30
0.0
 11
-134.5
 21
-468.0173952306001
 31
0.0
  0
LINE
  5
1297
330
2AD2
100
AcDbEntity
  8
SIZE
 62
     0
100
AcDbLine
 10
134.5
 20
-320.0
 30
0.0
 11
134.5
 21
-468.0173952306001
 31
0.0
  0
LINE
  5
1298
330
2AD2
100
AcDbEntity
  8
SIZE
 62
     0
100
AcDbLine
 10
-122.5
 20
-448.0173952306
 30
0.0
 11
122.5
 21
-448.0173952306
 31
0.0
  0
INSERT
  5
1299
330
2AD2
100
AcDbEntity
  8
SIZE
 62
     0
100
AcDbBlockReference
  2
_DOTBLANK
 10
-134.5
 20
-448.0173952306
 30
0.0
 41
12.0
 42
12.0
 43
12.0
 50
180.0
  0
INSERT
  5
129A
330
2AD2
100
AcDbEntity
  8
SIZE
 62
     0
100
AcDbBlockReference
  2
_DOTBLANK
 10
134.5
 20
-448.0173952306
 30
0.0
 41
12.0
 42
12.0
 43
12.0
  0
INSERT
  5
129B
330
2AD2
100
AcDbEntity
  8
0
100
AcDbBlockReference
  2
*U6
 10
0.0
 20
0.0
 30
0.0
  0
POINT
  5
129C
330
2AD2
100
AcDbEntity
  8
DEFPOINTS
 62
     0
100
AcDbPoint
 10
-134.5
 20
-300.0
 30
0.0
  0
POINT
  5
129D
330
2AD2
100
AcDbEntity
  8
DEFPOINTS
 62
     0
100
AcDbPoint
 10
134.5
 20
-300.0
 30
0.0
  0
POINT
  5
129E
330
2AD2
100
AcDbEntity
  8
DEFPOINTS
 62
     0
100
AcDbPoint
 10
134.5
 20
-448.0173952306
 30
0.0
  0
ENDBLK
  5
D72
330
2AD2
100
AcDbEntity
  8
0
100
AcDbBlockEnd
  0
BLOCK
  5
2AD5
330
2AD4
100
AcDbEntity
  8
0
100
AcDbBlockBegin
  2
*U6
 70
     1
 10
0.0
 20
0.0
 30
0.0
  3
*U6
  1

  0
TEXT
  5
1EF5
330
2AD4
100
AcDbEntity
  8
SIZE
 62
     0
100
AcDbText
 10
-72.68571428571426
 20
-438.0173952305999
 30
0.0
 40
64.0
  1
269
 41
0.9
100
AcDbText
  0
ENDBLK
  5
1EF7
330
2AD4
100
AcDbEntity
  8
0
100
AcDbBlockEnd
  0
BLOCK
  5
2AD7
330
2AD6
100
AcDbEntity
  8
0
100
AcDbBlockBegin
  2
*D7
 70
     1
 10
0.0
 20
0.0
 30
0.0
  3
*D7
  1

  0
LINE
  5
11A7
330
2AD6
100
AcDbEntity
  8
SIZE
  6
Continuous
 62
     0
100
AcDbLine
 10
143.5
 20
-300.0
 30
0.0
 11
304.6432844803791
 21
-300.0
 31
0.0
  0
LINE
  5
11A8
330
2AD6
100
AcDbEntity
  8
SIZE
  6
Continuous
 62
     0
100
AcDbLine
 10
177.5
 20
-0.0000000000000057
 30
0.0
 11
304.6432844803792
 21
-0.0000000000000417
 31
0.0
  0
LINE
  5
11A9
330
2AD6
100
AcDbEntity
  8
SIZE
  6
Continuous
 62
     0
100
AcDbLine
 10
284.6432844803791
 20
-288.0000000000001
 30
0.0
 11
284.6432844803792
 21
-12.00000000000003
 31
0.0
  0
INSERT
  5
11AA
330
2AD6
100
AcDbEntity
  8
SIZE
  6
Continuous
 62
     0
100
AcDbBlockReference
  2
_DOTBLANK
 10
284.6432844803791
 20
-300.0
 30
0.0
 41
12.0
 42
12.0
 43
12.0
 50
270.0
  0
INSERT
  5
11AB
330
2AD6
100
AcDbEntity
  8
SIZE
  6
Continuous
 62
     0
100
AcDbBlockReference
  2
_DOTBLANK
 10
284.6432844803792
 20
-0.000000000000036
 30
0.0
 41
12.0
 42
12.0
 43
12.0
 50
90.0
  0
INSERT
  5
11AC
330
2AD6
100
AcDbEntity
  8
0
100
AcDbBlockReference
  2
*U8
 10
0.0
 20
0.0
 30
0.0
  0
POINT
  5
11AD
330
2AD6
100
AcDbEntity
  8
DEFPOINTS
  6
Continuous
 62
     0
100
AcDbPoint
 10
123.5
 20
-300.0
 30
0.0
  0
POINT
  5
11AE
330
2AD6
100
AcDbEntity
  8
DEFPOINTS
  6
Continuous
 62
     0
100
AcDbPoint
 10
157.5
 20
0.0
 30
0.0
  0
POINT
  5
11AF
330
2AD6
100
AcDbEntity
  8
DEFPOINTS
  6
Continuous
 62
     0
100
AcDbPoint
 10
284.6432844803792
 20
-0.000000000000036
 30
0.0
  0
ENDBLK
  5
E11
330
2AD6
100
AcDbEntity
  8
0
100
AcDbBlockEnd
  0
BLOCK
  5
2AD9
330
2AD8
100
AcDbEntity
  8
0
100
AcDbBlockBegin
  2
*U8
 70
     1
 10
0.0
 20
0.0
 30
0.0
  3
*U8
  1

  0
TEXT
  5
1EE1
330
2AD8
100
AcDbEntity
  8
SIZE
 62
     0
100
AcDbText
 10
274.6432844803792
 20
-224.0571428571429
 30
0.0
 40
64.0
  1
300
 50
90.0
 41
0.9
100
AcDbText
  0
ENDBLK
  5
1EE3
330
2AD8
100
AcDbEntity
  8
0
100
AcDbBlockEnd
  0
BLOCK
  5
2ADB
330
2ADA
100
AcDbEntity
  8
0
100
AcDbBlockBegin
  2
*D9
 70
     1
 10
0.0
 20
0.0
 30
0.0
  3
*D9
  1

  0
LINE
  5
E7D
330
2ADA
100
AcDbEntity
  8
SIZE
 62
     0
100
AcDbLine
 10
-139.9999999999998
 20
32.46448280219375
 30
0.0
 11
-139.9999999999998
 21
136.4516878685508
 31
0.0
  0
LINE
  5
E7E
330
2ADA
100
AcDbEntity
  8
SIZE
 62
     0
100
AcDbLine
 10
140.0
 20
32.46448280219375
 30
0.0
 11
140.0
 21
136.4516878685508
 31
0.0
  0
LINE
  5
E7F
330
2ADA
100
AcDbEntity
  8
SIZE
 62
     0
100
AcDbLine
 10
-128.0
 20
116.4516878685508
 30
0.0
 11
128.0
 21
116.4516878685508
 31
0.0
  0
INSERT
  5
E80
330
2ADA
100
AcDbEntity
  8
SIZE
 62
     0
100
AcDbBlockReference
  2
_DOTBLANK
 10
-139.9999999999998
 20
116.4516878685508
 30
0.0
 41
12.0
 42
12.0
 43
12.0
 50
180.0
  0
INSERT
  5
E81
330
2ADA
100
AcDbEntity
  8
SIZE
 62
     0
100
AcDbBlockReference
  2
_DOTBLANK
 10
140.0
 20
116.4516878685508
 30
0.0
 41
12.0
 42
12.0
 43
12.0
  0
INSERT
  5
E82
330
2ADA
100
AcDbEntity
  8
0
100
AcDbBlockReference
  2
*U10
 10
0.0
 20
0.0
 30
0.0
  0
POINT
  5
E83
330
2ADA
100
AcDbEntity
  8
DEFPOINTS
 62
     0
100
AcDbPoint
 10
-139.9999999999998
 20
12.46448280219374
 30
0.0
  0
POINT
  5
E84
330
2ADA
100
AcDbEntity
  8
DEFPOINTS
 62
     0
100
AcDbPoint
 10
140.0
 20
12.46448280219374
 30
0.0
  0
POINT
  5
E85
330
2ADA
100
AcDbEntity
  8
DEFPOINTS
 62
     0
100
AcDbPoint
 10
140.0
 20
116.4516878685508
 30
0.0
  0
ENDBLK
  5
E7C
330
2ADA
100
AcDbEntity
  8
0
100
AcDbBlockEnd
  0
BLOCK
  5
2ADD
330
2ADC
100
AcDbEntity
  8
0
100
AcDbBlockBegin
  2
*U10
 70
     1
 10
0.0
 20
0.0
 30
0.0
  3
*U10
  1

  0
TEXT
  5
1ED8
330
2ADC
100
AcDbEntity
  8
SIZE
 62
     0
100
AcDbText
 10
-74.05714285714281
 20
126.4516878685508
 30
0.0
 40
64.0
  1
280
 41
0.9
100
AcDbText
  0
ENDBLK
  5
1EDA
330
2ADC
100
AcDbEntity
  8
0
100
AcDbBlockEnd
  0
BLOCK
  5
2ADF
330
2ADE
100
AcDbEntity
  8
0
100
AcDbBlockBegin
  2
GENAXEH
 70
     0
 10
0.0
 20
0.0
 30
0.0
  3
GENAXEH
  1

  0
LINE
  5
FDB
330
2ADE
100
AcDbEntity
  8
0
100
AcDbLine
 10
-1.0
 20
0.0
 30
0.0
 11
1.0
 21
0.0
 31
0.0
  0
ENDBLK
  5
FDD
330
2ADE
100
AcDbEntity
  8
0
100
AcDbBlockEnd
  0
BLOCK
  5
2AE1
330
2AE0
100
AcDbEntity
  8
0
100
AcDbBlockBegin
  2
*D12
 70
     1
 10
0.0
 20
0.0
 30
0.0
  3
*D12
  1

  0
LINE
  5
1120
330
2AE0
100
AcDbEntity
  8
SIZE
 62
     0
100
AcDbLine
 10
-157.5
 20
20.0
 30
0.0
 11
-157.5
 21
245.5794621189598
 31
0.0
  0
LINE
  5
1121
330
2AE0
100
AcDbEntity
  8
SIZE
 62
     0
100
AcDbLine
 10
157.5
 20
20.0
 30
0.0
 11
157.5
 21
245.5794621189598
 31
0.0
  0
LINE
  5
1122
330
2AE0
100
AcDbEntity
  8
SIZE
 62
     0
100
AcDbLine
 10
-145.5
 20
225.5794621189598
 30
0.0
 11
145.5
 21
225.5794621189598
 31
0.0
  0
INSERT
  5
1123
330
2AE0
100
AcDbEntity
  8
SIZE
 62
     0
100
AcDbBlockReference
  2
_DOTBLANK
 10
-157.5
 20
225.5794621189598
 30
0.0
 41
12.0
 42
12.0
 43
12.0
 50
180.0
  0
INSERT
  5
1124
330
2AE0
100
AcDbEntity
  8
SIZE
 62
     0
100
AcDbBlockReference
  2
_DOTBLANK
 10
157.5
 20
225.5794621189598
 30
0.0
 41
12.0
 42
12.0
 43
12.0
  0
INSERT
  5
1125
330
2AE0
100
AcDbEntity
  8
0
100
AcDbBlockReference
  2
*U13
 10
0.0
 20
0.0
 30
0.0
  0
POINT
  5
1126
330
2AE0
100
AcDbEntity
  8
DEFPOINTS
 62
     0
100
AcDbPoint
 10
-157.5
 20
0.0
 30
0.0
  0
POINT
  5
1127
330
2AE0
100
AcDbEntity
  8
DEFPOINTS
 62
     0
100
AcDbPoint
 10
157.5
 20
0.0
 30
0.0
  0
POINT
  5
1128
330
2AE0
100
AcDbEntity
  8
DEFPOINTS
 62
     0
100
AcDbPoint
 10
157.5
 20
225.5794621189598
 30
0.0
  0
ENDBLK
  5
111F
330
2AE0
100
AcDbEntity
  8
0
100
AcDbBlockEnd
  0
BLOCK
  5
2AE3
330
2AE2
100
AcDbEntity
  8
0
100
AcDbBlockBegin
  2
*U13
 70
     1
 10
0.0
 20
0.0
 30
0.0
  3
*U13
  1

  0
TEXT
  5
1EDD
330
2AE2
100
AcDbEntity
  8
SIZE
 62
     0
100
AcDbText
 10
-68.57142857142857
 20
235.5794621189599
 30
0.0
 40
64.0
  1
315
 41
0.9
100
AcDbText
  0
ENDBLK
  5
1EDF
330
2AE2
100
AcDbEntity
  8
0
100
AcDbBlockEnd
  0
BLOCK
  5
2AE5
330
2AE4
100
AcDbEntity
  8
0
100
AcDbBlockBegin
  2
*D14
 70
     1
 10
0.0
 20
0.0
 30
0.0
  3
*D14
  1

  0
LINE
  5
11BD
330
2AE4
100
AcDbEntity
  8
NOTE
 62
     0
100
AcDbLine
 10
-123.4999999999999
 20
-320.0
 30
0.0
 11
-123.4999999999999
 21
-354.9529861856111
 31
0.0
  0
LINE
  5
11BE
330
2AE4
100
AcDbEntity
  8
NOTE
 62
     0
100
AcDbLine
 10
-133.4999999999998
 20
-331.2126909923287
 30
0.0
 11
-133.4999999999998
 21
-354.9529861856111
 31
0.0
  0
LINE
  5
11BF
330
2AE4
100
AcDbEntity
  8
NOTE
 62
     0
100
AcDbLine
 10
-111.4999999999999
 20
-334.9529861856112
 30
0.0
 11
-99.4999999999999
 21
-334.9529861856112
 31
0.0
  0
LINE
  5
11C0
330
2AE4
100
AcDbEntity
  8
NOTE
 62
     0
100
AcDbLine
 10
-145.4999999999998
 20
-334.9529861856112
 30
0.0
 11
-157.4999999999998
 21
-334.9529861856112
 31
0.0
  0
LINE
  5
11C1
330
2AE4
100
AcDbEntity
  8
NOTE
 62
     0
100
AcDbLine
 10
-123.4999999999999
 20
-334.9529861856112
 30
0.0
 11
-133.4999999999998
 21
-334.9529861856112
 31
0.0
  0
INSERT
  5
11C2
330
2AE4
100
AcDbEntity
  8
NOTE
 62
     0
100
AcDbBlockReference
  2
_DOTBLANK
 10
-123.4999999999999
 20
-334.9529861856112
 30
0.0
 41
12.0
 42
12.0
 43
12.0
 50
180.0
  0
INSERT
  5
11C3
330
2AE4
100
AcDbEntity
  8
NOTE
 62
     0
100
AcDbBlockReference
  2
_DOTBLANK
 10
-133.4999999999998
 20
-334.9529861856112
 30
0.0
 41
12.0
 42
12.0
 43
12.0
  0
INSERT
  5
11C4
330
2AE4
100
AcDbEntity
  8
0
100
AcDbBlockReference
  2
*U15
 10
0.0
 20
0.0
 30
0.0
  0
POINT
  5
11C5
330
2AE4
100
AcDbEntity
  8
DEFPOINTS
 62
     0
100
AcDbPoint
 10
-123.4999999999999
 20
-300.0
 30
0.0
  0
POINT
  5
11C6
330
2AE4
100
AcDbEntity
  8
DEFPOINTS
 62
     0
100
AcDbPoint
 10
-133.4999999999998
 20
-311.2126909923287
 30
0.0
  0
POINT
  5
11C7
330
2AE4
100
AcDbEntity
  8
DEFPOINTS
 62
     0
100
AcDbPoint
 10
-133.4999999999998
 20
-334.9529861856112
 30
0.0
  0
ENDBLK
  5
11BC
330
2AE4
100
AcDbEntity
  8
0
100
AcDbBlockEnd
  0
BLOCK
  5
2AE7
330
2AE6
100
AcDbEntity
  8
0
100
AcDbBlockBegin
  2
*U15
 70
     1
 10
0.0
 20
0.0
 30
0.0
  3
*U15
  1

  0
TEXT
  5
1EE5
330
2AE6
100
AcDbEntity
  8
NOTE
 62
     0
100
AcDbText
 10
-169.642857142857
 20
-324.9529861856112
 30
0.0
 40
64.0
  1
10
 41
0.9
100
AcDbText
  0
ENDBLK
  5
1EE7
330
2AE6
100
AcDbEntity
  8
0
100
AcDbBlockEnd
  0
BLOCK
  5
2AE9
330
2AE8
100
AcDbEntity
  8
0
100
AcDbBlockBegin
  2
*D16
 70
     1
 10
0.0
 20
0.0
 30
0.0
  3
*D16
  1

  0
LINE
  5
11E7
330
2AE8
100
AcDbEntity
  8
NOTE
 62
     0
100
AcDbLine
 10
-135.5
 20
-333.2126909923287
 30
0.0
 11
-135.5
 21
-386.2569421441843
 31
0.0
  0
LINE
  5
11E8
330
2AE8
100
AcDbEntity
  8
NOTE
 62
     0
100
AcDbLine
 10
-123.4999999999999
 20
-320.0
 30
0.0
 11
-123.4999999999999
 21
-386.2569421441843
 31
0.0
  0
LINE
  5
11E9
330
2AE8
100
AcDbEntity
  8
NOTE
 62
     0
100
AcDbLine
 10
-147.5
 20
-366.2569421441844
 30
0.0
 11
-159.5
 21
-366.2569421441844
 31
0.0
  0
LINE
  5
11EA
330
2AE8
100
AcDbEntity
  8
NOTE
 62
     0
100
AcDbLine
 10
-111.4999999999999
 20
-366.2569421441844
 30
0.0
 11
-99.4999999999999
 21
-366.2569421441844
 31
0.0
  0
LINE
  5
11EB
330
2AE8
100
AcDbEntity
  8
NOTE
 62
     0
100
AcDbLine
 10
-135.5
 20
-366.2569421441844
 30
0.0
 11
-123.4999999999999
 21
-366.2569421441844
 31
0.0
  0
INSERT
  5
11EC
330
2AE8
100
AcDbEntity
  8
NOTE
 62
     0
100
AcDbBlockReference
  2
_DOTBLANK
 10
-135.5
 20
-366.2569421441844
 30
0.0
 41
12.0
 42
12.0
 43
12.0
  0
INSERT
  5
11ED
330
2AE8
100
AcDbEntity
  8
NOTE
 62
     0
100
AcDbBlockReference
  2
_DOTBLANK
 10
-123.4999999999999
 20
-366.2569421441844
 30
0.0
 41
12.0
 42
12.0
 43
12.0
 50
180.0
  0
INSERT
  5
11EE
330
2AE8
100
AcDbEntity
  8
0
100
AcDbBlockReference
  2
*U17
 10
0.0
 20
0.0
 30
0.0
  0
POINT
  5
11EF
330
2AE8
100
AcDbEntity
  8
DEFPOINTS
 62
     0
100
AcDbPoint
 10
-135.5
 20
-313.2126909923287
 30
0.0
  0
POINT
  5
11F0
330
2AE8
100
AcDbEntity
  8
DEFPOINTS
 62
     0
100
AcDbPoint
 10
-123.4999999999999
 20
-300.0
 30
0.0
  0
POINT
  5
11F1
330
2AE8
100
AcDbEntity
  8
DEFPOINTS
 62
     0
100
AcDbPoint
 10
-123.4999999999999
 20
-366.2569421441844
 30
0.0
  0
ENDBLK
  5
11E6
330
2AE8
100
AcDbEntity
  8
0
100
AcDbBlockEnd
  0
BLOCK
  5
2AEB
330
2AEA
100
AcDbEntity
  8
0
100
AcDbBlockBegin
  2
*U17
 70
     1
 10
0.0
 20
0.0
 30
0.0
  3
*U17
  1

  0
TEXT
  5
1EE9
330
2AEA
100
AcDbEntity
  8
NOTE
 62
     0
100
AcDbText
 10
-170.642857142857
 20
-356.2569421441843
 30
0.0
 40
64.0
  1
12
 41
0.9
100
AcDbText
  0
ENDBLK
  5
1EEB
330
2AEA
100
AcDbEntity
  8
0
100
AcDbBlockEnd
  0
BLOCK
  5
2AED
330
2AEC
100
AcDbEntity
  8
0
100
AcDbBlockBegin
  2
*D18
 70
     1
 10
0.0
 20
0.0
 30
0.0
  3
*D18
  1

  0
LINE
  5
11F6
330
2AEC
100
AcDbEntity
  8
NOTE
 62
     0
100
AcDbLine
 10
-123.4999999999999
 20
-320.0
 30
0.0
 11
-123.4999999999999
 21
-583.8286022818904
 31
0.0
  0
LINE
  5
11F7
330
2AEC
100
AcDbEntity
  8
NOTE
 62
     0
100
AcDbLine
 10
123.5
 20
-320.0
 30
0.0
 11
123.5
 21
-583.8286022818904
 31
0.0
  0
LINE
  5
11F8
330
2AEC
100
AcDbEntity
  8
NOTE
 62
     0
100
AcDbLine
 10
-111.4999999999999
 20
-563.8286022818904
 30
0.0
 11
111.5
 21
-563.8286022818904
 31
0.0
  0
INSERT
  5
11F9
330
2AEC
100
AcDbEntity
  8
NOTE
 62
     0
100
AcDbBlockReference
  2
_DOTBLANK
 10
-123.4999999999999
 20
-563.8286022818904
 30
0.0
 41
12.0
 42
12.0
 43
12.0
 50
180.0
  0
INSERT
  5
11FA
330
2AEC
100
AcDbEntity
  8
NOTE
 62
     0
100
AcDbBlockReference
  2
_DOTBLANK
 10
123.5
 20
-563.8286022818904
 30
0.0
 41
12.0
 42
12.0
 43
12.0
  0
INSERT
  5
11FB
330
2AEC
100
AcDbEntity
  8
0
100
AcDbBlockReference
  2
*U19
 10
0.0
 20
0.0
 30
0.0
  0
POINT
  5
11FC
330
2AEC
100
AcDbEntity
  8
DEFPOINTS
 62
     0
100
AcDbPoint
 10
-123.4999999999999
 20
-300.0
 30
0.0
  0
POINT
  5
11FD
330
2AEC
100
AcDbEntity
  8
DEFPOINTS
 62
     0
100
AcDbPoint
 10
123.5
 20
-300.0
 30
0.0
  0
POINT
  5
11FE
330
2AEC
100
AcDbEntity
  8
DEFPOINTS
 62
     0
100
AcDbPoint
 10
123.5
 20
-563.8286022818904
 30
0.0
  0
ENDBLK
  5
11F5
330
2AEC
100
AcDbEntity
  8
0
100
AcDbBlockEnd
  0
BLOCK
  5
2AEF
330
2AEE
100
AcDbEntity
  8
0
100
AcDbBlockBegin
  2
*U19
 70
     1
 10
0.0
 20
0.0
 30
0.0
  3
*U19
  1

  0
TEXT
  5
1EED
330
2AEE
100
AcDbEntity
  8
NOTE
 62
     0
100
AcDbText
 10
-74.05714285714281
 20
-553.8286022818904
 30
0.0
 40
64.0
  1
247
 41
0.9
100
AcDbText
  0
ENDBLK
  5
1EEF
330
2AEE
100
AcDbEntity
  8
0
100
AcDbBlockEnd
  0
BLOCK
  5
2AF1
330
2AF0
100
AcDbEntity
  8
0
100
AcDbBlockBegin
  2
*D20
 70
     1
 10
0.0
 20
0.0
 30
0.0
  3
*D20
  1

  0
LINE
  5
1284
330
2AF0
100
AcDbEntity
  8
NOTE
 62
     0
100
AcDbLine
 10
-123.5
 20
12.0
 30
0.0
 11
-123.5
 21
71.83630134534229
 31
0.0
  0
LINE
  5
1285
330
2AF0
100
AcDbEntity
  8
NOTE
 62
     0
100
AcDbLine
 10
123.5
 20
12.0
 30
0.0
 11
123.5
 21
71.83630134534229
 31
0.0
  0
LINE
  5
1286
330
2AF0
100
AcDbEntity
  8
NOTE
 62
     0
100
AcDbLine
 10
-111.5
 20
51.83630134534229
 30
0.0
 11
111.5
 21
51.83630134534229
 31
0.0
  0
INSERT
  5
1287
330
2AF0
100
AcDbEntity
  8
NOTE
 62
     0
100
AcDbBlockReference
  2
_DOTBLANK
 10
-123.5
 20
51.83630134534229
 30
0.0
 41
12.0
 42
12.0
 43
12.0
 50
180.0
  0
INSERT
  5
1288
330
2AF0
100
AcDbEntity
  8
NOTE
 62
     0
100
AcDbBlockReference
  2
_DOTBLANK
 10
123.5
 20
51.83630134534229
 30
0.0
 41
12.0
 42
12.0
 43
12.0
  0
INSERT
  5
1289
330
2AF0
100
AcDbEntity
  8
0
100
AcDbBlockReference
  2
*U21
 10
0.0
 20
0.0
 30
0.0
  0
POINT
  5
128A
330
2AF0
100
AcDbEntity
  8
DEFPOINTS
 62
     0
100
AcDbPoint
 10
-123.5
 20
-8.0
 30
0.0
  0
POINT
  5
128B
330
2AF0
100
AcDbEntity
  8
DEFPOINTS
 62
     0
100
AcDbPoint
 10
123.5
 20
-8.0
 30
0.0
  0
POINT
  5
128C
330
2AF0
100
AcDbEntity
  8
DEFPOINTS
 62
     0
100
AcDbPoint
 10
123.5
 20
51.83630134534229
 30
0.0
  0
ENDBLK
  5
1283
330
2AF0
100
AcDbEntity
  8
0
100
AcDbBlockEnd
  0
BLOCK
  5
2AF3
330
2AF2
100
AcDbEntity
  8
0
100
AcDbBlockBegin
  2
*U21
 70
     1
 10
0.0
 20
0.0
 30
0.0
  3
*U21
  1

  0
TEXT
  5
1EF1
330
2AF2
100
AcDbEntity
  8
NOTE
 62
     0
100
AcDbText
 10
-74.05714285714283
 20
61.83630134534229
 30
0.0
 40
64.0
  1
247
 41
0.9
100
AcDbText
  0
ENDBLK
  5
1EF3
330
2AF2
100
AcDbEntity
  8
0
100
AcDbBlockEnd
  0
BLOCK
  5
2AF5
330
2AF4
100
AcDbEntity
  8
0
100
AcDbBlockBegin
  2
*D22
 70
     1
 10
0.0
 20
0.0
 30
0.0
  3
*D22
  1

  0
LINE
  5
1414
330
2AF4
100
AcDbEntity
  8
SIZE
 62
     0
100
AcDbLine
 10
-22313.11521613997
 20
7365.702971374808
 30
0.0
 11
-22313.11521613997
 21
7217.685576144207
 31
0.0
  0
LINE
  5
1415
330
2AF4
100
AcDbEntity
  8
SIZE
 62
     0
100
AcDbLine
 10
-22044.11521613997
 20
7365.702971374808
 30
0.0
 11
-22044.11521613997
 21
7217.685576144207
 31
0.0
  0
LINE
  5
1416
330
2AF4
100
AcDbEntity
  8
SIZE
 62
     0
100
AcDbLine
 10
-22301.11521613997
 20
7237.685576144207
 30
0.0
 11
-22056.11521613997
 21
7237.685576144207
 31
0.0
  0
INSERT
  5
1417
330
2AF4
100
AcDbEntity
  8
SIZE
 62
     0
100
AcDbBlockReference
  2
_DOTBLANK
 10
-22313.11521613997
 20
7237.685576144207
 30
0.0
 41
12.0
 42
12.0
 43
12.0
 50
180.0
  0
INSERT
  5
1418
330
2AF4
100
AcDbEntity
  8
SIZE
 62
     0
100
AcDbBlockReference
  2
_DOTBLANK
 10
-22044.11521613997
 20
7237.685576144207
 30
0.0
 41
12.0
 42
12.0
 43
12.0
  0
INSERT
  5
1419
330
2AF4
100
AcDbEntity
  8
0
100
AcDbBlockReference
  2
*U23
 10
0.0
 20
0.0
 30
0.0
  0
POINT
  5
141A
330
2AF4
100
AcDbEntity
  8
DEFPOINTS
 62
     0
100
AcDbPoint
 10
-22313.11521613997
 20
7385.702971374808
 30
0.0
  0
POINT
  5
141B
330
2AF4
100
AcDbEntity
  8
DEFPOINTS
 62
     0
100
AcDbPoint
 10
-22044.11521613997
 20
7385.702971374808
 30
0.0
  0
POINT
  5
141C
330
2AF4
100
AcDbEntity
  8
DEFPOINTS
 62
     0
100
AcDbPoint
 10
-22044.11521613997
 20
7237.685576144207
 30
0.0
  0
ENDBLK
  5
141D
330
2AF4
100
AcDbEntity
  8
0
100
AcDbBlockEnd
  0
BLOCK
  5
2AF7
330
2AF6
100
AcDbEntity
  8
0
100
AcDbBlockBegin
  2
*U23
 70
     1
 10
0.0
 20
0.0
 30
0.0
  3
*U23
  1

  0
TEXT
  5
1EF9
330
2AF6
100
AcDbEntity
  8
SIZE
 62
     0
100
AcDbText
 10
-22251.30093042568
 20
7247.685576144205
 30
0.0
 40
64.0
  1
269
 41
0.9
100
AcDbText
  0
ENDBLK
  5
1EFB
330
2AF6
100
AcDbEntity
  8
0
100
AcDbBlockEnd
  0
BLOCK
  5
2AF9
330
2AF8
100
AcDbEntity
  8
0
100
AcDbBlockBegin
  2
*D24
 70
     1
 10
0.0
 20
0.0
 30
0.0
  3
*D24
  1

  0
LINE
  5
1420
330
2AF8
100
AcDbEntity
  8
SIZE
  6
Continuous
 62
     0
100
AcDbLine
 10
-22035.11521613997
 20
7385.702971374808
 30
0.0
 11
-21873.97193165959
 21
7385.702971374808
 31
0.0
  0
LINE
  5
1421
330
2AF8
100
AcDbEntity
  8
SIZE
  6
Continuous
 62
     0
100
AcDbLine
 10
-22001.11521613997
 20
7685.702971374808
 30
0.0
 11
-21873.97193165959
 21
7685.702971374808
 31
0.0
  0
LINE
  5
1422
330
2AF8
100
AcDbEntity
  8
SIZE
  6
Continuous
 62
     0
100
AcDbLine
 10
-21893.97193165959
 20
7397.702971374808
 30
0.0
 11
-21893.97193165959
 21
7673.702971374808
 31
0.0
  0
INSERT
  5
1423
330
2AF8
100
AcDbEntity
  8
SIZE
  6
Continuous
 62
     0
100
AcDbBlockReference
  2
_DOTBLANK
 10
-21893.97193165959
 20
7385.702971374808
 30
0.0
 41
12.0
 42
12.0
 43
12.0
 50
270.0
  0
INSERT
  5
1424
330
2AF8
100
AcDbEntity
  8
SIZE
  6
Continuous
 62
     0
100
AcDbBlockReference
  2
_DOTBLANK
 10
-21893.97193165959
 20
7685.702971374808
 30
0.0
 41
12.0
 42
12.0
 43
12.0
 50
90.0
  0
INSERT
  5
1425
330
2AF8
100
AcDbEntity
  8
0
100
AcDbBlockReference
  2
*U25
 10
0.0
 20
0.0
 30
0.0
  0
POINT
  5
1426
330
2AF8
100
AcDbEntity
  8
DEFPOINTS
  6
Continuous
 62
     0
100
AcDbPoint
 10
-22055.11521613997
 20
7385.702971374808
 30
0.0
  0
POINT
  5
1427
330
2AF8
100
AcDbEntity
  8
DEFPOINTS
  6
Continuous
 62
     0
100
AcDbPoint
 10
-22021.11521613997
 20
7685.702971374808
 30
0.0
  0
POINT
  5
1428
330
2AF8
100
AcDbEntity
  8
DEFPOINTS
  6
Continuous
 62
     0
100
AcDbPoint
 10
-21893.97193165959
 20
7685.702971374808
 30
0.0
  0
ENDBLK
  5
1429
330
2AF8
100
AcDbEntity
  8
0
100
AcDbBlockEnd
  0
BLOCK
  5
2AFB
330
2AFA
100
AcDbEntity
  8
0
100
AcDbBlockBegin
  2
*U25
 70
     1
 10
0.0
 20
0.0
 30
0.0
  3
*U25
  1

  0
TEXT
  5
1EFD
330
2AFA
100
AcDbEntity
  8
SIZE
 62
     0
100
AcDbText
 10
-21903.97193165959
 20
7461.645828517662
 30
0.0
 40
64.0
  1
300
 50
90.0
 41
0.9
100
AcDbText
  0
ENDBLK
  5
1EFF
330
2AFA
100
AcDbEntity
  8
0
100
AcDbBlockEnd
  0
BLOCK
  5
2AFD
330
2AFC
100
AcDbEntity
  8
0
100
AcDbBlockBegin
  2
*D26
 70
     1
 10
0.0
 20
0.0
 30
0.0
  3
*D26
  1

  0
LINE
  5
142C
330
2AFC
100
AcDbEntity
  8
SIZE
 62
     0
100
AcDbLine
 10
-22318.61521613997
 20
7718.167454177002
 30
0.0
 11
-22318.61521613997
 21
7822.154659243358
 31
0.0
  0
LINE
  5
142D
330
2AFC
100
AcDbEntity
  8
SIZE
 62
     0
100
AcDbLine
 10
-22038.61521613997
 20
7718.167454177002
 30
0.0
 11
-22038.61521613997
 21
7822.154659243358
 31
0.0
  0
LINE
  5
142E
330
2AFC
100
AcDbEntity
  8
SIZE
 62
     0
100
AcDbLine
 10
-22306.61521613997
 20
7802.154659243358
 30
0.0
 11
-22050.61521613997
 21
7802.154659243358
 31
0.0
  0
INSERT
  5
142F
330
2AFC
100
AcDbEntity
  8
SIZE
 62
     0
100
AcDbBlockReference
  2
_DOTBLANK
 10
-22318.61521613997
 20
7802.154659243358
 30
0.0
 41
12.0
 42
12.0
 43
12.0
 50
180.0
  0
INSERT
  5
1430
330
2AFC
100
AcDbEntity
  8
SIZE
 62
     0
100
AcDbBlockReference
  2
_DOTBLANK
 10
-22038.61521613997
 20
7802.154659243358
 30
0.0
 41
12.0
 42
12.0
 43
12.0
  0
INSERT
  5
1431
330
2AFC
100
AcDbEntity
  8
0
100
AcDbBlockReference
  2
*U27
 10
0.0
 20
0.0
 30
0.0
  0
POINT
  5
1432
330
2AFC
100
AcDbEntity
  8
DEFPOINTS
 62
     0
100
AcDbPoint
 10
-22318.61521613997
 20
7698.167454177002
 30
0.0
  0
POINT
  5
1433
330
2AFC
100
AcDbEntity
  8
DEFPOINTS
 62
     0
100
AcDbPoint
 10
-22038.61521613997
 20
7698.167454177002
 30
0.0
  0
POINT
  5
1434
330
2AFC
100
AcDbEntity
  8
DEFPOINTS
 62
     0
100
AcDbPoint
 10
-22038.61521613997
 20
7802.154659243358
 30
0.0
  0
ENDBLK
  5
1435
330
2AFC
100
AcDbEntity
  8
0
100
AcDbBlockEnd
  0
BLOCK
  5
2AFF
330
2AFE
100
AcDbEntity
  8
0
100
AcDbBlockBegin
  2
*U27
 70
     1
 10
0.0
 20
0.0
 30
0.0
  3
*U27
  1

  0
TEXT
  5
1F01
330
2AFE
100
AcDbEntity
  8
SIZE
 62
     0
100
AcDbText
 10
-22252.6723589971
 20
7812.154659243358
 30
0.0
 40
64.0
  1
280
 41
0.9
100
AcDbText
  0
ENDBLK
  5
1F03
330
2AFE
100
AcDbEntity
  8
0
100
AcDbBlockEnd
  0
BLOCK
  5
2B01
330
2B00
100
AcDbEntity
  8
0
100
AcDbBlockBegin
  2
*D28
 70
     1
 10
0.0
 20
0.0
 30
0.0
  3
*D28
  1

  0
LINE
  5
1438
330
2B00
100
AcDbEntity
  8
SIZE
 62
     0
100
AcDbLine
 10
-22336.11521613997
 20
7705.702971374808
 30
0.0
 11
-22336.11521613997
 21
7931.282433493766
 31
0.0
  0
LINE
  5
1439
330
2B00
100
AcDbEntity
  8
SIZE
 62
     0
100
AcDbLine
 10
-22021.11521613997
 20
7705.702971374808
 30
0.0
 11
-22021.11521613997
 21
7931.282433493766
 31
0.0
  0
LINE
  5
143A
330
2B00
100
AcDbEntity
  8
SIZE
 62
     0
100
AcDbLine
 10
-22324.11521613997
 20
7911.282433493766
 30
0.0
 11
-22033.11521613997
 21
7911.282433493766
 31
0.0
  0
INSERT
  5
143B
330
2B00
100
AcDbEntity
  8
SIZE
 62
     0
100
AcDbBlockReference
  2
_DOTBLANK
 10
-22336.11521613997
 20
7911.282433493766
 30
0.0
 41
12.0
 42
12.0
 43
12.0
 50
180.0
  0
INSERT
  5
143C
330
2B00
100
AcDbEntity
  8
SIZE
 62
     0
100
AcDbBlockReference
  2
_DOTBLANK
 10
-22021.11521613997
 20
7911.282433493766
 30
0.0
 41
12.0
 42
12.0
 43
12.0
  0
INSERT
  5
143D
330
2B00
100
AcDbEntity
  8
0
100
AcDbBlockReference
  2
*U29
 10
0.0
 20
0.0
 30
0.0
  0
POINT
  5
143E
330
2B00
100
AcDbEntity
  8
DEFPOINTS
 62
     0
100
AcDbPoint
 10
-22336.11521613997
 20
7685.702971374808
 30
0.0
  0
POINT
  5
143F
330
2B00
100
AcDbEntity
  8
DEFPOINTS
 62
     0
100
AcDbPoint
 10
-22021.11521613997
 20
7685.702971374808
 30
0.0
  0
POINT
  5
1440
330
2B00
100
AcDbEntity
  8
DEFPOINTS
 62
     0
100
AcDbPoint
 10
-22021.11521613997
 20
7911.282433493766
 30
0.0
  0
ENDBLK
  5
1441
330
2B00
100
AcDbEntity
  8
0
100
AcDbBlockEnd
  0
BLOCK
  5
2B03
330
2B02
100
AcDbEntity
  8
0
100
AcDbBlockBegin
  2
*U29
 70
     1
 10
0.0
 20
0.0
 30
0.0
  3
*U29
  1

  0
TEXT
  5
1F05
330
2B02
100
AcDbEntity
  8
SIZE
 62
     0
100
AcDbText
 10
-22247.18664471139
 20
7921.282433493766
 30
0.0
 40
64.0
  1
315
 41
0.9
100
AcDbText
  0
ENDBLK
  5
1F07
330
2B02
100
AcDbEntity
  8
0
100
AcDbBlockEnd
  0
BLOCK
  5
2B05
330
2B04
100
AcDbEntity
  8
0
100
AcDbBlockBegin
  2
*D30
 70
     1
 10
0.0
 20
0.0
 30
0.0
  3
*D30
  1

  0
LINE
  5
166B
330
2B04
100
AcDbEntity
  8
SIZE
 62
     0
100
AcDbLine
 10
-134.5
 20
-320.0
 30
0.0
 11
-134.5
 21
-468.0173952306001
 31
0.0
  0
LINE
  5
166C
330
2B04
100
AcDbEntity
  8
SIZE
 62
     0
100
AcDbLine
 10
134.5
 20
-320.0
 30
0.0
 11
134.5
 21
-468.0173952306001
 31
0.0
  0
LINE
  5
166D
330
2B04
100
AcDbEntity
  8
SIZE
 62
     0
100
AcDbLine
 10
-122.5
 20
-448.0173952306
 30
0.0
 11
122.5
 21
-448.0173952306
 31
0.0
  0
INSERT
  5
166E
330
2B04
100
AcDbEntity
  8
SIZE
 62
     0
100
AcDbBlockReference
  2
_DOTBLANK
 10
-134.5
 20
-448.0173952306
 30
0.0
 41
12.0
 42
12.0
 43
12.0
 50
180.0
  0
INSERT
  5
166F
330
2B04
100
AcDbEntity
  8
SIZE
 62
     0
100
AcDbBlockReference
  2
_DOTBLANK
 10
134.5
 20
-448.0173952306
 30
0.0
 41
12.0
 42
12.0
 43
12.0
  0
INSERT
  5
1670
330
2B04
100
AcDbEntity
  8
0
100
AcDbBlockReference
  2
*U31
 10
0.0
 20
0.0
 30
0.0
  0
POINT
  5
1671
330
2B04
100
AcDbEntity
  8
DEFPOINTS
 62
     0
100
AcDbPoint
 10
-134.5
 20
-300.0
 30
0.0
  0
POINT
  5
1672
330
2B04
100
AcDbEntity
  8
DEFPOINTS
 62
     0
100
AcDbPoint
 10
134.5
 20
-300.0
 30
0.0
  0
POINT
  5
1673
330
2B04
100
AcDbEntity
  8
DEFPOINTS
 62
     0
100
AcDbPoint
 10
134.5
 20
-448.0173952306
 30
0.0
  0
ENDBLK
  5
14A7
330
2B04
100
AcDbEntity
  8
0
100
AcDbBlockEnd
  0
BLOCK
  5
2B07
330
2B06
100
AcDbEntity
  8
0
100
AcDbBlockBegin
  2
*U31
 70
     1
 10
0.0
 20
0.0
 30
0.0
  3
*U31
  1

  0
TEXT
  5
1F09
330
2B06
100
AcDbEntity
  8
SIZE
 62
     0
100
AcDbText
 10
-72.68571428571426
 20
-438.0173952306002
 30
0.0
 40
64.0
  1
269
 41
0.9
100
AcDbText
  0
ENDBLK
  5
1F0B
330
2B06
100
AcDbEntity
  8
0
100
AcDbBlockEnd
  0
BLOCK
  5
2B09
330
2B08
100
AcDbEntity
  8
0
100
AcDbBlockBegin
  2
*D32
 70
     1
 10
0.0
 20
0.0
 30
0.0
  3
*D32
  1

  0
LINE
  5
1674
330
2B08
100
AcDbEntity
  8
SIZE
  6
Continuous
 62
     0
100
AcDbLine
 10
143.5
 20
-300.0
 30
0.0
 11
304.6432844803784
 21
-300.0
 31
0.0
  0
LINE
  5
1675
330
2B08
100
AcDbEntity
  8
SIZE
  6
Continuous
 62
     0
100
AcDbLine
 10
177.5
 20
-0.0000000000000057
 30
0.0
 11
304.6432844803785
 21
-0.0000000000000417
 31
0.0
  0
LINE
  5
1676
330
2B08
100
AcDbEntity
  8
SIZE
  6
Continuous
 62
     0
100
AcDbLine
 10
284.6432844803784
 20
-288.0000000000001
 30
0.0
 11
284.6432844803785
 21
-12.00000000000003
 31
0.0
  0
INSERT
  5
1677
330
2B08
100
AcDbEntity
  8
SIZE
  6
Continuous
 62
     0
100
AcDbBlockReference
  2
_DOTBLANK
 10
284.6432844803784
 20
-300.0
 30
0.0
 41
12.0
 42
12.0
 43
12.0
 50
270.0
  0
INSERT
  5
1678
330
2B08
100
AcDbEntity
  8
SIZE
  6
Continuous
 62
     0
100
AcDbBlockReference
  2
_DOTBLANK
 10
284.6432844803785
 20
-0.000000000000036
 30
0.0
 41
12.0
 42
12.0
 43
12.0
 50
90.0
  0
INSERT
  5
1679
330
2B08
100
AcDbEntity
  8
0
100
AcDbBlockReference
  2
*U33
 10
0.0
 20
0.0
 30
0.0
  0
POINT
  5
167A
330
2B08
100
AcDbEntity
  8
DEFPOINTS
  6
Continuous
 62
     0
100
AcDbPoint
 10
123.5
 20
-300.0
 30
0.0
  0
POINT
  5
167B
330
2B08
100
AcDbEntity
  8
DEFPOINTS
  6
Continuous
 62
     0
100
AcDbPoint
 10
157.5
 20
0.0
 30
0.0
  0
POINT
  5
167C
330
2B08
100
AcDbEntity
  8
DEFPOINTS
  6
Continuous
 62
     0
100
AcDbPoint
 10
284.6432844803785
 20
-0.000000000000036
 30
0.0
  0
ENDBLK
  5
14B3
330
2B08
100
AcDbEntity
  8
0
100
AcDbBlockEnd
  0
BLOCK
  5
2B0B
330
2B0A
100
AcDbEntity
  8
0
100
AcDbBlockBegin
  2
*U33
 70
     1
 10
0.0
 20
0.0
 30
0.0
  3
*U33
  1

  0
TEXT
  5
1F0D
330
2B0A
100
AcDbEntity
  8
SIZE
 62
     0
100
AcDbText
 10
274.6432844803785
 20
-224.0571428571429
 30
0.0
 40
64.0
  1
300
 50
90.0
 41
0.9
100
AcDbText
  0
ENDBLK
  5
1F0F
330
2B0A
100
AcDbEntity
  8
0
100
AcDbBlockEnd
  0
BLOCK
  5
2B0D
330
2B0C
100
AcDbEntity
  8
0
100
AcDbBlockBegin
  2
*D34
 70
     1
 10
0.0
 20
0.0
 30
0.0
  3
*D34
  1

  0
LINE
  5
167D
330
2B0C
100
AcDbEntity
  8
SIZE
 62
     0
100
AcDbLine
 10
-140.0
 20
32.46448280219375
 30
0.0
 11
-140.0
 21
136.4516878685507
 31
0.0
  0
LINE
  5
167E
330
2B0C
100
AcDbEntity
  8
SIZE
 62
     0
100
AcDbLine
 10
140.0
 20
32.46448280219375
 30
0.0
 11
140.0
 21
136.4516878685507
 31
0.0
  0
LINE
  5
167F
330
2B0C
100
AcDbEntity
  8
SIZE
 62
     0
100
AcDbLine
 10
-128.0
 20
116.4516878685508
 30
0.0
 11
128.0
 21
116.4516878685508
 31
0.0
  0
INSERT
  5
1680
330
2B0C
100
AcDbEntity
  8
SIZE
 62
     0
100
AcDbBlockReference
  2
_DOTBLANK
 10
-140.0
 20
116.4516878685508
 30
0.0
 41
12.0
 42
12.0
 43
12.0
 50
180.0
  0
INSERT
  5
1681
330
2B0C
100
AcDbEntity
  8
SIZE
 62
     0
100
AcDbBlockReference
  2
_DOTBLANK
 10
140.0
 20
116.4516878685508
 30
0.0
 41
12.0
 42
12.0
 43
12.0
  0
INSERT
  5
1682
330
2B0C
100
AcDbEntity
  8
0
100
AcDbBlockReference
  2
*U35
 10
0.0
 20
0.0
 30
0.0
  0
POINT
  5
1683
330
2B0C
100
AcDbEntity
  8
DEFPOINTS
 62
     0
100
AcDbPoint
 10
-140.0
 20
12.46448280219374
 30
0.0
  0
POINT
  5
1684
330
2B0C
100
AcDbEntity
  8
DEFPOINTS
 62
     0
100
AcDbPoint
 10
140.0
 20
12.46448280219374
 30
0.0
  0
POINT
  5
1685
330
2B0C
100
AcDbEntity
  8
DEFPOINTS
 62
     0
100
AcDbPoint
 10
140.0
 20
116.4516878685508
 30
0.0
  0
ENDBLK
  5
14BF
330
2B0C
100
AcDbEntity
  8
0
100
AcDbBlockEnd
  0
BLOCK
  5
2B0F
330
2B0E
100
AcDbEntity
  8
0
100
AcDbBlockBegin
  2
*U35
 70
     1
 10
0.0
 20
0.0
 30
0.0
  3
*U35
  1

  0
TEXT
  5
1F11
330
2B0E
100
AcDbEntity
  8
SIZE
 62
     0
100
AcDbText
 10
-74.05714285714283
 20
126.4516878685507
 30
0.0
 40
64.0
  1
280
 41
0.9
100
AcDbText
  0
ENDBLK
  5
1F13
330
2B0E
100
AcDbEntity
  8
0
100
AcDbBlockEnd
  0
BLOCK
  5
2B11
330
2B10
100
AcDbEntity
  8
0
100
AcDbBlockBegin
  2
*D36
 70
     1
 10
0.0
 20
0.0
 30
0.0
  3
*D36
  1

  0
LINE
  5
1686
330
2B10
100
AcDbEntity
  8
SIZE
 62
     0
100
AcDbLine
 10
-157.5
 20
20.0
 30
0.0
 11
-157.5
 21
245.5794621189598
 31
0.0
  0
LINE
  5
1687
330
2B10
100
AcDbEntity
  8
SIZE
 62
     0
100
AcDbLine
 10
157.5
 20
20.0
 30
0.0
 11
157.5
 21
245.5794621189598
 31
0.0
  0
LINE
  5
1688
330
2B10
100
AcDbEntity
  8
SIZE
 62
     0
100
AcDbLine
 10
-145.5
 20
225.5794621189598
 30
0.0
 11
145.5
 21
225.5794621189598
 31
0.0
  0
INSERT
  5
1689
330
2B10
100
AcDbEntity
  8
SIZE
 62
     0
100
AcDbBlockReference
  2
_DOTBLANK
 10
-157.5
 20
225.5794621189598
 30
0.0
 41
12.0
 42
12.0
 43
12.0
 50
180.0
  0
INSERT
  5
168A
330
2B10
100
AcDbEntity
  8
SIZE
 62
     0
100
AcDbBlockReference
  2
_DOTBLANK
 10
157.5
 20
225.5794621189598
 30
0.0
 41
12.0
 42
12.0
 43
12.0
  0
INSERT
  5
168B
330
2B10
100
AcDbEntity
  8
0
100
AcDbBlockReference
  2
*U37
 10
0.0
 20
0.0
 30
0.0
  0
POINT
  5
168C
330
2B10
100
AcDbEntity
  8
DEFPOINTS
 62
     0
100
AcDbPoint
 10
-157.5
 20
0.0
 30
0.0
  0
POINT
  5
168D
330
2B10
100
AcDbEntity
  8
DEFPOINTS
 62
     0
100
AcDbPoint
 10
157.5
 20
0.0
 30
0.0
  0
POINT
  5
168E
330
2B10
100
AcDbEntity
  8
DEFPOINTS
 62
     0
100
AcDbPoint
 10
157.5
 20
225.5794621189598
 30
0.0
  0
ENDBLK
  5
14CB
330
2B10
100
AcDbEntity
  8
0
100
AcDbBlockEnd
  0
BLOCK
  5
2B13
330
2B12
100
AcDbEntity
  8
0
100
AcDbBlockBegin
  2
*U37
 70
     1
 10
0.0
 20
0.0
 30
0.0
  3
*U37
  1

  0
TEXT
  5
1F15
330
2B12
100
AcDbEntity
  8
SIZE
 62
     0
100
AcDbText
 10
-68.57142857142857
 20
235.5794621189598
 30
0.0
 40
64.0
  1
315
 41
0.9
100
AcDbText
  0
ENDBLK
  5
1F17
330
2B12
100
AcDbEntity
  8
0
100
AcDbBlockEnd
  0
BLOCK
  5
2B15
330
2B14
100
AcDbEntity
  8
0
100
AcDbBlockBegin
  2
*U38
 70
     1
 10
0.0
 20
0.0
 30
0.0
  3
*U38
  1

  0
ENDBLK
  5
15CF
330
2B14
100
AcDbEntity
  8
0
100
AcDbBlockEnd
  0
BLOCK
  5
2B17
330
2B16
100
AcDbEntity
  8
0
100
AcDbBlockBegin
  2
*D39
 70
     1
 10
0.0
 20
0.0
 30
0.0
  3
*D39
  1

  0
LINE
  5
1692
330
2B16
100
AcDbEntity
  8
SIZE
 62
     0
100
AcDbLine
 10
-25844.51823276502
 20
7685.702971374808
 30
0.0
 11
-25981.04465488371
 21
7685.702971374808
 31
0.0
  0
LINE
  5
1693
330
2B16
100
AcDbEntity
  8
SIZE
 62
     0
100
AcDbLine
 10
-25844.51823276502
 20
7677.702971374808
 30
0.0
 11
-25981.04465488371
 21
7677.702971374808
 31
0.0
  0
LINE
  5
1694
330
2B16
100
AcDbEntity
  8
SIZE
 62
     0
100
AcDbLine
 10
-25961.04465488371
 20
7697.702971374808
 30
0.0
 11
-25961.04465488371
 21
7709.702971374809
 31
0.0
  0
LINE
  5
1695
330
2B16
100
AcDbEntity
  8
SIZE
 62
     0
100
AcDbLine
 10
-25961.04465488371
 20
7665.70297137481
 30
0.0
 11
-25961.04465488371
 21
7595.302971374808
 31
0.0
  0
INSERT
  5
1696
330
2B16
100
AcDbEntity
  8
SIZE
 62
     0
100
AcDbBlockReference
  2
_DOTBLANK
 10
-25961.04465488371
 20
7685.702971374808
 30
0.0
 41
12.0
 42
12.0
 43
12.0
 50
270.0
  0
INSERT
  5
1697
330
2B16
100
AcDbEntity
  8
SIZE
 62
     0
100
AcDbBlockReference
  2
_DOTBLANK
 10
-25961.04465488371
 20
7677.702971374808
 30
0.0
 41
12.0
 42
12.0
 43
12.0
 50
90.0
  0
INSERT
  5
1698
330
2B16
100
AcDbEntity
  8
0
100
AcDbBlockReference
  2
*U40
 10
0.0
 20
0.0
 30
0.0
  0
POINT
  5
1699
330
2B16
100
AcDbEntity
  8
DEFPOINTS
 62
     0
100
AcDbPoint
 10
-25824.51823276501
 20
7685.702971374808
 30
0.0
  0
POINT
  5
169A
330
2B16
100
AcDbEntity
  8
DEFPOINTS
 62
     0
100
AcDbPoint
 10
-25824.51823276501
 20
7677.702971374808
 30
0.0
  0
POINT
  5
169B
330
2B16
100
AcDbEntity
  8
DEFPOINTS
 62
     0
100
AcDbPoint
 10
-25961.04465488371
 20
7677.702971374808
 30
0.0
  0
ENDBLK
  5
169C
330
2B16
100
AcDbEntity
  8
0
100
AcDbBlockEnd
  0
BLOCK
  5
2B19
330
2B18
100
AcDbEntity
  8
0
100
AcDbBlockBegin
  2
*U40
 70
     1
 10
0.0
 20
0.0
 30
0.0
  3
*U40
  1

  0
TEXT
  5
1F19
330
2B18
100
AcDbEntity
  8
SIZE
 62
     0
100
AcDbText
 10
-25971.04465488371
 20
7605.302971374804
 30
0.0
 40
64.0
  1
8
 50
90.0
 41
0.9
100
AcDbText
  0
ENDBLK
  5
1F1B
330
2B18
100
AcDbEntity
  8
0
100
AcDbBlockEnd
  0
BLOCK
  5
2B1B
330
2B1A
100
AcDbEntity
  8
0
100
AcDbBlockBegin
  2
*D41
 70
     1
 10
0.0
 20
0.0
 30
0.0
  3
*D41
  1

  0
LINE
  5
169F
330
2B1A
100
AcDbEntity
  8
SIZE
 62
     0
100
AcDbLine
 10
-25512.51823276502
 20
7385.702971374808
 30
0.0
 11
-25362.37494828464
 21
7385.702971374808
 31
0.0
  0
LINE
  5
16A0
330
2B1A
100
AcDbEntity
  8
SIZE
 62
     0
100
AcDbLine
 10
-25523.51823276501
 20
7373.702971374808
 30
0.0
 11
-25362.37494828464
 21
7373.702971374808
 31
0.0
  0
LINE
  5
16A1
330
2B1A
100
AcDbEntity
  8
SIZE
 62
     0
100
AcDbLine
 10
-25382.37494828464
 20
7397.702971374808
 30
0.0
 11
-25382.37494828464
 21
7409.70297137481
 31
0.0
  0
LINE
  5
16A2
330
2B1A
100
AcDbEntity
  8
SIZE
 62
     0
100
AcDbLine
 10
-25382.37494828464
 20
7361.702971374808
 30
0.0
 11
-25382.37494828464
 21
7244.674399946238
 31
0.0
  0
INSERT
  5
16A3
330
2B1A
100
AcDbEntity
  8
SIZE
 62
     0
100
AcDbBlockReference
  2
_DOTBLANK
 10
-25382.37494828464
 20
7385.702971374808
 30
0.0
 41
12.0
 42
12.0
 43
12.0
 50
270.0
  0
INSERT
  5
16A4
330
2B1A
100
AcDbEntity
  8
SIZE
 62
     0
100
AcDbBlockReference
  2
_DOTBLANK
 10
-25382.37494828464
 20
7373.702971374808
 30
0.0
 41
12.0
 42
12.0
 43
12.0
 50
90.0
  0
INSERT
  5
16A5
330
2B1A
100
AcDbEntity
  8
0
100
AcDbBlockReference
  2
*U42
 10
0.0
 20
0.0
 30
0.0
  0
POINT
  5
16A6
330
2B1A
100
AcDbEntity
  8
DEFPOINTS
 62
     0
100
AcDbPoint
 10
-25532.51823276502
 20
7385.702971374808
 30
0.0
  0
POINT
  5
16A7
330
2B1A
100
AcDbEntity
  8
DEFPOINTS
 62
     0
100
AcDbPoint
 10
-25543.51823276502
 20
7373.702971374808
 30
0.0
  0
POINT
  5
16A8
330
2B1A
100
AcDbEntity
  8
DEFPOINTS
 62
     0
100
AcDbPoint
 10
-25382.37494828464
 20
7373.702971374808
 30
0.0
  0
ENDBLK
  5
16A9
330
2B1A
100
AcDbEntity
  8
0
100
AcDbBlockEnd
  0
BLOCK
  5
2B1D
330
2B1C
100
AcDbEntity
  8
0
100
AcDbBlockBegin
  2
*U42
 70
     1
 10
0.0
 20
0.0
 30
0.0
  3
*U42
  1

  0
TEXT
  5
1F1D
330
2B1C
100
AcDbEntity
  8
SIZE
 62
     0
100
AcDbText
 10
-25392.37494828464
 20
7256.045828517662
 30
0.0
 40
64.0
  1
12
 50
90.0
 41
0.9
100
AcDbText
  0
ENDBLK
  5
1F1F
330
2B1C
100
AcDbEntity
  8
0
100
AcDbBlockEnd
  0
BLOCK
  5
2B1F
330
2B1E
100
AcDbEntity
  8
0
100
AcDbBlockBegin
  2
*D43
 70
     1
 10
0.0
 20
0.0
 30
0.0
  3
*D43
  1

  0
LINE
  5
16AC
330
2B1E
100
AcDbEntity
  8
SIZE
 62
     0
100
AcDbLine
 10
-25801.51823276501
 20
7365.702971374808
 30
0.0
 11
-25801.51823276501
 21
7217.685576144207
 31
0.0
  0
LINE
  5
16AD
330
2B1E
100
AcDbEntity
  8
SIZE
 62
     0
100
AcDbLine
 10
-25532.51823276502
 20
7365.702971374808
 30
0.0
 11
-25532.51823276502
 21
7217.685576144207
 31
0.0
  0
LINE
  5
16AE
330
2B1E
100
AcDbEntity
  8
SIZE
 62
     0
100
AcDbLine
 10
-25789.51823276502
 20
7237.685576144207
 30
0.0
 11
-25544.51823276501
 21
7237.685576144207
 31
0.0
  0
INSERT
  5
16AF
330
2B1E
100
AcDbEntity
  8
SIZE
 62
     0
100
AcDbBlockReference
  2
_DOTBLANK
 10
-25801.51823276501
 20
7237.685576144207
 30
0.0
 41
12.0
 42
12.0
 43
12.0
 50
180.0
  0
INSERT
  5
16B0
330
2B1E
100
AcDbEntity
  8
SIZE
 62
     0
100
AcDbBlockReference
  2
_DOTBLANK
 10
-25532.51823276502
 20
7237.685576144207
 30
0.0
 41
12.0
 42
12.0
 43
12.0
  0
INSERT
  5
16B1
330
2B1E
100
AcDbEntity
  8
0
100
AcDbBlockReference
  2
*U44
 10
0.0
 20
0.0
 30
0.0
  0
POINT
  5
16B2
330
2B1E
100
AcDbEntity
  8
DEFPOINTS
 62
     0
100
AcDbPoint
 10
-25801.51823276501
 20
7385.702971374808
 30
0.0
  0
POINT
  5
16B3
330
2B1E
100
AcDbEntity
  8
DEFPOINTS
 62
     0
100
AcDbPoint
 10
-25532.51823276502
 20
7385.702971374808
 30
0.0
  0
POINT
  5
16B4
330
2B1E
100
AcDbEntity
  8
DEFPOINTS
 62
     0
100
AcDbPoint
 10
-25532.51823276502
 20
7237.685576144207
 30
0.0
  0
ENDBLK
  5
16B5
330
2B1E
100
AcDbEntity
  8
0
100
AcDbBlockEnd
  0
BLOCK
  5
2B21
330
2B20
100
AcDbEntity
  8
0
100
AcDbBlockBegin
  2
*U44
 70
     1
 10
0.0
 20
0.0
 30
0.0
  3
*U44
  1

  0
TEXT
  5
1F21
330
2B20
100
AcDbEntity
  8
SIZE
 62
     0
100
AcDbText
 10
-25739.70394705074
 20
7247.685576144205
 30
0.0
 40
64.0
  1
269
 41
0.9
100
AcDbText
  0
ENDBLK
  5
1F23
330
2B20
100
AcDbEntity
  8
0
100
AcDbBlockEnd
  0
BLOCK
  5
2B23
330
2B22
100
AcDbEntity
  8
0
100
AcDbBlockBegin
  2
*D45
 70
     1
 10
0.0
 20
0.0
 30
0.0
  3
*D45
  1

  0
LINE
  5
16B8
330
2B22
100
AcDbEntity
  8
SIZE
 62
     0
100
AcDbLine
 10
-25512.51823276502
 20
7385.702971374808
 30
0.0
 11
-25362.37494828464
 21
7385.702971374808
 31
0.0
  0
LINE
  5
16B9
330
2B22
100
AcDbEntity
  8
SIZE
 62
     0
100
AcDbLine
 10
-25489.51823276501
 20
7685.702971374808
 30
0.0
 11
-25362.37494828464
 21
7685.702971374808
 31
0.0
  0
LINE
  5
16BA
330
2B22
100
AcDbEntity
  8
SIZE
 62
     0
100
AcDbLine
 10
-25382.37494828464
 20
7397.702971374808
 30
0.0
 11
-25382.37494828464
 21
7673.702971374808
 31
0.0
  0
INSERT
  5
16BB
330
2B22
100
AcDbEntity
  8
SIZE
 62
     0
100
AcDbBlockReference
  2
_DOTBLANK
 10
-25382.37494828464
 20
7385.702971374808
 30
0.0
 41
12.0
 42
12.0
 43
12.0
 50
270.0
  0
INSERT
  5
16BC
330
2B22
100
AcDbEntity
  8
SIZE
 62
     0
100
AcDbBlockReference
  2
_DOTBLANK
 10
-25382.37494828464
 20
7685.702971374808
 30
0.0
 41
12.0
 42
12.0
 43
12.0
 50
90.0
  0
INSERT
  5
16BD
330
2B22
100
AcDbEntity
  8
0
100
AcDbBlockReference
  2
*U46
 10
0.0
 20
0.0
 30
0.0
  0
POINT
  5
16BE
330
2B22
100
AcDbEntity
  8
DEFPOINTS
 62
     0
100
AcDbPoint
 10
-25532.51823276502
 20
7385.702971374808
 30
0.0
  0
POINT
  5
16BF
330
2B22
100
AcDbEntity
  8
DEFPOINTS
 62
     0
100
AcDbPoint
 10
-25509.51823276502
 20
7685.702971374808
 30
0.0
  0
POINT
  5
16C0
330
2B22
100
AcDbEntity
  8
DEFPOINTS
 62
     0
100
AcDbPoint
 10
-25382.37494828464
 20
7685.702971374808
 30
0.0
  0
ENDBLK
  5
16C1
330
2B22
100
AcDbEntity
  8
0
100
AcDbBlockEnd
  0
BLOCK
  5
2B25
330
2B24
100
AcDbEntity
  8
0
100
AcDbBlockBegin
  2
*U46
 70
     1
 10
0.0
 20
0.0
 30
0.0
  3
*U46
  1

  0
TEXT
  5
1F25
330
2B24
100
AcDbEntity
  8
SIZE
 62
     0
100
AcDbText
 10
-25392.37494828464
 20
7461.645828517662
 30
0.0
 40
64.0
  1
300
 50
90.0
 41
0.9
100
AcDbText
  0
ENDBLK
  5
1F27
330
2B24
100
AcDbEntity
  8
0
100
AcDbBlockEnd
  0
BLOCK
  5
2B27
330
2B26
100
AcDbEntity
  8
0
100
AcDbBlockBegin
  2
*D47
 70
     1
 10
0.0
 20
0.0
 30
0.0
  3
*D47
  1

  0
LINE
  5
16C4
330
2B26
100
AcDbEntity
  8
SIZE
 62
     0
100
AcDbLine
 10
-25807.01823276501
 20
7718.167454177002
 30
0.0
 11
-25807.01823276501
 21
7822.154659243358
 31
0.0
  0
LINE
  5
16C5
330
2B26
100
AcDbEntity
  8
SIZE
 62
     0
100
AcDbLine
 10
-25527.01823276501
 20
7718.167454177002
 30
0.0
 11
-25527.01823276501
 21
7822.154659243358
 31
0.0
  0
LINE
  5
16C6
330
2B26
100
AcDbEntity
  8
SIZE
 62
     0
100
AcDbLine
 10
-25795.01823276502
 20
7802.154659243358
 30
0.0
 11
-25539.01823276501
 21
7802.154659243358
 31
0.0
  0
INSERT
  5
16C7
330
2B26
100
AcDbEntity
  8
SIZE
 62
     0
100
AcDbBlockReference
  2
_DOTBLANK
 10
-25807.01823276501
 20
7802.154659243358
 30
0.0
 41
12.0
 42
12.0
 43
12.0
 50
180.0
  0
INSERT
  5
16C8
330
2B26
100
AcDbEntity
  8
SIZE
 62
     0
100
AcDbBlockReference
  2
_DOTBLANK
 10
-25527.01823276501
 20
7802.154659243358
 30
0.0
 41
12.0
 42
12.0
 43
12.0
  0
INSERT
  5
16C9
330
2B26
100
AcDbEntity
  8
0
100
AcDbBlockReference
  2
*U48
 10
0.0
 20
0.0
 30
0.0
  0
POINT
  5
16CA
330
2B26
100
AcDbEntity
  8
DEFPOINTS
 62
     0
100
AcDbPoint
 10
-25807.01823276501
 20
7698.167454177002
 30
0.0
  0
POINT
  5
16CB
330
2B26
100
AcDbEntity
  8
DEFPOINTS
 62
     0
100
AcDbPoint
 10
-25527.01823276501
 20
7698.167454177002
 30
0.0
  0
POINT
  5
16CC
330
2B26
100
AcDbEntity
  8
DEFPOINTS
 62
     0
100
AcDbPoint
 10
-25527.01823276501
 20
7802.154659243358
 30
0.0
  0
ENDBLK
  5
16CD
330
2B26
100
AcDbEntity
  8
0
100
AcDbBlockEnd
  0
BLOCK
  5
2B29
330
2B28
100
AcDbEntity
  8
0
100
AcDbBlockBegin
  2
*U48
 70
     1
 10
0.0
 20
0.0
 30
0.0
  3
*U48
  1

  0
TEXT
  5
1F29
330
2B28
100
AcDbEntity
  8
SIZE
 62
     0
100
AcDbText
 10
-25741.07537562216
 20
7812.154659243358
 30
0.0
 40
64.0
  1
280
 41
0.9
100
AcDbText
  0
ENDBLK
  5
1F2B
330
2B28
100
AcDbEntity
  8
0
100
AcDbBlockEnd
  0
BLOCK
  5
2B2B
330
2B2A
100
AcDbEntity
  8
0
100
AcDbBlockBegin
  2
*D49
 70
     1
 10
0.0
 20
0.0
 30
0.0
  3
*D49
  1

  0
LINE
  5
16D0
330
2B2A
100
AcDbEntity
  8
SIZE
 62
     0
100
AcDbLine
 10
-25824.51823276501
 20
7705.702971374808
 30
0.0
 11
-25824.51823276501
 21
7931.282433493766
 31
0.0
  0
LINE
  5
16D1
330
2B2A
100
AcDbEntity
  8
SIZE
 62
     0
100
AcDbLine
 10
-25509.51823276502
 20
7705.702971374808
 30
0.0
 11
-25509.51823276502
 21
7931.282433493766
 31
0.0
  0
LINE
  5
16D2
330
2B2A
100
AcDbEntity
  8
SIZE
 62
     0
100
AcDbLine
 10
-25812.51823276502
 20
7911.282433493766
 30
0.0
 11
-25521.51823276501
 21
7911.282433493766
 31
0.0
  0
INSERT
  5
16D3
330
2B2A
100
AcDbEntity
  8
SIZE
 62
     0
100
AcDbBlockReference
  2
_DOTBLANK
 10
-25824.51823276501
 20
7911.282433493766
 30
0.0
 41
12.0
 42
12.0
 43
12.0
 50
180.0
  0
INSERT
  5
16D4
330
2B2A
100
AcDbEntity
  8
SIZE
 62
     0
100
AcDbBlockReference
  2
_DOTBLANK
 10
-25509.51823276502
 20
7911.282433493766
 30
0.0
 41
12.0
 42
12.0
 43
12.0
  0
INSERT
  5
16D5
330
2B2A
100
AcDbEntity
  8
0
100
AcDbBlockReference
  2
*U50
 10
0.0
 20
0.0
 30
0.0
  0
POINT
  5
16D6
330
2B2A
100
AcDbEntity
  8
DEFPOINTS
 62
     0
100
AcDbPoint
 10
-25824.51823276501
 20
7685.702971374808
 30
0.0
  0
POINT
  5
16D7
330
2B2A
100
AcDbEntity
  8
DEFPOINTS
 62
     0
100
AcDbPoint
 10
-25509.51823276502
 20
7685.702971374808
 30
0.0
  0
POINT
  5
16D8
330
2B2A
100
AcDbEntity
  8
DEFPOINTS
 62
     0
100
AcDbPoint
 10
-25509.51823276502
 20
7911.282433493766
 30
0.0
  0
ENDBLK
  5
16D9
330
2B2A
100
AcDbEntity
  8
0
100
AcDbBlockEnd
  0
BLOCK
  5
2B2D
330
2B2C
100
AcDbEntity
  8
0
100
AcDbBlockBegin
  2
*U50
 70
     1
 10
0.0
 20
0.0
 30
0.0
  3
*U50
  1

  0
TEXT
  5
1F2D
330
2B2C
100
AcDbEntity
  8
SIZE
 62
     0
100
AcDbText
 10
-25735.58966133645
 20
7921.282433493766
 30
0.0
 40
64.0
  1
315
 41
0.9
100
AcDbText
  0
ENDBLK
  5
1F2F
330
2B2C
100
AcDbEntity
  8
0
100
AcDbBlockEnd
  0
BLOCK
  5
2B2F
330
2B2E
100
AcDbEntity
  8
0
100
AcDbBlockBegin
  2
*D51
 70
     1
 10
0.0
 20
0.0
 30
0.0
  3
*D51
  1

  0
LINE
  5
1D83
330
2B2E
100
AcDbEntity
  8
SIZE
 62
     0
100
AcDbLine
 10
-134.5
 20
-320.0
 30
0.0
 11
-134.5
 21
-468.0173952306001
 31
0.0
  0
LINE
  5
1D84
330
2B2E
100
AcDbEntity
  8
SIZE
 62
     0
100
AcDbLine
 10
134.5
 20
-320.0
 30
0.0
 11
134.5
 21
-468.0173952306001
 31
0.0
  0
LINE
  5
1D85
330
2B2E
100
AcDbEntity
  8
SIZE
 62
     0
100
AcDbLine
 10
-122.5
 20
-448.0173952306
 30
0.0
 11
122.5
 21
-448.0173952306
 31
0.0
  0
INSERT
  5
1D86
330
2B2E
100
AcDbEntity
  8
SIZE
 62
     0
100
AcDbBlockReference
  2
_DOTBLANK
 10
-134.5
 20
-448.0173952306
 30
0.0
 41
12.0
 42
12.0
 43
12.0
 50
180.0
  0
INSERT
  5
1D87
330
2B2E
100
AcDbEntity
  8
SIZE
 62
     0
100
AcDbBlockReference
  2
_DOTBLANK
 10
134.5
 20
-448.0173952306
 30
0.0
 41
12.0
 42
12.0
 43
12.0
  0
INSERT
  5
1D88
330
2B2E
100
AcDbEntity
  8
0
100
AcDbBlockReference
  2
*U52
 10
0.0
 20
0.0
 30
0.0
  0
POINT
  5
1D89
330
2B2E
100
AcDbEntity
  8
DEFPOINTS
 62
     0
100
AcDbPoint
 10
-134.5
 20
-300.0
 30
0.0
  0
POINT
  5
1D8A
330
2B2E
100
AcDbEntity
  8
DEFPOINTS
 62
     0
100
AcDbPoint
 10
134.5
 20
-300.0
 30
0.0
  0
POINT
  5
1D8B
330
2B2E
100
AcDbEntity
  8
DEFPOINTS
 62
     0
100
AcDbPoint
 10
134.5
 20
-448.0173952306
 30
0.0
  0
ENDBLK
  5
173D
330
2B2E
100
AcDbEntity
  8
0
100
AcDbBlockEnd
  0
BLOCK
  5
2B31
330
2B30
100
AcDbEntity
  8
0
100
AcDbBlockBegin
  2
*U52
 70
     1
 10
0.0
 20
0.0
 30
0.0
  3
*U52
  1

  0
TEXT
  5
1F31
330
2B30
100
AcDbEntity
  8
SIZE
 62
     0
100
AcDbText
 10
-72.68571428571426
 20
-438.0173952306003
 30
0.0
 40
64.0
  1
269
 41
0.9
100
AcDbText
  0
ENDBLK
  5
1F33
330
2B30
100
AcDbEntity
  8
0
100
AcDbBlockEnd
  0
BLOCK
  5
2B33
330
2B32
100
AcDbEntity
  8
0
100
AcDbBlockBegin
  2
*D53
 70
     1
 10
0.0
 20
0.0
 30
0.0
  3
*D53
  1

  0
LINE
  5
1D8C
330
2B32
100
AcDbEntity
  8
SIZE
 62
     0
100
AcDbLine
 10
154.5
 20
-300.0
 30
0.0
 11
304.6432844803784
 21
-300.0
 31
0.0
  0
LINE
  5
1D8D
330
2B32
100
AcDbEntity
  8
SIZE
 62
     0
100
AcDbLine
 10
177.5
 20
-0.0000000000000057
 30
0.0
 11
304.6432844803785
 21
-0.0000000000000417
 31
0.0
  0
LINE
  5
1D8E
330
2B32
100
AcDbEntity
  8
SIZE
 62
     0
100
AcDbLine
 10
284.6432844803784
 20
-288.0
 30
0.0
 11
284.6432844803785
 21
-12.00000000000003
 31
0.0
  0
INSERT
  5
1D8F
330
2B32
100
AcDbEntity
  8
SIZE
 62
     0
100
AcDbBlockReference
  2
_DOTBLANK
 10
284.6432844803784
 20
-300.0
 30
0.0
 41
12.0
 42
12.0
 43
12.0
 50
270.0
  0
INSERT
  5
1D90
330
2B32
100
AcDbEntity
  8
SIZE
 62
     0
100
AcDbBlockReference
  2
_DOTBLANK
 10
284.6432844803785
 20
-0.000000000000036
 30
0.0
 41
12.0
 42
12.0
 43
12.0
 50
90.0
  0
INSERT
  5
1D91
330
2B32
100
AcDbEntity
  8
0
100
AcDbBlockReference
  2
*U54
 10
0.0
 20
0.0
 30
0.0
  0
POINT
  5
1D92
330
2B32
100
AcDbEntity
  8
DEFPOINTS
 62
     0
100
AcDbPoint
 10
134.5
 20
-300.0
 30
0.0
  0
POINT
  5
1D93
330
2B32
100
AcDbEntity
  8
DEFPOINTS
 62
     0
100
AcDbPoint
 10
157.5
 20
0.0
 30
0.0
  0
POINT
  5
1D94
330
2B32
100
AcDbEntity
  8
DEFPOINTS
 62
     0
100
AcDbPoint
 10
284.6432844803785
 20
-0.000000000000036
 30
0.0
  0
ENDBLK
  5
1749
330
2B32
100
AcDbEntity
  8
0
100
AcDbBlockEnd
  0
BLOCK
  5
2B35
330
2B34
100
AcDbEntity
  8
0
100
AcDbBlockBegin
  2
*U54
 70
     1
 10
0.0
 20
0.0
 30
0.0
  3
*U54
  1

  0
TEXT
  5
1F35
330
2B34
100
AcDbEntity
  8
SIZE
 62
     0
100
AcDbText
 10
274.6432844803785
 20
-224.0571428571429
 30
0.0
 40
64.0
  1
300
 50
90.0
 41
0.9
100
AcDbText
  0
ENDBLK
  5
1F37
330
2B34
100
AcDbEntity
  8
0
100
AcDbBlockEnd
  0
BLOCK
  5
2B37
330
2B36
100
AcDbEntity
  8
0
100
AcDbBlockBegin
  2
*D55
 70
     1
 10
0.0
 20
0.0
 30
0.0
  3
*D55
  1

  0
LINE
  5
1D95
330
2B36
100
AcDbEntity
  8
SIZE
 62
     0
100
AcDbLine
 10
-140.0
 20
32.46448280219375
 30
0.0
 11
-140.0
 21
136.4516878685508
 31
0.0
  0
LINE
  5
1D96
330
2B36
100
AcDbEntity
  8
SIZE
 62
     0
100
AcDbLine
 10
140.0
 20
32.46448280219375
 30
0.0
 11
140.0
 21
136.4516878685508
 31
0.0
  0
LINE
  5
1D97
330
2B36
100
AcDbEntity
  8
SIZE
 62
     0
100
AcDbLine
 10
-128.0
 20
116.4516878685508
 30
0.0
 11
128.0
 21
116.4516878685508
 31
0.0
  0
INSERT
  5
1D98
330
2B36
100
AcDbEntity
  8
SIZE
 62
     0
100
AcDbBlockReference
  2
_DOTBLANK
 10
-140.0
 20
116.4516878685508
 30
0.0
 41
12.0
 42
12.0
 43
12.0
 50
180.0
  0
INSERT
  5
1D99
330
2B36
100
AcDbEntity
  8
SIZE
 62
     0
100
AcDbBlockReference
  2
_DOTBLANK
 10
140.0
 20
116.4516878685508
 30
0.0
 41
12.0
 42
12.0
 43
12.0
  0
INSERT
  5
1D9A
330
2B36
100
AcDbEntity
  8
0
100
AcDbBlockReference
  2
*U56
 10
0.0
 20
0.0
 30
0.0
  0
POINT
  5
1D9B
330
2B36
100
AcDbEntity
  8
DEFPOINTS
 62
     0
100
AcDbPoint
 10
-140.0
 20
12.46448280219374
 30
0.0
  0
POINT
  5
1D9C
330
2B36
100
AcDbEntity
  8
DEFPOINTS
 62
     0
100
AcDbPoint
 10
140.0
 20
12.46448280219374
 30
0.0
  0
POINT
  5
1D9D
330
2B36
100
AcDbEntity
  8
DEFPOINTS
 62
     0
100
AcDbPoint
 10
140.0
 20
116.4516878685508
 30
0.0
  0
ENDBLK
  5
1755
330
2B36
100
AcDbEntity
  8
0
100
AcDbBlockEnd
  0
BLOCK
  5
2B39
330
2B38
100
AcDbEntity
  8
0
100
AcDbBlockBegin
  2
*U56
 70
     1
 10
0.0
 20
0.0
 30
0.0
  3
*U56
  1

  0
TEXT
  5
1F39
330
2B38
100
AcDbEntity
  8
SIZE
 62
     0
100
AcDbText
 10
-74.05714285714283
 20
126.4516878685508
 30
0.0
 40
64.0
  1
280
 41
0.9
100
AcDbText
  0
ENDBLK
  5
1F3B
330
2B38
100
AcDbEntity
  8
0
100
AcDbBlockEnd
  0
BLOCK
  5
2B3B
330
2B3A
100
AcDbEntity
  8
0
100
AcDbBlockBegin
  2
*D57
 70
     1
 10
0.0
 20
0.0
 30
0.0
  3
*D57
  1

  0
LINE
  5
1D9E
330
2B3A
100
AcDbEntity
  8
SIZE
 62
     0
100
AcDbLine
 10
-157.5
 20
20.0
 30
0.0
 11
-157.5
 21
245.5794621189598
 31
0.0
  0
LINE
  5
1D9F
330
2B3A
100
AcDbEntity
  8
SIZE
 62
     0
100
AcDbLine
 10
157.5
 20
20.0
 30
0.0
 11
157.5
 21
245.5794621189598
 31
0.0
  0
LINE
  5
1DA0
330
2B3A
100
AcDbEntity
  8
SIZE
 62
     0
100
AcDbLine
 10
-145.5
 20
225.5794621189598
 30
0.0
 11
145.5
 21
225.5794621189598
 31
0.0
  0
INSERT
  5
1DA1
330
2B3A
100
AcDbEntity
  8
SIZE
 62
     0
100
AcDbBlockReference
  2
_DOTBLANK
 10
-157.5
 20
225.5794621189598
 30
0.0
 41
12.0
 42
12.0
 43
12.0
 50
180.0
  0
INSERT
  5
1DA2
330
2B3A
100
AcDbEntity
  8
SIZE
 62
     0
100
AcDbBlockReference
  2
_DOTBLANK
 10
157.5
 20
225.5794621189598
 30
0.0
 41
12.0
 42
12.0
 43
12.0
  0
INSERT
  5
1DA3
330
2B3A
100
AcDbEntity
  8
0
100
AcDbBlockReference
  2
*U58
 10
0.0
 20
0.0
 30
0.0
  0
POINT
  5
1DA4
330
2B3A
100
AcDbEntity
  8
DEFPOINTS
 62
     0
100
AcDbPoint
 10
-157.5
 20
0.0
 30
0.0
  0
POINT
  5
1DA5
330
2B3A
100
AcDbEntity
  8
DEFPOINTS
 62
     0
100
AcDbPoint
 10
157.5
 20
0.0
 30
0.0
  0
POINT
  5
1DA6
330
2B3A
100
AcDbEntity
  8
DEFPOINTS
 62
     0
100
AcDbPoint
 10
157.5
 20
225.5794621189598
 30
0.0
  0
ENDBLK
  5
1761
330
2B3A
100
AcDbEntity
  8
0
100
AcDbBlockEnd
  0
BLOCK
  5
2B3D
330
2B3C
100
AcDbEntity
  8
0
100
AcDbBlockBegin
  2
*U58
 70
     1
 10
0.0
 20
0.0
 30
0.0
  3
*U58
  1

  0
TEXT
  5
1F3D
330
2B3C
100
AcDbEntity
  8
SIZE
 62
     0
100
AcDbText
 10
-68.57142857142857
 20
235.5794621189599
 30
0.0
 40
64.0
  1
315
 41
0.9
100
AcDbText
  0
ENDBLK
  5
1F3F
330
2B3C
100
AcDbEntity
  8
0
100
AcDbBlockEnd
  0
BLOCK
  5
2B3F
330
2B3E
100
AcDbEntity
  8
0
100
AcDbBlockBegin
  2
*D59
 70
     1
 10
0.0
 20
0.0
 30
0.0
  3
*D59
  1

  0
LINE
  5
1DA7
330
2B3E
100
AcDbEntity
  8
SIZE
 62
     0
100
AcDbLine
 10
-177.5
 20
0.0000000000000057
 30
0.0
 11
-314.0264221186908
 21
0.0000000000000443
 31
0.0
  0
LINE
  5
1DA8
330
2B3E
100
AcDbEntity
  8
SIZE
 62
     0
100
AcDbLine
 10
-177.5
 20
-7.999999999999992
 30
0.0
 11
-314.0264221186908
 21
-7.999999999999957
 31
0.0
  0
LINE
  5
1DA9
330
2B3E
100
AcDbEntity
  8
SIZE
 62
     0
100
AcDbLine
 10
-294.0264221186908
 20
12.00000000000003
 30
0.0
 11
-294.0264221186908
 21
24.00000000000004
 31
0.0
  0
LINE
  5
1DAA
330
2B3E
100
AcDbEntity
  8
SIZE
 62
     0
100
AcDbLine
 10
-294.0264221186908
 20
-19.99999999999996
 30
0.0
 11
-294.0264221186908
 21
-90.39999999999997
 31
0.0
  0
INSERT
  5
1DAB
330
2B3E
100
AcDbEntity
  8
SIZE
 62
     0
100
AcDbBlockReference
  2
_DOTBLANK
 10
-294.0264221186908
 20
0.0000000000000387
 30
0.0
 41
12.0
 42
12.0
 43
12.0
 50
270.0
  0
INSERT
  5
1DAC
330
2B3E
100
AcDbEntity
  8
SIZE
 62
     0
100
AcDbBlockReference
  2
_DOTBLANK
 10
-294.0264221186908
 20
-7.999999999999959
 30
0.0
 41
12.0
 42
12.0
 43
12.0
 50
90.0
  0
INSERT
  5
1DAD
330
2B3E
100
AcDbEntity
  8
0
100
AcDbBlockReference
  2
*U60
 10
0.0
 20
0.0
 30
0.0
  0
POINT
  5
1DAE
330
2B3E
100
AcDbEntity
  8
DEFPOINTS
 62
     0
100
AcDbPoint
 10
-157.5
 20
0.0
 30
0.0
  0
POINT
  5
1DAF
330
2B3E
100
AcDbEntity
  8
DEFPOINTS
 62
     0
100
AcDbPoint
 10
-157.5
 20
-8.000000000000001
 30
0.0
  0
POINT
  5
1DB0
330
2B3E
100
AcDbEntity
  8
DEFPOINTS
 62
     0
100
AcDbPoint
 10
-294.0264221186908
 20
-7.999999999999959
 30
0.0
  0
ENDBLK
  5
176D
330
2B3E
100
AcDbEntity
  8
0
100
AcDbBlockEnd
  0
BLOCK
  5
2B41
330
2B40
100
AcDbEntity
  8
0
100
AcDbBlockBegin
  2
*U60
 70
     1
 10
0.0
 20
0.0
 30
0.0
  3
*U60
  1

  0
TEXT
  5
1F41
330
2B40
100
AcDbEntity
  8
SIZE
 62
     0
100
AcDbText
 10
-304.0264221186908
 20
-80.4
 30
0.0
 40
64.0
  1
8
 50
90.0
 41
0.9
100
AcDbText
  0
ENDBLK
  5
1F43
330
2B40
100
AcDbEntity
  8
0
100
AcDbBlockEnd
  0
BLOCK
  5
2B43
330
2B42
100
AcDbEntity
  8
0
100
AcDbBlockBegin
  2
*D61
 70
     1
 10
0.0
 20
0.0
 30
0.0
  3
*D61
  1

  0
LINE
  5
1DB1
330
2B42
100
AcDbEntity
  8
SIZE
 62
     0
100
AcDbLine
 10
154.5
 20
-300.0
 30
0.0
 11
304.6432844803785
 21
-300.0
 31
0.0
  0
LINE
  5
1DB2
330
2B42
100
AcDbEntity
  8
SIZE
 62
     0
100
AcDbLine
 10
143.5
 20
-312.0
 30
0.0
 11
304.6432844803785
 21
-312.0
 31
0.0
  0
LINE
  5
1DB3
330
2B42
100
AcDbEntity
  8
SIZE
 62
     0
100
AcDbLine
 10
284.6432844803785
 20
-288.0
 30
0.0
 11
284.6432844803785
 21
-276.0
 31
0.0
  0
LINE
  5
1DB4
330
2B42
100
AcDbEntity
  8
SIZE
 62
     0
100
AcDbLine
 10
284.6432844803785
 20
-324.0000000000001
 30
0.0
 11
284.6432844803784
 21
-438.2857142857143
 31
0.0
  0
INSERT
  5
1DB5
330
2B42
100
AcDbEntity
  8
SIZE
 62
     0
100
AcDbBlockReference
  2
_DOTBLANK
 10
284.6432844803785
 20
-300.0
 30
0.0
 41
12.0
 42
12.0
 43
12.0
 50
270.0
  0
INSERT
  5
1DB6
330
2B42
100
AcDbEntity
  8
SIZE
 62
     0
100
AcDbBlockReference
  2
_DOTBLANK
 10
284.6432844803785
 20
-312.0
 30
0.0
 41
12.0
 42
12.0
 43
12.0
 50
90.0
  0
INSERT
  5
1DB7
330
2B42
100
AcDbEntity
  8
0
100
AcDbBlockReference
  2
*U62
 10
0.0
 20
0.0
 30
0.0
  0
POINT
  5
1DB8
330
2B42
100
AcDbEntity
  8
DEFPOINTS
 62
     0
100
AcDbPoint
 10
134.5
 20
-300.0
 30
0.0
  0
POINT
  5
1DB9
330
2B42
100
AcDbEntity
  8
DEFPOINTS
 62
     0
100
AcDbPoint
 10
123.5
 20
-312.0
 30
0.0
  0
POINT
  5
1DBA
330
2B42
100
AcDbEntity
  8
DEFPOINTS
 62
     0
100
AcDbPoint
 10
284.6432844803785
 20
-312.0
 30
0.0
  0
ENDBLK
  5
177B
330
2B42
100
AcDbEntity
  8
0
100
AcDbBlockEnd
  0
BLOCK
  5
2B45
330
2B44
100
AcDbEntity
  8
0
100
AcDbBlockBegin
  2
*U62
 70
     1
 10
0.0
 20
0.0
 30
0.0
  3
*U62
  1

  0
TEXT
  5
1F45
330
2B44
100
AcDbEntity
  8
SIZE
 62
     0
100
AcDbText
 10
274.6432844803785
 20
-428.2857142857142
 30
0.0
 40
64.0
  1
12
 50
90.0
 41
0.9
100
AcDbText
  0
ENDBLK
  5
1F47
330
2B44
100
AcDbEntity
  8
0
100
AcDbBlockEnd
  0
BLOCK
  5
2B47
330
2B46
100
AcDbEntity
  8
0
100
AcDbBlockBegin
  2
*U63
 70
     1
 10
0.0
 20
0.0
 30
0.0
  3
*U63
  1

  0
ENDBLK
  5
1D57
330
2B46
100
AcDbEntity
  8
0
100
AcDbBlockEnd
  0
BLOCK
  5
2B49
330
2B48
100
AcDbEntity
  8
0
100
AcDbBlockBegin
  2
*U64
 70
     1
 10
0.0
 20
0.0
 30
0.0
  3
*U64
  1

  0
INSERT
  5
2088
330
2B48
100
AcDbEntity
  8
NOTE
100
AcDbBlockReference
  2
_OPEN30
 10
-140.0
 20
0.0
 30
0.0
 41
12.0
 42
12.0
 43
12.0
 50
312.6090116116894
  0
POLYLINE
  5
2089
330
2B48
100
AcDbEntity
  8
NOTE
100
AcDb2dPolyline
 66
     1
 10
0.0
 20
0.0
 30
0.0
  0
VERTEX
  5
2124
330
2089
100
AcDbEntity
  8
NOTE
100
AcDbVertex
100
AcDb2dVertex
 10
-148.1239008361894
 20
8.831887408915473
 30
0.0
  0
VERTEX
  5
2125
330
2089
100
AcDbEntity
  8
NOTE
100
AcDbVertex
100
AcDb2dVertex
 10
-227.8693999922543
 20
95.52709505801338
 30
0.0
  0
VERTEX
  5
2126
330
2089
100
AcDbEntity
  8
NOTE
100
AcDbVertex
100
AcDb2dVertex
 10
-773.7093999922541
 20
95.52709505801338
 30
0.0
  0
SEQEND
  5
2127
330
2089
100
AcDbEntity
  8
NOTE
  0
ENDBLK
  5
208A
330
2B48
100
AcDbEntity
  8
0
100
AcDbBlockEnd
  0
BLOCK
  5
2B4B
330
2B4A
100
AcDbEntity
  8
0
100
AcDbBlockBegin
  2
*U65
 70
     1
 10
0.0
 20
0.0
 30
0.0
  3
*U65
  1

  0
TEXT
  5
208D
330
2B4A
100
AcDbEntity
  8
NOTE
100
AcDbText
 10
-773.7093999922541
 20
113.5270950580134
 30
0.0
 40
64.0
  1
4×φ10取付穴
 41
0.9
100
AcDbText
  0
ENDBLK
  5
208E
330
2B4A
100
AcDbEntity
  8
0
100
AcDbBlockEnd
  0
BLOCK
  5
2B4D
330
2B4C
100
AcDbEntity
  8
0
100
AcDbBlockBegin
  2
*U66
 70
     1
 10
0.0
 20
0.0
 30
0.0
  3
*U66
  1

  0
INSERT
  5
25A0
330
2B4C
100
AcDbEntity
  8
NOTE
100
AcDbBlockReference
  2
_OPEN30
 10
-165.0
 20
-2.0
 30
0.0
 41
12.0
 42
12.0
 43
12.0
 50
312.6090116116894
  0
POLYLINE
  5
25A1
330
2B4C
100
AcDbEntity
  8
NOTE
100
AcDb2dPolyline
 66
     1
 10
0.0
 20
0.0
 30
0.0
  0
VERTEX
  5
25A2
330
25A1
100
AcDbEntity
  8
NOTE
100
AcDbVertex
100
AcDb2dVertex
 10
-173.1239008361894
 20
6.831887408915473
 30
0.0
  0
VERTEX
  5
25A3
330
25A1
100
AcDbEntity
  8
NOTE
100
AcDbVertex
100
AcDb2dVertex
 10
-252.8693999922543
 20
93.52709505801341
 30
0.0
  0
VERTEX
  5
25A4
330
25A1
100
AcDbEntity
  8
NOTE
100
AcDbVertex
100
AcDb2dVertex
 10
-798.7093999922541
 20
93.52709505801341
 30
0.0
  0
SEQEND
  5
25A5
330
25A1
100
AcDbEntity
  8
NOTE
  0
ENDBLK
  5
25A6
330
2B4C
100
AcDbEntity
  8
0
100
AcDbBlockEnd
  0
BLOCK
  5
2B4F
330
2B4E
100
AcDbEntity
  8
0
100
AcDbBlockBegin
  2
*U67
 70
     1
 10
0.0
 20
0.0
 30
0.0
  3
*U67
  1

  0
TEXT
  5
25A9
330
2B4E
100
AcDbEntity
  8
NOTE
100
AcDbText
 10
-798.7093999922541
 20
111.5270950580134
 30
0.0
 40
64.0
  1
4×φ10取付穴
 41
0.9
100
AcDbText
  0
ENDBLK
  5
25AA
330
2B4E
100
AcDbEntity
  8
0
100
AcDbBlockEnd
  0
BLOCK
  5
2B51
330
2B50
100
AcDbEntity
  8
0
100
AcDbBlockBegin
  2
*U68
 70
     1
 10
0.0
 20
0.0
 30
0.0
  3
*U68
  1

  0
INSERT
  5
288E
330
2B50
100
AcDbEntity
  8
NOTE
100
AcDbBlockReference
  2
_OPEN30
 10
-165.0
 20
0.0
 30
0.0
 41
12.0
 42
12.0
 43
12.0
 50
312.6090116116894
  0
POLYLINE
  5
288F
330
2B50
100
AcDbEntity
  8
NOTE
100
AcDb2dPolyline
 66
     1
 10
0.0
 20
0.0
 30
0.0
  0
VERTEX
  5
2890
330
288F
100
AcDbEntity
  8
NOTE
100
AcDbVertex
100
AcDb2dVertex
 10
-173.1239008361894
 20
8.831887408915473
 30
0.0
  0
VERTEX
  5
2891
330
288F
100
AcDbEntity
  8
NOTE
100
AcDbVertex
100
AcDb2dVertex
 10
-252.8693999922543
 20
95.52709505801338
 30
0.0
  0
VERTEX
  5
2892
330
288F
100
AcDbEntity
  8
NOTE
100
AcDbVertex
100
AcDb2dVertex
 10
-798.7093999922541
 20
95.52709505801338
 30
0.0
  0
SEQEND
  5
2893
330
288F
100
AcDbEntity
  8
NOTE
  0
ENDBLK
  5
2894
330
2B50
100
AcDbEntity
  8
0
100
AcDbBlockEnd
  0
BLOCK
  5
2B53
330
2B52
100
AcDbEntity
  8
0
100
AcDbBlockBegin
  2
*U69
 70
     1
 10
0.0
 20
0.0
 30
0.0
  3
*U69
  1

  0
TEXT
  5
2897
330
2B52
100
AcDbEntity
  8
NOTE
100
AcDbText
 10
-798.7093999922541
 20
113.5270950580134
 30
0.0
 40
64.0
  1
4×φ10取付穴
 41
0.9
100
AcDbText
  0
ENDBLK
  5
2898
330
2B52
100
AcDbEntity
  8
0
100
AcDbBlockEnd
  0
BLOCK
  5
2B55
330
2B54
100
AcDbEntity
  8
0
100
AcDbBlockBegin
  2
*X70
 70
     1
 10
0.0
 20
0.0
 30
0.0
  3
*X70
  1

  0
LINE
  5
289B
330
2B54
100
AcDbEntity
  8
0
 62
     0
100
AcDbLine
 10
-132.9000000000069
 20
-277.1144716994959
 30
0.0
 11
-123.900385822997
 21
-281.4000000000015
 31
0.0
  0
LINE
  5
289C
330
2B54
100
AcDbEntity
  8
0
 62
     0
100
AcDbLine
 10
-132.9000000000087
 20
-267.1145199553603
 30
0.0
 11
-102.9004760860043
 21
-281.4000000000015
 31
0.0
  0
LINE
  5
289D
330
2B54
100
AcDbEntity
  8
0
 62
     0
100
AcDbLine
 10
-132.9000000000087
 20
-257.1145682112265
 30
0.0
 11
-81.90056634901884
 21
-281.3999999999996
 31
0.0
  0
LINE
  5
289E
330
2B54
100
AcDbEntity
  8
0
 62
     0
100
AcDbLine
 10
-132.9000000000087
 20
-247.1146164670927
 30
0.0
 11
-60.90065661202607
 21
-281.4000000000015
 31
0.0
  0
LINE
  5
289F
330
2B54
100
AcDbEntity
  8
0
 62
     0
100
AcDbLine
 10
-132.9000000000069
 20
-237.1146647229589
 30
0.0
 11
-39.90074687503511
 21
-281.4000000000015
 31
0.0
  0
LINE
  5
28A0
330
2B54
100
AcDbEntity
  8
0
 62
     0
100
AcDbLine
 10
-132.9000000000087
 20
-227.1147129788233
 30
0.0
 11
-18.90083713804413
 21
-281.4000000000015
 31
0.0
  0
LINE
  5
28A1
330
2B54
100
AcDbEntity
  8
0
 62
     0
100
AcDbLine
 10
-82.90000000000873
 20
-240.9242724882533
 30
0.0
 11
-71.40096616131995
 21
-246.4000000000015
 31
0.0
  0
LINE
  5
28A2
330
2B54
100
AcDbEntity
  8
0
 62
     0
100
AcDbLine
 10
-71.40096616131995
 20
-246.4000000000015
 30
0.0
 11
2.099072598946803
 21
-281.4000000000015
 31
0.0
  0
LINE
  5
28A3
330
2B54
100
AcDbEntity
  8
0
 62
     0
100
AcDbLine
 10
-132.9000000000069
 20
-217.1147612346895
 30
0.0
 11
-82.90000000000873
 21
-240.9242724882533
 31
0.0
  0
LINE
  5
28A4
330
2B54
100
AcDbEntity
  8
0
 62
     0
100
AcDbLine
 10
-82.9000000000069
 20
-230.9243207441195
 30
0.0
 11
-50.40105642432901
 21
-246.4000000000005
 31
0.0
  0
LINE
  5
28A5
330
2B54
100
AcDbEntity
  8
0
 62
     0
100
AcDbLine
 10
-50.40105642432901
 20
-246.4000000000005
 30
0.0
 11
23.09898233593776
 21
-281.4000000000005
 31
0.0
  0
LINE
  5
28A6
330
2B54
100
AcDbEntity
  8
0
 62
     0
100
AcDbLine
 10
-132.9000000000087
 20
-207.1148094905538
 30
0.0
 11
-82.9000000000069
 21
-230.9243207441195
 31
0.0
  0
LINE
  5
28A7
330
2B54
100
AcDbEntity
  8
0
 62
     0
100
AcDbLine
 10
-82.90000000000873
 20
-220.9243689999839
 30
0.0
 11
-29.40114668733804
 21
-246.4000000000005
 31
0.0
  0
LINE
  5
28A8
330
2B54
100
AcDbEntity
  8
0
 62
     0
100
AcDbLine
 10
-29.40114668733804
 20
-246.4000000000005
 30
0.0
 11
44.09889207292871
 21
-281.4000000000005
 31
0.0
  0
LINE
  5
28A9
330
2B54
100
AcDbEntity
  8
0
 62
     0
100
AcDbLine
 10
-132.9000000000105
 20
-197.1148577464182
 30
0.0
 11
-82.90000000000873
 21
-220.9243689999839
 31
0.0
  0
LINE
  5
28AA
330
2B54
100
AcDbEntity
  8
0
 62
     0
100
AcDbLine
 10
-82.9000000000069
 20
-210.9244172558518
 30
0.0
 11
-8.401236950348902
 21
-246.4000000000015
 31
0.0
  0
LINE
  5
28AB
330
2B54
100
AcDbEntity
  8
0
 62
     0
100
AcDbLine
 10
-8.401236950348902
 20
-246.4000000000015
 30
0.0
 11
65.09880180991604
 21
-281.4000000000015
 31
0.0
  0
LINE
  5
28AC
330
2B54
100
AcDbEntity
  8
0
 62
     0
100
AcDbLine
 10
-132.9000000000087
 20
-187.1149060022862
 30
0.0
 11
-82.9000000000069
 21
-210.9244172558518
 31
0.0
  0
LINE
  5
28AD
330
2B54
100
AcDbEntity
  8
0
 62
     0
100
AcDbLine
 10
-82.9000000000069
 20
-200.9244655117163
 30
0.0
 11
12.59867278664205
 21
-246.4000000000005
 31
0.0
  0
LINE
  5
28AE
330
2B54
100
AcDbEntity
  8
0
 62
     0
100
AcDbLine
 10
12.59867278664205
 20
-246.4000000000005
 30
0.0
 11
86.09871154690882
 21
-281.4000000000005
 31
0.0
  0
LINE
  5
28AF
330
2B54
100
AcDbEntity
  8
0
 62
     0
100
AcDbLine
 10
-132.9000000000087
 20
-177.1149542581515
 30
0.0
 11
-82.9000000000069
 21
-200.9244655117163
 31
0.0
  0
LINE
  5
28B0
330
2B54
100
AcDbEntity
  8
0
 62
     0
100
AcDbLine
 10
-82.9000000000069
 20
-190.9245137675824
 30
0.0
 11
33.59858252362939
 21
-246.3999999999996
 31
0.0
  0
LINE
  5
28B1
330
2B54
100
AcDbEntity
  8
0
 62
     0
100
AcDbLine
 10
33.5985825236312
 20
-246.4000000000005
 30
0.0
 11
107.0986212838979
 21
-281.4000000000005
 31
0.0
  0
LINE
  5
28B2
330
2B54
100
AcDbEntity
  8
0
 62
     0
100
AcDbLine
 10
-132.9000000000087
 20
-167.1150025140168
 30
0.0
 11
-82.9000000000069
 21
-190.9245137675824
 31
0.0
  0
LINE
  5
28B3
330
2B54
100
AcDbEntity
  8
0
 62
     0
100
AcDbLine
 10
-82.9000000000069
 20
-180.9245620234469
 30
0.0
 11
54.59849226062215
 21
-246.3999999999987
 31
0.0
  0
LINE
  5
28B4
330
2B54
100
AcDbEntity
  8
0
 62
     0
100
AcDbLine
 10
54.59849226062579
 20
-246.4000000000005
 30
0.0
 11
128.0985310208925
 21
-281.4000000000005
 31
0.0
  0
LINE
  5
28B5
330
2B54
100
AcDbEntity
  8
0
 62
     0
100
AcDbLine
 10
-132.9000000000105
 20
-157.1150507698803
 30
0.0
 11
-82.9000000000069
 21
-180.9245620234469
 31
0.0
  0
LINE
  5
28B6
330
2B54
100
AcDbEntity
  8
0
 62
     0
100
AcDbLine
 10
-82.90000000000508
 20
-170.9246102793131
 30
0.0
 11
75.59840199761129
 21
-246.3999999999987
 31
0.0
  0
LINE
  5
28B7
330
2B54
100
AcDbEntity
  8
0
 62
     0
100
AcDbLine
 10
75.59840199761129
 20
-246.3999999999987
 30
0.0
 11
132.899999999996
 21
-273.686460849699
 31
0.0
  0
LINE
  5
28B8
330
2B54
100
AcDbEntity
  8
0
 62
     0
100
AcDbLine
 10
-132.9000000000105
 20
-147.1150990257465
 30
0.0
 11
-82.90000000000508
 21
-170.9246102793131
 31
0.0
  0
LINE
  5
28B9
330
2B54
100
AcDbEntity
  8
0
 62
     0
100
AcDbLine
 10
-82.90000000000873
 20
-160.9246585351793
 30
0.0
 11
96.59831173460226
 21
-246.4000000000005
 31
0.0
  0
LINE
  5
28BA
330
2B54
100
AcDbEntity
  8
0
 62
     0
100
AcDbLine
 10
96.59831173460226
 20
-246.4000000000005
 30
0.0
 11
132.8999999999905
 21
-263.6865091055633
 31
0.0
  0
LINE
  5
28BB
330
2B54
100
AcDbEntity
  8
0
 62
     0
100
AcDbLine
 10
-132.9000000000142
 20
-137.1151472816127
 30
0.0
 11
-82.90000000000873
 21
-160.9246585351793
 31
0.0
  0
LINE
  5
28BC
330
2B54
100
AcDbEntity
  8
0
 62
     0
100
AcDbLine
 10
-82.90000000000324
 20
-150.9247067910455
 30
0.0
 11
117.598221471595
 21
-246.4000000000005
 31
0.0
  0
LINE
  5
28BD
330
2B54
100
AcDbEntity
  8
0
 62
     0
100
AcDbLine
 10
117.598221471595
 20
-246.4000000000005
 30
0.0
 11
132.8999999999905
 21
-253.6865573614278
 31
0.0
  0
LINE
  5
28BE
330
2B54
100
AcDbEntity
  8
0
 62
     0
100
AcDbLine
 10
-132.9000000000123
 20
-127.1151955374771
 30
0.0
 11
-82.9000000000069
 21
-150.9247067910446
 31
0.0
  0
LINE
  5
28BF
330
2B54
100
AcDbEntity
  8
0
 62
     0
100
AcDbLine
 10
-82.9000000000069
 20
-140.9247550469108
 30
0.0
 11
132.8999999999942
 21
-243.6866056172958
 31
0.0
  0
LINE
  5
28C0
330
2B54
100
AcDbEntity
  8
0
 62
     0
100
AcDbLine
 10
-132.9000000000123
 20
-117.1152437933433
 30
0.0
 11
-82.90000000001056
 21
-140.924755046909
 31
0.0
  0
LINE
  5
28C1
330
2B54
100
AcDbEntity
  8
0
 62
     0
100
AcDbLine
 10
-82.9000000000069
 20
-130.9248033027752
 30
0.0
 11
132.899999999996
 21
-233.6866538731619
 31
0.0
  0
LINE
  5
28C2
330
2B54
100
AcDbEntity
  8
0
 62
     0
100
AcDbLine
 10
-132.9000000000123
 20
-107.1152920492077
 30
0.0
 11
-82.90000000001056
 21
-130.9248033027734
 31
0.0
  0
LINE
  5
28C3
330
2B54
100
AcDbEntity
  8
0
 62
     0
100
AcDbLine
 10
-82.90000000000508
 20
-120.9248515586414
 30
0.0
 11
132.899999999996
 21
-223.6867021290263
 31
0.0
  0
LINE
  5
28C4
330
2B54
100
AcDbEntity
  8
0
 62
     0
100
AcDbLine
 10
-132.9000000000105
 20
-97.11534030507394
 30
0.0
 11
-82.90000000000873
 21
-120.9248515586396
 31
0.0
  0
LINE
  5
28C5
330
2B54
100
AcDbEntity
  8
0
 62
     0
100
AcDbLine
 10
-82.90000000000873
 20
-110.9248998145076
 30
0.0
 11
132.8999999999923
 21
-213.6867503848925
 31
0.0
  0
LINE
  5
28C6
330
2B54
100
AcDbEntity
  8
0
 62
     0
100
AcDbLine
 10
-132.9000000000142
 20
-87.11538856094014
 30
0.0
 11
-82.90000000001056
 21
-110.9248998145058
 31
0.0
  0
LINE
  5
28C7
330
2B54
100
AcDbEntity
  8
0
 62
     0
100
AcDbLine
 10
-82.90000000000508
 20
-100.9249480703738
 30
0.0
 11
132.899999999996
 21
-203.6867986407588
 31
0.0
  0
LINE
  5
28C8
330
2B54
100
AcDbEntity
  8
0
 62
     0
100
AcDbLine
 10
-132.9000000000105
 20
-77.11543681680632
 30
0.0
 11
-82.90000000001239
 21
-100.9249480703702
 31
0.0
  0
LINE
  5
28C9
330
2B54
100
AcDbEntity
  8
0
 62
     0
100
AcDbLine
 10
-82.9000000000069
 20
-90.92499632623821
 30
0.0
 11
132.8999999999942
 21
-193.686846896623
 31
0.0
  0
LINE
  5
28CA
330
2B54
100
AcDbEntity
  8
0
 62
     0
100
AcDbLine
 10
-132.9000000000123
 20
-67.11548507267071
 30
0.0
 11
-82.90000000001056
 21
-90.9249963262364
 31
0.0
  0
LINE
  5
28CB
330
2B54
100
AcDbEntity
  8
0
 62
     0
100
AcDbLine
 10
-82.9000000000069
 20
-80.9250445821044
 30
0.0
 11
132.8999999999942
 21
-183.6868951524893
 31
0.0
  0
LINE
  5
28CC
330
2B54
100
AcDbEntity
  8
0
 62
     0
100
AcDbLine
 10
-132.9000000000142
 20
-57.11553332853508
 30
0.0
 11
-82.90000000001239
 21
-80.92504458210077
 31
0.0
  0
LINE
  5
28CD
330
2B54
100
AcDbEntity
  8
0
 62
     0
100
AcDbLine
 10
-82.9000000000069
 20
-70.92509283796882
 30
0.0
 11
132.8999999999942
 21
-173.6869434083537
 31
0.0
  0
LINE
  5
28CE
330
2B54
100
AcDbEntity
  8
0
 62
     0
100
AcDbLine
 10
-121.3827152536105
 20
-52.60000000000037
 30
0.0
 11
-82.90000000001056
 21
-70.92509283796698
 31
0.0
  0
LINE
  5
28CF
330
2B54
100
AcDbEntity
  8
0
 62
     0
100
AcDbLine
 10
-82.90000000000873
 20
-60.92514109383319
 30
0.0
 11
132.899999999996
 21
-163.6869916642199
 31
0.0
  0
LINE
  5
28D0
330
2B54
100
AcDbEntity
  8
0
 62
     0
100
AcDbLine
 10
-100.3828055166195
 20
-52.60000000000037
 30
0.0
 11
-82.90000000001056
 21
-60.92514109383134
 31
0.0
  0
LINE
  5
28D1
330
2B54
100
AcDbEntity
  8
0
 62
     0
100
AcDbLine
 10
-79.38289577962859
 20
-52.60000000000218
 30
0.0
 11
132.8999999999942
 21
-153.6870399200861
 31
0.0
  0
LINE
  5
28D2
330
2B54
100
AcDbEntity
  8
0
 62
     0
100
AcDbLine
 10
-58.38298604263765
 20
-52.60000000000218
 30
0.0
 11
132.899999999996
 21
-143.6870881759523
 31
0.0
  0
LINE
  5
28D3
330
2B54
100
AcDbEntity
  8
0
 62
     0
100
AcDbLine
 10
-37.38307630564668
 20
-52.60000000000218
 30
0.0
 11
132.899999999996
 21
-133.6871364318175
 31
0.0
  0
LINE
  5
28D4
330
2B54
100
AcDbEntity
  8
0
 62
     0
100
AcDbLine
 10
-16.38316656865572
 20
-52.60000000000218
 30
0.0
 11
132.8999999999923
 21
-123.687184687682
 31
0.0
  0
LINE
  5
28D5
330
2B54
100
AcDbEntity
  8
0
 62
     0
100
AcDbLine
 10
4.616743168337049
 20
-52.60000000000128
 30
0.0
 11
132.899999999996
 21
-113.6872329435482
 31
0.0
  0
LINE
  5
28D6
330
2B54
100
AcDbEntity
  8
0
 62
     0
100
AcDbLine
 10
25.61665290532801
 20
-52.60000000000309
 30
0.0
 11
132.8999999999942
 21
-103.6872811994144
 31
0.0
  0
LINE
  5
28D7
330
2B54
100
AcDbEntity
  8
0
 62
     0
100
AcDbLine
 10
46.61656264231896
 20
-52.60000000000309
 30
0.0
 11
132.899999999996
 21
-93.68732945528064
 31
0.0
  0
LINE
  5
28D8
330
2B54
100
AcDbEntity
  8
0
 62
     0
100
AcDbLine
 10
67.61647237930811
 20
-52.60000000000128
 30
0.0
 11
132.899999999996
 21
-83.68737771114497
 31
0.0
  0
LINE
  5
28D9
330
2B54
100
AcDbEntity
  8
0
 62
     0
100
AcDbLine
 10
88.61638211629722
 20
-52.60000000000128
 30
0.0
 11
132.899999999996
 21
-73.68742596701122
 31
0.0
  0
LINE
  5
28DA
330
2B54
100
AcDbEntity
  8
0
 62
     0
100
AcDbLine
 10
109.6162918532864
 20
-52.59999999999945
 30
0.0
 11
132.8999999999942
 21
-63.68747422287561
 31
0.0
  0
LINE
  5
28DB
330
2B54
100
AcDbEntity
  8
0
 62
     0
100
AcDbLine
 10
130.6162015902773
 20
-52.59999999999945
 30
0.0
 11
132.8999999999978
 21
-53.6875224787418
 31
0.0
  0
ENDBLK
  5
28DC
330
2B54
100
AcDbEntity
  8
0
100
AcDbBlockEnd
  0
BLOCK
  5
2B57
330
2B56
100
AcDbEntity
  8
0
100
AcDbBlockBegin
  2
*X71
 70
     1
 10
0.0
 20
0.0
 30
0.0
  3
*X71
  1

  0
LINE
  5
28DF
330
2B56
100
AcDbEntity
  8
0
 62
     0
100
AcDbLine
 10
129.7842420880042
 20
-281.3999999999996
 30
0.0
 11
132.9000000000014
 21
-279.9163065386183
 31
0.0
  0
LINE
  5
28E0
330
2B56
100
AcDbEntity
  8
0
 62
     0
100
AcDbLine
 10
108.7843323510133
 20
-281.3999999999996
 30
0.0
 11
132.900000000005
 21
-269.9163547944827
 31
0.0
  0
LINE
  5
28E1
330
2B56
100
AcDbEntity
  8
0
 62
     0
100
AcDbLine
 10
87.78442261402597
 20
-281.3999999999996
 30
0.0
 11
132.900000000005
 21
-259.9164030503489
 31
0.0
  0
LINE
  5
28E2
330
2B56
100
AcDbEntity
  8
0
 62
     0
100
AcDbLine
 10
66.78451287703501
 20
-281.3999999999978
 30
0.0
 11
132.9000000000014
 21
-249.9164513062133
 31
0.0
  0
LINE
  5
28E3
330
2B56
100
AcDbEntity
  8
0
 62
     0
100
AcDbLine
 10
119.2846419003108
 20
-246.3999999999996
 30
0.0
 11
132.9000000000014
 21
-239.9164995620813
 31
0.0
  0
LINE
  5
28E4
330
2B56
100
AcDbEntity
  8
0
 62
     0
100
AcDbLine
 10
45.78460314004405
 20
-281.3999999999996
 30
0.0
 11
119.2846419003108
 21
-246.3999999999996
 31
0.0
  0
LINE
  5
28E5
330
2B56
100
AcDbEntity
  8
0
 62
     0
100
AcDbLine
 10
98.28473216331623
 20
-246.3999999999996
 30
0.0
 11
132.9000000000014
 21
-229.9165478179457
 31
0.0
  0
LINE
  5
28E6
330
2B56
100
AcDbEntity
  8
0
 62
     0
100
AcDbLine
 10
24.78469340304946
 20
-281.3999999999996
 30
0.0
 11
98.28473216331623
 21
-246.3999999999996
 31
0.0
  0
LINE
  5
28E7
330
2B56
100
AcDbEntity
  8
0
 62
     0
100
AcDbLine
 10
77.2848224263289
 20
-246.3999999999996
 30
0.0
 11
132.9000000000014
 21
-219.9165960738119
 31
0.0
  0
LINE
  5
28E8
330
2B56
100
AcDbEntity
  8
0
 62
     0
100
AcDbLine
 10
3.784783666062137
 20
-281.3999999999996
 30
0.0
 11
77.2848224263289
 21
-246.3999999999996
 31
0.0
  0
LINE
  5
28E9
330
2B56
100
AcDbEntity
  8
0
 62
     0
100
AcDbLine
 10
56.28491268933794
 20
-246.3999999999996
 30
0.0
 11
132.900000000005
 21
-209.9166443296763
 31
0.0
  0
LINE
  5
28EA
330
2B56
100
AcDbEntity
  8
0
 62
     0
100
AcDbLine
 10
-17.21512607092882
 20
-281.3999999999996
 30
0.0
 11
56.28491268933794
 21
-246.3999999999996
 31
0.0
  0
LINE
  5
28EB
330
2B56
100
AcDbEntity
  8
0
 62
     0
100
AcDbLine
 10
35.28500295234699
 20
-246.3999999999978
 30
0.0
 11
132.9000000000014
 21
-199.9166925855424
 31
0.0
  0
LINE
  5
28EC
330
2B56
100
AcDbEntity
  8
0
 62
     0
100
AcDbLine
 10
-38.21503580792342
 20
-281.3999999999996
 30
0.0
 11
35.28500295234699
 21
-246.3999999999978
 31
0.0
  0
LINE
  5
28ED
330
2B56
100
AcDbEntity
  8
0
 62
     0
100
AcDbLine
 10
14.28509321535603
 20
-246.3999999999996
 30
0.0
 11
132.9000000000014
 21
-189.9167408414084
 31
0.0
  0
LINE
  5
28EE
330
2B56
100
AcDbEntity
  8
0
 62
     0
100
AcDbLine
 10
-59.21494554491072
 20
-281.4000000000015
 30
0.0
 11
14.28509321535603
 21
-246.3999999999996
 31
0.0
  0
LINE
  5
28EF
330
2B56
100
AcDbEntity
  8
0
 62
     0
100
AcDbLine
 10
-6.714816521631287
 20
-246.3999999999996
 30
0.0
 11
132.9000000000014
 21
-179.9167890972748
 31
0.0
  0
LINE
  5
28F0
330
2B56
100
AcDbEntity
  8
0
 62
     0
100
AcDbLine
 10
-80.2148552819017
 20
-281.4000000000015
 30
0.0
 11
-6.714816521631287
 21
-246.3999999999996
 31
0.0
  0
LINE
  5
28F1
330
2B56
100
AcDbEntity
  8
0
 62
     0
100
AcDbLine
 10
-27.71472625862589
 20
-246.3999999999996
 30
0.0
 11
132.9000000000014
 21
-169.9168373531411
 31
0.0
  0
LINE
  5
28F2
330
2B56
100
AcDbEntity
  8
0
 62
     0
100
AcDbLine
 10
-101.2147650188963
 20
-281.4000000000015
 30
0.0
 11
-27.71472625862589
 21
-246.3999999999996
 31
0.0
  0
LINE
  5
28F3
330
2B56
100
AcDbEntity
  8
0
 62
     0
100
AcDbLine
 10
-48.71463599561685
 20
-246.3999999999996
 30
0.0
 11
132.900000000005
 21
-159.9168856090054
 31
0.0
  0
LINE
  5
28F4
330
2B56
100
AcDbEntity
  8
0
 62
     0
100
AcDbLine
 10
-122.2146747558836
 20
-281.4000000000015
 30
0.0
 11
-48.71463599561685
 21
-246.3999999999996
 31
0.0
  0
LINE
  5
28F5
330
2B56
100
AcDbEntity
  8
0
 62
     0
100
AcDbLine
 10
-69.71454573260053
 20
-246.3999999999978
 30
0.0
 11
132.9000000000014
 21
-149.9169338648717
 31
0.0
  0
LINE
  5
28F6
330
2B56
100
AcDbEntity
  8
0
 62
     0
100
AcDbLine
 10
-132.9000000000014
 20
-276.4882956888232
 30
0.0
 11
-69.71454573260416
 21
-246.3999999999996
 31
0.0
  0
LINE
  5
28F7
330
2B56
100
AcDbEntity
  8
0
 62
     0
100
AcDbLine
 10
-82.89999999999782
 20
-242.6788326911228
 30
0.0
 11
132.9000000000014
 21
-139.9169821207379
 31
0.0
  0
LINE
  5
28F8
330
2B56
100
AcDbEntity
  8
0
 62
     0
100
AcDbLine
 10
-132.9000000000087
 20
-266.4883439446912
 30
0.0
 11
-82.90000000000508
 21
-242.6788326911264
 31
0.0
  0
LINE
  5
28F9
330
2B56
100
AcDbEntity
  8
0
 62
     0
100
AcDbLine
 10
-82.89999999999782
 20
-232.678880946989
 30
0.0
 11
132.9000000000014
 21
-129.9170303766041
 31
0.0
  0
LINE
  5
28FA
330
2B56
100
AcDbEntity
  8
0
 62
     0
100
AcDbLine
 10
-132.900000000005
 20
-256.4883922005556
 30
0.0
 11
-82.90000000000146
 21
-232.6788809469908
 31
0.0
  0
LINE
  5
28FB
330
2B56
100
AcDbEntity
  8
0
 62
     0
100
AcDbLine
 10
-82.90000000000146
 20
-222.6789292028534
 30
0.0
 11
132.9000000000014
 21
-119.9170786324684
 31
0.0
  0
LINE
  5
28FC
330
2B56
100
AcDbEntity
  8
0
 62
     0
100
AcDbLine
 10
-132.900000000005
 20
-246.48844045642
 30
0.0
 11
-82.90000000000508
 21
-222.678929202857
 31
0.0
  0
LINE
  5
28FD
330
2B56
100
AcDbEntity
  8
0
 62
     0
100
AcDbLine
 10
-82.90000000000146
 20
-212.6789774587196
 30
0.0
 11
132.9000000000014
 21
-109.9171268883347
 31
0.0
  0
LINE
  5
28FE
330
2B56
100
AcDbEntity
  8
0
 62
     0
100
AcDbLine
 10
-132.900000000005
 20
-236.4884887122862
 30
0.0
 11
-82.90000000000508
 21
-212.6789774587214
 31
0.0
  0
LINE
  5
28FF
330
2B56
100
AcDbEntity
  8
0
 62
     0
100
AcDbLine
 10
-82.89999999999782
 20
-202.679025714584
 30
0.0
 11
132.9000000000014
 21
-99.9171751441991
 31
0.0
  0
LINE
  5
2900
330
2B56
100
AcDbEntity
  8
0
 62
     0
100
AcDbLine
 10
-132.9000000000014
 20
-226.4885369681506
 30
0.0
 11
-82.90000000000146
 21
-202.6790257145858
 31
0.0
  0
LINE
  5
2901
330
2B56
100
AcDbEntity
  8
0
 62
     0
100
AcDbLine
 10
-82.89999999999782
 20
-192.6790739704501
 30
0.0
 11
132.900000000005
 21
-89.91722340006345
 31
0.0
  0
LINE
  5
2902
330
2B56
100
AcDbEntity
  8
0
 62
     0
100
AcDbLine
 10
-132.900000000005
 20
-216.4885852240168
 30
0.0
 11
-82.89999999999782
 21
-192.6790739704501
 31
0.0
  0
LINE
  5
2903
330
2B56
100
AcDbEntity
  8
0
 62
     0
100
AcDbLine
 10
-82.89999999999782
 20
-182.6791222263164
 30
0.0
 11
132.9000000000014
 21
-79.91727165593147
 31
0.0
  0
LINE
  5
2904
330
2B56
100
AcDbEntity
  8
0
 62
     0
100
AcDbLine
 10
-132.900000000005
 20
-206.4886334798829
 30
0.0
 11
-82.89999999999782
 21
-182.6791222263164
 31
0.0
  0
LINE
  5
2905
330
2B56
100
AcDbEntity
  8
0
 62
     0
100
AcDbLine
 10
-82.90000000000146
 20
-172.6791704821826
 30
0.0
 11
132.900000000005
 21
-69.91731991179586
 31
0.0
  0
LINE
  5
2906
330
2B56
100
AcDbEntity
  8
0
 62
     0
100
AcDbLine
 10
-132.900000000005
 20
-196.4886817357492
 30
0.0
 11
-82.90000000000146
 21
-172.6791704821826
 31
0.0
  0
LINE
  5
2907
330
2B56
100
AcDbEntity
  8
0
 62
     0
100
AcDbLine
 10
-82.90000000000146
 20
-162.679218738047
 30
0.0
 11
132.9000000000014
 21
-59.91736816766206
 31
0.0
  0
LINE
  5
2908
330
2B56
100
AcDbEntity
  8
0
 62
     0
100
AcDbLine
 10
-132.900000000005
 20
-186.4887299916136
 30
0.0
 11
-82.90000000000146
 21
-162.679218738047
 31
0.0
  0
LINE
  5
2909
330
2B56
100
AcDbEntity
  8
0
 62
     0
100
AcDbLine
 10
-82.89999999999782
 20
-152.6792669939113
 30
0.0
 11
127.2665715186194
 21
-52.60000000000037
 31
0.0
  0
LINE
  5
290A
330
2B56
100
AcDbEntity
  8
0
 62
     0
100
AcDbLine
 10
-132.900000000005
 20
-176.4887782474798
 30
0.0
 11
-82.89999999999782
 21
-152.6792669939113
 31
0.0
  0
LINE
  5
290B
330
2B56
100
AcDbEntity
  8
0
 62
     0
100
AcDbLine
 10
-82.89999999999782
 20
-142.6793152497774
 30
0.0
 11
106.2666617816285
 21
-52.59999999999855
 31
0.0
  0
LINE
  5
290C
330
2B56
100
AcDbEntity
  8
0
 62
     0
100
AcDbLine
 10
-132.9000000000014
 20
-166.4888265033441
 30
0.0
 11
-82.90000000000146
 21
-142.6793152497794
 31
0.0
  0
LINE
  5
290D
330
2B56
100
AcDbEntity
  8
0
 62
     0
100
AcDbLine
 10
-82.89999999999782
 20
-132.6793635056437
 30
0.0
 11
85.26675204463391
 21
-52.60000000000037
 31
0.0
  0
LINE
  5
290E
330
2B56
100
AcDbEntity
  8
0
 62
     0
100
AcDbLine
 10
-132.9000000000014
 20
-156.4888747592104
 30
0.0
 11
-82.90000000000146
 21
-132.6793635056456
 31
0.0
  0
LINE
  5
290F
330
2B56
100
AcDbEntity
  8
0
 62
     0
100
AcDbLine
 10
-82.90000000000146
 20
-122.67941176151
 30
0.0
 11
64.26684230764658
 21
-52.60000000000037
 31
0.0
  0
LINE
  5
2910
330
2B56
100
AcDbEntity
  8
0
 62
     0
100
AcDbLine
 10
-132.9000000000014
 20
-146.4889230150766
 30
0.0
 11
-82.90000000000508
 21
-122.6794117615118
 31
0.0
  0
LINE
  5
2911
330
2B56
100
AcDbEntity
  8
0
 62
     0
100
AcDbLine
 10
-82.89999999999782
 20
-112.6794600173743
 30
0.0
 11
43.26693257065561
 21
-52.60000000000037
 31
0.0
  0
LINE
  5
2912
330
2B56
100
AcDbEntity
  8
0
 62
     0
100
AcDbLine
 10
-132.8999999999978
 20
-136.4889712709409
 30
0.0
 11
-82.90000000000146
 21
-112.6794600173762
 31
0.0
  0
LINE
  5
2913
330
2B56
100
AcDbEntity
  8
0
 62
     0
100
AcDbLine
 10
-82.90000000000146
 20
-102.6795082732405
 30
0.0
 11
22.26702283366103
 21
-52.60000000000037
 31
0.0
  0
LINE
  5
2914
330
2B56
100
AcDbEntity
  8
0
 62
     0
100
AcDbLine
 10
-132.900000000005
 20
-126.4890195268072
 30
0.0
 11
-82.90000000000508
 21
-102.6795082732424
 31
0.0
  0
LINE
  5
2915
330
2B56
100
AcDbEntity
  8
0
 62
     0
100
AcDbLine
 10
-82.89999999999421
 20
-92.67955652910314
 30
0.0
 11
1.267113096673707
 21
-52.60000000000037
 31
0.0
  0
LINE
  5
2916
330
2B56
100
AcDbEntity
  8
0
 62
     0
100
AcDbLine
 10
-132.9000000000014
 20
-116.4890677826715
 30
0.0
 11
-82.90000000000146
 21
-92.67955652910677
 31
0.0
  0
LINE
  5
2917
330
2B56
100
AcDbEntity
  8
0
 62
     0
100
AcDbLine
 10
-82.89999999999421
 20
-82.67960478496934
 30
0.0
 11
-19.73279664031725
 21
-52.60000000000218
 31
0.0
  0
LINE
  5
2918
330
2B56
100
AcDbEntity
  8
0
 62
     0
100
AcDbLine
 10
-132.9000000000014
 20
-106.4891160385396
 30
0.0
 11
-82.90000000000146
 21
-82.6796047849748
 31
0.0
  0
LINE
  5
2919
330
2B56
100
AcDbEntity
  8
0
 62
     0
100
AcDbLine
 10
-82.89999999999782
 20
-72.67965304083555
 30
0.0
 11
-40.73270637731184
 21
-52.60000000000218
 31
0.0
  0
LINE
  5
291A
330
2B56
100
AcDbEntity
  8
0
 62
     0
100
AcDbLine
 10
-132.9000000000014
 20
-96.48916429440395
 30
0.0
 11
-82.90000000000508
 21
-72.67965304083919
 31
0.0
  0
LINE
  5
291B
330
2B56
100
AcDbEntity
  8
0
 62
     0
100
AcDbLine
 10
-82.89999999999421
 20
-62.67970129669993
 30
0.0
 11
-61.73261611429914
 21
-52.60000000000037
 31
0.0
  0
LINE
  5
291C
330
2B56
100
AcDbEntity
  8
0
 62
     0
100
AcDbLine
 10
-132.8999999999978
 20
-86.48921255026834
 30
0.0
 11
-82.90000000000508
 21
-62.67970129670538
 31
0.0
  0
LINE
  5
291D
330
2B56
100
AcDbEntity
  8
0
 62
     0
100
AcDbLine
 10
-82.89999999999782
 20
-52.67974955256613
 30
0.0
 11
-82.73252585128648
 21
-52.59999999999855
 31
0.0
  0
LINE
  5
291E
330
2B56
100
AcDbEntity
  8
0
 62
     0
100
AcDbLine
 10
-132.900000000005
 20
-76.48926080613455
 30
0.0
 11
-82.90000000000508
 21
-52.67974955256978
 31
0.0
  0
LINE
  5
291F
330
2B56
100
AcDbEntity
  8
0
 62
     0
100
AcDbLine
 10
-132.9000000000014
 20
-66.48930906199892
 30
0.0
 11
-103.7324355882774
 21
-52.59999999999855
 31
0.0
  0
LINE
  5
2920
330
2B56
100
AcDbEntity
  8
0
 62
     0
100
AcDbLine
 10
-132.9000000000014
 20
-56.48935731786514
 30
0.0
 11
-124.732345325272
 21
-52.60000000000037
 31
0.0
  0
ENDBLK
  5
2921
330
2B56
100
AcDbEntity
  8
0
100
AcDbBlockEnd
  0
BLOCK
  5
2D24
330
2D23
100
AcDbEntity
  8
0
100
AcDbBlockBegin
  2
*U72
 70
     1
 10
0.0
 20
0.0
 30
0.0
  3
*U72
  1

  0
ENDBLK
  5
2D25
330
2D23
100
AcDbEntity
  8
0
100
AcDbBlockEnd
  0
BLOCK
  5
2FBC
330
2FBB
100
AcDbEntity
  8
0
100
AcDbBlockBegin
  2
*U73
 70
     1
 10
0.0
 20
0.0
 30
0.0
  3
*U73
  1

  0
ENDBLK
  5
2FBD
330
2FBB
100
AcDbEntity
  8
0
100
AcDbBlockEnd
  0
ENDSEC
  0
SECTION
  2
ENTITIES
  0
TEXT
  5
953
330
2A7E
100
AcDbEntity
  8
OUTLINE
  6
Continuous
 62
     3
100
AcDbText
 10
-418.231467
 20
13.715189
 30
0.0
 40
64.0
  1
 
 41
0.9
100
AcDbText
  0
TEXT
  5
954
330
2A7E
100
AcDbEntity
  8
OUTLINE
  6
Continuous
 62
     3
100
AcDbText
 10
-418.231467
 20
13.715189
 30
0.0
 40
64.0
  1
 
 41
0.9
100
AcDbText
  0
TEXT
  5
955
330
2A7E
100
AcDbEntity
  8
OUTLINE
  6
Continuous
 62
     3
100
AcDbText
 10
1341.41903
 20
-706.0588199999997
 30
0.0
 40
64.0
  1
 
 41
0.9
100
AcDbText
  0
TEXT
  5
956
330
2A7E
100
AcDbEntity
  8
OUTLINE
  6
Continuous
 62
     3
100
AcDbText
 10
1341.41903
 20
-706.0588199999997
 30
0.0
 40
64.0
  1
 
 41
0.9
100
AcDbText
  0
TEXT
  5
957
330
2A7E
100
AcDbEntity
  8
OUTLINE
  6
Continuous
 62
     3
100
AcDbText
 10
1341.41903
 20
-706.0588199999997
 30
0.0
 40
64.0
  1
 
 41
0.9
100
AcDbText
  0
TEXT
  5
958
330
2A7E
100
AcDbEntity
  8
OUTLINE
  6
Continuous
 62
     3
100
AcDbText
 10
1341.41903
 20
-706.0588199999997
 30
0.0
 40
64.0
  1
 
 41
0.9
100
AcDbText
  0
TEXT
  5
2E35
330
2A7E
100
AcDbEntity
  8
ETC
100
AcDbText
 10
-215.4030776421416
 20
1554.207089398247
 30
0.0
 40
64.0
  1
システム部材
 41
0.9
100
AcDbText
  0
TEXT
  5
2E36
330
2A7E
100
AcDbEntity
  8
ETC
100
AcDbText
 10
-209.1950796421436
 20
1655.090415398247
 30
0.0
 40
64.0
  1
W-25SDBC_6
 41
0.9
100
AcDbText
  0
TEXT
  5
2E37
330
2A7E
100
AcDbEntity
  8
ETC
100
AcDbText
 10
-215.4030776421416
 20
1454.207089398247
 30
0.0
 40
64.0
  1
W-25SDBC
 41
0.9
100
AcDbText
  0
LINE
  5
2E38
330
2A7E
100
AcDbEntity
  8
SIZE
100
AcDbLine
 10
-323.1499085337885
 20
761.580112820885
 30
0.0
 11
-323.1499085337885
 21
607.476669164278
 31
0.0
  0
LINE
  5
2E39
330
2A7E
100
AcDbEntity
  8
SIZE
100
AcDbLine
 10
-620.1499085337882
 20
761.580112820885
 30
0.0
 11
-620.1499085337882
 21
607.476669164278
 31
0.0
  0
LINE
  5
2E3A
330
2A7E
100
AcDbEntity
  8
SIZE
100
AcDbLine
 10
-335.1499085337885
 20
627.476669164278
 30
0.0
 11
-608.1499085337882
 21
627.476669164278
 31
0.0
  0
INSERT
  5
2E3B
330
2A7E
100
AcDbEntity
  8
SIZE
100
AcDbBlockReference
  2
_DOTBLANK
 10
-323.1499085337885
 20
627.476669164278
 30
0.0
 41
12.0
 42
12.0
 43
12.0
  0
INSERT
  5
2E3C
330
2A7E
100
AcDbEntity
  8
SIZE
100
AcDbBlockReference
  2
_DOTBLANK
 10
-620.1499085337882
 20
627.476669164278
 30
0.0
 41
12.0
 42
12.0
 43
12.0
 50
180.0
  0
MTEXT
  5
2E3D
330
2A7E
100
AcDbEntity
  8
SIZE
100
AcDbMText
 10
-471.6499085337884
 20
669.476669164278
 30
0.0
 40
64.0
 41
0.0
 71
     5
 72
     1
  1
\A1;297
 73
     1
 44
1.0
  0
LINE
  5
2E3E
330
2A7E
100
AcDbEntity
  8
SIZE
100
AcDbLine
 10
-640.1499085337881
 20
781.580112820885
 30
0.0
 11
-816.9669905234979
 21
781.580112820885
 31
0.0
  0
LINE
  5
2E3F
330
2A7E
100
AcDbEntity
  8
SIZE
100
AcDbLine
 10
-674.1499085337882
 20
1078.580112820885
 30
0.0
 11
-816.9669905234979
 21
1078.580112820885
 31
0.0
  0
LINE
  5
2E40
330
2A7E
100
AcDbEntity
  8
SIZE
100
AcDbLine
 10
-796.9669905234979
 20
793.580112820885
 30
0.0
 11
-796.9669905234979
 21
1066.580112820885
 31
0.0
  0
INSERT
  5
2E41
330
2A7E
100
AcDbEntity
  8
SIZE
100
AcDbBlockReference
  2
_DOTBLANK
 10
-796.9669905234979
 20
781.580112820885
 30
0.0
 41
12.0
 42
12.0
 43
12.0
 50
270.0
  0
INSERT
  5
2E42
330
2A7E
100
AcDbEntity
  8
SIZE
100
AcDbBlockReference
  2
_DOTBLANK
 10
-796.9669905234979
 20
1078.580112820885
 30
0.0
 41
12.0
 42
12.0
 43
12.0
 50
90.0
  0
MTEXT
  5
2E43
330
2A7E
100
AcDbEntity
  8
SIZE
100
AcDbMText
 10
-838.9669905234978
 20
931.6685964827772
 30
0.0
 40
64.0
 41
0.0
 71
     5
 72
     1
  1
\A1;297
 11
0.0000000000000001
 21
1.0
 31
0.0
 73
     1
 44
1.0
  0
LINE
  5
2E44
330
2A7E
100
AcDbEntity
  8
SIZE
100
AcDbLine
 10
-306.6499085337885
 20
1111.080112820885
 30
0.0
 11
-306.6499085337885
 21
1258.912203830502
 31
0.0
  0
LINE
  5
2E45
330
2A7E
100
AcDbEntity
  8
SIZE
100
AcDbLine
 10
-636.6499085337882
 20
1111.080112820885
 30
0.0
 11
-636.6499085337882
 21
1258.912203830502
 31
0.0
  0
LINE
  5
2E46
330
2A7E
100
AcDbEntity
  8
SIZE
100
AcDbLine
 10
-318.6499085337885
 20
1238.912203830502
 30
0.0
 11
-624.6499085337882
 21
1238.912203830502
 31
0.0
  0
INSERT
  5
2E47
330
2A7E
100
AcDbEntity
  8
SIZE
100
AcDbBlockReference
  2
_DOTBLANK
 10
-306.6499085337885
 20
1238.912203830502
 30
0.0
 41
12.0
 42
12.0
 43
12.0
  0
INSERT
  5
2E48
330
2A7E
100
AcDbEntity
  8
SIZE
100
AcDbBlockReference
  2
_DOTBLANK
 10
-636.6499085337882
 20
1238.912203830502
 30
0.0
 41
12.0
 42
12.0
 43
12.0
 50
180.0
  0
MTEXT
  5
2E49
330
2A7E
100
AcDbEntity
  8
SIZE
100
AcDbMText
 10
-472.2057861677815
 20
1280.912203830502
 30
0.0
 40
64.0
 41
0.0
 71
     5
 72
     1
  1
\A1;330
 73
     1
 44
1.0
  0
LINE
  5
2E4A
330
2A7E
100
AcDbEntity
  8
SIZE
100
AcDbLine
 10
-289.1499085337884
 20
1098.580112820885
 30
0.0
 11
-289.1499085337884
 21
1377.466705757401
 31
0.0
  0
LINE
  5
2E4B
330
2A7E
100
AcDbEntity
  8
SIZE
100
AcDbLine
 10
-654.1499085337882
 20
1098.580112820885
 30
0.0
 11
-654.1499085337882
 21
1377.466705757401
 31
0.0
  0
LINE
  5
2E4C
330
2A7E
100
AcDbEntity
  8
SIZE
100
AcDbLine
 10
-301.1499085337884
 20
1357.466705757401
 30
0.0
 11
-642.1499085337885
 21
1357.466705757401
 31
0.0
  0
INSERT
  5
2E4D
330
2A7E
100
AcDbEntity
  8
SIZE
100
AcDbBlockReference
  2
_DOTBLANK
 10
-289.1499085337884
 20
1357.466705757401
 30
0.0
 41
12.0
 42
12.0
 43
12.0
  0
INSERT
  5
2E4E
330
2A7E
100
AcDbEntity
  8
SIZE
100
AcDbBlockReference
  2
_DOTBLANK
 10
-654.1499085337882
 20
1357.466705757401
 30
0.0
 41
12.0
 42
12.0
 43
12.0
 50
180.0
  0
MTEXT
  5
2E4F
330
2A7E
100
AcDbEntity
  8
SIZE
100
AcDbMText
 10
-471.6499085337884
 20
1399.466705757401
 30
0.0
 40
64.0
 41
0.0
 71
     5
 72
     1
  1
\A1;365
 73
     1
 44
1.0
  0
POINT
  5
2E50
330
2A7E
100
AcDbEntity
  8
ARRANGE
100
AcDbPoint
 10
-471.6499085337884
 20
1078.580112820885
 30
0.0
 39
50.0
  0
CIRCLE
  5
2E51
330
2A7E
100
AcDbEntity
  8
ARRANGE
100
AcDbCircle
 10
-471.6499085337884
 20
1078.580112820885
 30
0.0
 40
40.0
  0
LINE
  5
2E52
330
2A7E
100
AcDbEntity
  8
BASIS
100
AcDbLine
 10
-471.6499085337884
 20
1103.580112820885
 30
0.0
 11
-471.6499085337884
 21
756.580112820885
 31
0.0
  0
LINE
  5
2E53
330
2A7E
100
AcDbEntity
  8
DETAIL
100
AcDbLine
 10
-338.749908533787
 20
1025.980112820884
 30
0.0
 11
-338.749908533787
 21
797.1801128208847
 31
0.0
  0
LINE
  5
2E54
330
2A7E
100
AcDbEntity
  8
DETAIL
100
AcDbLine
 10
-604.5499085337898
 20
1025.980112820884
 30
0.0
 11
-604.5499085337898
 21
797.1801128208847
 31
0.0
  0
LINE
  5
2E55
330
2A7E
100
AcDbEntity
  8
DETAIL
100
AcDbLine
 10
-323.1499085337885
 20
1066.580112820884
 30
0.0
 11
-323.1499085337885
 21
781.580112820885
 31
0.0
  0
LINE
  5
2E56
330
2A7E
100
AcDbEntity
  8
OUTLINE
100
AcDbLine
 10
-620.1499085337882
 20
1066.580112820884
 30
0.0
 11
-620.1499085337882
 21
781.580112820885
 31
0.0
  0
LINE
  5
2E57
330
2A7E
100
AcDbEntity
  8
DETAIL
100
AcDbLine
 10
-620.1499085337882
 20
1066.580112820884
 30
0.0
 11
-620.1499085337882
 21
781.580112820885
 31
0.0
  0
LINE
  5
2E58
330
2A7E
100
AcDbEntity
  8
DETAIL
100
AcDbLine
 10
-604.5499085337898
 20
1025.980112820884
 30
0.0
 11
-338.749908533787
 21
1025.980112820884
 31
0.0
  0
LINE
  5
2E59
330
2A7E
100
AcDbEntity
  8
DETAIL
100
AcDbLine
 10
-620.1499085337882
 20
1041.580112820885
 30
0.0
 11
-323.1499085337921
 21
1041.580112820885
 31
0.0
  0
LINE
  5
2E5A
330
2A7E
100
AcDbEntity
  8
DETAIL
100
AcDbLine
 10
-654.1499085337882
 20
1078.580112820885
 30
0.0
 11
-289.1499085337884
 21
1078.580112820885
 31
0.0
  0
LINE
  5
2E5B
330
2A7E
100
AcDbEntity
  8
DETAIL
100
AcDbLine
 10
-654.1499085337882
 20
1066.580112820884
 30
0.0
 11
-289.1499085337884
 21
1066.580112820884
 31
0.0
  0
LINE
  5
2E5C
330
2A7E
100
AcDbEntity
  8
DETAIL
100
AcDbLine
 10
-654.1499085337882
 20
1078.580112820885
 30
0.0
 11
-654.1499085337882
 21
1066.580112820884
 31
0.0
  0
LINE
  5
2E5D
330
2A7E
100
AcDbEntity
  8
NOTE
100
AcDbLine
 10
-636.6499085337882
 20
1066.080112820885
 30
0.0
 11
-636.6499085337882
 21
1091.080112820885
 31
0.0
  0
LINE
  5
2E5E
330
2A7E
100
AcDbEntity
  8
NOTE
100
AcDbLine
 10
-306.6499085337885
 20
1091.080112820885
 30
0.0
 11
-306.6499085337885
 21
1066.080112820885
 31
0.0
  0
LINE
  5
2E5F
330
2A7E
100
AcDbEntity
  8
DETAIL
100
AcDbLine
 10
-289.1499085337884
 20
1078.580112820885
 30
0.0
 11
-289.1499085337884
 21
1066.580112820884
 31
0.0
  0
LINE
  5
2E60
330
2A7E
100
AcDbEntity
  8
DETAIL
100
AcDbLine
 10
-604.5499085337898
 20
797.1801128208847
 30
0.0
 11
-338.749908533787
 21
797.1801128208847
 31
0.0
  0
LINE
  5
2E61
330
2A7E
100
AcDbEntity
  8
OUTLINE
100
AcDbLine
 10
-620.1499085337882
 20
781.580112820885
 30
0.0
 11
-323.1499085337885
 21
781.580112820885
 31
0.0
  0
LINE
  5
2E62
330
2A7E
100
AcDbEntity
  8
DETAIL
100
AcDbLine
 10
-620.1499085337882
 20
781.580112820885
 30
0.0
 11
-323.1499085337885
 21
781.580112820885
 31
0.0
  0
INSERT
  5
2E63
330
2A7E
100
AcDbEntity
  8
NOTE
100
AcDbBlockReference
  2
_OPEN30
 10
-636.6499085337882
 20
1078.580112820885
 30
0.0
 41
11.99999999999906
 42
12.0
 43
12.0
 50
312.6090116116846
1001
ACAD
1000
DSTYLE
1002
{
1070
    41
1040
12.0
1070
    42
1040
20.0
1070
    43
1040
200.0
1070
    44
1040
20.0
1070
    73
1070
     0
1070
    74
1070
     0
1070
    77
1070
     1
1070
    78
1070
     8
1070
   140
1040
64.0
1070
   147
1040
50.0
1070
   172
1070
     1
1070
   174
1070
     1
1070
   275
1070
     0
1070
   284
1070
     0
1070
   285
1070
     0
1070
   286
1070
     0
1070
   341
1005
2AD0
1070
   342
1005
2ACE
1002
}
  0
LWPOLYLINE
  5
2E64
330
2A7E
100
AcDbEntity
  8
NOTE
100
AcDbPolyline
 90
        3
 70
     0
 43
0.0
 10
-644.7738093699763
 20
1087.4120002298
 10
-724.5193085260427
 20
1174.107207878898
 10
-1273.1021656689
 20
1174.107207878898
1001
ACAD
1000
DSTYLE
1002
{
1070
    41
1040
12.0
1070
    42
1040
20.0
1070
    43
1040
200.0
1070
    44
1040
20.0
1070
    73
1070
     0
1070
    74
1070
     0
1070
    77
1070
     1
1070
    78
1070
     8
1070
   140
1040
64.0
1070
   147
1040
50.0
1070
   172
1070
     1
1070
   174
1070
     1
1070
   275
1070
     0
1070
   284
1070
     0
1070
   285
1070
     0
1070
   286
1070
     0
1070
   341
1005
2AD0
1070
   342
1005
2ACE
1002
}
  0
TEXT
  5
2E65
330
2A7E
100
AcDbEntity
  8
NOTE
100
AcDbText
 10
-1281.330737097472
 20
1192.107207878898
 30
0.0
 40
64.0
  1
4×φ10取付穴
 41
0.9
100
AcDbText
  0
LINE
  5
2E66
330
2A7E
100
AcDbEntity
  8
NOTE
100
AcDbLine
 39
50.0
 10
-649.1499085337882
 20
1078.580112820885
 30
0.0
 11
-624.1499085337882
 21
1078.580112820885
 31
0.0
  0
LINE
  5
2E67
330
2A7E
100
AcDbEntity
  8
NOTE
100
AcDbLine
 39
50.0
 10
-319.1499085337885
 20
1078.580112820885
 30
0.0
 11
-294.1499085337884
 21
1078.580112820885
 31
0.0
  0
LINE
  5
2E68
330
2A7E
100
AcDbEntity
  8
OUTLINE
100
AcDbLine
 10
-323.1499085337885
 20
1066.580112820884
 30
0.0
 11
-323.1499085337885
 21
781.580112820885
 31
0.0
  0
LINE
  5
2E69
330
2A7E
100
AcDbEntity
  8
OUTLINE
100
AcDbLine
 10
-620.1499085337882
 20
1066.580112820884
 30
0.0
 11
-620.1499085337882
 21
781.580112820885
 31
0.0
  0
LINE
  5
2E6A
330
2A7E
100
AcDbEntity
  8
OUTLINE
100
AcDbLine
 10
-620.1499085337882
 20
1041.580112820885
 30
0.0
 11
-323.1499085337921
 21
1041.580112820885
 31
0.0
  0
LINE
  5
2E6B
330
2A7E
100
AcDbEntity
  8
OUTLINE
100
AcDbLine
 10
-654.1499085337882
 20
1066.580112820884
 30
0.0
 11
-289.1499085337884
 21
1066.580112820884
 31
0.0
  0
LINE
  5
2E6C
330
2A7E
100
AcDbEntity
  8
OUTLINE
100
AcDbLine
 10
-620.1499085337882
 20
781.580112820885
 30
0.0
 11
-323.1499085337885
 21
781.580112820885
 31
0.0
  0
LINE
  5
2E6D
330
2A7E
100
AcDbEntity
  8
OUTLINE
100
AcDbLine
 39
50.0
 10
-654.1499085337882
 20
1066.580112820884
 30
0.0
 11
-654.1499085337882
 21
1078.580112820885
 31
0.0
  0
LINE
  5
2E6E
330
2A7E
100
AcDbEntity
  8
OUTLINE
100
AcDbLine
 39
50.0
 10
-654.1499085337882
 20
1078.580112820885
 30
0.0
 11
-289.1499085337884
 21
1078.580112820885
 31
0.0
  0
LINE
  5
2E6F
330
2A7E
100
AcDbEntity
  8
OUTLINE
100
AcDbLine
 39
50.0
 10
-289.1499085337884
 20
1078.580112820885
 30
0.0
 11
-289.1499085337884
 21
1066.580112820884
 31
0.0
  0
LINE
  5
2E70
330
2A7E
100
AcDbEntity
  8
DETAIL
100
AcDbLine
 10
-338.749908533787
 20
1025.980112820884
 30
0.0
 11
-338.749908533787
 21
797.1801128208847
 31
0.0
  0
LINE
  5
2E71
330
2A7E
100
AcDbEntity
  8
DETAIL
100
AcDbLine
 10
-604.5499085337898
 20
1025.980112820884
 30
0.0
 11
-604.5499085337898
 21
797.1801128208847
 31
0.0
  0
LINE
  5
2E72
330
2A7E
100
AcDbEntity
  8
DETAIL
100
AcDbLine
 10
-604.5499085337898
 20
1025.980112820884
 30
0.0
 11
-338.749908533787
 21
1025.980112820884
 31
0.0
  0
LINE
  5
2E73
330
2A7E
100
AcDbEntity
  8
DETAIL
100
AcDbLine
 10
-604.5499085337898
 20
797.1801128208847
 30
0.0
 11
-338.749908533787
 21
797.1801128208847
 31
0.0
  0
LINE
  5
2E74
330
2A7E
100
AcDbEntity
  8
DETAIL
100
AcDbLine
 10
-604.5499085337898
 20
1025.980112820884
 30
0.0
 11
-338.749908533787
 21
1025.980112820884
 31
0.0
  0
LINE
  5
2E75
330
2A7E
100
AcDbEntity
  8
DETAIL
100
AcDbLine
 10
-604.5499085337898
 20
797.1801128208842
 30
0.0
 11
-338.749908533787
 21
797.1801128208842
 31
0.0
  0
LINE
  5
2E76
330
2A7E
100
AcDbEntity
  8
DETAIL
100
AcDbLine
 10
-604.5499085337898
 20
1025.980112820884
 30
0.0
 11
-604.5499085337898
 21
797.1801128208842
 31
0.0
  0
LINE
  5
2E77
330
2A7E
100
AcDbEntity
  8
DETAIL
100
AcDbLine
 10
-338.749908533787
 20
1025.980112820884
 30
0.0
 11
-338.749908533787
 21
797.1801128208842
 31
0.0
  0
LINE
  5
2E78
330
2A7E
100
AcDbEntity
  8
DETAIL
100
AcDbLine
 10
-604.5499085337898
 20
1025.980112820884
 30
0.0
 11
-338.749908533787
 21
1025.980112820884
 31
0.0
  0
LINE
  5
2E79
330
2A7E
100
AcDbEntity
  8
DETAIL
100
AcDbLine
 10
-604.5499085337898
 20
797.1801128208847
 30
0.0
 11
-338.749908533787
 21
797.1801128208847
 31
0.0
  0
LINE
  5
2E7A
330
2A7E
100
AcDbEntity
  8
DETAIL
100
AcDbLine
 10
-604.5499085337898
 20
1025.980112820884
 30
0.0
 11
-604.5499085337898
 21
797.1801128208847
 31
0.0
  0
LINE
  5
2E7B
330
2A7E
100
AcDbEntity
  8
DETAIL
100
AcDbLine
 10
-338.749908533787
 20
1025.980112820884
 30
0.0
 11
-338.749908533787
 21
797.1801128208847
 31
0.0
  0
LINE
  5
2E7C
330
2A7E
100
AcDbEntity
  8
DETAIL
100
AcDbLine
 10
-341.0337069435111
 20
1025.980112820885
 30
0.0
 11
-338.7499085337907
 21
1024.892590342143
 31
0.0
1001
ACAD
1010
0.0
1020
0.0
1030
0.0
1001
ACADANNOTATIVE
1000
AnnotativeData
1002
{
1070
     1
1070
     1
1002
}
  0
LINE
  5
2E7D
330
2A7E
100
AcDbEntity
  8
DETAIL
100
AcDbLine
 10
-362.0336166805021
 20
1025.980112820885
 30
0.0
 11
-338.7499085337943
 21
1014.892638598009
 31
0.0
1001
ACAD
1010
0.0
1020
0.0
1030
0.0
1001
ACADANNOTATIVE
1000
AnnotativeData
1002
{
1070
     1
1070
     1
1002
}
  0
LINE
  5
2E7E
330
2A7E
100
AcDbEntity
  8
DETAIL
100
AcDbLine
 10
-383.033526417493
 20
1025.980112820883
 30
0.0
 11
-338.7499085337907
 21
1004.892686853874
 31
0.0
1001
ACAD
1010
0.0
1020
0.0
1030
0.0
1001
ACADANNOTATIVE
1000
AnnotativeData
1002
{
1070
     1
1070
     1
1002
}
  0
LINE
  5
2E7F
330
2A7E
100
AcDbEntity
  8
DETAIL
100
AcDbLine
 10
-404.0334361544802
 20
1025.980112820883
 30
0.0
 11
-338.7499085337943
 21
994.8927351097399
 31
0.0
1001
ACAD
1010
0.0
1020
0.0
1030
0.0
1001
ACADANNOTATIVE
1000
AnnotativeData
1002
{
1070
     1
1070
     1
1002
}
  0
LINE
  5
2E80
330
2A7E
100
AcDbEntity
  8
DETAIL
100
AcDbLine
 10
-425.0333458914676
 20
1025.980112820882
 30
0.0
 11
-338.7499085337907
 21
984.8927833656043
 31
0.0
1001
ACAD
1010
0.0
1020
0.0
1030
0.0
1001
ACADANNOTATIVE
1000
AnnotativeData
1002
{
1070
     1
1070
     1
1002
}
  0
LINE
  5
2E81
330
2A7E
100
AcDbEntity
  8
DETAIL
100
AcDbLine
 10
-446.0332556284622
 20
1025.980112820882
 30
0.0
 11
-338.7499085337943
 21
974.8928316214703
 31
0.0
1001
ACAD
1010
0.0
1020
0.0
1030
0.0
1001
ACADANNOTATIVE
1000
AnnotativeData
1002
{
1070
     1
1070
     1
1002
}
  0
LINE
  5
2E82
330
2A7E
100
AcDbEntity
  8
DETAIL
100
AcDbLine
 10
-467.0331653654531
 20
1025.980112820885
 30
0.0
 11
-338.7499085337943
 21
964.8928798773386
 31
0.0
1001
ACAD
1010
0.0
1020
0.0
1030
0.0
1001
ACADANNOTATIVE
1000
AnnotativeData
1002
{
1070
     1
1070
     1
1002
}
  0
LINE
  5
2E83
330
2A7E
100
AcDbEntity
  8
DETAIL
100
AcDbLine
 10
-488.0330751024441
 20
1025.980112820884
 30
0.0
 11
-338.7499085337907
 21
954.8929281332039
 31
0.0
1001
ACAD
1010
0.0
1020
0.0
1030
0.0
1001
ACADANNOTATIVE
1000
AnnotativeData
1002
{
1070
     1
1070
     1
1002
}
  0
LINE
  5
2E84
330
2A7E
100
AcDbEntity
  8
DETAIL
100
AcDbLine
 10
-509.0329848394351
 20
1025.980112820884
 30
0.0
 11
-338.7499085337907
 21
944.8929763890692
 31
0.0
1001
ACAD
1010
0.0
1020
0.0
1030
0.0
1001
ACADANNOTATIVE
1000
AnnotativeData
1002
{
1070
     1
1070
     1
1002
}
  0
LINE
  5
2E85
330
2A7E
100
AcDbEntity
  8
DETAIL
100
AcDbLine
 10
-530.0328945764261
 20
1025.980112820884
 30
0.0
 11
-338.7499085337907
 21
934.8930246449343
 31
0.0
1001
ACAD
1010
0.0
1020
0.0
1030
0.0
1001
ACADANNOTATIVE
1000
AnnotativeData
1002
{
1070
     1
1070
     1
1002
}
  0
LINE
  5
2E86
330
2A7E
100
AcDbEntity
  8
DETAIL
100
AcDbLine
 10
-551.0328043134169
 20
1025.980112820884
 30
0.0
 11
-338.7499085337943
 21
924.8930729008007
 31
0.0
1001
ACAD
1010
0.0
1020
0.0
1030
0.0
1001
ACADANNOTATIVE
1000
AnnotativeData
1002
{
1070
     1
1070
     1
1002
}
  0
LINE
  5
2E87
330
2A7E
100
AcDbEntity
  8
DETAIL
100
AcDbLine
 10
-572.032714050408
 20
1025.980112820884
 30
0.0
 11
-554.5499085338008
 21
1017.654971727053
 31
0.0
1001
ACAD
1010
0.0
1020
0.0
1030
0.0
1001
ACADANNOTATIVE
1000
AnnotativeData
1002
{
1070
     1
1070
     1
1002
}
  0
LINE
  5
2E88
330
2A7E
100
AcDbEntity
  8
DETAIL
100
AcDbLine
 10
-554.5499085337935
 20
1017.65497172705
 30
0.0
 11
-338.7499085337907
 21
914.8931211566651
 31
0.0
1001
ACAD
1010
0.0
1020
0.0
1030
0.0
1001
ACADANNOTATIVE
1000
AnnotativeData
1002
{
1070
     1
1070
     1
1002
}
  0
LINE
  5
2E89
330
2A7E
100
AcDbEntity
  8
DETAIL
100
AcDbLine
 10
-593.0326237873989
 20
1025.980112820884
 30
0.0
 11
-554.5499085338008
 21
1007.655019982918
 31
0.0
1001
ACAD
1010
0.0
1020
0.0
1030
0.0
1001
ACADANNOTATIVE
1000
AnnotativeData
1002
{
1070
     1
1070
     1
1002
}
  0
LINE
  5
2E8A
330
2A7E
100
AcDbEntity
  8
DETAIL
100
AcDbLine
 10
-554.5499085337935
 20
1007.655019982916
 30
0.0
 11
-338.7499085337943
 21
904.8931694125313
 31
0.0
1001
ACAD
1010
0.0
1020
0.0
1030
0.0
1001
ACADANNOTATIVE
1000
AnnotativeData
1002
{
1070
     1
1070
     1
1002
}
  0
LINE
  5
2E8B
330
2A7E
100
AcDbEntity
  8
DETAIL
100
AcDbLine
 10
-604.5499085337971
 20
1021.464579492348
 30
0.0
 11
-554.5499085338008
 21
997.655068238784
 31
0.0
1001
ACAD
1010
0.0
1020
0.0
1030
0.0
1001
ACADANNOTATIVE
1000
AnnotativeData
1002
{
1070
     1
1070
     1
1002
}
  0
LINE
  5
2E8C
330
2A7E
100
AcDbEntity
  8
DETAIL
100
AcDbLine
 10
-554.5499085337935
 20
997.6550682387808
 30
0.0
 11
-338.7499085337943
 21
894.8932176683957
 31
0.0
1001
ACAD
1010
0.0
1020
0.0
1030
0.0
1001
ACADANNOTATIVE
1000
AnnotativeData
1002
{
1070
     1
1070
     1
1002
}
  0
LINE
  5
2E8D
330
2A7E
100
AcDbEntity
  8
DETAIL
100
AcDbLine
 10
-604.5499085338007
 20
1011.464627748214
 30
0.0
 11
-554.5499085338008
 21
987.6551164946484
 31
0.0
1001
ACAD
1010
0.0
1020
0.0
1030
0.0
1001
ACADANNOTATIVE
1000
AnnotativeData
1002
{
1070
     1
1070
     1
1002
}
  0
LINE
  5
2E8E
330
2A7E
100
AcDbEntity
  8
DETAIL
100
AcDbLine
 10
-554.5499085337971
 20
987.6551164946468
 30
0.0
 11
-338.7499085337943
 21
884.8932659242619
 31
0.0
1001
ACAD
1010
0.0
1020
0.0
1030
0.0
1001
ACADANNOTATIVE
1000
AnnotativeData
1002
{
1070
     1
1070
     1
1002
}
  0
LINE
  5
2E8F
330
2A7E
100
AcDbEntity
  8
DETAIL
100
AcDbLine
 10
-604.5499085338007
 20
1001.464676004078
 30
0.0
 11
-554.5499085337971
 21
977.6551647505126
 31
0.0
1001
ACAD
1010
0.0
1020
0.0
1030
0.0
1001
ACADANNOTATIVE
1000
AnnotativeData
1002
{
1070
     1
1070
     1
1002
}
  0
LINE
  5
2E90
330
2A7E
100
AcDbEntity
  8
DETAIL
100
AcDbLine
 10
-554.5499085337935
 20
977.6551647505113
 30
0.0
 11
-338.7499085337907
 21
874.8933141801261
 31
0.0
1001
ACAD
1010
0.0
1020
0.0
1030
0.0
1001
ACADANNOTATIVE
1000
AnnotativeData
1002
{
1070
     1
1070
     1
1002
}
  0
LINE
  5
2E91
330
2A7E
100
AcDbEntity
  8
DETAIL
100
AcDbLine
 10
-604.5499085338007
 20
991.4647242599448
 30
0.0
 11
-554.5499085337971
 21
967.6552130063791
 31
0.0
1001
ACAD
1010
0.0
1020
0.0
1030
0.0
1001
ACADANNOTATIVE
1000
AnnotativeData
1002
{
1070
     1
1070
     1
1002
}
  0
LINE
  5
2E92
330
2A7E
100
AcDbEntity
  8
DETAIL
100
AcDbLine
 10
-554.5499085337971
 20
967.6552130063774
 30
0.0
 11
-338.7499085337907
 21
864.8933624359907
 31
0.0
1001
ACAD
1010
0.0
1020
0.0
1030
0.0
1001
ACADANNOTATIVE
1000
AnnotativeData
1002
{
1070
     1
1070
     1
1002
}
  0
LINE
  5
2E93
330
2A7E
100
AcDbEntity
  8
DETAIL
100
AcDbLine
 10
-604.5499085338007
 20
981.4647725158126
 30
0.0
 11
-554.5499085337971
 21
957.6552612622473
 31
0.0
1001
ACAD
1010
0.0
1020
0.0
1030
0.0
1001
ACADANNOTATIVE
1000
AnnotativeData
1002
{
1070
     1
1070
     1
1002
}
  0
LINE
  5
2E94
330
2A7E
100
AcDbEntity
  8
DETAIL
100
AcDbLine
 10
-554.5499085337935
 20
957.6552612622451
 30
0.0
 11
-338.7499085337943
 21
854.8934106918604
 31
0.0
1001
ACAD
1010
0.0
1020
0.0
1030
0.0
1001
ACADANNOTATIVE
1000
AnnotativeData
1002
{
1070
     1
1070
     1
1002
}
  0
LINE
  5
2E95
330
2A7E
100
AcDbEntity
  8
DETAIL
100
AcDbLine
 10
-604.5499085338007
 20
971.4648207716791
 30
0.0
 11
-554.5499085338008
 21
947.6553095181134
 31
0.0
1001
ACAD
1010
0.0
1020
0.0
1030
0.0
1001
ACADANNOTATIVE
1000
AnnotativeData
1002
{
1070
     1
1070
     1
1002
}
  0
LINE
  5
2E96
330
2A7E
100
AcDbEntity
  8
DETAIL
100
AcDbLine
 10
-554.5499085337935
 20
947.6553095181115
 30
0.0
 11
-338.7499085337907
 21
844.8934589477246
 31
0.0
1001
ACAD
1010
0.0
1020
0.0
1030
0.0
1001
ACADANNOTATIVE
1000
AnnotativeData
1002
{
1070
     1
1070
     1
1002
}
  0
LINE
  5
2E97
330
2A7E
100
AcDbEntity
  8
DETAIL
100
AcDbLine
 10
-604.5499085338007
 20
961.4648690275435
 30
0.0
 11
-554.5499085338008
 21
937.6553577739779
 31
0.0
1001
ACAD
1010
0.0
1020
0.0
1030
0.0
1001
ACADANNOTATIVE
1000
AnnotativeData
1002
{
1070
     1
1070
     1
1002
}
  0
LINE
  5
2E98
330
2A7E
100
AcDbEntity
  8
DETAIL
100
AcDbLine
 10
-554.5499085337935
 20
937.6553577739759
 30
0.0
 11
-338.7499085337943
 21
834.893507203591
 31
0.0
1001
ACAD
1010
0.0
1020
0.0
1030
0.0
1001
ACADANNOTATIVE
1000
AnnotativeData
1002
{
1070
     1
1070
     1
1002
}
  0
LINE
  5
2E99
330
2A7E
100
AcDbEntity
  8
DETAIL
100
AcDbLine
 10
-604.5499085338007
 20
951.4649172834095
 30
0.0
 11
-554.5499085337971
 21
927.6554060298421
 31
0.0
1001
ACAD
1010
0.0
1020
0.0
1030
0.0
1001
ACADANNOTATIVE
1000
AnnotativeData
1002
{
1070
     1
1070
     1
1002
}
  0
LINE
  5
2E9A
330
2A7E
100
AcDbEntity
  8
DETAIL
100
AcDbLine
 10
-354.0516870621934
 20
832.1801128208862
 30
0.0
 11
-338.7499085337943
 21
824.8935554594572
 31
0.0
1001
ACAD
1010
0.0
1020
0.0
1030
0.0
1001
ACADANNOTATIVE
1000
AnnotativeData
1002
{
1070
     1
1070
     1
1002
}
  0
LINE
  5
2E9B
330
2A7E
100
AcDbEntity
  8
DETAIL
100
AcDbLine
 10
-554.5499085337935
 20
927.6554060298412
 30
0.0
 11
-354.0516870621934
 21
832.1801128208862
 31
0.0
1001
ACAD
1010
0.0
1020
0.0
1030
0.0
1001
ACADANNOTATIVE
1000
AnnotativeData
1002
{
1070
     1
1070
     1
1002
}
  0
LINE
  5
2E9C
330
2A7E
100
AcDbEntity
  8
DETAIL
100
AcDbLine
 10
-604.5499085338007
 20
941.4649655392739
 30
0.0
 11
-554.5499085337971
 21
917.6554542857074
 31
0.0
1001
ACAD
1010
0.0
1020
0.0
1030
0.0
1001
ACADANNOTATIVE
1000
AnnotativeData
1002
{
1070
     1
1070
     1
1002
}
  0
LINE
  5
2E9D
330
2A7E
100
AcDbEntity
  8
DETAIL
100
AcDbLine
 10
-375.0515967991843
 20
832.1801128208862
 30
0.0
 11
-338.7499085337978
 21
814.8936037153234
 31
0.0
1001
ACAD
1010
0.0
1020
0.0
1030
0.0
1001
ACADANNOTATIVE
1000
AnnotativeData
1002
{
1070
     1
1070
     1
1002
}
  0
LINE
  5
2E9E
330
2A7E
100
AcDbEntity
  8
DETAIL
100
AcDbLine
 10
-554.5499085337971
 20
917.6554542857074
 30
0.0
 11
-375.0515967991843
 21
832.1801128208862
 31
0.0
1001
ACAD
1010
0.0
1020
0.0
1030
0.0
1001
ACADANNOTATIVE
1000
AnnotativeData
1002
{
1070
     1
1070
     1
1002
}
  0
LINE
  5
2E9F
330
2A7E
100
AcDbEntity
  8
DETAIL
100
AcDbLine
 10
-604.5499085338007
 20
931.4650137951383
 30
0.0
 11
-554.5499085337935
 21
907.6555025415718
 31
0.0
1001
ACAD
1010
0.0
1020
0.0
1030
0.0
1001
ACADANNOTATIVE
1000
AnnotativeData
1002
{
1070
     1
1070
     1
1002
}
  0
LINE
  5
2EA0
330
2A7E
100
AcDbEntity
  8
DETAIL
100
AcDbLine
 10
-396.0515065361753
 20
832.1801128208862
 30
0.0
 11
-338.7499085337907
 21
804.893651971186
 31
0.0
1001
ACAD
1010
0.0
1020
0.0
1030
0.0
1001
ACADANNOTATIVE
1000
AnnotativeData
1002
{
1070
     1
1070
     1
1002
}
  0
LINE
  5
2EA1
330
2A7E
100
AcDbEntity
  8
DETAIL
100
AcDbLine
 10
-554.5499085337935
 20
907.6555025415718
 30
0.0
 11
-396.0515065361753
 21
832.1801128208862
 31
0.0
1001
ACAD
1010
0.0
1020
0.0
1030
0.0
1001
ACADANNOTATIVE
1000
AnnotativeData
1002
{
1070
     1
1070
     1
1002
}
  0
LINE
  5
2EA2
330
2A7E
100
AcDbEntity
  8
DETAIL
100
AcDbLine
 10
-604.5499085338007
 20
921.4650620510047
 30
0.0
 11
-554.5499085337971
 21
897.655550797438
 31
0.0
1001
ACAD
1010
0.0
1020
0.0
1030
0.0
1001
ACADANNOTATIVE
1000
AnnotativeData
1002
{
1070
     1
1070
     1
1002
}
  0
LINE
  5
2EA3
330
2A7E
100
AcDbEntity
  8
DETAIL
100
AcDbLine
 10
-417.0514162731626
 20
832.1801128208845
 30
0.0
 11
-343.5513775128959
 21
797.1801128208842
 31
0.0
1001
ACAD
1010
0.0
1020
0.0
1030
0.0
1001
ACADANNOTATIVE
1000
AnnotativeData
1002
{
1070
     1
1070
     1
1002
}
  0
LINE
  5
2EA4
330
2A7E
100
AcDbEntity
  8
DETAIL
100
AcDbLine
 10
-554.5499085337971
 20
897.655550797438
 30
0.0
 11
-417.0514162731661
 21
832.1801128208862
 31
0.0
1001
ACAD
1010
0.0
1020
0.0
1030
0.0
1001
ACADANNOTATIVE
1000
AnnotativeData
1002
{
1070
     1
1070
     1
1002
}
  0
LINE
  5
2EA5
330
2A7E
100
AcDbEntity
  8
DETAIL
100
AcDbLine
 10
-604.5499085337971
 20
911.4651103068679
 30
0.0
 11
-554.5499085337935
 21
887.6555990533024
 31
0.0
1001
ACAD
1010
0.0
1020
0.0
1030
0.0
1001
ACADANNOTATIVE
1000
AnnotativeData
1002
{
1070
     1
1070
     1
1002
}
  0
LINE
  5
2EA6
330
2A7E
100
AcDbEntity
  8
DETAIL
100
AcDbLine
 10
-438.0513260101571
 20
832.1801128208845
 30
0.0
 11
-364.5512872498905
 21
797.1801128208842
 31
0.0
1001
ACAD
1010
0.0
1020
0.0
1030
0.0
1001
ACADANNOTATIVE
1000
AnnotativeData
1002
{
1070
     1
1070
     1
1002
}
  0
LINE
  5
2EA7
330
2A7E
100
AcDbEntity
  8
DETAIL
100
AcDbLine
 10
-554.5499085337935
 20
887.6555990533024
 30
0.0
 11
-438.0513260101571
 21
832.1801128208853
 31
0.0
1001
ACAD
1010
0.0
1020
0.0
1030
0.0
1001
ACADANNOTATIVE
1000
AnnotativeData
1002
{
1070
     1
1070
     1
1002
}
  0
LINE
  5
2EA8
330
2A7E
100
AcDbEntity
  8
DETAIL
100
AcDbLine
 10
-604.5499085337971
 20
901.4651585627333
 30
0.0
 11
-554.5499085337935
 21
877.6556473091686
 31
0.0
1001
ACAD
1010
0.0
1020
0.0
1030
0.0
1001
ACADANNOTATIVE
1000
AnnotativeData
1002
{
1070
     1
1070
     1
1002
}
  0
LINE
  5
2EA9
330
2A7E
100
AcDbEntity
  8
DETAIL
100
AcDbLine
 10
-459.0512357471443
 20
832.1801128208845
 30
0.0
 11
-385.5511969868814
 21
797.1801128208842
 31
0.0
1001
ACAD
1010
0.0
1020
0.0
1030
0.0
1001
ACADANNOTATIVE
1000
AnnotativeData
1002
{
1070
     1
1070
     1
1002
}
  0
LINE
  5
2EAA
330
2A7E
100
AcDbEntity
  8
DETAIL
100
AcDbLine
 10
-554.5499085337935
 20
877.6556473091686
 30
0.0
 11
-459.0512357471443
 21
832.1801128208845
 31
0.0
1001
ACAD
1010
0.0
1020
0.0
1030
0.0
1001
ACADANNOTATIVE
1000
AnnotativeData
1002
{
1070
     1
1070
     1
1002
}
  0
LINE
  5
2EAB
330
2A7E
100
AcDbEntity
  8
DETAIL
100
AcDbLine
 10
-604.5499085337971
 20
891.4652068185986
 30
0.0
 11
-554.5499085337935
 21
867.655695565033
 31
0.0
1001
ACAD
1010
0.0
1020
0.0
1030
0.0
1001
ACADANNOTATIVE
1000
AnnotativeData
1002
{
1070
     1
1070
     1
1002
}
  0
LINE
  5
2EAC
330
2A7E
100
AcDbEntity
  8
DETAIL
100
AcDbLine
 10
-480.0511454841391
 20
832.1801128208836
 30
0.0
 11
-406.5511067238722
 21
797.1801128208833
 31
0.0
1001
ACAD
1010
0.0
1020
0.0
1030
0.0
1001
ACADANNOTATIVE
1000
AnnotativeData
1002
{
1070
     1
1070
     1
1002
}
  0
LINE
  5
2EAD
330
2A7E
100
AcDbEntity
  8
DETAIL
100
AcDbLine
 10
-554.5499085337935
 20
867.655695565033
 30
0.0
 11
-480.0511454841391
 21
832.1801128208836
 31
0.0
1001
ACAD
1010
0.0
1020
0.0
1030
0.0
1001
ACADANNOTATIVE
1000
AnnotativeData
1002
{
1070
     1
1070
     1
1002
}
  0
LINE
  5
2EAE
330
2A7E
100
AcDbEntity
  8
DETAIL
100
AcDbLine
 10
-604.5499085337971
 20
881.4652550744687
 30
0.0
 11
-554.5499085337971
 21
857.6557438209029
 31
0.0
1001
ACAD
1010
0.0
1020
0.0
1030
0.0
1001
ACADANNOTATIVE
1000
AnnotativeData
1002
{
1070
     1
1070
     1
1002
}
  0
LINE
  5
2EAF
330
2A7E
100
AcDbEntity
  8
DETAIL
100
AcDbLine
 10
-501.0510552211265
 20
832.1801128208862
 30
0.0
 11
-427.5510164608596
 21
797.1801128208863
 31
0.0
1001
ACAD
1010
0.0
1020
0.0
1030
0.0
1001
ACADANNOTATIVE
1000
AnnotativeData
1002
{
1070
     1
1070
     1
1002
}
  0
LINE
  5
2EB0
330
2A7E
100
AcDbEntity
  8
DETAIL
100
AcDbLine
 10
-554.5499085337971
 20
857.6557438209029
 30
0.0
 11
-501.0510552211265
 21
832.1801128208862
 31
0.0
1001
ACAD
1010
0.0
1020
0.0
1030
0.0
1001
ACADANNOTATIVE
1000
AnnotativeData
1002
{
1070
     1
1070
     1
1002
}
  0
LINE
  5
2EB1
330
2A7E
100
AcDbEntity
  8
DETAIL
100
AcDbLine
 10
-604.5499085337971
 20
871.465303330333
 30
0.0
 11
-554.5499085337935
 21
847.6557920767673
 31
0.0
1001
ACAD
1010
0.0
1020
0.0
1030
0.0
1001
ACADANNOTATIVE
1000
AnnotativeData
1002
{
1070
     1
1070
     1
1002
}
  0
LINE
  5
2EB2
330
2A7E
100
AcDbEntity
  8
DETAIL
100
AcDbLine
 10
-522.0509649581173
 20
832.1801128208862
 30
0.0
 11
-448.5509261978505
 21
797.1801128208863
 31
0.0
1001
ACAD
1010
0.0
1020
0.0
1030
0.0
1001
ACADANNOTATIVE
1000
AnnotativeData
1002
{
1070
     1
1070
     1
1002
}
  0
LINE
  5
2EB3
330
2A7E
100
AcDbEntity
  8
DETAIL
100
AcDbLine
 10
-554.5499085337935
 20
847.6557920767673
 30
0.0
 11
-522.0509649581173
 21
832.1801128208862
 31
0.0
1001
ACAD
1010
0.0
1020
0.0
1030
0.0
1001
ACADANNOTATIVE
1000
AnnotativeData
1002
{
1070
     1
1070
     1
1002
}
  0
LINE
  5
2EB4
330
2A7E
100
AcDbEntity
  8
DETAIL
100
AcDbLine
 10
-604.5499085337935
 20
861.4653515861974
 30
0.0
 11
-554.5499085337935
 21
837.6558403326317
 31
0.0
1001
ACAD
1010
0.0
1020
0.0
1030
0.0
1001
ACADANNOTATIVE
1000
AnnotativeData
1002
{
1070
     1
1070
     1
1002
}
  0
LINE
  5
2EB5
330
2A7E
100
AcDbEntity
  8
DETAIL
100
AcDbLine
 10
-543.0508746951081
 20
832.1801128208853
 30
0.0
 11
-469.5508359348416
 21
797.1801128208853
 31
0.0
1001
ACAD
1010
0.0
1020
0.0
1030
0.0
1001
ACADANNOTATIVE
1000
AnnotativeData
1002
{
1070
     1
1070
     1
1002
}
  0
LINE
  5
2EB6
330
2A7E
100
AcDbEntity
  8
DETAIL
100
AcDbLine
 10
-554.5499085337935
 20
837.6558403326317
 30
0.0
 11
-543.0508746951081
 21
832.1801128208853
 31
0.0
1001
ACAD
1010
0.0
1020
0.0
1030
0.0
1001
ACADANNOTATIVE
1000
AnnotativeData
1002
{
1070
     1
1070
     1
1002
}
  0
LINE
  5
2EB7
330
2A7E
100
AcDbEntity
  8
DETAIL
100
AcDbLine
 10
-604.5499085337971
 20
851.4653998420634
 30
0.0
 11
-490.5507456718326
 21
797.1801128208853
 31
0.0
1001
ACAD
1010
0.0
1020
0.0
1030
0.0
1001
ACADANNOTATIVE
1000
AnnotativeData
1002
{
1070
     1
1070
     1
1002
}
  0
LINE
  5
2EB8
330
2A7E
100
AcDbEntity
  8
DETAIL
100
AcDbLine
 10
-604.5499085337971
 20
841.465448097928
 30
0.0
 11
-511.5506554088233
 21
797.1801128208853
 31
0.0
1001
ACAD
1010
0.0
1020
0.0
1030
0.0
1001
ACADANNOTATIVE
1000
AnnotativeData
1002
{
1070
     1
1070
     1
1002
}
  0
LINE
  5
2EB9
330
2A7E
100
AcDbEntity
  8
DETAIL
100
AcDbLine
 10
-604.5499085337971
 20
831.4654963537941
 30
0.0
 11
-532.5505651458144
 21
797.1801128208853
 31
0.0
1001
ACAD
1010
0.0
1020
0.0
1030
0.0
1001
ACADANNOTATIVE
1000
AnnotativeData
1002
{
1070
     1
1070
     1
1002
}
  0
LINE
  5
2EBA
330
2A7E
100
AcDbEntity
  8
DETAIL
100
AcDbLine
 10
-604.5499085337971
 20
821.4655446096585
 30
0.0
 11
-553.5504748828091
 21
797.1801128208853
 31
0.0
1001
ACAD
1010
0.0
1020
0.0
1030
0.0
1001
ACADANNOTATIVE
1000
AnnotativeData
1002
{
1070
     1
1070
     1
1002
}
  0
LINE
  5
2EBB
330
2A7E
100
AcDbEntity
  8
DETAIL
100
AcDbLine
 10
-604.5499085337971
 20
811.4655928655247
 30
0.0
 11
-574.5503846197927
 21
797.1801128208833
 31
0.0
1001
ACAD
1010
0.0
1020
0.0
1030
0.0
1001
ACADANNOTATIVE
1000
AnnotativeData
1002
{
1070
     1
1070
     1
1002
}
  0
LINE
  5
2EBC
330
2A7E
100
AcDbEntity
  8
DETAIL
100
AcDbLine
 10
-604.5499085337935
 20
801.4656411213891
 30
0.0
 11
-595.5502943567837
 21
797.1801128208833
 31
0.0
1001
ACAD
1010
0.0
1020
0.0
1030
0.0
1001
ACADANNOTATIVE
1000
AnnotativeData
1002
{
1070
     1
1070
     1
1002
}
  0
LINE
  5
2EBD
330
2A7E
100
AcDbEntity
  8
DETAIL
100
AcDbLine
 10
-604.5499085337898
 20
1022.09075550302
 30
0.0
 11
-596.382253859064
 21
1025.980112820883
 31
0.0
1001
ACAD
1010
0.0
1020
0.0
1030
0.0
1001
ACADANNOTATIVE
1000
AnnotativeData
1002
{
1070
     1
1070
     1
1002
}
  0
LINE
  5
2EBE
330
2A7E
100
AcDbEntity
  8
DETAIL
100
AcDbLine
 10
-604.5499085337898
 20
1012.090803758887
 30
0.0
 11
-575.3823441220731
 21
1025.980112820883
 31
0.0
1001
ACAD
1010
0.0
1020
0.0
1030
0.0
1001
ACADANNOTATIVE
1000
AnnotativeData
1002
{
1070
     1
1070
     1
1002
}
  0
LINE
  5
2EBF
330
2A7E
100
AcDbEntity
  8
DETAIL
100
AcDbLine
 10
-604.5499085337935
 20
1002.090852014752
 30
0.0
 11
-554.5499085337935
 21
1025.900363268317
 31
0.0
1001
ACAD
1010
0.0
1020
0.0
1030
0.0
1001
ACADANNOTATIVE
1000
AnnotativeData
1002
{
1070
     1
1070
     1
1002
}
  0
LINE
  5
2EC0
330
2A7E
100
AcDbEntity
  8
DETAIL
100
AcDbLine
 10
-554.5499085337826
 20
1025.900363268321
 30
0.0
 11
-554.3824343850822
 21
1025.980112820884
 31
0.0
1001
ACAD
1010
0.0
1020
0.0
1030
0.0
1001
ACADANNOTATIVE
1000
AnnotativeData
1002
{
1070
     1
1070
     1
1002
}
  0
LINE
  5
2EC1
330
2A7E
100
AcDbEntity
  8
DETAIL
100
AcDbLine
 10
-604.5499085337862
 20
992.0909002706185
 30
0.0
 11
-554.5499085337898
 21
1015.900411524183
 31
0.0
1001
ACAD
1010
0.0
1020
0.0
1030
0.0
1001
ACADANNOTATIVE
1000
AnnotativeData
1002
{
1070
     1
1070
     1
1002
}
  0
LINE
  5
2EC2
330
2A7E
100
AcDbEntity
  8
DETAIL
100
AcDbLine
 10
-554.5499085337826
 20
1015.900411524187
 30
0.0
 11
-533.3825246480912
 21
1025.980112820882
 31
0.0
1001
ACAD
1010
0.0
1020
0.0
1030
0.0
1001
ACADANNOTATIVE
1000
AnnotativeData
1002
{
1070
     1
1070
     1
1002
}
  0
LINE
  5
2EC3
330
2A7E
100
AcDbEntity
  8
DETAIL
100
AcDbLine
 10
-604.5499085337898
 20
982.0909485264838
 30
0.0
 11
-554.5499085337935
 21
1005.900459780048
 31
0.0
1001
ACAD
1010
0.0
1020
0.0
1030
0.0
1001
ACADANNOTATIVE
1000
AnnotativeData
1002
{
1070
     1
1070
     1
1002
}
  0
LINE
  5
2EC4
330
2A7E
100
AcDbEntity
  8
DETAIL
100
AcDbLine
 10
-554.5499085337826
 20
1005.900459780052
 30
0.0
 11
-512.3826149111039
 21
1025.980112820883
 31
0.0
1001
ACAD
1010
0.0
1020
0.0
1030
0.0
1001
ACADANNOTATIVE
1000
AnnotativeData
1002
{
1070
     1
1070
     1
1002
}
  0
LINE
  5
2EC5
330
2A7E
100
AcDbEntity
  8
DETAIL
100
AcDbLine
 10
-604.5499085337898
 20
972.09099678235
 30
0.0
 11
-554.5499085337898
 21
995.9005080359148
 31
0.0
1001
ACAD
1010
0.0
1020
0.0
1030
0.0
1001
ACADANNOTATIVE
1000
AnnotativeData
1002
{
1070
     1
1070
     1
1002
}
  0
LINE
  5
2EC6
330
2A7E
100
AcDbEntity
  8
DETAIL
100
AcDbLine
 10
-554.549908533786
 20
995.9005080359183
 30
0.0
 11
-491.3827051741129
 21
1025.980112820883
 31
0.0
1001
ACAD
1010
0.0
1020
0.0
1030
0.0
1001
ACADANNOTATIVE
1000
AnnotativeData
1002
{
1070
     1
1070
     1
1002
}
  0
LINE
  5
2EC7
330
2A7E
100
AcDbEntity
  8
DETAIL
100
AcDbLine
 10
-604.5499085337898
 20
962.0910450382144
 30
0.0
 11
-554.5499085337898
 21
985.9005562917792
 31
0.0
1001
ACAD
1010
0.0
1020
0.0
1030
0.0
1001
ACADANNOTATIVE
1000
AnnotativeData
1002
{
1070
     1
1070
     1
1002
}
  0
LINE
  5
2EC8
330
2A7E
100
AcDbEntity
  8
DETAIL
100
AcDbLine
 10
-554.5499085337826
 20
985.9005562917827
 30
0.0
 11
-470.3827954371218
 21
1025.980112820882
 31
0.0
1001
ACAD
1010
0.0
1020
0.0
1030
0.0
1001
ACADANNOTATIVE
1000
AnnotativeData
1002
{
1070
     1
1070
     1
1002
}
  0
LINE
  5
2EC9
330
2A7E
100
AcDbEntity
  8
DETAIL
100
AcDbLine
 10
-604.5499085337898
 20
952.0910932940816
 30
0.0
 11
-554.5499085337898
 21
975.9006045476461
 31
0.0
1001
ACAD
1010
0.0
1020
0.0
1030
0.0
1001
ACADANNOTATIVE
1000
AnnotativeData
1002
{
1070
     1
1070
     1
1002
}
  0
LINE
  5
2ECA
330
2A7E
100
AcDbEntity
  8
DETAIL
100
AcDbLine
 10
-554.549908533786
 20
975.900604547648
 30
0.0
 11
-449.382885700131
 21
1025.980112820882
 31
0.0
1001
ACAD
1010
0.0
1020
0.0
1030
0.0
1001
ACADANNOTATIVE
1000
AnnotativeData
1002
{
1070
     1
1070
     1
1002
}
  0
LINE
  5
2ECB
330
2A7E
100
AcDbEntity
  8
DETAIL
100
AcDbLine
 10
-604.5499085337862
 20
942.0911415499459
 30
0.0
 11
-554.5499085337935
 21
965.9006528035106
 31
0.0
1001
ACAD
1010
0.0
1020
0.0
1030
0.0
1001
ACADANNOTATIVE
1000
AnnotativeData
1002
{
1070
     1
1070
     1
1002
}
  0
LINE
  5
2ECC
330
2A7E
100
AcDbEntity
  8
DETAIL
100
AcDbLine
 10
-554.549908533786
 20
965.9006528035124
 30
0.0
 11
-428.3829759631401
 21
1025.980112820882
 31
0.0
1001
ACAD
1010
0.0
1020
0.0
1030
0.0
1001
ACADANNOTATIVE
1000
AnnotativeData
1002
{
1070
     1
1070
     1
1002
}
  0
LINE
  5
2ECD
330
2A7E
100
AcDbEntity
  8
DETAIL
100
AcDbLine
 10
-604.5499085337898
 20
932.0911898058103
 30
0.0
 11
-554.5499085337935
 21
955.9007010593752
 31
0.0
1001
ACAD
1010
0.0
1020
0.0
1030
0.0
1001
ACADANNOTATIVE
1000
AnnotativeData
1002
{
1070
     1
1070
     1
1002
}
  0
LINE
  5
2ECE
330
2A7E
100
AcDbEntity
  8
DETAIL
100
AcDbLine
 10
-554.549908533786
 20
955.9007010593786
 30
0.0
 11
-407.3830662261491
 21
1025.980112820882
 31
0.0
1001
ACAD
1010
0.0
1020
0.0
1030
0.0
1001
ACADANNOTATIVE
1000
AnnotativeData
1002
{
1070
     1
1070
     1
1002
}
  0
LINE
  5
2ECF
330
2A7E
100
AcDbEntity
  8
DETAIL
100
AcDbLine
 10
-604.5499085337898
 20
922.0912380616772
 30
0.0
 11
-554.5499085337898
 21
945.9007493152419
 31
0.0
1001
ACAD
1010
0.0
1020
0.0
1030
0.0
1001
ACADANNOTATIVE
1000
AnnotativeData
1002
{
1070
     1
1070
     1
1002
}
  0
LINE
  5
2ED0
330
2A7E
100
AcDbEntity
  8
DETAIL
100
AcDbLine
 10
-554.549908533786
 20
945.9007493152439
 30
0.0
 11
-386.3831564891582
 21
1025.980112820883
 31
0.0
1001
ACAD
1010
0.0
1020
0.0
1030
0.0
1001
ACADANNOTATIVE
1000
AnnotativeData
1002
{
1070
     1
1070
     1
1002
}
  0
LINE
  5
2ED1
330
2A7E
100
AcDbEntity
  8
DETAIL
100
AcDbLine
 10
-604.5499085337935
 20
912.0912863175416
 30
0.0
 11
-554.5499085337935
 21
935.9007975711064
 31
0.0
1001
ACAD
1010
0.0
1020
0.0
1030
0.0
1001
ACADANNOTATIVE
1000
AnnotativeData
1002
{
1070
     1
1070
     1
1002
}
  0
LINE
  5
2ED2
330
2A7E
100
AcDbEntity
  8
DETAIL
100
AcDbLine
 10
-554.549908533786
 20
935.9007975711083
 30
0.0
 11
-365.3832467521709
 21
1025.980112820883
 31
0.0
1001
ACAD
1010
0.0
1020
0.0
1030
0.0
1001
ACADANNOTATIVE
1000
AnnotativeData
1002
{
1070
     1
1070
     1
1002
}
  0
LINE
  5
2ED3
330
2A7E
100
AcDbEntity
  8
DETAIL
100
AcDbLine
 10
-604.5499085337935
 20
902.0913345734081
 30
0.0
 11
-554.549908533786
 21
925.9008458269743
 31
0.0
1001
ACAD
1010
0.0
1020
0.0
1030
0.0
1001
ACADANNOTATIVE
1000
AnnotativeData
1002
{
1070
     1
1070
     1
1002
}
  0
LINE
  5
2ED4
330
2A7E
100
AcDbEntity
  8
DETAIL
100
AcDbLine
 10
-554.549908533786
 20
925.9008458269743
 30
0.0
 11
-344.3833370151763
 21
1025.980112820883
 31
0.0
1001
ACAD
1010
0.0
1020
0.0
1030
0.0
1001
ACADANNOTATIVE
1000
AnnotativeData
1002
{
1070
     1
1070
     1
1002
}
  0
LINE
  5
2ED5
330
2A7E
100
AcDbEntity
  8
DETAIL
100
AcDbLine
 10
-604.5499085337935
 20
892.0913828292732
 30
0.0
 11
-554.5499085337898
 21
915.9008940828398
 31
0.0
1001
ACAD
1010
0.0
1020
0.0
1030
0.0
1001
ACADANNOTATIVE
1000
AnnotativeData
1002
{
1070
     1
1070
     1
1002
}
  0
LINE
  5
2ED6
330
2A7E
100
AcDbEntity
  8
DETAIL
100
AcDbLine
 10
-554.5499085337898
 20
915.9008940828398
 30
0.0
 11
-338.7499085337834
 21
1018.662744653227
 31
0.0
1001
ACAD
1010
0.0
1020
0.0
1030
0.0
1001
ACADANNOTATIVE
1000
AnnotativeData
1002
{
1070
     1
1070
     1
1002
}
  0
LINE
  5
2ED7
330
2A7E
100
AcDbEntity
  8
DETAIL
100
AcDbLine
 10
-604.5499085337898
 20
882.0914310851392
 30
0.0
 11
-554.549908533786
 21
905.900942338706
 31
0.0
1001
ACAD
1010
0.0
1020
0.0
1030
0.0
1001
ACADANNOTATIVE
1000
AnnotativeData
1002
{
1070
     1
1070
     1
1002
}
  0
LINE
  5
2ED8
330
2A7E
100
AcDbEntity
  8
DETAIL
100
AcDbLine
 10
-554.549908533786
 20
905.900942338706
 30
0.0
 11
-338.7499085337834
 21
1008.662792909091
 31
0.0
1001
ACAD
1010
0.0
1020
0.0
1030
0.0
1001
ACADANNOTATIVE
1000
AnnotativeData
1002
{
1070
     1
1070
     1
1002
}
  0
LINE
  5
2ED9
330
2A7E
100
AcDbEntity
  8
DETAIL
100
AcDbLine
 10
-604.5499085337935
 20
872.0914793410047
 30
0.0
 11
-554.549908533786
 21
895.9009905945713
 31
0.0
1001
ACAD
1010
0.0
1020
0.0
1030
0.0
1001
ACADANNOTATIVE
1000
AnnotativeData
1002
{
1070
     1
1070
     1
1002
}
  0
LINE
  5
2EDA
330
2A7E
100
AcDbEntity
  8
DETAIL
100
AcDbLine
 10
-554.549908533786
 20
895.9009905945713
 30
0.0
 11
-338.749908533787
 21
998.6628411649562
 31
0.0
1001
ACAD
1010
0.0
1020
0.0
1030
0.0
1001
ACADANNOTATIVE
1000
AnnotativeData
1002
{
1070
     1
1070
     1
1002
}
  0
LINE
  5
2EDB
330
2A7E
100
AcDbEntity
  8
DETAIL
100
AcDbLine
 10
-604.5499085337971
 20
862.0915275968689
 30
0.0
 11
-554.549908533786
 21
885.9010388504373
 31
0.0
1001
ACAD
1010
0.0
1020
0.0
1030
0.0
1001
ACADANNOTATIVE
1000
AnnotativeData
1002
{
1070
     1
1070
     1
1002
}
  0
LINE
  5
2EDC
330
2A7E
100
AcDbEntity
  8
DETAIL
100
AcDbLine
 10
-554.549908533786
 20
885.9010388504373
 30
0.0
 11
-338.749908533787
 21
988.6628894208225
 31
0.0
1001
ACAD
1010
0.0
1020
0.0
1030
0.0
1001
ACADANNOTATIVE
1000
AnnotativeData
1002
{
1070
     1
1070
     1
1002
}
  0
LINE
  5
2EDD
330
2A7E
100
AcDbEntity
  8
DETAIL
100
AcDbLine
 10
-604.5499085337898
 20
852.0915758527353
 30
0.0
 11
-554.5499085337898
 21
875.9010871062999
 31
0.0
1001
ACAD
1010
0.0
1020
0.0
1030
0.0
1001
ACADANNOTATIVE
1000
AnnotativeData
1002
{
1070
     1
1070
     1
1002
}
  0
LINE
  5
2EDE
330
2A7E
100
AcDbEntity
  8
DETAIL
100
AcDbLine
 10
-554.549908533786
 20
875.9010871063019
 30
0.0
 11
-338.749908533787
 21
978.6629376766867
 31
0.0
1001
ACAD
1010
0.0
1020
0.0
1030
0.0
1001
ACADANNOTATIVE
1000
AnnotativeData
1002
{
1070
     1
1070
     1
1002
}
  0
LINE
  5
2EDF
330
2A7E
100
AcDbEntity
  8
DETAIL
100
AcDbLine
 10
-604.5499085337935
 20
842.0916241086006
 30
0.0
 11
-554.5499085337935
 21
865.9011353621654
 31
0.0
1001
ACAD
1010
0.0
1020
0.0
1030
0.0
1001
ACADANNOTATIVE
1000
AnnotativeData
1002
{
1070
     1
1070
     1
1002
}
  0
LINE
  5
2EE0
330
2A7E
100
AcDbEntity
  8
DETAIL
100
AcDbLine
 10
-554.549908533786
 20
865.9011353621691
 30
0.0
 11
-338.7499085337834
 21
968.662985932554
 31
0.0
1001
ACAD
1010
0.0
1020
0.0
1030
0.0
1001
ACADANNOTATIVE
1000
AnnotativeData
1002
{
1070
     1
1070
     1
1002
}
  0
LINE
  5
2EE1
330
2A7E
100
AcDbEntity
  8
DETAIL
100
AcDbLine
 10
-604.5499085337935
 20
832.0916723644668
 30
0.0
 11
-554.5499085337935
 21
855.9011836180316
 31
0.0
1001
ACAD
1010
0.0
1020
0.0
1030
0.0
1001
ACADANNOTATIVE
1000
AnnotativeData
1002
{
1070
     1
1070
     1
1002
}
  0
LINE
  5
2EE2
330
2A7E
100
AcDbEntity
  8
DETAIL
100
AcDbLine
 10
-554.5499085337898
 20
855.9011836180333
 30
0.0
 11
-338.749908533787
 21
958.6630341884184
 31
0.0
1001
ACAD
1010
0.0
1020
0.0
1030
0.0
1001
ACADANNOTATIVE
1000
AnnotativeData
1002
{
1070
     1
1070
     1
1002
}
  0
LINE
  5
2EE3
330
2A7E
100
AcDbEntity
  8
DETAIL
100
AcDbLine
 10
-604.5499085337935
 20
822.0917206203322
 30
0.0
 11
-554.5499085337898
 21
845.9012318738967
 31
0.0
1001
ACAD
1010
0.0
1020
0.0
1030
0.0
1001
ACADANNOTATIVE
1000
AnnotativeData
1002
{
1070
     1
1070
     1
1002
}
  0
LINE
  5
2EE4
330
2A7E
100
AcDbEntity
  8
DETAIL
100
AcDbLine
 10
-554.549908533786
 20
845.9012318738986
 30
0.0
 11
-338.7499085337834
 21
948.6630824442855
 31
0.0
1001
ACAD
1010
0.0
1020
0.0
1030
0.0
1001
ACADANNOTATIVE
1000
AnnotativeData
1002
{
1070
     1
1070
     1
1002
}
  0
LINE
  5
2EE5
330
2A7E
100
AcDbEntity
  8
DETAIL
100
AcDbLine
 10
-604.5499085337935
 20
812.0917688761982
 30
0.0
 11
-554.5499085337898
 21
835.901280129763
 31
0.0
1001
ACAD
1010
0.0
1020
0.0
1030
0.0
1001
ACADANNOTATIVE
1000
AnnotativeData
1002
{
1070
     1
1070
     1
1002
}
  0
LINE
  5
2EE6
330
2A7E
100
AcDbEntity
  8
DETAIL
100
AcDbLine
 10
-554.549908533786
 20
835.9012801297646
 30
0.0
 11
-338.749908533787
 21
938.6631307001499
 31
0.0
1001
ACAD
1010
0.0
1020
0.0
1030
0.0
1001
ACADANNOTATIVE
1000
AnnotativeData
1002
{
1070
     1
1070
     1
1002
}
  0
LINE
  5
2EE7
330
2A7E
100
AcDbEntity
  8
DETAIL
100
AcDbLine
 10
-604.5499085337935
 20
802.0918171320627
 30
0.0
 11
-541.3644542663998
 21
832.1801128208845
 31
0.0
1001
ACAD
1010
0.0
1020
0.0
1030
0.0
1001
ACADANNOTATIVE
1000
AnnotativeData
1002
{
1070
     1
1070
     1
1002
}
  0
LINE
  5
2EE8
330
2A7E
100
AcDbEntity
  8
DETAIL
100
AcDbLine
 10
-541.3644542663998
 20
832.1801128208845
 30
0.0
 11
-338.7499085337907
 21
928.6631789560143
 31
0.0
1001
ACAD
1010
0.0
1020
0.0
1030
0.0
1001
ACADANNOTATIVE
1000
AnnotativeData
1002
{
1070
     1
1070
     1
1002
}
  0
LINE
  5
2EE9
330
2A7E
100
AcDbEntity
  8
DETAIL
100
AcDbLine
 10
-593.864583289672
 20
797.1801128208853
 30
0.0
 11
-520.3645445294089
 21
832.1801128208853
 31
0.0
1001
ACAD
1010
0.0
1020
0.0
1030
0.0
1001
ACADANNOTATIVE
1000
AnnotativeData
1002
{
1070
     1
1070
     1
1002
}
  0
LINE
  5
2EEA
330
2A7E
100
AcDbEntity
  8
DETAIL
100
AcDbLine
 10
-520.3645445294089
 20
832.1801128208853
 30
0.0
 11
-338.7499085337834
 21
918.6632272118814
 31
0.0
1001
ACAD
1010
0.0
1020
0.0
1030
0.0
1001
ACADANNOTATIVE
1000
AnnotativeData
1002
{
1070
     1
1070
     1
1002
}
  0
LINE
  5
2EEB
330
2A7E
100
AcDbEntity
  8
DETAIL
100
AcDbLine
 10
-572.8646735526884
 20
797.1801128208833
 30
0.0
 11
-499.3646347924216
 21
832.1801128208836
 31
0.0
1001
ACAD
1010
0.0
1020
0.0
1030
0.0
1001
ACADANNOTATIVE
1000
AnnotativeData
1002
{
1070
     1
1070
     1
1002
}
  0
LINE
  5
2EEC
330
2A7E
100
AcDbEntity
  8
DETAIL
100
AcDbLine
 10
-499.364634792418
 20
832.1801128208853
 30
0.0
 11
-338.749908533787
 21
908.6632754677458
 31
0.0
1001
ACAD
1010
0.0
1020
0.0
1030
0.0
1001
ACADANNOTATIVE
1000
AnnotativeData
1002
{
1070
     1
1070
     1
1002
}
  0
LINE
  5
2EED
330
2A7E
100
AcDbEntity
  8
DETAIL
100
AcDbLine
 10
-551.8647638156974
 20
797.1801128208833
 30
0.0
 11
-478.3647250554268
 21
832.1801128208836
 31
0.0
1001
ACAD
1010
0.0
1020
0.0
1030
0.0
1001
ACADANNOTATIVE
1000
AnnotativeData
1002
{
1070
     1
1070
     1
1002
}
  0
LINE
  5
2EEE
330
2A7E
100
AcDbEntity
  8
DETAIL
100
AcDbLine
 10
-478.3647250554268
 20
832.1801128208853
 30
0.0
 11
-338.7499085337834
 21
898.6633237236119
 31
0.0
1001
ACAD
1010
0.0
1020
0.0
1030
0.0
1001
ACADANNOTATIVE
1000
AnnotativeData
1002
{
1070
     1
1070
     1
1002
}
  0
LINE
  5
2EEF
330
2A7E
100
AcDbEntity
  8
DETAIL
100
AcDbLine
 10
-530.8648540787062
 20
797.1801128208825
 30
0.0
 11
-457.3648153184358
 21
832.1801128208845
 31
0.0
1001
ACAD
1010
0.0
1020
0.0
1030
0.0
1001
ACADANNOTATIVE
1000
AnnotativeData
1002
{
1070
     1
1070
     1
1002
}
  0
LINE
  5
2EF0
330
2A7E
100
AcDbEntity
  8
DETAIL
100
AcDbLine
 10
-457.3648153184358
 20
832.1801128208845
 30
0.0
 11
-338.749908533787
 21
888.663371979479
 31
0.0
1001
ACAD
1010
0.0
1020
0.0
1030
0.0
1001
ACADANNOTATIVE
1000
AnnotativeData
1002
{
1070
     1
1070
     1
1002
}
  0
LINE
  5
2EF1
330
2A7E
100
AcDbEntity
  8
DETAIL
100
AcDbLine
 10
-509.8649443417153
 20
797.1801128208825
 30
0.0
 11
-436.3649055814486
 21
832.1801128208845
 31
0.0
1001
ACAD
1010
0.0
1020
0.0
1030
0.0
1001
ACADANNOTATIVE
1000
AnnotativeData
1002
{
1070
     1
1070
     1
1002
}
  0
LINE
  5
2EF2
330
2A7E
100
AcDbEntity
  8
DETAIL
100
AcDbLine
 10
-436.3649055814486
 20
832.1801128208845
 30
0.0
 11
-338.749908533787
 21
878.6634202353432
 31
0.0
1001
ACAD
1010
0.0
1020
0.0
1030
0.0
1001
ACADANNOTATIVE
1000
AnnotativeData
1002
{
1070
     1
1070
     1
1002
}
  0
LINE
  5
2EF3
330
2A7E
100
AcDbEntity
  8
DETAIL
100
AcDbLine
 10
-488.8650346047279
 20
797.1801128208825
 30
0.0
 11
-415.3649958444577
 21
832.1801128208845
 31
0.0
1001
ACAD
1010
0.0
1020
0.0
1030
0.0
1001
ACADANNOTATIVE
1000
AnnotativeData
1002
{
1070
     1
1070
     1
1002
}
  0
LINE
  5
2EF4
330
2A7E
100
AcDbEntity
  8
DETAIL
100
AcDbLine
 10
-415.3649958444577
 20
832.1801128208845
 30
0.0
 11
-338.7499085337834
 21
868.6634684912094
 31
0.0
1001
ACAD
1010
0.0
1020
0.0
1030
0.0
1001
ACADANNOTATIVE
1000
AnnotativeData
1002
{
1070
     1
1070
     1
1002
}
  0
LINE
  5
2EF5
330
2A7E
100
AcDbEntity
  8
DETAIL
100
AcDbLine
 10
-467.8651248677335
 20
797.1801128208833
 30
0.0
 11
-394.3650861074631
 21
832.1801128208853
 31
0.0
1001
ACAD
1010
0.0
1020
0.0
1030
0.0
1001
ACADANNOTATIVE
1000
AnnotativeData
1002
{
1070
     1
1070
     1
1002
}
  0
LINE
  5
2EF6
330
2A7E
100
AcDbEntity
  8
DETAIL
100
AcDbLine
 10
-394.3650861074631
 20
832.1801128208853
 30
0.0
 11
-338.7499085337834
 21
858.6635167470749
 31
0.0
1001
ACAD
1010
0.0
1020
0.0
1030
0.0
1001
ACADANNOTATIVE
1000
AnnotativeData
1002
{
1070
     1
1070
     1
1002
}
  0
LINE
  5
2EF7
330
2A7E
100
AcDbEntity
  8
DETAIL
100
AcDbLine
 10
-446.8652151307426
 20
797.1801128208833
 30
0.0
 11
-373.3651763704759
 21
832.1801128208836
 31
0.0
1001
ACAD
1010
0.0
1020
0.0
1030
0.0
1001
ACADANNOTATIVE
1000
AnnotativeData
1002
{
1070
     1
1070
     1
1002
}
  0
LINE
  5
2EF8
330
2A7E
100
AcDbEntity
  8
DETAIL
100
AcDbLine
 10
-373.3651763704759
 20
832.1801128208836
 30
0.0
 11
-338.749908533787
 21
848.6635650029411
 31
0.0
1001
ACAD
1010
0.0
1020
0.0
1030
0.0
1001
ACADANNOTATIVE
1000
AnnotativeData
1002
{
1070
     1
1070
     1
1002
}
  0
LINE
  5
2EF9
330
2A7E
100
AcDbEntity
  8
DETAIL
100
AcDbLine
 10
-425.8653053937516
 20
797.1801128208842
 30
0.0
 11
-352.3652666334848
 21
832.1801128208845
 31
0.0
1001
ACAD
1010
0.0
1020
0.0
1030
0.0
1001
ACADANNOTATIVE
1000
AnnotativeData
1002
{
1070
     1
1070
     1
1002
}
  0
LINE
  5
2EFA
330
2A7E
100
AcDbEntity
  8
DETAIL
100
AcDbLine
 10
-352.3652666334848
 20
832.1801128208845
 30
0.0
 11
-338.749908533787
 21
838.6636132588062
 31
0.0
1001
ACAD
1010
0.0
1020
0.0
1030
0.0
1001
ACADANNOTATIVE
1000
AnnotativeData
1002
{
1070
     1
1070
     1
1002
}
  0
LINE
  5
2EFB
330
2A7E
100
AcDbEntity
  8
DETAIL
100
AcDbLine
 10
-404.8653956567607
 20
797.1801128208842
 30
0.0
 11
-338.749908533787
 21
828.6636615146727
 31
0.0
1001
ACAD
1010
0.0
1020
0.0
1030
0.0
1001
ACADANNOTATIVE
1000
AnnotativeData
1002
{
1070
     1
1070
     1
1002
}
  0
LINE
  5
2EFC
330
2A7E
100
AcDbEntity
  8
DETAIL
100
AcDbLine
 10
-383.8654859197697
 20
797.1801128208842
 30
0.0
 11
-338.749908533787
 21
818.6637097705368
 31
0.0
1001
ACAD
1010
0.0
1020
0.0
1030
0.0
1001
ACADANNOTATIVE
1000
AnnotativeData
1002
{
1070
     1
1070
     1
1002
}
  0
LINE
  5
2EFD
330
2A7E
100
AcDbEntity
  8
DETAIL
100
AcDbLine
 10
-362.8655761827752
 20
797.1801128208853
 30
0.0
 11
-338.7499085337834
 21
808.6637580264037
 31
0.0
1001
ACAD
1010
0.0
1020
0.0
1030
0.0
1001
ACADANNOTATIVE
1000
AnnotativeData
1002
{
1070
     1
1070
     1
1002
}
  0
LINE
  5
2EFE
330
2A7E
100
AcDbEntity
  8
DETAIL
100
AcDbLine
 10
-341.8656664457878
 20
797.1801128208853
 30
0.0
 11
-338.749908533787
 21
798.6638062822685
 31
0.0
1001
ACAD
1010
0.0
1020
0.0
1030
0.0
1001
ACADANNOTATIVE
1000
AnnotativeData
1002
{
1070
     1
1070
     1
1002
}
  0
LINE
  5
2EFF
330
2A7E
100
AcDbEntity
  8
SIZE
100
AcDbLine
 10
-269.1499085337885
 20
1078.580112820885
 30
0.0
 11
-186.3804923766977
 21
1078.580112820885
 31
0.0
  0
LINE
  5
2F00
330
2A7E
100
AcDbEntity
  8
SIZE
100
AcDbLine
 10
-269.1499085337885
 20
1066.580112820884
 30
0.0
 11
-186.3804923766977
 21
1066.580112820884
 31
0.0
  0
LINE
  5
2F01
330
2A7E
100
AcDbEntity
  8
SIZE
100
AcDbLine
 10
-206.3804923766977
 20
1090.580112820885
 30
0.0
 11
-206.3804923766977
 21
1102.580112820885
 31
0.0
  0
LINE
  5
2F02
330
2A7E
100
AcDbEntity
  8
SIZE
100
AcDbLine
 10
-206.3804923766977
 20
1054.580112820884
 30
0.0
 11
-206.3804923766977
 21
937.551541392313
 31
0.0
  0
INSERT
  5
2F03
330
2A7E
100
AcDbEntity
  8
SIZE
100
AcDbBlockReference
  2
_DOTBLANK
 10
-206.3804923766977
 20
1078.580112820885
 30
0.0
 41
12.0
 42
12.0
 43
12.0
 50
270.0
  0
INSERT
  5
2F04
330
2A7E
100
AcDbEntity
  8
SIZE
100
AcDbBlockReference
  2
_DOTBLANK
 10
-206.3804923766977
 20
1066.580112820884
 30
0.0
 41
12.0
 42
12.0
 43
12.0
 50
90.0
  0
MTEXT
  5
2F05
330
2A7E
100
AcDbEntity
  8
SIZE
100
AcDbMText
 10
-248.3804923766977
 20
990.0658271065957
 30
0.0
 40
64.0
 41
0.0
 71
     5
 72
     1
  1
\A1;12
 11
0.0000000000000001
 21
1.0
 31
0.0
 73
     1
 44
1.0
  0
ENDSEC
  0
SECTION
  2
OBJECTS
  0
DICTIONARY
  5
2A16
330
0
100
AcDbDictionary
281
     1
  3
ACAD_2007HEADERVARS_RT
350
306E
  3
ACAD_COLOR
350
2A74
  3
ACAD_GROUP
350
2A17
  3
ACAD_LAYOUT
350
2A73
  3
ACAD_MATERIAL
350
2A1A
  3
ACAD_MLEADERSTYLE
350
2A77
  3
ACAD_MLINESTYLE
350
2A70
  3
ACAD_PLOTSETTINGS
350
2A72
  3
ACAD_PLOTSTYLENAME
350
2A18
  3
ACAD_SCALELIST
350
2A44
  3
ACAD_TABLESTYLE
350
2A75
  3
ACAD_VISUALSTYLE
350
2A33
  3
ACDB_RECOMPOSE_DATA
350
2C61
  3
AcDbVariableDictionary
350
2C58
  3
AcmDictionary
350
2C0B
  3
AcmSystemVariableManager
350
3074
  3
AMG
350
2B58
  3
AMGSNAPSETTINGS
350
2D52
  0
DICTIONARY
  5
2D5B
330
2A0C
100
AcDbDictionary
280
     1
281
     1
  3
ACAD_LAYERSTATES
360
2D5C
  0
DICTIONARY
  5
2C33
330
2A66
100
AcDbDictionary
280
     1
281
     1
  3
ADSK_XREC_LAYER_RECONCILED
360
2C34
  0
DICTIONARY
  5
2C35
330
2A95
100
AcDbDictionary
280
     1
281
     1
  3
ADSK_XREC_LAYER_RECONCILED
360
2C36
  0
DICTIONARY
  5
2C37
330
2A96
100
AcDbDictionary
280
     1
281
     1
  3
ADSK_XREC_LAYER_RECONCILED
360
2C38
  0
DICTIONARY
  5
2C39
330
2A97
100
AcDbDictionary
280
     1
281
     1
  3
ADSK_XREC_LAYER_RECONCILED
360
2C3A
  0
DICTIONARY
  5
2C3B
330
2A98
100
AcDbDictionary
280
     1
281
     1
  3
ADSK_XREC_LAYER_RECONCILED
360
2C3C
  0
DICTIONARY
  5
2C3D
330
2A99
100
AcDbDictionary
280
     1
281
     1
  3
ADSK_XREC_LAYER_RECONCILED
360
2C3E
  0
DICTIONARY
  5
2C3F
330
2A9B
100
AcDbDictionary
280
     1
281
     1
  3
ADSK_XREC_LAYER_RECONCILED
360
2C40
  0
DICTIONARY
  5
2C41
330
2A9C
100
AcDbDictionary
280
     1
281
     1
  3
ADSK_XREC_LAYER_RECONCILED
360
2C42
  0
DICTIONARY
  5
2C43
330
2A9D
100
AcDbDictionary
280
     1
281
     1
  3
ADSK_XREC_LAYER_RECONCILED
360
2C44
  0
DICTIONARY
  5
2C45
330
2A9E
100
AcDbDictionary
280
     1
281
     1
  3
ADSK_XREC_LAYER_RECONCILED
360
2C46
  0
DICTIONARY
  5
2C47
330
2A9F
100
AcDbDictionary
280
     1
281
     1
  3
ADSK_XREC_LAYER_RECONCILED
360
2C48
  0
DICTIONARY
  5
2C49
330
2A7E
100
AcDbDictionary
280
     1
281
     1
  3
ACAD_INDEX
360
2C4A
  0
DICTIONARY
  5
306E
102
{ACAD_REACTORS
330
2A16
102
}
330
2A16
100
AcDbDictionary
281
     1
  3
DIMARCSYM
350
306F
  3
DIMLTEX1
350
3071
  3
DIMLTEX2
350
3072
  3
DIMLTYPE
350
3070
  0
DICTIONARY
  5
2A74
102
{ACAD_REACTORS
330
2A16
102
}
330
2A16
100
AcDbDictionary
281
     1
  0
DICTIONARY
  5
2A17
102
{ACAD_REACTORS
330
2A16
102
}
330
2A16
100
AcDbDictionary
281
     1
  0
DICTIONARY
  5
2A73
102
{ACAD_REACTORS
330
2A16
102
}
330
2A16
100
AcDbDictionary
281
     1
  3
Model
350
2A81
  3
レイアウト1
350
2A7D
  0
DICTIONARY
  5
2A1A
102
{ACAD_REACTORS
330
2A16
102
}
330
2A16
100
AcDbDictionary
281
     1
  3
ByBlock
350
2A23
  3
ByLayer
350
2A1B
  3
Global
350
2A2B
  0
DICTIONARY
  5
2A77
102
{ACAD_REACTORS
330
2A16
102
}
330
2A16
100
AcDbDictionary
281
     1
  3
Standard
350
2A78
  0
DICTIONARY
  5
2A70
102
{ACAD_REACTORS
330
2A16
102
}
330
2A16
100
AcDbDictionary
281
     1
  3
Standard
350
2A71
  0
DICTIONARY
  5
2A72
102
{ACAD_REACTORS
330
2A16
102
}
330
2A16
100
AcDbDictionary
281
     1
  0
ACDBDICTIONARYWDFLT
  5
2A18
102
{ACAD_REACTORS
330
2A16
102
}
330
2A16
100
AcDbDictionary
281
     1
  3
Normal
350
2A19
100
AcDbDictionaryWithDefault
340
2A19
  0
DICTIONARY
  5
2A44
102
{ACAD_REACTORS
330
2A16
102
}
330
2A16
100
AcDbDictionary
281
     1
  3
A0
350
2A45
  3
A1
350
2A46
  3
A2
350
2A47
  3
A3
350
2A48
  3
A4
350
2A49
  3
A5
350
2A4A
  3
A6
350
2A4B
  3
A7
350
2A4C
  3
A8
350
2A4D
  3
A9
350
2A4E
  3
B0
350
2A4F
  3
B1
350
2A50
  3
B2
350
2A51
  3
B3
350
2A52
  3
B4
350
2A53
  3
B5
350
2A54
  3
B6
350
2A55
  3
B7
350
2A56
  3
B8
350
2A57
  3
B9
350
2A58
  3
C0
350
2A59
  3
C1
350
2A5A
  3
C2
350
2A5B
  3
C3
350
2A5C
  3
C4
350
2A5D
  3
C5
350
2A5E
  3
C6
350
2A5F
  3
C7
350
2A60
  3
C8
350
2A61
  3
C9
350
2A62
  3
D0
350
2A63
  3
D1
350
2A64
  3
D2
350
2A65
  0
DICTIONARY
  5
2A75
102
{ACAD_REACTORS
330
2A16
102
}
330
2A16
100
AcDbDictionary
281
     1
  3
Standard
350
2A76
  0
DICTIONARY
  5
2A33
102
{ACAD_REACTORS
330
2A16
102
}
330
2A16
100
AcDbDictionary
281
     1
  3
2dWireframe
350
2A39
  3
3D Hidden
350
2A3B
  3
3dWireframe
350
2A3A
  3
Basic
350
2A38
  3
Brighten
350
2A3F
  3
ColorChange
350
2A43
  3
Conceptual
350
2A3C
  3
Dim
350
2A3E
  3
Facepattern
350
2A42
  3
Flat
350
2A34
  3
FlatWithEdges
350
2A35
  3
Gouraud
350
2A36
  3
GouraudWithEdges
350
2A37
  3
Linepattern
350
2A41
  3
Realistic
350
2A3D
  3
Thicken
350
2A40
  0
XRECORD
  5
2C61
102
{ACAD_REACTORS
330
2A16
102
}
330
2A16
100
AcDbXrecord
280
     1
 90
        1
330
2A76
  0
DICTIONARY
  5
2C58
102
{ACAD_REACTORS
330
2A16
102
}
330
2A16
100
AcDbDictionary
281
     1
  3
CANNOSCALE
350
2C5B
  3
CMLEADERSTYLE
350
2C5A
  3
CTABLESTYLE
350
2C59
  3
DIMASSOC
350
2C5E
  3
INDEXCTL
350
2C5D
  3
LAYEREVAL
350
2F08
  3
LAYERNOTIFY
350
2F09
  3
LIGHTINGUNITS
350
2F07
  3
LOFTANG1
350
306A
  3
LOFTANG2
350
306B
  3
LONGITUDE
350
306C
  3
MSLTSCALE
350
2F06
  3
SORTENTS
350
2C5C
  0
DICTIONARY
  5
2C0B
102
{ACAD_REACTORS
330
2A16
102
}
330
2A16
100
AcDbDictionary
281
     1
  3
AcmStdDictionary
350
2C19
  0
DICTIONARY
  5
2B58
102
{ACAD_REACTORS
330
2A16
102
}
330
2A16
100
AcDbDictionary
281
     1
  0
DICTIONARY
  5
2D52
102
{ACAD_REACTORS
330
2A16
102
}
330
2A16
100
AcDbDictionary
281
     1
  0
DICTIONARY
  5
2D5C
102
{ACAD_REACTORS
330
2D5B
102
}
330
2D5B
100
AcDbDictionary
281
     1
  0
XRECORD
  5
2C34
102
{ACAD_REACTORS
330
2C33
102
}
330
2C33
100
AcDbXrecord
280
     1
290
     1
  0
XRECORD
  5
2C36
102
{ACAD_REACTORS
330
2C35
102
}
330
2C35
100
AcDbXrecord
280
     1
290
     1
  0
XRECORD
  5
2C38
102
{ACAD_REACTORS
330
2C37
102
}
330
2C37
100
AcDbXrecord
280
     1
290
     1
  0
XRECORD
  5
2C3A
102
{ACAD_REACTORS
330
2C39
102
}
330
2C39
100
AcDbXrecord
280
     1
290
     1
  0
XRECORD
  5
2C3C
102
{ACAD_REACTORS
330
2C3B
102
}
330
2C3B
100
AcDbXrecord
280
     1
290
     1
  0
XRECORD
  5
2C3E
102
{ACAD_REACTORS
330
2C3D
102
}
330
2C3D
100
AcDbXrecord
280
     1
290
     1
  0
XRECORD
  5
2C40
102
{ACAD_REACTORS
330
2C3F
102
}
330
2C3F
100
AcDbXrecord
280
     1
290
     1
  0
XRECORD
  5
2C42
102
{ACAD_REACTORS
330
2C41
102
}
330
2C41
100
AcDbXrecord
280
     1
290
     1
  0
XRECORD
  5
2C44
102
{ACAD_REACTORS
330
2C43
102
}
330
2C43
100
AcDbXrecord
280
     1
290
     1
  0
XRECORD
  5
2C46
102
{ACAD_REACTORS
330
2C45
102
}
330
2C45
100
AcDbXrecord
280
     1
290
     1
  0
XRECORD
  5
2C48
102
{ACAD_REACTORS
330
2C47
102
}
330
2C47
100
AcDbXrecord
280
     1
290
     1
  0
DICTIONARY
  5
2C4A
102
{ACAD_REACTORS
330
2C49
102
}
330
2C49
100
AcDbDictionary
281
     1
  3
*A1
350
2C4B
  0
XRECORD
  5
306F
102
{ACAD_REACTORS
330
306E
102
}
330
306E
100
AcDbXrecord
280
     1
 70
     1
  0
XRECORD
  5
3071
102
{ACAD_REACTORS
330
306E
102
}
330
306E
100
AcDbXrecord
280
     1
340
2A6C
  0
XRECORD
  5
3072
102
{ACAD_REACTORS
330
306E
102
}
330
306E
100
AcDbXrecord
280
     1
340
2A6C
  0
XRECORD
  5
3070
102
{ACAD_REACTORS
330
306E
102
}
330
306E
100
AcDbXrecord
280
     1
340
2A6C
  0
LAYOUT
  5
2A81
102
{ACAD_REACTORS
330
2A73
102
}
330
2A73
100
AcDbPlotSettings
  1

  2
自動 EPSON LP-9600S (W2450527 上)
  4

  6

 40
0.0
 41
0.0
 42
0.0
 43
0.0
 44
0.0
 45
0.0
 46
0.0
 47
0.0
 48
0.0
 49
0.0
140
0.0
141
0.0
142
1.0
143
1.0
 70
  1712
 72
     0
 73
     0
 74
     0
  7

 75
     0
147
1.0
 76
     0
 77
     2
 78
   300
148
0.0
149
0.0
100
AcDbLayout
  1
Model
 70
     1
 71
     0
 10
0.0
 20
0.0
 11
12.0
 21
9.0
 12
0.0
 22
0.0
 32
0.0
 14
0.0
 24
0.0
 34
0.0
 15
0.0
 25
0.0
 35
0.0
146
0.0
 13
0.0
 23
0.0
 33
0.0
 16
1.0
 26
0.0
 36
0.0
 17
0.0
 27
1.0
 37
0.0
 76
     0
330
2A7E
331
2A82
  0
LAYOUT
  5
2A7D
102
{ACAD_REACTORS
330
2A73
102
}
330
2A73
100
AcDbPlotSettings
  1

  2
自動 EPSON LP-9600S (W2450527 上)
  4

  6

 40
0.0
 41
0.0
 42
0.0
 43
0.0
 44
0.0
 45
0.0
 46
0.0
 47
0.0
 48
0.0
 49
0.0
140
0.0
141
0.0
142
1.0
143
1.0
 70
   688
 72
     0
 73
     0
 74
     5
  7

 75
    16
147
1.0
 76
     0
 77
     2
 78
   300
148
0.0
149
0.0
100
AcDbLayout
  1
レイアウト1
 70
     1
 71
     1
 10
0.0
 20
0.0
 11
12.0
 21
9.0
 12
0.0
 22
0.0
 32
0.0
 14
1.000000000000000E+20
 24
1.000000000000000E+20
 34
1.000000000000000E+20
 15
-1.000000000000000E+20
 25
-1.000000000000000E+20
 35
-1.000000000000000E+20
146
0.0
 13
0.0
 23
0.0
 33
0.0
 16
1.0
 26
0.0
 36
0.0
 17
0.0
 27
1.0
 37
0.0
 76
     0
330
2A7A
  0
MATERIAL
  5
2A23
102
{ACAD_XDICTIONARY
360
2A24
102
}
102
{ACAD_REACTORS
330
2A1A
102
}
330
2A1A
100
AcDbMaterial
  1
ByBlock
 72
     0
 43
0.0208333333333333
 43
0.0
 43
0.0
 43
0.0
 43
0.0
 43
0.0208333333333333
 43
0.0
 43
0.0
 43
0.0
 43
0.0
 43
1.0
 43
0.0
 43
0.0
 43
0.0
 43
0.0
 43
1.0
 77
     0
 47
0.0208333333333333
 47
0.0
 47
0.0
 47
0.0
 47
0.0
 47
0.0208333333333333
 47
0.0
 47
0.0
 47
0.0
 47
0.0
 47
1.0
 47
0.0
 47
0.0
 47
0.0
 47
0.0
 47
1.0
171
     0
 49
0.0208333333333333
 49
0.0
 49
0.0
 49
0.0
 49
0.0
 49
0.0208333333333333
 49
0.0
 49
0.0
 49
0.0
 49
0.0
 49
1.0
 49
0.0
 49
0.0
 49
0.0
 49
0.0
 49
1.0
175
     0
142
0.0208333333333333
142
0.0
142
0.0
142
0.0
142
0.0
142
0.0208333333333333
142
0.0
142
0.0
142
0.0
142
0.0
142
1.0
142
0.0
142
0.0
142
0.0
142
0.0
142
1.0
179
     0
144
0.0208333333333333
144
0.0
144
0.0
144
0.0
144
0.0
144
0.0208333333333333
144
0.0
144
0.0
144
0.0
144
0.0
144
1.0
144
0.0
144
0.0
144
0.0
144
0.0
144
1.0
147
0.0208333333333333
147
0.0
147
0.0
147
0.0
147
0.0
147
0.0208333333333333
147
0.0
147
0.0
147
0.0
147
0.0
147
1.0
147
0.0
147
0.0
147
0.0
147
0.0
147
1.0
  0
MATERIAL
  5
2A1B
102
{ACAD_XDICTIONARY
360
2A1C
102
}
102
{ACAD_REACTORS
330
2A1A
102
}
330
2A1A
100
AcDbMaterial
  1
ByLayer
 72
     0
 43
0.0208333333333333
 43
0.0
 43
0.0
 43
0.0
 43
0.0
 43
0.0208333333333333
 43
0.0
 43
0.0
 43
0.0
 43
0.0
 43
1.0
 43
0.0
 43
0.0
 43
0.0
 43
0.0
 43
1.0
 77
     0
 47
0.0208333333333333
 47
0.0
 47
0.0
 47
0.0
 47
0.0
 47
0.0208333333333333
 47
0.0
 47
0.0
 47
0.0
 47
0.0
 47
1.0
 47
0.0
 47
0.0
 47
0.0
 47
0.0
 47
1.0
171
     0
 49
0.0208333333333333
 49
0.0
 49
0.0
 49
0.0
 49
0.0
 49
0.0208333333333333
 49
0.0
 49
0.0
 49
0.0
 49
0.0
 49
1.0
 49
0.0
 49
0.0
 49
0.0
 49
0.0
 49
1.0
175
     0
142
0.0208333333333333
142
0.0
142
0.0
142
0.0
142
0.0
142
0.0208333333333333
142
0.0
142
0.0
142
0.0
142
0.0
142
1.0
142
0.0
142
0.0
142
0.0
142
0.0
142
1.0
179
     0
144
0.0208333333333333
144
0.0
144
0.0
144
0.0
144
0.0
144
0.0208333333333333
144
0.0
144
0.0
144
0.0
144
0.0
144
1.0
144
0.0
144
0.0
144
0.0
144
0.0
144
1.0
147
0.0208333333333333
147
0.0
147
0.0
147
0.0
147
0.0
147
0.0208333333333333
147
0.0
147
0.0
147
0.0
147
0.0
147
1.0
147
0.0
147
0.0
147
0.0
147
0.0
147
1.0
  0
MATERIAL
  5
2A2B
102
{ACAD_XDICTIONARY
360
2A2C
102
}
102
{ACAD_REACTORS
330
2A1A
102
}
330
2A1A
100
AcDbMaterial
  1
Global
 72
     0
 43
0.0208333333333333
 43
0.0
 43
0.0
 43
0.0
 43
0.0
 43
0.0208333333333333
 43
0.0
 43
0.0
 43
0.0
 43
0.0
 43
1.0
 43
0.0
 43
0.0
 43
0.0
 43
0.0
 43
1.0
 77
     0
 47
0.0208333333333333
 47
0.0
 47
0.0
 47
0.0
 47
0.0
 47
0.0208333333333333
 47
0.0
 47
0.0
 47
0.0
 47
0.0
 47
1.0
 47
0.0
 47
0.0
 47
0.0
 47
0.0
 47
1.0
171
     0
 49
0.0208333333333333
 49
0.0
 49
0.0
 49
0.0
 49
0.0
 49
0.0208333333333333
 49
0.0
 49
0.0
 49
0.0
 49
0.0
 49
1.0
 49
0.0
 49
0.0
 49
0.0
 49
0.0
 49
1.0
175
     0
142
0.0208333333333333
142
0.0
142
0.0
142
0.0
142
0.0
142
0.0208333333333333
142
0.0
142
0.0
142
0.0
142
0.0
142
1.0
142
0.0
142
0.0
142
0.0
142
0.0
142
1.0
179
     0
144
0.0208333333333333
144
0.0
144
0.0
144
0.0
144
0.0
144
0.0208333333333333
144
0.0
144
0.0
144
0.0
144
0.0
144
1.0
144
0.0
144
0.0
144
0.0
144
0.0
144
1.0
147
0.0208333333333333
147
0.0
147
0.0
147
0.0
147
0.0
147
0.0208333333333333
147
0.0
147
0.0
147
0.0
147
0.0
147
1.0
147
0.0
147
0.0
147
0.0
147
0.0
147
1.0
  0
MLEADERSTYLE
  5
2A78
102
{ACAD_REACTORS
330
2A77
102
}
330
2A77
100
AcDbMLeaderStyle
170
     2
171
     1
172
     0
 90
        2
 40
0.0
 41
0.0
173
     1
 91
-1056964608
340
2A6C
 92
       -2
290
     1
 42
0.09
291
     1
 43
0.36
  3
Standard
 44
0.18
300

342
2A67
174
     1
178
     6
175
     1
176
     0
 93
-1056964608
 45
0.18
292
     0
297
     0
 46
0.18
 94
-1056964608
 47
1.0
 49
1.0
140
1.0
293
     1
141
0.0
294
     1
177
     0
142
1.0
295
     0
296
     0
143
0.125
1001
ACAD_MLEADERVER
1070
     2
  0
MLINESTYLE
  5
2A71
102
{ACAD_REACTORS
330
2A70
102
}
330
2A70
100
AcDbMlineStyle
  2
STANDARD
 70
     0
  3

 62
   256
 51
90.0
 52
90.0
 71
     2
 49
0.5
 62
   256
  6
BYLAYER
 49
-0.5
 62
   256
  6
BYLAYER
  0
ACDBPLACEHOLDER
  5
2A19
102
{ACAD_REACTORS
330
2A18
102
}
330
2A18
  0
SCALE
  5
2A45
102
{ACAD_REACTORS
330
2A44
102
}
330
2A44
100
AcDbScale
 70
     0
300
1:1
140
1.0
141
1.0
290
     1
  0
SCALE
  5
2A46
102
{ACAD_REACTORS
330
2A44
102
}
330
2A44
100
AcDbScale
 70
     0
300
1:2
140
1.0
141
2.0
290
     0
  0
SCALE
  5
2A47
102
{ACAD_REACTORS
330
2A44
102
}
330
2A44
100
AcDbScale
 70
     0
300
1:4
140
1.0
141
4.0
290
     0
  0
SCALE
  5
2A48
102
{ACAD_REACTORS
330
2A44
102
}
330
2A44
100
AcDbScale
 70
     0
300
1:5
140
1.0
141
5.0
290
     0
  0
SCALE
  5
2A49
102
{ACAD_REACTORS
330
2A44
102
}
330
2A44
100
AcDbScale
 70
     0
300
1:8
140
1.0
141
8.0
290
     0
  0
SCALE
  5
2A4A
102
{ACAD_REACTORS
330
2A44
102
}
330
2A44
100
AcDbScale
 70
     0
300
1:10
140
1.0
141
10.0
290
     0
  0
SCALE
  5
2A4B
102
{ACAD_REACTORS
330
2A44
102
}
330
2A44
100
AcDbScale
 70
     0
300
1:16
140
1.0
141
16.0
290
     0
  0
SCALE
  5
2A4C
102
{ACAD_REACTORS
330
2A44
102
}
330
2A44
100
AcDbScale
 70
     0
300
1:20
140
1.0
141
20.0
290
     0
  0
SCALE
  5
2A4D
102
{ACAD_REACTORS
330
2A44
102
}
330
2A44
100
AcDbScale
 70
     0
300
1:30
140
1.0
141
30.0
290
     0
  0
SCALE
  5
2A4E
102
{ACAD_REACTORS
330
2A44
102
}
330
2A44
100
AcDbScale
 70
     0
300
1:40
140
1.0
141
40.0
290
     0
  0
SCALE
  5
2A4F
102
{ACAD_REACTORS
330
2A44
102
}
330
2A44
100
AcDbScale
 70
     0
300
1:50
140
1.0
141
50.0
290
     0
  0
SCALE
  5
2A50
102
{ACAD_REACTORS
330
2A44
102
}
330
2A44
100
AcDbScale
 70
     0
300
1:100
140
1.0
141
100.0
290
     0
  0
SCALE
  5
2A51
102
{ACAD_REACTORS
330
2A44
102
}
330
2A44
100
AcDbScale
 70
     0
300
2:1
140
2.0
141
1.0
290
     0
  0
SCALE
  5
2A52
102
{ACAD_REACTORS
330
2A44
102
}
330
2A44
100
AcDbScale
 70
     0
300
4:1
140
4.0
141
1.0
290
     0
  0
SCALE
  5
2A53
102
{ACAD_REACTORS
330
2A44
102
}
330
2A44
100
AcDbScale
 70
     0
300
8:1
140
8.0
141
1.0
290
     0
  0
SCALE
  5
2A54
102
{ACAD_REACTORS
330
2A44
102
}
330
2A44
100
AcDbScale
 70
     0
300
10:1
140
10.0
141
1.0
290
     0
  0
SCALE
  5
2A55
102
{ACAD_REACTORS
330
2A44
102
}
330
2A44
100
AcDbScale
 70
     0
300
100:1
140
100.0
141
1.0
290
     0
  0
SCALE
  5
2A56
102
{ACAD_REACTORS
330
2A44
102
}
330
2A44
100
AcDbScale
 70
     0
300
1/128" = 1'-0"
140
0.0078125
141
12.0
290
     0
  0
SCALE
  5
2A57
102
{ACAD_REACTORS
330
2A44
102
}
330
2A44
100
AcDbScale
 70
     0
300
1/64" = 1'-0"
140
0.015625
141
12.0
290
     0
  0
SCALE
  5
2A58
102
{ACAD_REACTORS
330
2A44
102
}
330
2A44
100
AcDbScale
 70
     0
300
1/32" = 1'-0"
140
0.03125
141
12.0
290
     0
  0
SCALE
  5
2A59
102
{ACAD_REACTORS
330
2A44
102
}
330
2A44
100
AcDbScale
 70
     0
300
1/16" = 1'-0"
140
0.0625
141
12.0
290
     0
  0
SCALE
  5
2A5A
102
{ACAD_REACTORS
330
2A44
102
}
330
2A44
100
AcDbScale
 70
     0
300
3/32" = 1'-0"
140
0.09375
141
12.0
290
     0
  0
SCALE
  5
2A5B
102
{ACAD_REACTORS
330
2A44
102
}
330
2A44
100
AcDbScale
 70
     0
300
1/8" = 1'-0"
140
0.125
141
12.0
290
     0
  0
SCALE
  5
2A5C
102
{ACAD_REACTORS
330
2A44
102
}
330
2A44
100
AcDbScale
 70
     0
300
3/16" = 1'-0"
140
0.1875
141
12.0
290
     0
  0
SCALE
  5
2A5D
102
{ACAD_REACTORS
330
2A44
102
}
330
2A44
100
AcDbScale
 70
     0
300
1/4" = 1'-0"
140
0.25
141
12.0
290
     0
  0
SCALE
  5
2A5E
102
{ACAD_REACTORS
330
2A44
102
}
330
2A44
100
AcDbScale
 70
     0
300
3/8" = 1'-0"
140
0.375
141
12.0
290
     0
  0
SCALE
  5
2A5F
102
{ACAD_REACTORS
330
2A44
102
}
330
2A44
100
AcDbScale
 70
     0
300
1/2" = 1'-0"
140
0.5
141
12.0
290
     0
  0
SCALE
  5
2A60
102
{ACAD_REACTORS
330
2A44
102
}
330
2A44
100
AcDbScale
 70
     0
300
3/4" = 1'-0"
140
0.75
141
12.0
290
     0
  0
SCALE
  5
2A61
102
{ACAD_REACTORS
330
2A44
102
}
330
2A44
100
AcDbScale
 70
     0
300
1" = 1'-0"
140
1.0
141
12.0
290
     0
  0
SCALE
  5
2A62
102
{ACAD_REACTORS
330
2A44
102
}
330
2A44
100
AcDbScale
 70
     0
300
1-1/2" = 1'-0"
140
1.5
141
12.0
290
     0
  0
SCALE
  5
2A63
102
{ACAD_REACTORS
330
2A44
102
}
330
2A44
100
AcDbScale
 70
     0
300
3" = 1'-0"
140
3.0
141
12.0
290
     0
  0
SCALE
  5
2A64
102
{ACAD_REACTORS
330
2A44
102
}
330
2A44
100
AcDbScale
 70
     0
300
6" = 1'-0"
140
6.0
141
12.0
290
     0
  0
SCALE
  5
2A65
102
{ACAD_REACTORS
330
2A44
102
}
330
2A44
100
AcDbScale
 70
     0
300
1'-0" = 1'-0"
140
12.0
141
12.0
290
     0
  0
TABLESTYLE
  5
2A76
102
{ACAD_XDICTIONARY
360
2C5F
102
}
102
{ACAD_REACTORS
330
2A75
102
}
330
2A75
100
AcDbTableStyle
  3
Standard
 70
     0
 71
     0
 40
0.06
 41
0.06
280
     0
281
     0
  7
STANDARD
140
0.18
170
     2
 62
     0
 63
     7
283
     0
274
    -2
284
     1
 64
     0
275
    -2
285
     1
 65
     0
276
    -2
286
     1
 66
     0
277
    -2
287
     1
 67
     0
278
    -2
288
     1
 68
     0
279
    -2
289
     1
 69
     0
  7
STANDARD
140
0.25
170
     5
 62
     0
 63
     7
283
     0
274
    -2
284
     1
 64
     0
275
    -2
285
     1
 65
     0
276
    -2
286
     1
 66
     0
277
    -2
287
     1
 67
     0
278
    -2
288
     1
 68
     0
279
    -2
289
     1
 69
     0
  7
STANDARD
140
0.18
170
     5
 62
     0
 63
     7
283
     0
274
    -2
284
     1
 64
     0
275
    -2
285
     1
 65
     0
276
    -2
286
     1
 66
     0
277
    -2
287
     1
 67
     0
278
    -2
288
     1
 68
     0
279
    -2
289
     1
 69
     0
  0
VISUALSTYLE
  5
2A39
102
{ACAD_REACTORS
330
2A33
102
}
330
2A33
100
AcDbVisualStyle
  2
2dWireframe
 70
     4
 71
     0
 72
     2
 73
     0
 90
        0
 40
-0.6
 41
-30.0
 62
     5
 63
     7
 74
     1
 91
        4
 64
     7
 65
   257
 75
     1
175
     1
 42
1.0
 92
        0
 66
   257
 43
1.0
 76
     1
 77
     6
 78
     2
 67
     7
 79
     5
170
     0
171
     0
290
     0
174
     0
 93
        1
 44
0.0
173
     0
291
     0
 45
0.0
1001
ACAD
1000
AcDbSavedByObjectVersion
1070
     0
1000
AcDbSavedByObjectVersion
1070
     0
  0
VISUALSTYLE
  5
2A3B
102
{ACAD_REACTORS
330
2A33
102
}
330
2A33
100
AcDbVisualStyle
  2
3D Hidden
 70
     6
 71
     1
 72
     2
 73
     2
 90
        0
 40
-0.6
 41
-30.0
 62
     5
 63
     7
 74
     2
 91
        2
 64
     7
 65
   257
 75
     2
175
     1
 42
40.0
 92
        0
 66
   257
 43
1.0
 76
     1
 77
     6
 78
     2
 67
     7
 79
     3
170
     0
171
     0
290
     0
174
     0
 93
        1
 44
0.0
173
     0
291
     0
 45
0.0
1001
ACAD
1000
AcDbSavedByObjectVersion
1070
     0
1000
AcDbSavedByObjectVersion
1070
     0
  0
VISUALSTYLE
  5
2A3A
102
{ACAD_REACTORS
330
2A33
102
}
330
2A33
100
AcDbVisualStyle
  2
3dWireframe
 70
     5
 71
     0
 72
     2
 73
     0
 90
        0
 40
-0.6
 41
-30.0
 62
     5
 63
     7
 74
     1
 91
        4
 64
     7
 65
   257
 75
     1
175
     1
 42
1.0
 92
        0
 66
   257
 43
1.0
 76
     1
 77
     6
 78
     2
 67
     7
 79
     5
170
     0
171
     0
290
     0
174
     0
 93
        1
 44
0.0
173
     0
291
     0
 45
0.0
1001
ACAD
1000
AcDbSavedByObjectVersion
1070
     0
1000
AcDbSavedByObjectVersion
1070
     0
  0
VISUALSTYLE
  5
2A38
102
{ACAD_REACTORS
330
2A33
102
}
330
2A33
100
AcDbVisualStyle
  2
Basic
 70
     7
 71
     1
 72
     0
 73
     1
 90
        0
 40
-0.6
 41
-30.0
 62
     5
 63
     7
 74
     0
 91
        4
 64
     7
 65
   257
 75
     1
175
     1
 42
1.0
 92
        8
 66
     7
 43
1.0
 76
     1
 77
     6
 78
     2
 67
     7
 79
     5
170
     0
171
     0
290
     0
174
     0
 93
        1
 44
0.0
173
     0
291
     1
 45
0.0
1001
ACAD
1000
AcDbSavedByObjectVersion
1070
     0
1000
AcDbSavedByObjectVersion
1070
     0
  0
VISUALSTYLE
  5
2A3F
102
{ACAD_REACTORS
330
2A33
102
}
330
2A33
100
AcDbVisualStyle
  2
Brighten
 70
    12
 71
     2
 72
     2
 73
     0
 90
        0
 40
-0.6
 41
-30.0
 62
     5
 63
     7
 74
     1
 91
        4
 64
     7
 65
   257
 75
     1
175
     1
 42
1.0
 92
        8
 66
     7
 43
1.0
 76
     1
 77
     6
 78
     2
 67
     7
 79
     5
170
     0
171
     0
290
     0
174
     0
 93
        1
 44
50.0
173
     0
291
     1
 45
0.0
1001
ACAD
1000
AcDbSavedByObjectVersion
1070
     0
1000
AcDbSavedByObjectVersion
1070
     0
  0
VISUALSTYLE
  5
2A43
102
{ACAD_REACTORS
330
2A33
102
}
330
2A33
100
AcDbVisualStyle
  2
ColorChange
 70
    16
 71
     2
 72
     2
 73
     3
 90
        0
 40
-0.6
 41
-30.0
 62
     5
 63
     8
 74
     1
 91
        4
 64
     7
 65
   257
 75
     1
175
     1
 42
1.0
 92
        8
 66
     8
 43
1.0
 76
     1
 77
     6
 78
     2
 67
     7
 79
     5
170
     0
171
     0
290
     0
174
     0
 93
        1
 44
0.0
173
     0
291
     1
 45
0.0
1001
ACAD
1000
AcDbSavedByObjectVersion
1070
     0
1000
AcDbSavedByObjectVersion
1070
     0
  0
VISUALSTYLE
  5
2A3C
102
{ACAD_REACTORS
330
2A33
102
}
330
2A33
100
AcDbVisualStyle
  2
Conceptual
 70
     9
 71
     3
 72
     2
 73
     0
 90
        0
 40
-0.6
 41
-30.0
 62
     5
 63
     7
 74
     2
 91
        2
 64
     7
 65
   257
 75
     1
175
     1
 42
40.0
 92
        8
 66
     7
 43
1.0
 76
     1
 77
     6
 78
     2
 67
     7
 79
     3
170
     0
171
     0
290
     0
174
     0
 93
        1
 44
0.0
173
     0
291
     0
 45
0.0
1001
ACAD
1000
AcDbSavedByObjectVersion
1070
     0
1000
AcDbSavedByObjectVersion
1070
     0
  0
VISUALSTYLE
  5
2A3E
102
{ACAD_REACTORS
330
2A33
102
}
330
2A33
100
AcDbVisualStyle
  2
Dim
 70
    11
 71
     2
 72
     2
 73
     0
 90
        0
 40
-0.6
 41
-30.0
 62
     5
 63
     7
 74
     1
 91
        4
 64
     7
 65
   257
 75
     1
175
     1
 42
1.0
 92
        8
 66
     7
 43
1.0
 76
     1
 77
     6
 78
     2
 67
     7
 79
     5
170
     0
171
     0
290
     0
174
     0
 93
        1
 44
-50.0
173
     0
291
     1
 45
0.0
1001
ACAD
1000
AcDbSavedByObjectVersion
1070
     0
1000
AcDbSavedByObjectVersion
1070
     0
  0
VISUALSTYLE
  5
2A42
102
{ACAD_REACTORS
330
2A33
102
}
330
2A33
100
AcDbVisualStyle
  2
Facepattern
 70
    15
 71
     2
 72
     2
 73
     0
 90
        0
 40
-0.6
 41
-30.0
 62
     5
 63
     7
 74
     1
 91
        4
 64
     7
 65
   257
 75
     1
175
     1
 42
1.0
 92
        8
 66
     7
 43
1.0
 76
     1
 77
     6
 78
     2
 67
     7
 79
     5
170
     0
171
     0
290
     0
174
     0
 93
        1
 44
0.0
173
     0
291
     1
 45
0.0
1001
ACAD
1000
AcDbSavedByObjectVersion
1070
     0
1000
AcDbSavedByObjectVersion
1070
     0
  0
VISUALSTYLE
  5
2A34
102
{ACAD_REACTORS
330
2A33
102
}
330
2A33
100
AcDbVisualStyle
  2
Flat
 70
     0
 71
     2
 72
     1
 73
     1
 90
        2
 40
-0.6
 41
30.0
 62
     5
 63
     7
 74
     0
 91
        4
 64
     7
 65
   257
 75
     1
175
     1
 42
1.0
 92
        8
 66
     7
 43
1.0
 76
     1
 77
     6
 78
     2
 67
     7
 79
     5
170
     0
171
     0
290
     0
174
     0
 93
       13
 44
0.0
173
     0
291
     1
 45
0.0
1001
ACAD
1000
AcDbSavedByObjectVersion
1070
     0
1000
AcDbSavedByObjectVersion
1070
     0
  0
VISUALSTYLE
  5
2A35
102
{ACAD_REACTORS
330
2A33
102
}
330
2A33
100
AcDbVisualStyle
  2
FlatWithEdges
 70
     1
 71
     2
 72
     1
 73
     1
 90
        2
 40
-0.6
 41
30.0
 62
     5
 63
     7
 74
     1
 91
        4
 64
     7
 65
   257
 75
     1
175
     1
 42
1.0
 92
        0
 66
   257
 43
1.0
 76
     1
 77
     6
 78
     2
 67
     7
 79
     5
170
     0
171
     0
290
     0
174
     0
 93
       13
 44
0.0
173
     0
291
     1
 45
0.0
1001
ACAD
1000
AcDbSavedByObjectVersion
1070
     0
1000
AcDbSavedByObjectVersion
1070
     0
  0
VISUALSTYLE
  5
2A36
102
{ACAD_REACTORS
330
2A33
102
}
330
2A33
100
AcDbVisualStyle
  2
Gouraud
 70
     2
 71
     2
 72
     2
 73
     1
 90
        2
 40
-0.6
 41
30.0
 62
     5
 63
     7
 74
     0
 91
        4
 64
     7
 65
   257
 75
     1
175
     1
 42
1.0
 92
        0
 66
     7
 43
1.0
 76
     1
 77
     6
 78
     2
 67
     7
 79
     5
170
     0
171
     0
290
     0
174
     0
 93
       13
 44
0.0
173
     0
291
     1
 45
0.0
1001
ACAD
1000
AcDbSavedByObjectVersion
1070
     0
1000
AcDbSavedByObjectVersion
1070
     0
  0
VISUALSTYLE
  5
2A37
102
{ACAD_REACTORS
330
2A33
102
}
330
2A33
100
AcDbVisualStyle
  2
GouraudWithEdges
 70
     3
 71
     2
 72
     2
 73
     1
 90
        2
 40
-0.6
 41
30.0
 62
     5
 63
     7
 74
     1
 91
        4
 64
     7
 65
   257
 75
     1
175
     1
 42
1.0
 92
        0
 66
   257
 43
1.0
 76
     1
 77
     6
 78
     2
 67
     7
 79
     5
170
     0
171
     0
290
     0
174
     0
 93
       13
 44
0.0
173
     0
291
     1
 45
0.0
1001
ACAD
1000
AcDbSavedByObjectVersion
1070
     0
1000
AcDbSavedByObjectVersion
1070
     0
  0
VISUALSTYLE
  5
2A41
102
{ACAD_REACTORS
330
2A33
102
}
330
2A33
100
AcDbVisualStyle
  2
Linepattern
 70
    14
 71
     2
 72
     2
 73
     0
 90
        0
 40
-0.6
 41
-30.0
 62
     5
 63
     7
 74
     1
 91
        4
 64
     7
 65
   257
 75
     7
175
     7
 42
1.0
 92
        8
 66
     7
 43
1.0
 76
     1
 77
     6
 78
     2
 67
     7
 79
     5
170
     0
171
     0
290
     0
174
     0
 93
        1
 44
0.0
173
     0
291
     1
 45
0.0
1001
ACAD
1000
AcDbSavedByObjectVersion
1070
     0
1000
AcDbSavedByObjectVersion
1070
     0
  0
VISUALSTYLE
  5
2A3D
102
{ACAD_REACTORS
330
2A33
102
}
330
2A33
100
AcDbVisualStyle
  2
Realistic
 70
     8
 71
     2
 72
     2
 73
     0
 90
        0
 40
-0.6
 41
-30.0
 62
     5
 63
     7
 74
     1
 91
        0
 64
     7
 65
   257
 75
     1
175
     1
 42
1.0
 92
        8
 66
     8
 43
1.0
 76
     1
 77
     6
 78
     2
 67
     7
 79
     5
170
     0
171
     0
290
     0
174
     0
 93
       13
 44
0.0
173
     0
291
     0
 45
0.0
1001
ACAD
1000
AcDbSavedByObjectVersion
1070
     0
1000
AcDbSavedByObjectVersion
1070
     0
  0
VISUALSTYLE
  5
2A40
102
{ACAD_REACTORS
330
2A33
102
}
330
2A33
100
AcDbVisualStyle
  2
Thicken
 70
    13
 71
     2
 72
     2
 73
     0
 90
        0
 40
-0.6
 41
-30.0
 62
     5
 63
     7
 74
     1
 91
        4
 64
     7
 65
   257
 75
     1
175
     1
 42
1.0
 92
       12
 66
     7
 43
1.0
 76
     1
 77
     6
 78
     2
 67
     7
 79
     5
170
     0
171
     0
290
     0
174
     0
 93
        1
 44
0.0
173
     0
291
     1
 45
0.0
1001
ACAD
1000
AcDbSavedByObjectVersion
1070
     0
1000
AcDbSavedByObjectVersion
1070
     0
  0
DICTIONARYVAR
  5
2C5B
102
{ACAD_REACTORS
330
2C58
102
}
330
2C58
100
DictionaryVariables
280
     0
  1
1:1
  0
DICTIONARYVAR
  5
2C5A
102
{ACAD_REACTORS
330
2C58
102
}
330
2C58
100
DictionaryVariables
280
     0
  1
STANDARD
  0
DICTIONARYVAR
  5
2C59
102
{ACAD_REACTORS
330
2C58
102
}
330
2C58
100
DictionaryVariables
280
     0
  1
STANDARD
  0
DICTIONARYVAR
  5
2C5E
102
{ACAD_REACTORS
330
2C58
102
}
330
2C58
100
DictionaryVariables
280
     0
  1
1
  0
DICTIONARYVAR
  5
2C5D
102
{ACAD_REACTORS
330
2C58
102
}
330
2C58
100
DictionaryVariables
280
     0
  1
1
  0
DICTIONARYVAR
  5
2F08
102
{ACAD_REACTORS
330
2C58
102
}
330
2C58
100
DictionaryVariables
280
     0
  1
1
  0
DICTIONARYVAR
  5
2F09
102
{ACAD_REACTORS
330
2C58
102
}
330
2C58
100
DictionaryVariables
280
     0
  1
15
  0
DICTIONARYVAR
  5
2F07
102
{ACAD_REACTORS
330
2C58
102
}
330
2C58
100
DictionaryVariables
280
     0
  1
0
  0
DICTIONARYVAR
  5
306A
102
{ACAD_REACTORS
330
2C58
102
}
330
2C58
100
DictionaryVariables
280
     0
  1
1.570796
  0
DICTIONARYVAR
  5
306B
102
{ACAD_REACTORS
330
2C58
102
}
330
2C58
100
DictionaryVariables
280
     0
  1
1.570796
  0
DICTIONARYVAR
  5
306C
102
{ACAD_REACTORS
330
2C58
102
}
330
2C58
100
DictionaryVariables
280
     0
  1
-122.394000
  0
DICTIONARYVAR
  5
2F06
102
{ACAD_REACTORS
330
2C58
102
}
330
2C58
100
DictionaryVariables
280
     0
  1
0
  0
DICTIONARYVAR
  5
2C5C
102
{ACAD_REACTORS
330
2C58
102
}
330
2C58
100
DictionaryVariables
280
     0
  1
127
  0
DICTIONARY
  5
2C19
102
{ACAD_REACTORS
330
2C0B
102
}
330
2C0B
100
AcDbDictionary
281
     1
  0
LAYER_INDEX
  5
2C4B
102
{ACAD_REACTORS
330
2C4A
102
}
330
2C4A
100
AcDbIndex
 40
2457491.692252998
100
AcDbLayerIndex
  8
0
360
2C4C
 90
        0
  8
OUTLINE
360
2C4D
 90
       16
  8
SIZE
360
2C4E
 90
       31
  8
BASIS
360
2C4F
 90
        1
  8
DETAIL
360
2C50
 90
      155
  8
ARRANGE
360
2C51
 90
        2
  8
DEFPOINTS
360
2C52
 90
        0
  8
ETC
360
2C53
 90
        3
  8
FIX
360
2C54
 90
        0
  8
NOTE
360
2C55
 90
        7
  8
SERVICESPACE
360
2C56
 90
        0
  8
SYMBOLLINE
360
2C57
 90
        0
  0
DICTIONARY
  5
2A24
330
2A23
100
AcDbDictionary
280
     1
281
     1
  3
ACAD_XREC_ROUNDTRIP
360
2C69
  3
BUMPTILE
360
2A26
  3
DIFFUSETILE
360
2A25
  3
OPACITYTILE
360
2A29
  3
REFLECTIONTILE
360
2A28
  3
REFRACTIONTILE
360
2A2A
  3
SPECULARTILE
360
2A27
  0
DICTIONARY
  5
2A1C
330
2A1B
100
AcDbDictionary
280
     1
281
     1
  3
ACAD_XREC_ROUNDTRIP
360
2C68
  3
BUMPTILE
360
2A1E
  3
DIFFUSETILE
360
2A1D
  3
OPACITYTILE
360
2A21
  3
REFLECTIONTILE
360
2A20
  3
REFRACTIONTILE
360
2A22
  3
SPECULARTILE
360
2A1F
  0
DICTIONARY
  5
2A2C
330
2A2B
100
AcDbDictionary
280
     1
281
     1
  3
ACAD_XREC_ROUNDTRIP
360
2C6A
  3
BUMPTILE
360
2A2E
  3
DIFFUSETILE
360
2A2D
  3
OPACITYTILE
360
2A31
  3
REFLECTIONTILE
360
2A30
  3
REFRACTIONTILE
360
2A32
  3
SPECULARTILE
360
2A2F
  0
DICTIONARY
  5
2C5F
330
2A76
100
AcDbDictionary
280
     1
281
     1
  3
ACAD_ROUNDTRIP_2008_TABLESTYLE_CELLSTYLEMAP
360
306D
  3
ACAD_XREC_ROUNDTRIP
360
3073
  0
IDBUFFER
  5
2C4C
330
0
100
AcDbIdBuffer
  0
IDBUFFER
  5
2C4D
330
0
100
AcDbIdBuffer
330
953
330
954
330
955
330
956
330
957
330
958
330
2E56
330
2E61
330
2E68
330
2E69
330
2E6A
330
2E6B
330
2E6C
330
2E6D
330
2E6E
330
2E6F
  0
IDBUFFER
  5
2C4E
330
0
100
AcDbIdBuffer
330
2E38
330
2E39
330
2E3A
330
2E3B
330
2E3C
330
2E3D
330
2E3E
330
2E3F
330
2E40
330
2E41
330
2E42
330
2E43
330
2E44
330
2E45
330
2E46
330
2E47
330
2E48
330
2E49
330
2E4A
330
2E4B
330
2E4C
330
2E4D
330
2E4E
330
2E4F
330
2EFF
330
2F00
330
2F01
330
2F02
330
2F03
330
2F04
330
2F05
  0
IDBUFFER
  5
2C4F
330
0
100
AcDbIdBuffer
330
2E52
  0
IDBUFFER
  5
2C50
330
0
100
AcDbIdBuffer
330
2E53
330
2E54
330
2E55
330
2E57
330
2E58
330
2E59
330
2E5A
330
2E5B
330
2E5C
330
2E5F
330
2E60
330
2E62
330
2E70
330
2E71
330
2E72
330
2E73
330
2E74
330
2E75
330
2E76
330
2E77
330
2E78
330
2E79
330
2E7A
330
2E7B
330
2E7C
330
2E7D
330
2E7E
330
2E7F
330
2E80
330
2E81
330
2E82
330
2E83
330
2E84
330
2E85
330
2E86
330
2E87
330
2E88
330
2E89
330
2E8A
330
2E8B
330
2E8C
330
2E8D
330
2E8E
330
2E8F
330
2E90
330
2E91
330
2E92
330
2E93
330
2E94
330
2E95
330
2E96
330
2E97
330
2E98
330
2E99
330
2E9A
330
2E9B
330
2E9C
330
2E9D
330
2E9E
330
2E9F
330
2EA0
330
2EA1
330
2EA2
330
2EA3
330
2EA4
330
2EA5
330
2EA6
330
2EA7
330
2EA8
330
2EA9
330
2EAA
330
2EAB
330
2EAC
330
2EAD
330
2EAE
330
2EAF
330
2EB0
330
2EB1
330
2EB2
330
2EB3
330
2EB4
330
2EB5
330
2EB6
330
2EB7
330
2EB8
330
2EB9
330
2EBA
330
2EBB
330
2EBC
330
2EBD
330
2EBE
330
2EBF
330
2EC0
330
2EC1
330
2EC2
330
2EC3
330
2EC4
330
2EC5
330
2EC6
330
2EC7
330
2EC8
330
2EC9
330
2ECA
330
2ECB
330
2ECC
330
2ECD
330
2ECE
330
2ECF
330
2ED0
330
2ED1
330
2ED2
330
2ED3
330
2ED4
330
2ED5
330
2ED6
330
2ED7
330
2ED8
330
2ED9
330
2EDA
330
2EDB
330
2EDC
330
2EDD
330
2EDE
330
2EDF
330
2EE0
330
2EE1
330
2EE2
330
2EE3
330
2EE4
330
2EE5
330
2EE6
330
2EE7
330
2EE8
330
2EE9
330
2EEA
330
2EEB
330
2EEC
330
2EED
330
2EEE
330
2EEF
330
2EF0
330
2EF1
330
2EF2
330
2EF3
330
2EF4
330
2EF5
330
2EF6
330
2EF7
330
2EF8
330
2EF9
330
2EFA
330
2EFB
330
2EFC
330
2EFD
330
2EFE
  0
IDBUFFER
  5
2C51
330
0
100
AcDbIdBuffer
330
2E50
330
2E51
  0
IDBUFFER
  5
2C52
330
0
100
AcDbIdBuffer
  0
IDBUFFER
  5
2C53
330
0
100
AcDbIdBuffer
330
2E35
330
2E36
330
2E37
  0
IDBUFFER
  5
2C54
330
0
100
AcDbIdBuffer
  0
IDBUFFER
  5
2C55
330
0
100
AcDbIdBuffer
330
2E5D
330
2E5E
330
2E63
330
2E64
330
2E65
330
2E66
330
2E67
  0
IDBUFFER
  5
2C56
330
0
100
AcDbIdBuffer
  0
IDBUFFER
  5
2C57
330
0
100
AcDbIdBuffer
  0
XRECORD
  5
2C69
102
{ACAD_REACTORS
330
2A24
102
}
330
2A24
100
AcDbXrecord
280
     1
102
MATERIAL
148
0.0
149
0.0
149
0.0
 93
        0
 94
      127
282
     0
 72
     0
 77
     0
171
     0
175
     0
179
     0
273
     0
  0
XRECORD
  5
2A26
102
{ACAD_REACTORS
330
2A24
102
}
330
2A24
100
AcDbXrecord
280
     1
270
     1
271
     1
  0
XRECORD
  5
2A25
102
{ACAD_REACTORS
330
2A24
102
}
330
2A24
100
AcDbXrecord
280
     1
270
     1
271
     1
  0
XRECORD
  5
2A29
102
{ACAD_REACTORS
330
2A24
102
}
330
2A24
100
AcDbXrecord
280
     1
270
     1
271
     1
  0
XRECORD
  5
2A28
102
{ACAD_REACTORS
330
2A24
102
}
330
2A24
100
AcDbXrecord
280
     1
270
     1
271
     1
  0
XRECORD
  5
2A2A
102
{ACAD_REACTORS
330
2A24
102
}
330
2A24
100
AcDbXrecord
280
     1
270
     1
271
     1
  0
XRECORD
  5
2A27
102
{ACAD_REACTORS
330
2A24
102
}
330
2A24
100
AcDbXrecord
280
     1
270
     1
271
     1
  0
XRECORD
  5
2C68
102
{ACAD_REACTORS
330
2A1C
102
}
330
2A1C
100
AcDbXrecord
280
     1
102
MATERIAL
148
0.0
149
0.0
149
0.0
 93
        0
 94
      127
282
     0
 72
     0
 77
     0
171
     0
175
     0
179
     0
273
     0
  0
XRECORD
  5
2A1E
102
{ACAD_REACTORS
330
2A1C
102
}
330
2A1C
100
AcDbXrecord
280
     1
270
     1
271
     1
  0
XRECORD
  5
2A1D
102
{ACAD_REACTORS
330
2A1C
102
}
330
2A1C
100
AcDbXrecord
280
     1
270
     1
271
     1
  0
XRECORD
  5
2A21
102
{ACAD_REACTORS
330
2A1C
102
}
330
2A1C
100
AcDbXrecord
280
     1
270
     1
271
     1
  0
XRECORD
  5
2A20
102
{ACAD_REACTORS
330
2A1C
102
}
330
2A1C
100
AcDbXrecord
280
     1
270
     1
271
     1
  0
XRECORD
  5
2A22
102
{ACAD_REACTORS
330
2A1C
102
}
330
2A1C
100
AcDbXrecord
280
     1
270
     1
271
     1
  0
XRECORD
  5
2A1F
102
{ACAD_REACTORS
330
2A1C
102
}
330
2A1C
100
AcDbXrecord
280
     1
270
     1
271
     1
  0
XRECORD
  5
2C6A
102
{ACAD_REACTORS
330
2A2C
102
}
330
2A2C
100
AcDbXrecord
280
     1
102
MATERIAL
148
0.0
149
0.0
149
0.0
 93
        0
 94
      127
282
     0
 72
     0
 77
     0
171
     0
175
     0
179
     0
273
     0
  0
XRECORD
  5
2A2E
102
{ACAD_REACTORS
330
2A2C
102
}
330
2A2C
100
AcDbXrecord
280
     1
270
     1
271
     1
  0
XRECORD
  5
2A2D
102
{ACAD_REACTORS
330
2A2C
102
}
330
2A2C
100
AcDbXrecord
280
     1
270
     1
271
     1
  0
XRECORD
  5
2A31
102
{ACAD_REACTORS
330
2A2C
102
}
330
2A2C
100
AcDbXrecord
280
     1
270
     1
271
     1
  0
XRECORD
  5
2A30
102
{ACAD_REACTORS
330
2A2C
102
}
330
2A2C
100
AcDbXrecord
280
     1
270
     1
271
     1
  0
XRECORD
  5
2A32
102
{ACAD_REACTORS
330
2A2C
102
}
330
2A2C
100
AcDbXrecord
280
     1
270
     1
271
     1
  0
XRECORD
  5
2A2F
102
{ACAD_REACTORS
330
2A2C
102
}
330
2A2C
100
AcDbXrecord
280
     1
270
     1
271
     1
  0
CELLSTYLEMAP
  5
306D
102
{ACAD_REACTORS
330
2C5F
102
}
330
2C5F
100
AcDbCellStyleMap
 90
        3
300
CELLSTYLE
  1
TABLEFORMAT_BEGIN
 90
        5
170
     1
 91
        0
 92
    32768
 62
   257
 93
        1
300
CONTENTFORMAT
  1
CONTENTFORMAT_BEGIN
 90
        0
 91
        0
 92
      512
 93
        0
300

 40
0.0
140
1.0
 94
        5
 62
     0
340
2A67
144
0.25
309
CONTENTFORMAT_END
171
     1
301
MARGIN
  1
CELLMARGIN_BEGIN
 40
0.06
 40
0.06
 40
0.06
 40
0.06
 40
0.18
 40
0.18
309
CELLMARGIN_END
 94
        6
 95
        1
302
GRIDFORMAT
  1
GRIDFORMAT_BEGIN
 90
        0
 91
        1
 62
     0
 92
       -2
340
0
 93
        0
 40
0.045
309
GRIDFORMAT_END
 95
        2
302
GRIDFORMAT
  1
GRIDFORMAT_BEGIN
 90
        0
 91
        1
 62
     0
 92
       -2
340
0
 93
        0
 40
0.045
309
GRIDFORMAT_END
 95
        4
302
GRIDFORMAT
  1
GRIDFORMAT_BEGIN
 90
        0
 91
        1
 62
     0
 92
       -2
340
0
 93
        0
 40
0.045
309
GRIDFORMAT_END
 95
        8
302
GRIDFORMAT
  1
GRIDFORMAT_BEGIN
 90
        0
 91
        1
 62
     0
 92
       -2
340
0
 93
        0
 40
0.045
309
GRIDFORMAT_END
 95
       16
302
GRIDFORMAT
  1
GRIDFORMAT_BEGIN
 90
        0
 91
        1
 62
     0
 92
       -2
340
0
 93
        0
 40
0.045
309
GRIDFORMAT_END
 95
       32
302
GRIDFORMAT
  1
GRIDFORMAT_BEGIN
 90
        0
 91
        1
 62
     0
 92
       -2
340
0
 93
        0
 40
0.045
309
GRIDFORMAT_END
309
TABLEFORMAT_END
  1
CELLSTYLE_BEGIN
 90
        1
 91
        1
300
_TITLE
309
CELLSTYLE_END
300
CELLSTYLE
  1
TABLEFORMAT_BEGIN
 90
        5
170
     1
 91
        0
 92
        0
 62
   257
 93
        1
300
CONTENTFORMAT
  1
CONTENTFORMAT_BEGIN
 90
        0
 91
        0
 92
      512
 93
        0
300

 40
0.0
140
1.0
 94
        5
 62
     0
340
2A67
144
0.18
309
CONTENTFORMAT_END
171
     1
301
MARGIN
  1
CELLMARGIN_BEGIN
 40
0.06
 40
0.06
 40
0.06
 40
0.06
 40
0.18
 40
0.18
309
CELLMARGIN_END
 94
        6
 95
        1
302
GRIDFORMAT
  1
GRIDFORMAT_BEGIN
 90
        0
 91
        1
 62
     0
 92
       -2
340
0
 93
        0
 40
0.045
309
GRIDFORMAT_END
 95
        2
302
GRIDFORMAT
  1
GRIDFORMAT_BEGIN
 90
        0
 91
        1
 62
     0
 92
       -2
340
0
 93
        0
 40
0.045
309
GRIDFORMAT_END
 95
        4
302
GRIDFORMAT
  1
GRIDFORMAT_BEGIN
 90
        0
 91
        1
 62
     0
 92
       -2
340
0
 93
        0
 40
0.045
309
GRIDFORMAT_END
 95
        8
302
GRIDFORMAT
  1
GRIDFORMAT_BEGIN
 90
        0
 91
        1
 62
     0
 92
       -2
340
0
 93
        0
 40
0.045
309
GRIDFORMAT_END
 95
       16
302
GRIDFORMAT
  1
GRIDFORMAT_BEGIN
 90
        0
 91
        1
 62
     0
 92
       -2
340
0
 93
        0
 40
0.045
309
GRIDFORMAT_END
 95
       32
302
GRIDFORMAT
  1
GRIDFORMAT_BEGIN
 90
        0
 91
        1
 62
     0
 92
       -2
340
0
 93
        0
 40
0.045
309
GRIDFORMAT_END
309
TABLEFORMAT_END
  1
CELLSTYLE_BEGIN
 90
        2
 91
        1
300
_HEADER
309
CELLSTYLE_END
300
CELLSTYLE
  1
TABLEFORMAT_BEGIN
 90
        5
170
     1
 91
        0
 92
        0
 62
   257
 93
        1
300
CONTENTFORMAT
  1
CONTENTFORMAT_BEGIN
 90
        0
 91
        0
 92
      512
 93
        0
300

 40
0.0
140
1.0
 94
        2
 62
     0
340
2A67
144
0.18
309
CONTENTFORMAT_END
171
     1
301
MARGIN
  1
CELLMARGIN_BEGIN
 40
0.06
 40
0.06
 40
0.06
 40
0.06
 40
0.18
 40
0.18
309
CELLMARGIN_END
 94
        6
 95
        1
302
GRIDFORMAT
  1
GRIDFORMAT_BEGIN
 90
        0
 91
        1
 62
     0
 92
       -2
340
0
 93
        0
 40
0.045
309
GRIDFORMAT_END
 95
        2
302
GRIDFORMAT
  1
GRIDFORMAT_BEGIN
 90
        0
 91
        1
 62
     0
 92
       -2
340
0
 93
        0
 40
0.045
309
GRIDFORMAT_END
 95
        4
302
GRIDFORMAT
  1
GRIDFORMAT_BEGIN
 90
        0
 91
        1
 62
     0
 92
       -2
340
0
 93
        0
 40
0.045
309
GRIDFORMAT_END
 95
        8
302
GRIDFORMAT
  1
GRIDFORMAT_BEGIN
 90
        0
 91
        1
 62
     0
 92
       -2
340
0
 93
        0
 40
0.045
309
GRIDFORMAT_END
 95
       16
302
GRIDFORMAT
  1
GRIDFORMAT_BEGIN
 90
        0
 91
        1
 62
     0
 92
       -2
340
0
 93
        0
 40
0.045
309
GRIDFORMAT_END
 95
       32
302
GRIDFORMAT
  1
GRIDFORMAT_BEGIN
 90
        0
 91
        1
 62
     0
 92
       -2
340
0
 93
        0
 40
0.045
309
GRIDFORMAT_END
309
TABLEFORMAT_END
  1
CELLSTYLE_BEGIN
 90
        3
 91
        2
300
_DATA
309
CELLSTYLE_END
  0
XRECORD
  5
3073
102
{ACAD_REACTORS
330
2C5F
102
}
330
2C5F
100
AcDbXrecord
280
     1
102
ACAD_ROUNDTRIP_PRE2007_TABLESTYLE
 90
      512
 91
        0
  1

 92
      512
 93
        0
  2

 94
      512
 95
        0
  3

  0
ENDSEC
  0
EOF
