  0
SECTION
  2
HEADER
  9
$ACADVER
  1
AC1018
  9
$ACADMAINTVER
 70
   104
  9
$DWGCODEPAGE
  3
ANSI_932
  9
$LASTSAVEDBY
  1
a080061
  9
$CUSTOMPROPERTYTAG
  1
AmdtFileType
  9
$CUSTOMPROPERTY
  1
84
  9
$INSBASE
 10
0.0
 20
0.0
 30
0.0
  9
$EXTMIN
 10
-362.0956252237047
 20
2234.143398009678
 30
-0.0015257624927045
  9
$EXTMAX
 10
1401.704418742683
 20
3345.973571042552
 30
50.00152599532333
  9
$LIMMIN
 10
-2970.0
 20
-2100.0
  9
$LIMMAX
 10
2970.0
 20
2100.0
  9
$ORTHOMODE
 70
     1
  9
$REGENMODE
 70
     0
  9
$FILLMODE
 70
     1
  9
$QTEXTMODE
 70
     0
  9
$MIRRTEXT
 70
     0
  9
$LTSCALE
 40
20.0
  9
$ATTMODE
 70
     1
  9
$TEXTSIZE
 40
64.0
  9
$TRACEWID
 40
0.05
  9
$TEXTSTYLE
  7
STANDARD
  9
$CLAYER
  8
0
  9
$CELTYPE
  6
ByLayer
  9
$CECOLOR
 62
   256
  9
$CELTSCALE
 40
1.0
  9
$DISPSILH
 70
     0
  9
$DIMSCALE
 40
1.0
  9
$DIMASZ
 40
0.12
  9
$DIMEXO
 40
0.05
  9
$DIMDLI
 40
0.5
  9
$DIMRND
 40
0.0
  9
$DIMDLE
 40
0.0
  9
$DIMEXE
 40
0.1
  9
$DIMTP
 40
0.1
  9
$DIMTM
 40
0.1
  9
$DIMTXT
 40
0.12
  9
$DIMCEN
 40
0.0
  9
$DIMTSZ
 40
0.0
  9
$DIMTOL
 70
     0
  9
$DIMLIM
 70
     0
  9
$DIMTIH
 70
     1
  9
$DIMTOH
 70
     1
  9
$DIMSE1
 70
     0
  9
$DIMSE2
 70
     0
  9
$DIMTAD
 70
     0
  9
$DIMZIN
 70
     7
  9
$DIMBLK
  1

  9
$DIMASO
 70
     1
  9
$DIMSHO
 70
     0
  9
$DIMPOST
  1

  9
$DIMAPOST
  1
mm
  9
$DIMALT
 70
     0
  9
$DIMALTD
 70
     2
  9
$DIMALTF
 40
25.4
  9
$DIMLFAC
 40
1.0
  9
$DIMTOFL
 70
     0
  9
$DIMTVP
 40
0.0
  9
$DIMTIX
 70
     0
  9
$DIMSOXD
 70
     0
  9
$DIMSAH
 70
     0
  9
$DIMBLK1
  1

  9
$DIMBLK2
  1

  9
$DIMSTYLE
  2
AM_ANSI
  9
$DIMCLRD
 70
   256
  9
$DIMCLRE
 70
   256
  9
$DIMCLRT
 70
     2
  9
$DIMTFAC
 40
0.71
  9
$DIMGAP
 40
0.06
  9
$DIMJUST
 70
     0
  9
$DIMSD1
 70
     0
  9
$DIMSD2
 70
     0
  9
$DIMTOLJ
 70
     1
  9
$DIMTZIN
 70
     7
  9
$DIMALTZ
 70
     0
  9
$DIMALTTZ
 70
     0
  9
$DIMUPT
 70
     0
  9
$DIMDEC
 70
     4
  9
$DIMTDEC
 70
     4
  9
$DIMALTU
 70
     2
  9
$DIMALTTD
 70
     4
  9
$DIMTXSTY
  7
STANDARD
  9
$DIMAUNIT
 70
     0
  9
$DIMADEC
 70
     0
  9
$DIMALTRND
 40
0.0
  9
$DIMAZIN
 70
     2
  9
$DIMDSEP
 70
    46
  9
$DIMATFIT
 70
     3
  9
$DIMFRAC
 70
     0
  9
$DIMLDRBLK
  1

  9
$DIMLUNIT
 70
     2
  9
$DIMLWD
 70
    -1
  9
$DIMLWE
 70
    -1
  9
$DIMTMOVE
 70
     0
  9
$LUNITS
 70
     2
  9
$LUPREC
 70
     4
  9
$SKETCHINC
 40
0.1
  9
$FILLETRAD
 40
4.0
  9
$AUNITS
 70
     1
  9
$AUPREC
 70
     3
  9
$MENU
  1
ACAD
  9
$ELEVATION
 40
0.0
  9
$PELEVATION
 40
0.0
  9
$THICKNESS
 40
50.0
  9
$LIMCHECK
 70
     0
  9
$CHAMFERA
 40
0.0
  9
$CHAMFERB
 40
0.0
  9
$CHAMFERC
 40
0.0
  9
$CHAMFERD
 40
0.0
  9
$SKPOLY
 70
     0
  9
$TDCREATE
 40
2452321.396199653
  9
$TDUCREATE
 40
2452321.021199653
  9
$TDUPDATE
 40
2457491.725028114
  9
$TDUUPDATE
 40
2457491.350028114
  9
$TDINDWG
 40
1.0427856944
  9
$TDUSRTIMER
 40
1.0427797569
  9
$USRTIMER
 70
     1
  9
$ANGBASE
 50
0.0
  9
$ANGDIR
 70
     0
  9
$PDMODE
 70
     3
  9
$PDSIZE
 40
-2.0
  9
$PLINEWID
 40
0.0
  9
$SPLFRAME
 70
     0
  9
$SPLINETYPE
 70
     6
  9
$SPLINESEGS
 70
     8
  9
$HANDSEED
  5
36B9
  9
$SURFTAB1
 70
     6
  9
$SURFTAB2
 70
     6
  9
$SURFTYPE
 70
     6
  9
$SURFU
 70
     6
  9
$SURFV
 70
     6
  9
$UCSBASE
  2

  9
$UCSNAME
  2

  9
$UCSORG
 10
0.0
 20
0.0
 30
0.0
  9
$UCSXDIR
 10
1.0
 20
0.0
 30
0.0
  9
$UCSYDIR
 10
0.0
 20
1.0
 30
0.0
  9
$UCSORTHOREF
  2

  9
$UCSORTHOVIEW
 70
     0
  9
$UCSORGTOP
 10
0.0
 20
0.0
 30
0.0
  9
$UCSORGBOTTOM
 10
0.0
 20
0.0
 30
0.0
  9
$UCSORGLEFT
 10
0.0
 20
0.0
 30
0.0
  9
$UCSORGRIGHT
 10
0.0
 20
0.0
 30
0.0
  9
$UCSORGFRONT
 10
0.0
 20
0.0
 30
0.0
  9
$UCSORGBACK
 10
0.0
 20
0.0
 30
0.0
  9
$PUCSBASE
  2

  9
$PUCSNAME
  2

  9
$PUCSORG
 10
0.0
 20
0.0
 30
0.0
  9
$PUCSXDIR
 10
1.0
 20
0.0
 30
0.0
  9
$PUCSYDIR
 10
0.0
 20
1.0
 30
0.0
  9
$PUCSORTHOREF
  2

  9
$PUCSORTHOVIEW
 70
     0
  9
$PUCSORGTOP
 10
0.0
 20
0.0
 30
0.0
  9
$PUCSORGBOTTOM
 10
0.0
 20
0.0
 30
0.0
  9
$PUCSORGLEFT
 10
0.0
 20
0.0
 30
0.0
  9
$PUCSORGRIGHT
 10
0.0
 20
0.0
 30
0.0
  9
$PUCSORGFRONT
 10
0.0
 20
0.0
 30
0.0
  9
$PUCSORGBACK
 10
0.0
 20
0.0
 30
0.0
  9
$USERI1
 70
     0
  9
$USERI2
 70
     0
  9
$USERI3
 70
     0
  9
$USERI4
 70
     0
  9
$USERI5
 70
     0
  9
$USERR1
 40
20.0
  9
$USERR2
 40
0.0
  9
$USERR3
 40
0.0
  9
$USERR4
 40
0.0
  9
$USERR5
 40
0.0
  9
$WORLDVIEW
 70
     1
  9
$SHADEDGE
 70
     3
  9
$SHADEDIF
 70
    70
  9
$TILEMODE
 70
     1
  9
$MAXACTVP
 70
    64
  9
$PINSBASE
 10
0.0
 20
0.0
 30
0.0
  9
$PLIMCHECK
 70
     0
  9
$PEXTMIN
 10
1.000000000000000E+20
 20
1.000000000000000E+20
 30
1.000000000000000E+20
  9
$PEXTMAX
 10
-1.000000000000000E+20
 20
-1.000000000000000E+20
 30
-1.000000000000000E+20
  9
$PLIMMIN
 10
0.0
 20
0.0
  9
$PLIMMAX
 10
12.0
 20
9.0
  9
$UNITMODE
 70
     0
  9
$VISRETAIN
 70
     1
  9
$PLINEGEN
 70
     0
  9
$PSLTSCALE
 70
     1
  9
$TREEDEPTH
 70
  3020
  9
$CMLSTYLE
  2
Standard
  9
$CMLJUST
 70
     0
  9
$CMLSCALE
 40
1.0
  9
$PROXYGRAPHICS
 70
     1
  9
$MEASUREMENT
 70
     0
  9
$CELWEIGHT
370
    -1
  9
$ENDCAPS
280
     0
  9
$JOINSTYLE
280
     0
  9
$LWDISPLAY
290
     0
  9
$INSUNITS
 70
     0
  9
$HYPERLINKBASE
  1

  9
$STYLESHEET
  1

  9
$XEDIT
290
     1
  9
$CEPSNTYPE
380
     0
  9
$PSTYLEMODE
290
     1
  9
$FINGERPRINTGUID
  2
{88959374-796F-4225-AEA5-0B655919E114}
  9
$VERSIONGUID
  2
{F2E543BA-25D5-428C-B766-55556A54D4A2}
  9
$EXTNAMES
290
     1
  9
$PSVPSCALE
 40
0.0
  9
$OLESTARTUP
290
     0
  9
$SORTENTS
280
   127
  9
$INDEXCTL
280
     1
  9
$HIDETEXT
280
     0
  9
$XCLIPFRAME
290
     0
  9
$HALOGAP
280
     0
  9
$OBSCOLOR
 70
   257
  9
$OBSLTYPE
280
     0
  9
$INTERSECTIONDISPLAY
280
     0
  9
$INTERSECTIONCOLOR
 70
   257
  9
$DIMASSOC
280
     1
  9
$PROJECTNAME
  1

  0
ENDSEC
  0
SECTION
  2
CLASSES
  0
CLASS
  1
ACDBDICTIONARYWDFLT
  2
AcDbDictionaryWithDefault
  3
ObjectDBX Classes
 90
        0
 91
        1
280
     0
281
     0
  0
CLASS
  1
MATERIAL
  2
AcDbMaterial
  3
ObjectDBX Classes
 90
     1153
 91
        3
280
     0
281
     0
  0
CLASS
  1
VISUALSTYLE
  2
AcDbVisualStyle
  3
ObjectDBX Classes
 90
     4095
 91
       16
280
     0
281
     0
  0
CLASS
  1
SCALE
  2
AcDbScale
  3
ObjectDBX Classes
 90
     1153
 91
       33
280
     0
281
     0
  0
CLASS
  1
TABLESTYLE
  2
AcDbTableStyle
  3
ObjectDBX Classes
 90
     4095
 91
        1
280
     0
281
     0
  0
CLASS
  1
MLEADERSTYLE
  2
AcDbMLeaderStyle
  3
ACDB_MLEADERSTYLE_CLASS
 90
     4095
 91
        1
280
     0
281
     0
  0
CLASS
  1
AMGSETTINGSOBJ
  2
AmgSettingsObj
  3
"AcadM|Product Description: AutoCAD Mechanical|Company: Autodesk, Inc."
 90
     1024
 91
        2
280
     0
281
     0
  0
CLASS
  1
ACME_DOCUMENT
  2
AcMeDbDoc
  3
AcMeServices
 90
     1024
 91
        1
280
     0
281
     0
  0
CLASS
  1
ACMESCOPE
  2
AcMeScope
  3
AcMeServices
 90
     1024
 91
        1
280
     0
281
     0
  0
CLASS
  1
ACMECOMMANDHISTORY
  2
AcMeCommandHistory
  3
AcMeServices
 90
     1024
 91
        1
280
     0
281
     0
  0
CLASS
  1
ACIMSYSVARMAN
  2
AcImSysVarManager
  3
AcMeServices
 90
     1024
 91
        6
280
     0
281
     0
  0
CLASS
  1
ACIMREALSYSVAR
  2
AcImRealSysVar
  3
AcMeServices
 90
     1024
 91
        1
280
     0
281
     0
  0
CLASS
  1
ACIMINTSYSVAR
  2
AcImIntSysVar
  3
AcMeServices
 90
     1024
 91
       27
280
     0
281
     0
  0
CLASS
  1
ACMEDRAWINGMAN
  2
AcMeDrawingMan
  3
AcMeServices
 90
     1024
 91
        1
280
     0
281
     0
  0
CLASS
  1
ACMEVIEW
  2
AcMeView
  3
AcMeServices
 90
     1024
 91
        1
280
     0
281
     0
  0
CLASS
  1
ACDBENTITYCACHE
  2
AcMeEntityCache
  3
AcMeServices
 90
     1024
 91
        1
280
     0
281
     0
  0
CLASS
  1
GSMANAGER
  2
AcMeGSManager
  3
AcMeServices
 90
     1024
 91
        1
280
     0
281
     0
  0
CLASS
  1
AMDTINTERNALREACTOR
  2
AmdtInternalReactor
  3
AcMeServices
 90
     1024
 91
        2
280
     0
281
     0
  0
CLASS
  1
ACMESTATEMGR
  2
AcMeStateMgr
  3
AcMeServices
 90
     1024
 91
        1
280
     0
281
     0
  0
CLASS
  1
ACGREFMASTER
  2
AcGrefMaster
  3
AcAttribServices
 90
     1024
 91
        1
280
     0
281
     0
  0
CLASS
  1
AM_DRAWING_MGR
  2
AcDmDwgMgr
  3
AcMechDwgViewMgmt
 90
     1024
 91
        1
280
     0
281
     0
  0
CLASS
  1
AM_DWG_DOCUMENT
  2
AcDmDwgDocument
  3
AcMechDwgViewMgmt
 90
     1024
 91
        1
280
     0
281
     0
  0
CLASS
  1
AM_DWG_SHEET
  2
AcDmSheet
  3
AcMechDwgViewMgmt
 90
     1024
 91
        1
280
     0
281
     0
  0
CLASS
  1
AM_VIEWDIMPARMAP
  2
AcDmViewDimParMap
  3
AcMechDwgViewMgmt
 90
     1024
 91
        1
280
     0
281
     0
  0
CLASS
  1
AM_DWGMGR_NAME
  2
AcDmDwgMgrName
  3
AcMechDwgViewMgmt
 90
     1024
 91
        1
280
     0
281
     0
  0
CLASS
  1
ACME_DATABASE
  2
AcMeDbDatabase
  3
AcMeServices
 90
     1024
 91
        1
280
     0
281
     0
  0
CLASS
  1
ACRFINSADJUSTERMGR
  2
AcRfInsAdjusterMgr
  3
AcMeServices
 90
     1024
 91
        1
280
     0
281
     0
  0
CLASS
  1
ACGREFACADMASTER
  2
AcGrefacadMaster
  3
AcGrefServices
 90
     1024
 91
        1
280
     0
281
     0
  0
CLASS
  1
AMDTMENUSTATEMGR
  2
AmdtMenuStateMgr
  3
McadcomServices
 90
     1024
 91
        1
280
     0
281
     0
  0
CLASS
  1
AMDTMCOMMENUSTATE
  2
AmdtMcomMenuState
  3
McadcomServices
 90
     1024
 91
        1
280
     0
281
     0
  0
CLASS
  1
AMIMASTER
  2
AmiMaster
  3
AmiServices
 90
     1024
 91
        1
280
     0
281
     0
  0
CLASS
  1
ASAPP
  2
AcAsAppObject
  3
AutoSurfServices
 90
     1024
 91
        0
280
     0
281
     0
  0
CLASS
  1
IM_STATIC_MAN
  2
AcImStaticVarManager
  3
AcMeServices
 90
     1024
 91
        0
280
     0
281
     0
  0
CLASS
  1
ACIMSTRSYSVAR
  2
AcImStrSysVar
  3
AcMeServices
 90
     1024
 91
        6
280
     0
281
     0
  0
CLASS
  1
ACIMDBLSTATICVAR
  2
AcImDblStaticVar
  3
AcMeServices
 90
     1024
 91
        0
280
     0
281
     0
  0
CLASS
  1
ACIMSTRSTATICVAR
  2
AcImStrStaticVar
  3
AcMeServices
 90
     1024
 91
        0
280
     0
281
     0
  0
CLASS
  1
ACIMINTSTATICVAR
  2
AcImIntStaticVar
  3
AcMeServices
 90
     1024
 91
        0
280
     0
281
     0
  0
CLASS
  1
ACASGREFMASTER
  2
AcAsGrefMaster
  3
AutoSurfResolverServices
 90
     1024
 91
        0
280
     0
281
     0
  0
CLASS
  1
ACADGREFMODULE
  2
AcAdGrefModule
  3
AdGrefServices
 90
     1024
 91
        0
280
     0
281
     0
  0
CLASS
  1
AMDTMAPISURFMOUDULE
  2
AmdtMApiSurfModule
  3
MApiSurfServices
 90
     1024
 91
        0
280
     0
281
     0
  0
CLASS
  1
MAPIAMMOUDLE
  2
MApiAmModule
  3
MApiAmServices
 90
     1024
 91
        1
280
     0
281
     0
  0
CLASS
  1
AMDTADMENUSTATE
  2
AmdtAdMenuState
  3
DesignerServices
 90
     1024
 91
        1
280
     0
281
     0
  0
CLASS
  1
ADAPPL
  2
AcAdAppl
  3
DesignerServices
 90
     1024
 91
        1
280
     0
281
     0
  0
CLASS
  1
DEPMGR
  2
AcAdDepMgr
  3
DesignerServices
 90
     1024
 91
        1
280
     0
281
     0
  0
CLASS
  1
PARAMMGR
  2
AcAdParamMgr
  3
DesignerServices
 90
     1024
 91
        1
280
     0
281
     0
  0
CLASS
  1
PARAMSCOPE
  2
AcAdParamScope
  3
DesignerServices
 90
     1024
 91
        1
280
     0
281
     0
  0
CLASS
  1
NAMEDAPPL
  2
AcAdNamedAppl
  3
DesignerServices
 90
     1024
 91
        1
280
     0
281
     0
  0
CLASS
  1
AMDTDMMENUSTATE
  2
AmdtDmMenuState
  3
AcMechDwgViewMgmt
 90
     1024
 91
        1
280
     0
281
     0
  0
CLASS
  1
MAPIADMODULE
  2
MApiAdModule
  3
MApiAdServices
 90
     1024
 91
        0
280
     0
281
     0
  0
CLASS
  1
AMDTAMMENUSTATE
  2
AmdtAmMenuState
  3
DesignerAssemblies
 90
     1024
 91
        1
280
     0
281
     0
  0
CLASS
  1
ACAMPROJECT
  2
AcAmProject
  3
DesignerAssemblies
 90
     1024
 91
        1
280
     0
281
     0
  0
CLASS
  1
ACAMGRCOMPDEF
  2
AcAmGrCompDef
  3
DesignerAssemblies
 90
     1024
 91
        1
280
     0
281
     0
  0
CLASS
  1
ACCMCONTEXT
  2
AcCmContext
  3
DesignerAssemblies
 90
     1024
 91
        1
280
     0
281
     0
  0
CLASS
  1
ACAMCOMPDEF
  2
AcAmCompDef
  3
DesignerAssemblies
 90
     1024
 91
        1
280
     0
281
     0
  0
CLASS
  1
ACAMCOMPDEFMGR
  2
AcAmCompDefMgr
  3
DesignerAssemblies
 90
     1024
 91
        1
280
     0
281
     0
  0
CLASS
  1
AMCONTEXTMGR
  2
AcAmContextMgr
  3
DesignerAssemblies
 90
     1024
 91
        1
280
     0
281
     0
  0
CLASS
  1
ACAMCONTEXTMODELER
  2
AcAmContextModeler
  3
DesignerAssemblies
 90
     1024
 91
        1
280
     0
281
     0
  0
CLASS
  1
ACMDATADICTIONARY
  2
AcmDataDictionary
  3
"AcmSymBB|Product Description: AutoCAD Mechanical|Company: Autodesk, Inc."
 90
     1024
 91
        1
280
     0
281
     0
  0
CLASS
  1
ACMDATAENTRYBLOCK
  2
AcmDataEntryBlock
  3
AcmSymBB|Product Description: AutoCAD Mechanical|Company: Autodesk, Inc.
 90
     1024
 91
        0
280
     0
281
     0
  0
CLASS
  1
ACRFATTGENMGR
  2
AcRfAttGeneralMgr
  3
AcAttribServices
 90
     1024
 91
        0
280
     0
281
     0
  0
CLASS
  1
ACRFOBJATTMGR
  2
AcRfObjAttGroupMgr
  3
AcAttribServices
 90
     1024
 91
        0
280
     0
281
     0
  0
CLASS
  1
ACRFMCADAPIATTHOLDER
  2
AcRfMCADAPIAttHolder
  3
AcAttribServices
 90
     1024
 91
        0
280
     0
281
     0
  0
CLASS
  1
AMDTSYSATTR
  2
AmdtSystemAttribute
  3
AcAttribServices
 90
     1024
 91
        0
280
     0
281
     0
  0
CLASS
  1
CATALOGSTATE
  2
AcAmCatalogState
  3
DesignerAssemblies
 90
     1024
 91
        1
280
     0
281
     0
  0
CLASS
  1
ACAMGRCOMPDEFSET
  2
AcAmGrCompDefSet
  3
DesignerAssemblies
 90
     1024
 91
        1
280
     0
281
     0
  0
CLASS
  1
AMDTBROWSERDBTAB
  2
AmdtBrowserDbTab
  3
McadcomServices
 90
     1024
 91
        1
280
     0
281
     0
  0
CLASS
  1
CBROWSERAPPOBJECT
  2
CBrowserAppObject
  3
McadcomServices
 90
     1024
 91
        3
280
     0
281
     0
  0
CLASS
  1
DM_PLACEHOLDER
  2
AcDmSelsetPlaceholder
  3
AcMechDwgViewMgmt
 90
     1024
 91
        1
280
     0
281
     0
  0
CLASS
  1
ACMSTANDARDANSI
  2
AcmStandardANSI
  3
"Amdt_StdImp|Product Description: AutoCAD Mechanical|Company: Autodesk, Inc."
 90
     1024
 91
        1
280
     0
281
     0
  0
CLASS
  1
ACMSURFSTANDARDANSI
  2
AcmSurfTextStdANSI
  3
"Amdt_StdImp|Product Description: AutoCAD Mechanical|Company: Autodesk, Inc."
 90
     1024
 91
        1
280
     0
281
     0
  0
CLASS
  1
ACMFCFSTANDARDANSI
  2
AcmFCFStdANSI
  3
"Amdt_StdImp|Product Description: AutoCAD Mechanical|Company: Autodesk, Inc."
 90
     1024
 91
        1
280
     0
281
     0
  0
CLASS
  1
ACMWELDSTANDARDANSI
  2
AcmWeldingStdANSI
  3
"Amdt_StdImp|Product Description: AutoCAD Mechanical|Company: Autodesk, Inc."
 90
     1024
 91
        1
280
     0
281
     0
  0
CLASS
  1
ACMIDSTANDARDANSI
  2
AcmIdStdANSI
  3
"Amdt_StdImp|Product Description: AutoCAD Mechanical|Company: Autodesk, Inc."
 90
     1024
 91
        1
280
     0
281
     0
  0
CLASS
  1
ACMDATUMSTANDARDANSI
  2
AcmDatumStdANSI
  3
"Amdt_StdImp|Product Description: AutoCAD Mechanical|Company: Autodesk, Inc."
 90
     1024
 91
        1
280
     0
281
     0
  0
CLASS
  1
ACMBOMSTANDARDANSI
  2
AcmBOMStdANSI
  3
"Amdt_StdImp|Product Description: AutoCAD Mechanical|Company: Autodesk, Inc."
 90
     1024
 91
        1
280
     0
281
     0
  0
CLASS
  1
ACMDETAILSTANDARDANSI
  2
AmdtDetailSymStdANSI
  3
"Amdt_StdImp|Product Description: AutoCAD Mechanical|Company: Autodesk, Inc."
 90
     1024
 91
        1
280
     0
281
     0
  0
CLASS
  1
ACMSECTIONSTANDARDANSI
  2
AmdtSectionSymStdANSI
  3
"Amdt_StdImp|Product Description: AutoCAD Mechanical|Company: Autodesk, Inc."
 90
     1024
 91
        1
280
     0
281
     0
  0
CLASS
  1
ACMCENTERLINESTANDARDANSI
  2
AmdtCenterLineStdANSI
  3
"Amdt_StdImp|Product Description: AutoCAD Mechanical|Company: Autodesk, Inc."
 90
     1024
 91
        1
280
     0
281
     0
  0
CLASS
  1
ACMTHREADLINESTANDARDANSI
  2
AmdtThreadLineStdANSI
  3
"Amdt_StdImp|Product Description: AutoCAD Mechanical|Company: Autodesk, Inc."
 90
     1024
 91
        1
280
     0
281
     0
  0
CLASS
  1
ACMNOTESTANDARDANSI
  2
AmdtNoteStdANSI
  3
"Amdt_StdImp|Product Description: AutoCAD Mechanical|Company: Autodesk, Inc."
 90
     1024
 91
        1
280
     0
281
     0
  0
CLASS
  1
ACMTAPERSTANDARDANSI
  2
AcmTaperStdANSI
  3
"Amdt_StdImp|Product Description: AutoCAD Mechanical|Company: Autodesk, Inc."
 90
     1024
 91
        1
280
     0
281
     0
  0
CLASS
  1
ACMANOOTATIONVIEWSTANDARDANSI
  2
AmdtAnViewStdANSI
  3
"Amdt_StdImp|Product Description: AutoCAD Mechanical|Company: Autodesk, Inc."
 90
     1024
 91
        1
280
     0
281
     0
  0
CLASS
  1
ACAMGLAYSTD
  2
AcAmgLayStd
  3
"AmgLay|Product Description: AutoCAD Mechanical|Company: Autodesk, Inc."
 90
     1024
 91
        1
280
     0
281
     0
  0
CLASS
  1
ACAMGDIMSTD
  2
AcAmgDimStd
  3
"AmgDim|Product Description: AutoCAD Mechanical|Company: Autodesk, Inc."
 90
     1024
 91
        1
280
     0
281
     0
  0
CLASS
  1
ACAMGHOLECHARTSTDANSI
  2
AcAmgHoleChartStdANSI
  3
AmgDim|Product Description: AutoCAD Mechanical|Company: Autodesk, Inc.
 90
     1024
 91
        1
280
     0
281
     0
  0
CLASS
  1
AMGOBJPROPCFG
  2
AmgObjPropCfg
  3
"AmgLay|Product Description: AutoCAD Mechanical|Company: Autodesk, Inc."
 90
     1025
 91
        1
280
     0
281
     0
  0
CLASS
  1
ACAMGTITLESTD
  2
AcAmgTitleStd
  3
"AmgTitle|Product Description: AutoCAD Mechanical|Company: Autodesk, Inc."
 90
     4095
 91
        1
280
     0
281
     0
  0
CLASS
  1
AMDTNOTETEMPLATEDB
  2
AmdtNoteTemplateDB
  3
AcmSymBB|Product Description: AutoCAD Mechanical|Company: Autodesk, Inc.
 90
     1024
 91
        6
280
     0
281
     0
  0
CLASS
  1
LAYER_INDEX
  2
AcDbLayerIndex
  3
ObjectDBX Classes
 90
        0
 91
        1
280
     0
281
     0
  0
CLASS
  1
IDBUFFER
  2
AcDbIdBuffer
  3
ObjectDBX Classes
 90
        0
 91
       12
280
     0
281
     0
  0
CLASS
  1
DICTIONARYVAR
  2
AcDbDictionaryVar
  3
ObjectDBX Classes
 90
        0
 91
       13
280
     0
281
     0
  0
CLASS
  1
CELLSTYLEMAP
  2
AcDbCellStyleMap
  3
ObjectDBX Classes
 90
     1152
 91
        2
280
     0
281
     0
  0
CLASS
  1
ACAMGFILTERDAT
  2
AcAmgFilterDat
  3
"AcadM|Product Description: AutoCAD Mechanical|Company: Autodesk, Inc."
 90
     1024
 91
        6
280
     0
281
     0
  0
CLASS
  1
SORTENTSTABLE
  2
AcDbSortentsTable
  3
ObjectDBX Classes
 90
        0
 91
        0
280
     0
281
     0
  0
ENDSEC
  0
SECTION
  2
TABLES
  0
TABLE
  2
VPORT
  5
2A12
330
0
100
AcDbSymbolTable
 70
     1
  0
VPORT
  5
2A82
330
2A12
100
AcDbSymbolTableRecord
100
AcDbViewportTableRecord
  2
*ACTIVE
 70
     0
 10
0.0
 20
0.0
 11
1.0
 21
1.0
 12
-915.3435945275875
 22
-242.7980660852963
 13
0.0
 23
0.0
 14
1.0
 24
1.0
 15
0.0
 25
0.0
 16
0.0
 26
0.0
 36
1.0
 17
1435.147991287077
 27
3032.856550611411
 37
0.0
 40
1470.466496840342
 41
1.208333333333333
 42
50.0
 43
0.0
 44
0.0
 50
0.0
 51
0.0
 71
     0
 72
   100
 73
     1
 74
     0
 75
     0
 76
     0
 77
     0
 78
     0
281
     0
 65
     0
110
0.0
120
0.0
130
0.0
111
1.0
121
0.0
131
0.0
112
0.0
122
1.0
132
0.0
 79
     0
146
0.0
  0
ENDTAB
  0
TABLE
  2
LTYPE
  5
2A0F
330
0
100
AcDbSymbolTable
 70
    19
  0
LTYPE
  5
2A6C
330
2A0F
100
AcDbSymbolTableRecord
100
AcDbLinetypeTableRecord
  2
ByBlock
 70
     0
  3

 72
    65
 73
     0
 40
0.0
  0
LTYPE
  5
2A6D
330
2A0F
100
AcDbSymbolTableRecord
100
AcDbLinetypeTableRecord
  2
ByLayer
 70
     0
  3

 72
    65
 73
     0
 40
0.0
  0
LTYPE
  5
2A6E
330
2A0F
100
AcDbSymbolTableRecord
100
AcDbLinetypeTableRecord
  2
CONTINUOUS
 70
     0
  3
実線
 72
    65
 73
     0
 40
0.0
  0
LTYPE
  5
2A83
330
2A0F
100
AcDbSymbolTableRecord
100
AcDbLinetypeTableRecord
  2
DASHDOT
 70
     0
  3
____ _ ____ _ ____ _ ____ _ ____ _ ____ _ ____
 72
    65
 73
     4
 40
5.5
 49
4.0
 74
     0
 49
-0.6
 74
     0
 49
0.3
 74
     0
 49
-0.6
 74
     0
  0
LTYPE
  5
2A84
330
2A0F
100
AcDbSymbolTableRecord
100
AcDbLinetypeTableRecord
  2
HIDDEN
 70
     0
  3
Hidden __ __ __ __ __ __ __ __ __ __ __ __ __ _
 72
    65
 73
     2
 40
0.375
 49
0.25
 74
     0
 49
-0.125
 74
     0
  0
LTYPE
  5
2A85
330
2A0F
100
AcDbSymbolTableRecord
100
AcDbLinetypeTableRecord
  2
PHANTOM2
 70
     0
  3
Phantom (.5x) ___ _ _ ___ _ _ ___ _ _ ___ _ _
 72
    65
 73
     6
 40
1.25
 49
0.625
 74
     0
 49
-0.125
 74
     0
 49
0.125
 74
     0
 49
-0.125
 74
     0
 49
0.125
 74
     0
 49
-0.125
 74
     0
  0
LTYPE
  5
2A86
330
2A0F
100
AcDbSymbolTableRecord
100
AcDbLinetypeTableRecord
  2
CENTER
 70
     0
  3
Center ____ _ ____ _ ____ _ ____ _ ____ _ ____
 72
    65
 73
     4
 40
2.0
 49
1.25
 74
     0
 49
-0.25
 74
     0
 49
0.25
 74
     0
 49
-0.25
 74
     0
  0
LTYPE
  5
2A87
330
2A0F
100
AcDbSymbolTableRecord
100
AcDbLinetypeTableRecord
  2
ASULTYPE
 70
     0
  3
実線
 72
    65
 73
     2
 40
3.0
 49
2.5
 74
     0
 49
0.5
 74
     0
  0
LTYPE
  5
2A88
330
2A0F
100
AcDbSymbolTableRecord
100
AcDbLinetypeTableRecord
  2
ASVLTYPE
 70
     0
  3
__ __ __ __ __ __ __ __ __ __ __ __ __ __ __ __ __ __ __ __ __
 72
    65
 73
     2
 40
0.75
 49
0.5
 74
     0
 49
-0.25
 74
     0
  0
LTYPE
  5
2A89
330
2A0F
100
AcDbSymbolTableRecord
100
AcDbLinetypeTableRecord
  2
AM_ISO02W050
 70
     0
  3
__ __ __ __ __ __ __ __ __ __ __ __ __ __ __
 72
    65
 73
     2
 40
7.5
 49
6.0
 74
     0
 49
-1.5
 74
     0
  0
LTYPE
  5
2A8A
330
2A0F
100
AcDbSymbolTableRecord
100
AcDbLinetypeTableRecord
  2
AM_ISO08W050
 70
     0
  3
____ . ____ . ____ . ____ . ____ . ____ . ____
 72
    65
 73
     4
 40
18.0
 49
12.0
 74
     0
 49
-1.5
 74
     0
 49
3.0
 74
     0
 49
-1.5
 74
     0
  0
LTYPE
  5
2A8B
330
2A0F
100
AcDbSymbolTableRecord
100
AcDbLinetypeTableRecord
  2
AM_ISO09W050
 70
     0
  3
_____ . . _____ . . _____ . . ____ .. ____
 72
    65
 73
     6
 40
22.5
 49
12.0
 74
     0
 49
-1.5
 74
     0
 49
3.0
 74
     0
 49
-1.5
 74
     0
 49
3.0
 74
     0
 49
-1.5
 74
     0
  0
LTYPE
  5
2A8C
330
2A0F
100
AcDbSymbolTableRecord
100
AcDbLinetypeTableRecord
  2
AMCONSTR
 70
     0
  3
_______________________
 72
    65
 73
     2
 40
9999.0
 49
9999.0
 74
     0
 49
0.0
 74
     0
  0
LTYPE
  5
2A8D
330
2A0F
100
AcDbSymbolTableRecord
100
AcDbLinetypeTableRecord
  2
AM_ISO08W050X2
 70
     0
  3
__ . __ . __ . __ . __ . __
 72
    65
 73
     4
 40
9.0
 49
6.0
 74
     0
 49
-0.75
 74
     0
 49
1.5
 74
     0
 49
-0.75
 74
     0
  0
LTYPE
  5
2A8E
330
2A0F
100
AcDbSymbolTableRecord
100
AcDbLinetypeTableRecord
  2
AM_ISO02W050X2
 70
     0
  3
 _ _ _ _ _ _ _ _ _ _ _ _
 72
    65
 73
     2
 40
3.75
 49
3.0
 74
     0
 49
-0.75
 74
     0
  0
LTYPE
  5
2A8F
330
2A0F
100
AcDbSymbolTableRecord
100
AcDbLinetypeTableRecord
  2
AMZIGZAG
 70
     0
  3
/\/-/\/-/\/-/\/-/\/-/\/
 72
    65
 73
     2
 40
11.0001
 49
0.0001
 74
     0
 49
-11.0
 74
     0
  0
LTYPE
  5
2A90
330
2A0F
100
AcDbSymbolTableRecord
100
AcDbLinetypeTableRecord
  2
CENTER2
 70
     0
  3
Center (.5x) ___ _ ___ _ ___ _ ___ _ ___ _ ___
 72
    65
 73
     4
 40
1.125
 49
0.75
 74
     0
 49
-0.125
 74
     0
 49
0.125
 74
     0
 49
-0.125
 74
     0
  0
LTYPE
  5
2A91
330
2A0F
100
AcDbSymbolTableRecord
100
AcDbLinetypeTableRecord
  2
HIDDEN2
 70
     0
  3
Hidden (.5x) _ _ _ _ _ _ _ _ _ _ _ _ _ _ _ _ _
 72
    65
 73
     2
 40
0.1875
 49
0.125
 74
     0
 49
-0.0625
 74
     0
  0
LTYPE
  5
2A92
330
2A0F
100
AcDbSymbolTableRecord
100
AcDbLinetypeTableRecord
  2
AMZIGZAG2
 70
     0
  3
/\/-/\/-/\/-/\/-/\/-/\/
 72
    65
 73
     2
 40
0.4401
 49
0.0001
 74
     0
 49
-0.4400000000000003
 74
     0
  0
LTYPE
  5
2A93
330
2A0F
100
AcDbSymbolTableRecord
100
AcDbLinetypeTableRecord
  2
ACANSTGB
 70
     0
  3
__ . . __ . .
 72
    65
 73
     6
 40
0.35433070866
 49
0.15748031496
 74
     0
 49
-0.03937007874
 74
     0
 49
0.03937007874
 74
     0
 49
-0.03937007874
 74
     0
 49
0.03937007874
 74
     0
 49
-0.03937007874
 74
     0
  0
LTYPE
  5
2A94
330
2A0F
100
AcDbSymbolTableRecord
100
AcDbLinetypeTableRecord
  2
ACANSTGL
 70
     0
  3
_ _ _ _ _
 72
    65
 73
     2
 40
0.11811023622
 49
0.07874015748
 74
     0
 49
-0.03937007874
 74
     0
  0
ENDTAB
  0
TABLE
  2
LAYER
  5
2A0C
102
{ACAD_XDICTIONARY
360
2D5B
102
}
330
0
100
AcDbSymbolTable
 70
    12
  0
LAYER
  5
2A66
102
{ACAD_XDICTIONARY
360
2C33
102
}
330
2A0C
100
AcDbSymbolTableRecord
100
AcDbLayerTableRecord
  2
0
 70
     0
 62
     7
  6
CONTINUOUS
370
    -3
390
2A19
  0
LAYER
  5
2A95
102
{ACAD_XDICTIONARY
360
2C35
102
}
330
2A0C
100
AcDbSymbolTableRecord
100
AcDbLayerTableRecord
  2
OUTLINE
 70
     0
 62
     3
  6
CONTINUOUS
370
    -3
390
2A19
  0
LAYER
  5
2A96
102
{ACAD_XDICTIONARY
360
2C37
102
}
330
2A0C
100
AcDbSymbolTableRecord
100
AcDbLayerTableRecord
  2
SIZE
 70
     0
 62
    30
  6
CONTINUOUS
370
    -3
390
2A19
  0
LAYER
  5
2A97
102
{ACAD_XDICTIONARY
360
2C39
102
}
330
2A0C
100
AcDbSymbolTableRecord
100
AcDbLayerTableRecord
  2
BASIS
 70
     0
 62
     6
  6
DASHDOT
370
    -3
390
2A19
  0
LAYER
  5
2A98
102
{ACAD_XDICTIONARY
360
2C3B
102
}
330
2A0C
100
AcDbSymbolTableRecord
100
AcDbLayerTableRecord
  2
DETAIL
 70
     0
 62
     5
  6
CONTINUOUS
370
    -3
390
2A19
  0
LAYER
  5
2A99
102
{ACAD_XDICTIONARY
360
2C3D
102
}
330
2A0C
100
AcDbSymbolTableRecord
100
AcDbLayerTableRecord
  2
ARRANGE
 70
     0
 62
     1
  6
CONTINUOUS
370
    -3
390
2A19
  0
LAYER
  5
2A9A
330
2A0C
100
AcDbSymbolTableRecord
100
AcDbLayerTableRecord
  2
DEFPOINTS
 70
     0
 62
     7
  6
CONTINUOUS
290
     0
370
    -3
390
2A19
  0
LAYER
  5
2A9B
102
{ACAD_XDICTIONARY
360
2C3F
102
}
330
2A0C
100
AcDbSymbolTableRecord
100
AcDbLayerTableRecord
  2
ETC
 70
     0
 62
    61
  6
CONTINUOUS
370
    -3
390
2A19
  0
LAYER
  5
2A9C
102
{ACAD_XDICTIONARY
360
2C41
102
}
330
2A0C
100
AcDbSymbolTableRecord
100
AcDbLayerTableRecord
  2
FIX
 70
     0
 62
    11
  6
CONTINUOUS
370
    -3
390
2A19
  0
LAYER
  5
2A9D
102
{ACAD_XDICTIONARY
360
2C43
102
}
330
2A0C
100
AcDbSymbolTableRecord
100
AcDbLayerTableRecord
  2
NOTE
 70
     0
 62
     4
  6
CONTINUOUS
370
    -3
390
2A19
  0
LAYER
  5
2A9E
102
{ACAD_XDICTIONARY
360
2C45
102
}
330
2A0C
100
AcDbSymbolTableRecord
100
AcDbLayerTableRecord
  2
SERVICESPACE
 70
     0
 62
     2
  6
DASHDOT
370
    -3
390
2A19
  0
LAYER
  5
2A9F
102
{ACAD_XDICTIONARY
360
2C47
102
}
330
2A0C
100
AcDbSymbolTableRecord
100
AcDbLayerTableRecord
  2
SYMBOLLINE
 70
     0
 62
    15
  6
CONTINUOUS
370
    -3
390
2A19
  0
ENDTAB
  0
TABLE
  2
STYLE
  5
2A0D
330
0
100
AcDbSymbolTable
 70
     5
  0
STYLE
  5
2A67
330
2A0D
100
AcDbSymbolTableRecord
100
AcDbTextStyleTableRecord
  2
STANDARD
 70
     0
 40
64.0
 41
0.9
 50
0.0
 71
     0
 42
64.0
  3
SIMPLEX.shx
  4
BIGFONT.shx
  0
STYLE
  5
2A6B
330
2A0D
100
AcDbSymbolTableRecord
100
AcDbTextStyleTableRecord
  2
ANNOTATIVE
 70
     0
 40
0.0
 41
1.0
 50
0.0
 71
     0
 42
0.2
  3
txt
  4

1001
ACADANNOTATIVE
1000
AnnotativeData
1002
{
1070
     1
1070
     1
1002
}
  0
STYLE
  5
2AA0
330
2A0D
100
AcDbSymbolTableRecord
100
AcDbTextStyleTableRecord
  2

 70
     1
 40
0.0
 41
1.0
 50
0.0
 71
     0
 42
64.0
  3
genltshp.shx
  4

  0
STYLE
  5
2AA1
330
2A0D
100
AcDbSymbolTableRecord
100
AcDbTextStyleTableRecord
  2
ACANSTS
 70
     0
 40
1.0
 41
1.0
 50
0.0
 71
     0
 42
64.0
  3
romans.shx
  4
extfont.shx
  0
STYLE
  5
2AA2
330
2A0D
100
AcDbSymbolTableRecord
100
AcDbTextStyleTableRecord
  2
ACANSGDT
 70
     0
 40
0.0
 41
1.0
 50
0.0
 71
     0
 42
64.0
  3
amgdt.shx
  4

  0
ENDTAB
  0
TABLE
  2
VIEW
  5
2A10
330
0
100
AcDbSymbolTable
 70
     1
  0
VIEW
  5
2AA3
330
2A10
100
AcDbSymbolTableRecord
100
AcDbViewTableRecord
  2
ALL
 70
     0
 40
4282.619807999997
 10
0.0
 20
41.30990399999999
 41
5940.0
 11
0.0
 21
0.0
 31
1.0
 12
0.0
 22
0.0
 32
0.0
 42
50.0
 43
0.0
 44
0.0
 50
0.0
 71
     0
281
     0
 72
     1
110
0.0
120
0.0
130
0.0
111
1.0
121
0.0
131
0.0
112
0.0
122
1.0
132
0.0
 79
     0
146
0.0
  0
ENDTAB
  0
TABLE
  2
UCS
  5
2A11
330
0
100
AcDbSymbolTable
 70
     0
  0
ENDTAB
  0
TABLE
  2
APPID
  5
2A13
330
0
100
AcDbSymbolTable
 70
    30
  0
APPID
  5
2A68
330
2A13
100
AcDbSymbolTableRecord
100
AcDbRegAppTableRecord
  2
ACAD
 70
     0
  0
APPID
  5
2A6F
330
2A13
100
AcDbSymbolTableRecord
100
AcDbRegAppTableRecord
  2
ACADANNOTATIVE
 70
     0
  0
APPID
  5
2A79
330
2A13
100
AcDbSymbolTableRecord
100
AcDbRegAppTableRecord
  2
ACAD_MLEADERVER
 70
     0
  0
APPID
  5
2AA4
330
2A13
100
AcDbSymbolTableRecord
100
AcDbRegAppTableRecord
  2
GENIUS_GENDIM_13
 70
     0
  0
APPID
  5
2AA5
330
2A13
100
AcDbSymbolTableRecord
100
AcDbRegAppTableRecord
  2
GENIUS_GENDTOL_13
 70
     0
  0
APPID
  5
2AA6
330
2A13
100
AcDbSymbolTableRecord
100
AcDbRegAppTableRecord
  2
GENIUS_GE3DTOL_13
 70
     0
  0
APPID
  5
2AA7
330
2A13
100
AcDbSymbolTableRecord
100
AcDbRegAppTableRecord
  2
MCAD_NO_VIS
 70
     0
  0
APPID
  5
2AA8
330
2A13
100
AcDbSymbolTableRecord
100
AcDbRegAppTableRecord
  2
ACAD_TEMP_GRAPHIC
 70
     0
  0
APPID
  5
2AA9
330
2A13
100
AcDbSymbolTableRecord
100
AcDbRegAppTableRecord
  2
AD_DRAW
 70
     0
  0
APPID
  5
2AAA
330
2A13
100
AcDbSymbolTableRecord
100
AcDbRegAppTableRecord
  2
ACATTRIBSERVICES
 70
     0
  0
APPID
  5
2AAB
330
2A13
100
AcDbSymbolTableRecord
100
AcDbRegAppTableRecord
  2
ASURF_PCURVE_APPNAME
 70
     0
  0
APPID
  5
2AAC
330
2A13
100
AcDbSymbolTableRecord
100
AcDbRegAppTableRecord
  2
AMG_3D2D_5_0
 70
     0
  0
APPID
  5
2AAD
330
2A13
100
AcDbSymbolTableRecord
100
AcDbRegAppTableRecord
  2
DESIGNERASSEMBLIES
 70
     0
  0
APPID
  5
2AAE
330
2A13
100
AcDbSymbolTableRecord
100
AcDbRegAppTableRecord
  2
ACADM_DIM_EDIT
 70
     0
  0
APPID
  5
2AAF
330
2A13
100
AcDbSymbolTableRecord
100
AcDbRegAppTableRecord
  2
AMDT_DM_ADJ
 70
     0
  0
APPID
  5
2AB0
330
2A13
100
AcDbSymbolTableRecord
100
AcDbRegAppTableRecord
  2
ACAD_DSTYLE_DIMARC_LENGTH_
 70
     0
  0
APPID
  5
2AB1
330
2A13
100
AcDbSymbolTableRecord
100
AcDbRegAppTableRecord
  2
ACAD_DSTYLE_DIMJOGGED_JOGA
 70
     0
  0
APPID
  5
2AB2
330
2A13
100
AcDbSymbolTableRecord
100
AcDbRegAppTableRecord
  2
ACAD_PSEXT
 70
     0
  0
APPID
  5
2AB3
330
2A13
100
AcDbSymbolTableRecord
100
AcDbRegAppTableRecord
  2
ACAD_EXEMPT_FROM_CAD_STANDARDS
 70
     0
  0
APPID
  5
2AB4
330
2A13
100
AcDbSymbolTableRecord
100
AcDbRegAppTableRecord
  2
ACAD_DSTYLE_DIMJAG
 70
     0
  0
APPID
  5
2AB5
330
2A13
100
AcDbSymbolTableRecord
100
AcDbRegAppTableRecord
  2
ACAD_DSTYLE_DIMTALN
 70
     0
  0
APPID
  5
2AB6
330
2A13
100
AcDbSymbolTableRecord
100
AcDbRegAppTableRecord
  2
AMG_3D2D_5_00
 70
     0
  0
APPID
  5
2AB7
330
2A13
100
AcDbSymbolTableRecord
100
AcDbRegAppTableRecord
  2
AMG_3D2D_5_01
 70
     0
  0
APPID
  5
2AB8
330
2A13
100
AcDbSymbolTableRecord
100
AcDbRegAppTableRecord
  2
AMG_3D2D_5_02
 70
     0
  0
APPID
  5
2BDA
330
2A13
100
AcDbSymbolTableRecord
100
AcDbRegAppTableRecord
  2
AMG_3D2D_5.0
 70
     0
  0
APPID
  5
2C70
330
2A13
100
AcDbSymbolTableRecord
100
AcDbRegAppTableRecord
  2
ACAD_DSTYLE_DIMARC_LENGTH_SYMBOL
 70
     0
  0
APPID
  5
2C71
330
2A13
100
AcDbSymbolTableRecord
100
AcDbRegAppTableRecord
  2
ACAD_DSTYLE_DIM_LINETYPE
 70
     0
  0
APPID
  5
2C72
330
2A13
100
AcDbSymbolTableRecord
100
AcDbRegAppTableRecord
  2
ACAD_DSTYLE_DIM_EXT1_LINETYPE
 70
     0
  0
APPID
  5
2C73
330
2A13
100
AcDbSymbolTableRecord
100
AcDbRegAppTableRecord
  2
ACAD_DSTYLE_DIM_EXT2_LINETYPE
 70
     0
  0
APPID
  5
2D5A
330
2A13
100
AcDbSymbolTableRecord
100
AcDbRegAppTableRecord
  2
ACAD_DSTYLE_DIMJOGGED_JOGANGLE_SYMBOL
 70
     0
  0
ENDTAB
  0
TABLE
  2
DIMSTYLE
  5
2A14
330
0
100
AcDbSymbolTable
 70
    10
100
AcDbDimStyleTable
 71
     1
340
2AB9
  0
DIMSTYLE
105
2A69
330
2A14
100
AcDbSymbolTableRecord
100
AcDbDimStyleTableRecord
  2
STANDARD
 70
     0
 41
12.0
 42
20.0
 44
20.0
 77
     1
 78
     8
140
64.0
141
0.0
147
10.0
275
     1
279
     2
284
     7
285
     7
286
     7
340
2A67
  0
DIMSTYLE
105
2A6A
330
2A14
100
AcDbSymbolTableRecord
100
AcDbDimStyleTableRecord
  2
ANNOTATIVE
 70
     0
275
     1
279
     2
284
     7
285
     7
286
     7
340
2A67
1001
ACADANNOTATIVE
1000
AnnotativeData
1002
{
1070
     1
1070
     1
1002
}
  0
DIMSTYLE
105
2AB9
102
{ACAD_REACTORS
330
3694
102
}
330
2A14
100
AcDbSymbolTableRecord
100
AcDbDimStyleTableRecord
  2
AM_ANSI
 70
     0
  4
mm
 41
0.12
 42
0.05
 43
0.5
 44
0.1
 47
0.1
 48
0.1
 78
     7
 79
     2
140
0.12
141
0.0
146
0.71
147
0.06
176
   256
177
   256
178
     2
274
     4
284
     7
340
2A67
371
    -1
372
    -1
1001
ACAD_DSTYLE_DIMARC_LENGTH_SYMBOL
1070
   379
1070
     1
1001
ACAD_DSTYLE_DIM_LINETYPE
1070
   380
1005
2A6C
1001
ACAD_DSTYLE_DIM_EXT1_LINETYPE
1070
   381
1005
2A6C
1001
ACAD_DSTYLE_DIM_EXT2_LINETYPE
1070
   382
1005
2A6C
  0
DIMSTYLE
105
2ABA
330
2A14
100
AcDbSymbolTableRecord
100
AcDbDimStyleTableRecord
  2
AM_ANSI$3
 70
     0
  4
mm
 41
0.12
 42
0.05
 43
0.5
 44
0.1
 47
0.1
 48
0.1
 78
     7
 79
     2
140
0.12
141
0.0
146
0.71
147
0.06
176
   256
177
   256
178
     2
274
     4
284
     7
288
     1
289
     0
340
2A67
371
    -1
372
    -1
1001
ACAD_DSTYLE_DIMARC_LENGTH_SYMBOL
1070
   379
1070
     1
1001
ACAD_DSTYLE_DIM_LINETYPE
1070
   380
1005
2A6C
1001
ACAD_DSTYLE_DIM_EXT1_LINETYPE
1070
   381
1005
2A6C
1001
ACAD_DSTYLE_DIM_EXT2_LINETYPE
1070
   382
1005
2A6C
  0
DIMSTYLE
105
2ABB
330
2A14
100
AcDbSymbolTableRecord
100
AcDbDimStyleTableRecord
  2
AM_ANSI$4
 70
     0
  4
mm
 41
0.12
 42
0.05
 43
0.5
 44
0.1
 47
0.1
 48
0.1
 78
     7
 79
     2
140
0.12
141
0.0
146
0.71
147
0.06
176
   256
177
   256
178
     2
274
     4
284
     7
340
2A67
371
    -1
372
    -1
1001
ACAD_DSTYLE_DIMARC_LENGTH_SYMBOL
1070
   379
1070
     1
1001
ACAD_DSTYLE_DIM_LINETYPE
1070
   380
1005
2A6C
1001
ACAD_DSTYLE_DIM_EXT1_LINETYPE
1070
   381
1005
2A6C
1001
ACAD_DSTYLE_DIM_EXT2_LINETYPE
1070
   382
1005
2A6C
  0
DIMSTYLE
105
2ABC
330
2A14
100
AcDbSymbolTableRecord
100
AcDbDimStyleTableRecord
  2
AM_ANSI$7
 70
     0
  4
mm
 41
0.12
 42
0.05
 43
0.5
 44
0.1
 47
0.1
 48
0.1
 78
     7
 79
     2
140
0.12
141
0.0
146
0.71
147
0.06
176
   256
177
   256
178
     2
274
     4
284
     7
340
2A67
371
    -1
372
    -1
1001
ACAD_DSTYLE_DIMARC_LENGTH_SYMBOL
1070
   379
1070
     1
1001
ACAD_DSTYLE_DIM_LINETYPE
1070
   380
1005
2A6C
1001
ACAD_DSTYLE_DIM_EXT1_LINETYPE
1070
   381
1005
2A6C
1001
ACAD_DSTYLE_DIM_EXT2_LINETYPE
1070
   382
1005
2A6C
  0
DIMSTYLE
105
2ABD
330
2A14
100
AcDbSymbolTableRecord
100
AcDbDimStyleTableRecord
  2
AM_ANSI$SF
 70
     0
  4
mm
 41
0.12
 42
0.05
 43
0.5
 44
0.1
 47
0.1
 48
0.1
 75
     1
 76
     1
 78
     7
 79
     2
140
0.12
141
0.0
146
0.71
147
0.06
176
   256
177
   256
178
     2
274
     4
284
     7
340
2A67
371
    -1
372
    -1
1001
ACAD_DSTYLE_DIMARC_LENGTH_SYMBOL
1070
   379
1070
     1
1001
ACAD_DSTYLE_DIM_LINETYPE
1070
   380
1005
2A6C
1001
ACAD_DSTYLE_DIM_EXT1_LINETYPE
1070
   381
1005
2A6C
1001
ACAD_DSTYLE_DIM_EXT2_LINETYPE
1070
   382
1005
2A6C
  0
DIMSTYLE
105
2ABE
330
2A14
100
AcDbSymbolTableRecord
100
AcDbDimStyleTableRecord
  2
AM_ANSI$SH
 70
     0
  4
mm
 41
0.12
 42
0.05
 43
0.5
 44
0.1
 47
0.1
 48
0.1
 75
     1
 76
     1
 78
     7
 79
     2
140
0.12
141
0.0
146
0.71
147
0.06
173
     1
176
   256
177
   256
178
     2
274
     4
284
     7
340
2A67
343
2ADE
371
    -1
372
    -1
1001
ACAD_DSTYLE_DIMARC_LENGTH_SYMBOL
1070
   379
1070
     1
1001
ACAD_DSTYLE_DIM_LINETYPE
1070
   380
1005
2A6C
1001
ACAD_DSTYLE_DIM_EXT1_LINETYPE
1070
   381
1005
2A6C
1001
ACAD_DSTYLE_DIM_EXT2_LINETYPE
1070
   382
1005
2A6C
  0
DIMSTYLE
105
2ABF
330
2A14
100
AcDbSymbolTableRecord
100
AcDbDimStyleTableRecord
  2
STANDARD1
 70
     0
 40
6.0
 41
2.5
 42
0.625
 43
6.0
 44
1.25
 47
1.0
 48
0.5
 77
     1
 78
     8
140
2.5
141
0.0
146
0.6
147
1.0
173
     1
275
     1
279
     2
284
     7
285
     7
286
     7
340
2A67
  0
DIMSTYLE
105
2AC0
330
2A14
100
AcDbSymbolTableRecord
100
AcDbDimStyleTableRecord
  2
STANDARD$0
 70
     0
 41
12.0
 42
20.0
 44
20.0
 73
     0
 74
     0
 77
     1
 78
     8
140
64.0
141
0.0
147
10.0
275
     1
279
     2
284
     7
285
     7
286
     7
340
2A67
  0
ENDTAB
  0
TABLE
  2
BLOCK_RECORD
  5
2A0B
330
0
100
AcDbSymbolTable
 70
    77
  0
BLOCK_RECORD
  5
2A7E
102
{ACAD_XDICTIONARY
360
2C49
102
}
330
2A0B
100
AcDbSymbolTableRecord
100
AcDbBlockTableRecord
  2
*Model_Space
340
2A81
  0
BLOCK_RECORD
  5
2A7A
330
2A0B
100
AcDbSymbolTableRecord
100
AcDbBlockTableRecord
  2
*Paper_Space
340
2A7D
  0
BLOCK_RECORD
  5
2AC8
330
2A0B
100
AcDbSymbolTableRecord
100
AcDbBlockTableRecord
  2
$MODEL_SPACE
340
0
  0
BLOCK_RECORD
  5
2ACA
330
2A0B
100
AcDbSymbolTableRecord
100
AcDbBlockTableRecord
  2
$PAPER_SPACE
340
0
  0
BLOCK_RECORD
  5
2ACC
330
2A0B
100
AcDbSymbolTableRecord
100
AcDbBlockTableRecord
  2
_ORIGIN
340
0
  0
BLOCK_RECORD
  5
2ACE
330
2A0B
100
AcDbSymbolTableRecord
100
AcDbBlockTableRecord
  2
_DOTBLANK
340
0
102
{BLKREFS
331
1299
331
129A
331
11AA
331
11AB
331
E80
331
E81
331
1123
331
1124
331
11C2
331
11C3
331
11EC
331
11ED
331
11F9
331
11FA
331
1287
331
1288
331
1417
331
1418
331
1423
331
1424
331
142F
331
1430
331
143B
331
143C
331
166E
331
166F
331
1677
331
1678
331
1680
331
1681
331
1689
331
168A
331
1696
331
1697
331
16A3
331
16A4
331
16AF
331
16B0
331
16BB
331
16BC
331
16C7
331
16C8
331
16D3
331
16D4
331
1D86
331
1D87
331
1D8F
331
1D90
331
1D98
331
1D99
331
1DA1
331
1DA2
331
1DAB
331
1DAC
331
1DB5
331
1DB6
331
3237
331
3238
331
323D
331
323E
331
3243
331
3244
331
3249
331
324A
331
346D
331
346E
102
}
  0
BLOCK_RECORD
  5
2AD0
330
2A0B
100
AcDbSymbolTableRecord
100
AcDbBlockTableRecord
  2
_OPEN30
340
0
102
{BLKREFS
331
2088
331
25A0
331
288E
331
325F
102
}
  0
BLOCK_RECORD
  5
2AD2
330
2A0B
100
AcDbSymbolTableRecord
100
AcDbBlockTableRecord
  2
*D5
340
0
  0
BLOCK_RECORD
  5
2AD4
330
2A0B
100
AcDbSymbolTableRecord
100
AcDbBlockTableRecord
  2
*U6
340
0
102
{BLKREFS
331
129B
102
}
  0
BLOCK_RECORD
  5
2AD6
330
2A0B
100
AcDbSymbolTableRecord
100
AcDbBlockTableRecord
  2
*D7
340
0
  0
BLOCK_RECORD
  5
2AD8
330
2A0B
100
AcDbSymbolTableRecord
100
AcDbBlockTableRecord
  2
*U8
340
0
102
{BLKREFS
331
11AC
102
}
  0
BLOCK_RECORD
  5
2ADA
330
2A0B
100
AcDbSymbolTableRecord
100
AcDbBlockTableRecord
  2
*D9
340
0
  0
BLOCK_RECORD
  5
2ADC
330
2A0B
100
AcDbSymbolTableRecord
100
AcDbBlockTableRecord
  2
*U10
340
0
102
{BLKREFS
331
E82
102
}
  0
BLOCK_RECORD
  5
2ADE
330
2A0B
100
AcDbSymbolTableRecord
100
AcDbBlockTableRecord
  2
GENAXEH
340
0
  0
BLOCK_RECORD
  5
2AE0
330
2A0B
100
AcDbSymbolTableRecord
100
AcDbBlockTableRecord
  2
*D12
340
0
  0
BLOCK_RECORD
  5
2AE2
330
2A0B
100
AcDbSymbolTableRecord
100
AcDbBlockTableRecord
  2
*U13
340
0
102
{BLKREFS
331
1125
102
}
  0
BLOCK_RECORD
  5
2AE4
330
2A0B
100
AcDbSymbolTableRecord
100
AcDbBlockTableRecord
  2
*D14
340
0
  0
BLOCK_RECORD
  5
2AE6
330
2A0B
100
AcDbSymbolTableRecord
100
AcDbBlockTableRecord
  2
*U15
340
0
102
{BLKREFS
331
11C4
102
}
  0
BLOCK_RECORD
  5
2AE8
330
2A0B
100
AcDbSymbolTableRecord
100
AcDbBlockTableRecord
  2
*D16
340
0
  0
BLOCK_RECORD
  5
2AEA
330
2A0B
100
AcDbSymbolTableRecord
100
AcDbBlockTableRecord
  2
*U17
340
0
102
{BLKREFS
331
11EE
102
}
  0
BLOCK_RECORD
  5
2AEC
330
2A0B
100
AcDbSymbolTableRecord
100
AcDbBlockTableRecord
  2
*D18
340
0
  0
BLOCK_RECORD
  5
2AEE
330
2A0B
100
AcDbSymbolTableRecord
100
AcDbBlockTableRecord
  2
*U19
340
0
102
{BLKREFS
331
11FB
102
}
  0
BLOCK_RECORD
  5
2AF0
330
2A0B
100
AcDbSymbolTableRecord
100
AcDbBlockTableRecord
  2
*D20
340
0
  0
BLOCK_RECORD
  5
2AF2
330
2A0B
100
AcDbSymbolTableRecord
100
AcDbBlockTableRecord
  2
*U21
340
0
102
{BLKREFS
331
1289
102
}
  0
BLOCK_RECORD
  5
2AF4
330
2A0B
100
AcDbSymbolTableRecord
100
AcDbBlockTableRecord
  2
*D22
340
0
  0
BLOCK_RECORD
  5
2AF6
330
2A0B
100
AcDbSymbolTableRecord
100
AcDbBlockTableRecord
  2
*U23
340
0
102
{BLKREFS
331
1419
102
}
  0
BLOCK_RECORD
  5
2AF8
330
2A0B
100
AcDbSymbolTableRecord
100
AcDbBlockTableRecord
  2
*D24
340
0
  0
BLOCK_RECORD
  5
2AFA
330
2A0B
100
AcDbSymbolTableRecord
100
AcDbBlockTableRecord
  2
*U25
340
0
102
{BLKREFS
331
1425
102
}
  0
BLOCK_RECORD
  5
2AFC
330
2A0B
100
AcDbSymbolTableRecord
100
AcDbBlockTableRecord
  2
*D26
340
0
  0
BLOCK_RECORD
  5
2AFE
330
2A0B
100
AcDbSymbolTableRecord
100
AcDbBlockTableRecord
  2
*U27
340
0
102
{BLKREFS
331
1431
102
}
  0
BLOCK_RECORD
  5
2B00
330
2A0B
100
AcDbSymbolTableRecord
100
AcDbBlockTableRecord
  2
*D28
340
0
  0
BLOCK_RECORD
  5
2B02
330
2A0B
100
AcDbSymbolTableRecord
100
AcDbBlockTableRecord
  2
*U29
340
0
102
{BLKREFS
331
143D
102
}
  0
BLOCK_RECORD
  5
2B04
330
2A0B
100
AcDbSymbolTableRecord
100
AcDbBlockTableRecord
  2
*D30
340
0
  0
BLOCK_RECORD
  5
2B06
330
2A0B
100
AcDbSymbolTableRecord
100
AcDbBlockTableRecord
  2
*U31
340
0
102
{BLKREFS
331
1670
102
}
  0
BLOCK_RECORD
  5
2B08
330
2A0B
100
AcDbSymbolTableRecord
100
AcDbBlockTableRecord
  2
*D32
340
0
  0
BLOCK_RECORD
  5
2B0A
330
2A0B
100
AcDbSymbolTableRecord
100
AcDbBlockTableRecord
  2
*U33
340
0
102
{BLKREFS
331
1679
102
}
  0
BLOCK_RECORD
  5
2B0C
330
2A0B
100
AcDbSymbolTableRecord
100
AcDbBlockTableRecord
  2
*D34
340
0
  0
BLOCK_RECORD
  5
2B0E
330
2A0B
100
AcDbSymbolTableRecord
100
AcDbBlockTableRecord
  2
*U35
340
0
102
{BLKREFS
331
1682
102
}
  0
BLOCK_RECORD
  5
2B10
330
2A0B
100
AcDbSymbolTableRecord
100
AcDbBlockTableRecord
  2
*D36
340
0
  0
BLOCK_RECORD
  5
2B12
330
2A0B
100
AcDbSymbolTableRecord
100
AcDbBlockTableRecord
  2
*U37
340
0
102
{BLKREFS
331
168B
102
}
  0
BLOCK_RECORD
  5
2B14
330
2A0B
100
AcDbSymbolTableRecord
100
AcDbBlockTableRecord
  2
*U38
340
0
  0
BLOCK_RECORD
  5
2B16
330
2A0B
100
AcDbSymbolTableRecord
100
AcDbBlockTableRecord
  2
*D39
340
0
  0
BLOCK_RECORD
  5
2B18
330
2A0B
100
AcDbSymbolTableRecord
100
AcDbBlockTableRecord
  2
*U40
340
0
102
{BLKREFS
331
1698
102
}
  0
BLOCK_RECORD
  5
2B1A
330
2A0B
100
AcDbSymbolTableRecord
100
AcDbBlockTableRecord
  2
*D41
340
0
  0
BLOCK_RECORD
  5
2B1C
330
2A0B
100
AcDbSymbolTableRecord
100
AcDbBlockTableRecord
  2
*U42
340
0
102
{BLKREFS
331
16A5
102
}
  0
BLOCK_RECORD
  5
2B1E
330
2A0B
100
AcDbSymbolTableRecord
100
AcDbBlockTableRecord
  2
*D43
340
0
  0
BLOCK_RECORD
  5
2B20
330
2A0B
100
AcDbSymbolTableRecord
100
AcDbBlockTableRecord
  2
*U44
340
0
102
{BLKREFS
331
16B1
102
}
  0
BLOCK_RECORD
  5
2B22
330
2A0B
100
AcDbSymbolTableRecord
100
AcDbBlockTableRecord
  2
*D45
340
0
  0
BLOCK_RECORD
  5
2B24
330
2A0B
100
AcDbSymbolTableRecord
100
AcDbBlockTableRecord
  2
*U46
340
0
102
{BLKREFS
331
16BD
102
}
  0
BLOCK_RECORD
  5
2B26
330
2A0B
100
AcDbSymbolTableRecord
100
AcDbBlockTableRecord
  2
*D47
340
0
  0
BLOCK_RECORD
  5
2B28
330
2A0B
100
AcDbSymbolTableRecord
100
AcDbBlockTableRecord
  2
*U48
340
0
102
{BLKREFS
331
16C9
102
}
  0
BLOCK_RECORD
  5
2B2A
330
2A0B
100
AcDbSymbolTableRecord
100
AcDbBlockTableRecord
  2
*D49
340
0
  0
BLOCK_RECORD
  5
2B2C
330
2A0B
100
AcDbSymbolTableRecord
100
AcDbBlockTableRecord
  2
*U50
340
0
102
{BLKREFS
331
16D5
102
}
  0
BLOCK_RECORD
  5
2B2E
330
2A0B
100
AcDbSymbolTableRecord
100
AcDbBlockTableRecord
  2
*D51
340
0
  0
BLOCK_RECORD
  5
2B30
330
2A0B
100
AcDbSymbolTableRecord
100
AcDbBlockTableRecord
  2
*U52
340
0
102
{BLKREFS
331
1D88
102
}
  0
BLOCK_RECORD
  5
2B32
330
2A0B
100
AcDbSymbolTableRecord
100
AcDbBlockTableRecord
  2
*D53
340
0
  0
BLOCK_RECORD
  5
2B34
330
2A0B
100
AcDbSymbolTableRecord
100
AcDbBlockTableRecord
  2
*U54
340
0
102
{BLKREFS
331
1D91
102
}
  0
BLOCK_RECORD
  5
2B36
330
2A0B
100
AcDbSymbolTableRecord
100
AcDbBlockTableRecord
  2
*D55
340
0
  0
BLOCK_RECORD
  5
2B38
330
2A0B
100
AcDbSymbolTableRecord
100
AcDbBlockTableRecord
  2
*U56
340
0
102
{BLKREFS
331
1D9A
102
}
  0
BLOCK_RECORD
  5
2B3A
330
2A0B
100
AcDbSymbolTableRecord
100
AcDbBlockTableRecord
  2
*D57
340
0
  0
BLOCK_RECORD
  5
2B3C
330
2A0B
100
AcDbSymbolTableRecord
100
AcDbBlockTableRecord
  2
*U58
340
0
102
{BLKREFS
331
1DA3
102
}
  0
BLOCK_RECORD
  5
2B3E
330
2A0B
100
AcDbSymbolTableRecord
100
AcDbBlockTableRecord
  2
*D59
340
0
  0
BLOCK_RECORD
  5
2B40
330
2A0B
100
AcDbSymbolTableRecord
100
AcDbBlockTableRecord
  2
*U60
340
0
102
{BLKREFS
331
1DAD
102
}
  0
BLOCK_RECORD
  5
2B42
330
2A0B
100
AcDbSymbolTableRecord
100
AcDbBlockTableRecord
  2
*D61
340
0
  0
BLOCK_RECORD
  5
2B44
330
2A0B
100
AcDbSymbolTableRecord
100
AcDbBlockTableRecord
  2
*U62
340
0
102
{BLKREFS
331
1DB7
102
}
  0
BLOCK_RECORD
  5
2B46
330
2A0B
100
AcDbSymbolTableRecord
100
AcDbBlockTableRecord
  2
*U63
340
0
  0
BLOCK_RECORD
  5
2B48
330
2A0B
100
AcDbSymbolTableRecord
100
AcDbBlockTableRecord
  2
*U64
340
0
  0
BLOCK_RECORD
  5
2B4A
330
2A0B
100
AcDbSymbolTableRecord
100
AcDbBlockTableRecord
  2
*U65
340
0
  0
BLOCK_RECORD
  5
2B4C
330
2A0B
100
AcDbSymbolTableRecord
100
AcDbBlockTableRecord
  2
*U66
340
0
  0
BLOCK_RECORD
  5
2B4E
330
2A0B
100
AcDbSymbolTableRecord
100
AcDbBlockTableRecord
  2
*U67
340
0
  0
BLOCK_RECORD
  5
2B50
330
2A0B
100
AcDbSymbolTableRecord
100
AcDbBlockTableRecord
  2
*U68
340
0
  0
BLOCK_RECORD
  5
2B52
330
2A0B
100
AcDbSymbolTableRecord
100
AcDbBlockTableRecord
  2
*U69
340
0
  0
BLOCK_RECORD
  5
2B54
330
2A0B
100
AcDbSymbolTableRecord
100
AcDbBlockTableRecord
  2
*X70
340
0
  0
BLOCK_RECORD
  5
2B56
330
2A0B
100
AcDbSymbolTableRecord
100
AcDbBlockTableRecord
  2
*X71
340
0
  0
BLOCK_RECORD
  5
2D23
330
2A0B
100
AcDbSymbolTableRecord
100
AcDbBlockTableRecord
  2
*U72
340
0
  0
BLOCK_RECORD
  5
2FBB
330
2A0B
100
AcDbSymbolTableRecord
100
AcDbBlockTableRecord
  2
*U73
340
0
  0
BLOCK_RECORD
  5
3520
330
2A0B
100
AcDbSymbolTableRecord
100
AcDbBlockTableRecord
  2
*U74
340
0
  0
BLOCK_RECORD
  5
3601
330
2A0B
100
AcDbSymbolTableRecord
100
AcDbBlockTableRecord
  2
*U75
340
0
  0
ENDTAB
  0
ENDSEC
  0
SECTION
  2
BLOCKS
  0
BLOCK
  5
2A7F
330
2A7E
100
AcDbEntity
  8
0
100
AcDbBlockBegin
  2
*Model_Space
 70
     0
 10
0.0
 20
0.0
 30
0.0
  3
*Model_Space
  1

  0
ENDBLK
  5
2A80
330
2A7E
100
AcDbEntity
  8
0
100
AcDbBlockEnd
  0
BLOCK
  5
2A7B
330
2A7A
100
AcDbEntity
 67
     1
  8
0
100
AcDbBlockBegin
  2
*Paper_Space
 70
     0
 10
0.0
 20
0.0
 30
0.0
  3
*Paper_Space
  1

  0
ENDBLK
  5
2A7C
330
2A7A
100
AcDbEntity
 67
     1
  8
0
100
AcDbBlockEnd
  0
BLOCK
  5
2AC9
330
2AC8
100
AcDbEntity
  8
0
100
AcDbBlockBegin
  2
$MODEL_SPACE
 70
     0
 10
0.0
 20
0.0
 30
0.0
  3
$MODEL_SPACE
  1

  0
ENDBLK
  5
26E1
330
2AC8
100
AcDbEntity
  8
0
100
AcDbBlockEnd
  0
BLOCK
  5
2ACB
330
2ACA
100
AcDbEntity
  8
0
100
AcDbBlockBegin
  2
$PAPER_SPACE
 70
     0
 10
0.0
 20
0.0
 30
0.0
  3
$PAPER_SPACE
  1

  0
ENDBLK
  5
26DD
330
2ACA
100
AcDbEntity
  8
0
100
AcDbBlockEnd
  0
BLOCK
  5
2ACD
330
2ACC
100
AcDbEntity
  8
0
100
AcDbBlockBegin
  2
_ORIGIN
 70
     0
 10
0.0
 20
0.0
 30
0.0
  3
_ORIGIN
  1

  0
CIRCLE
  5
880
330
2ACC
100
AcDbEntity
  8
0
  6
Continuous
 62
     7
100
AcDbCircle
 10
0.0
 20
0.0
 30
0.0
 40
0.5
  0
LINE
  5
881
330
2ACC
100
AcDbEntity
  8
0
  6
Continuous
 62
     7
100
AcDbLine
 10
0.0
 20
0.0
 30
0.0
 11
-1.0
 21
0.0
 31
0.0
  0
ENDBLK
  5
882
330
2ACC
100
AcDbEntity
  8
0
100
AcDbBlockEnd
  0
BLOCK
  5
2ACF
330
2ACE
100
AcDbEntity
  8
0
 62
     1
100
AcDbBlockBegin
  2
_DOTBLANK
 70
     0
 10
0.0
 20
0.0
 30
0.0
  3
_DOTBLANK
  1

  0
CIRCLE
  5
AB3
330
2ACE
100
AcDbEntity
  8
0
  6
ByBlock
 62
     0
100
AcDbCircle
 10
0.0
 20
0.0
 30
0.0
 40
0.5
  0
LINE
  5
AB4
330
2ACE
100
AcDbEntity
  8
0
  6
ByBlock
 62
     0
100
AcDbLine
 10
-0.5
 20
0.0
 30
0.0
 11
-1.0
 21
0.0
 31
0.0
  0
ENDBLK
  5
AB6
330
2ACE
100
AcDbEntity
  8
0
 62
     1
100
AcDbBlockEnd
  0
BLOCK
  5
2AD1
330
2AD0
100
AcDbEntity
  8
0
 62
     1
100
AcDbBlockBegin
  2
_OPEN30
 70
     0
 10
0.0
 20
0.0
 30
0.0
  3
_OPEN30
  1

  0
LINE
  5
AB8
330
2AD0
100
AcDbEntity
  8
0
  6
ByBlock
 62
     0
100
AcDbLine
 10
-1.0
 20
0.26794919
 30
0.0
 11
0.0
 21
0.0
 31
0.0
  0
LINE
  5
AB9
330
2AD0
100
AcDbEntity
  8
0
  6
ByBlock
 62
     0
100
AcDbLine
 10
0.0
 20
0.0
 30
0.0
 11
-1.0
 21
-0.26794919
 31
0.0
  0
LINE
  5
ABA
330
2AD0
100
AcDbEntity
  8
0
  6
ByBlock
 62
     0
100
AcDbLine
 10
0.0
 20
0.0
 30
0.0
 11
-1.0
 21
0.0
 31
0.0
  0
ENDBLK
  5
ABC
330
2AD0
100
AcDbEntity
  8
0
 62
     1
100
AcDbBlockEnd
  0
BLOCK
  5
2AD3
330
2AD2
100
AcDbEntity
  8
0
100
AcDbBlockBegin
  2
*D5
 70
     1
 10
0.0
 20
0.0
 30
0.0
  3
*D5
  1

  0
LINE
  5
1296
330
2AD2
100
AcDbEntity
  8
SIZE
 62
     0
100
AcDbLine
 10
-134.5
 20
-320.0
 30
0.0
 11
-134.5
 21
-468.0173952306001
 31
0.0
  0
LINE
  5
1297
330
2AD2
100
AcDbEntity
  8
SIZE
 62
     0
100
AcDbLine
 10
134.5
 20
-320.0
 30
0.0
 11
134.5
 21
-468.0173952306001
 31
0.0
  0
LINE
  5
1298
330
2AD2
100
AcDbEntity
  8
SIZE
 62
     0
100
AcDbLine
 10
-122.5
 20
-448.0173952306
 30
0.0
 11
122.5
 21
-448.0173952306
 31
0.0
  0
INSERT
  5
1299
330
2AD2
100
AcDbEntity
  8
SIZE
 62
     0
100
AcDbBlockReference
  2
_DOTBLANK
 10
-134.5
 20
-448.0173952306
 30
0.0
 41
12.0
 42
12.0
 43
12.0
 50
180.0
  0
INSERT
  5
129A
330
2AD2
100
AcDbEntity
  8
SIZE
 62
     0
100
AcDbBlockReference
  2
_DOTBLANK
 10
134.5
 20
-448.0173952306
 30
0.0
 41
12.0
 42
12.0
 43
12.0
  0
INSERT
  5
129B
330
2AD2
100
AcDbEntity
  8
0
100
AcDbBlockReference
  2
*U6
 10
0.0
 20
0.0
 30
0.0
  0
POINT
  5
129C
330
2AD2
100
AcDbEntity
  8
DEFPOINTS
 62
     0
100
AcDbPoint
 10
-134.5
 20
-300.0
 30
0.0
  0
POINT
  5
129D
330
2AD2
100
AcDbEntity
  8
DEFPOINTS
 62
     0
100
AcDbPoint
 10
134.5
 20
-300.0
 30
0.0
  0
POINT
  5
129E
330
2AD2
100
AcDbEntity
  8
DEFPOINTS
 62
     0
100
AcDbPoint
 10
134.5
 20
-448.0173952306
 30
0.0
  0
ENDBLK
  5
D72
330
2AD2
100
AcDbEntity
  8
0
100
AcDbBlockEnd
  0
BLOCK
  5
2AD5
330
2AD4
100
AcDbEntity
  8
0
100
AcDbBlockBegin
  2
*U6
 70
     1
 10
0.0
 20
0.0
 30
0.0
  3
*U6
  1

  0
TEXT
  5
1EF5
330
2AD4
100
AcDbEntity
  8
SIZE
 62
     0
100
AcDbText
 10
-72.68571428571426
 20
-438.0173952305999
 30
0.0
 40
64.0
  1
269
 41
0.9
100
AcDbText
  0
ENDBLK
  5
1EF7
330
2AD4
100
AcDbEntity
  8
0
100
AcDbBlockEnd
  0
BLOCK
  5
2AD7
330
2AD6
100
AcDbEntity
  8
0
100
AcDbBlockBegin
  2
*D7
 70
     1
 10
0.0
 20
0.0
 30
0.0
  3
*D7
  1

  0
LINE
  5
11A7
330
2AD6
100
AcDbEntity
  8
SIZE
  6
Continuous
 62
     0
100
AcDbLine
 10
143.5
 20
-300.0
 30
0.0
 11
304.6432844803791
 21
-300.0
 31
0.0
  0
LINE
  5
11A8
330
2AD6
100
AcDbEntity
  8
SIZE
  6
Continuous
 62
     0
100
AcDbLine
 10
177.5
 20
-0.0000000000000057
 30
0.0
 11
304.6432844803792
 21
-0.0000000000000417
 31
0.0
  0
LINE
  5
11A9
330
2AD6
100
AcDbEntity
  8
SIZE
  6
Continuous
 62
     0
100
AcDbLine
 10
284.6432844803791
 20
-288.0000000000001
 30
0.0
 11
284.6432844803792
 21
-12.00000000000003
 31
0.0
  0
INSERT
  5
11AA
330
2AD6
100
AcDbEntity
  8
SIZE
  6
Continuous
 62
     0
100
AcDbBlockReference
  2
_DOTBLANK
 10
284.6432844803791
 20
-300.0
 30
0.0
 41
12.0
 42
12.0
 43
12.0
 50
270.0
  0
INSERT
  5
11AB
330
2AD6
100
AcDbEntity
  8
SIZE
  6
Continuous
 62
     0
100
AcDbBlockReference
  2
_DOTBLANK
 10
284.6432844803792
 20
-0.000000000000036
 30
0.0
 41
12.0
 42
12.0
 43
12.0
 50
90.0
  0
INSERT
  5
11AC
330
2AD6
100
AcDbEntity
  8
0
100
AcDbBlockReference
  2
*U8
 10
0.0
 20
0.0
 30
0.0
  0
POINT
  5
11AD
330
2AD6
100
AcDbEntity
  8
DEFPOINTS
  6
Continuous
 62
     0
100
AcDbPoint
 10
123.5
 20
-300.0
 30
0.0
  0
POINT
  5
11AE
330
2AD6
100
AcDbEntity
  8
DEFPOINTS
  6
Continuous
 62
     0
100
AcDbPoint
 10
157.5
 20
0.0
 30
0.0
  0
POINT
  5
11AF
330
2AD6
100
AcDbEntity
  8
DEFPOINTS
  6
Continuous
 62
     0
100
AcDbPoint
 10
284.6432844803792
 20
-0.000000000000036
 30
0.0
  0
ENDBLK
  5
E11
330
2AD6
100
AcDbEntity
  8
0
100
AcDbBlockEnd
  0
BLOCK
  5
2AD9
330
2AD8
100
AcDbEntity
  8
0
100
AcDbBlockBegin
  2
*U8
 70
     1
 10
0.0
 20
0.0
 30
0.0
  3
*U8
  1

  0
TEXT
  5
1EE1
330
2AD8
100
AcDbEntity
  8
SIZE
 62
     0
100
AcDbText
 10
274.6432844803792
 20
-224.0571428571429
 30
0.0
 40
64.0
  1
300
 50
90.0
 41
0.9
100
AcDbText
  0
ENDBLK
  5
1EE3
330
2AD8
100
AcDbEntity
  8
0
100
AcDbBlockEnd
  0
BLOCK
  5
2ADB
330
2ADA
100
AcDbEntity
  8
0
100
AcDbBlockBegin
  2
*D9
 70
     1
 10
0.0
 20
0.0
 30
0.0
  3
*D9
  1

  0
LINE
  5
E7D
330
2ADA
100
AcDbEntity
  8
SIZE
 62
     0
100
AcDbLine
 10
-139.9999999999998
 20
32.46448280219375
 30
0.0
 11
-139.9999999999998
 21
136.4516878685508
 31
0.0
  0
LINE
  5
E7E
330
2ADA
100
AcDbEntity
  8
SIZE
 62
     0
100
AcDbLine
 10
140.0
 20
32.46448280219375
 30
0.0
 11
140.0
 21
136.4516878685508
 31
0.0
  0
LINE
  5
E7F
330
2ADA
100
AcDbEntity
  8
SIZE
 62
     0
100
AcDbLine
 10
-128.0
 20
116.4516878685508
 30
0.0
 11
128.0
 21
116.4516878685508
 31
0.0
  0
INSERT
  5
E80
330
2ADA
100
AcDbEntity
  8
SIZE
 62
     0
100
AcDbBlockReference
  2
_DOTBLANK
 10
-139.9999999999998
 20
116.4516878685508
 30
0.0
 41
12.0
 42
12.0
 43
12.0
 50
180.0
  0
INSERT
  5
E81
330
2ADA
100
AcDbEntity
  8
SIZE
 62
     0
100
AcDbBlockReference
  2
_DOTBLANK
 10
140.0
 20
116.4516878685508
 30
0.0
 41
12.0
 42
12.0
 43
12.0
  0
INSERT
  5
E82
330
2ADA
100
AcDbEntity
  8
0
100
AcDbBlockReference
  2
*U10
 10
0.0
 20
0.0
 30
0.0
  0
POINT
  5
E83
330
2ADA
100
AcDbEntity
  8
DEFPOINTS
 62
     0
100
AcDbPoint
 10
-139.9999999999998
 20
12.46448280219374
 30
0.0
  0
POINT
  5
E84
330
2ADA
100
AcDbEntity
  8
DEFPOINTS
 62
     0
100
AcDbPoint
 10
140.0
 20
12.46448280219374
 30
0.0
  0
POINT
  5
E85
330
2ADA
100
AcDbEntity
  8
DEFPOINTS
 62
     0
100
AcDbPoint
 10
140.0
 20
116.4516878685508
 30
0.0
  0
ENDBLK
  5
E7C
330
2ADA
100
AcDbEntity
  8
0
100
AcDbBlockEnd
  0
BLOCK
  5
2ADD
330
2ADC
100
AcDbEntity
  8
0
100
AcDbBlockBegin
  2
*U10
 70
     1
 10
0.0
 20
0.0
 30
0.0
  3
*U10
  1

  0
TEXT
  5
1ED8
330
2ADC
100
AcDbEntity
  8
SIZE
 62
     0
100
AcDbText
 10
-74.05714285714281
 20
126.4516878685508
 30
0.0
 40
64.0
  1
280
 41
0.9
100
AcDbText
  0
ENDBLK
  5
1EDA
330
2ADC
100
AcDbEntity
  8
0
100
AcDbBlockEnd
  0
BLOCK
  5
2ADF
330
2ADE
100
AcDbEntity
  8
0
100
AcDbBlockBegin
  2
GENAXEH
 70
     0
 10
0.0
 20
0.0
 30
0.0
  3
GENAXEH
  1

  0
LINE
  5
FDB
330
2ADE
100
AcDbEntity
  8
0
100
AcDbLine
 10
-1.0
 20
0.0
 30
0.0
 11
1.0
 21
0.0
 31
0.0
  0
ENDBLK
  5
FDD
330
2ADE
100
AcDbEntity
  8
0
100
AcDbBlockEnd
  0
BLOCK
  5
2AE1
330
2AE0
100
AcDbEntity
  8
0
100
AcDbBlockBegin
  2
*D12
 70
     1
 10
0.0
 20
0.0
 30
0.0
  3
*D12
  1

  0
LINE
  5
1120
330
2AE0
100
AcDbEntity
  8
SIZE
 62
     0
100
AcDbLine
 10
-157.5
 20
20.0
 30
0.0
 11
-157.5
 21
245.5794621189598
 31
0.0
  0
LINE
  5
1121
330
2AE0
100
AcDbEntity
  8
SIZE
 62
     0
100
AcDbLine
 10
157.5
 20
20.0
 30
0.0
 11
157.5
 21
245.5794621189598
 31
0.0
  0
LINE
  5
1122
330
2AE0
100
AcDbEntity
  8
SIZE
 62
     0
100
AcDbLine
 10
-145.5
 20
225.5794621189598
 30
0.0
 11
145.5
 21
225.5794621189598
 31
0.0
  0
INSERT
  5
1123
330
2AE0
100
AcDbEntity
  8
SIZE
 62
     0
100
AcDbBlockReference
  2
_DOTBLANK
 10
-157.5
 20
225.5794621189598
 30
0.0
 41
12.0
 42
12.0
 43
12.0
 50
180.0
  0
INSERT
  5
1124
330
2AE0
100
AcDbEntity
  8
SIZE
 62
     0
100
AcDbBlockReference
  2
_DOTBLANK
 10
157.5
 20
225.5794621189598
 30
0.0
 41
12.0
 42
12.0
 43
12.0
  0
INSERT
  5
1125
330
2AE0
100
AcDbEntity
  8
0
100
AcDbBlockReference
  2
*U13
 10
0.0
 20
0.0
 30
0.0
  0
POINT
  5
1126
330
2AE0
100
AcDbEntity
  8
DEFPOINTS
 62
     0
100
AcDbPoint
 10
-157.5
 20
0.0
 30
0.0
  0
POINT
  5
1127
330
2AE0
100
AcDbEntity
  8
DEFPOINTS
 62
     0
100
AcDbPoint
 10
157.5
 20
0.0
 30
0.0
  0
POINT
  5
1128
330
2AE0
100
AcDbEntity
  8
DEFPOINTS
 62
     0
100
AcDbPoint
 10
157.5
 20
225.5794621189598
 30
0.0
  0
ENDBLK
  5
111F
330
2AE0
100
AcDbEntity
  8
0
100
AcDbBlockEnd
  0
BLOCK
  5
2AE3
330
2AE2
100
AcDbEntity
  8
0
100
AcDbBlockBegin
  2
*U13
 70
     1
 10
0.0
 20
0.0
 30
0.0
  3
*U13
  1

  0
TEXT
  5
1EDD
330
2AE2
100
AcDbEntity
  8
SIZE
 62
     0
100
AcDbText
 10
-68.57142857142857
 20
235.5794621189599
 30
0.0
 40
64.0
  1
315
 41
0.9
100
AcDbText
  0
ENDBLK
  5
1EDF
330
2AE2
100
AcDbEntity
  8
0
100
AcDbBlockEnd
  0
BLOCK
  5
2AE5
330
2AE4
100
AcDbEntity
  8
0
100
AcDbBlockBegin
  2
*D14
 70
     1
 10
0.0
 20
0.0
 30
0.0
  3
*D14
  1

  0
LINE
  5
11BD
330
2AE4
100
AcDbEntity
  8
NOTE
 62
     0
100
AcDbLine
 10
-123.4999999999999
 20
-320.0
 30
0.0
 11
-123.4999999999999
 21
-354.9529861856111
 31
0.0
  0
LINE
  5
11BE
330
2AE4
100
AcDbEntity
  8
NOTE
 62
     0
100
AcDbLine
 10
-133.4999999999998
 20
-331.2126909923287
 30
0.0
 11
-133.4999999999998
 21
-354.9529861856111
 31
0.0
  0
LINE
  5
11BF
330
2AE4
100
AcDbEntity
  8
NOTE
 62
     0
100
AcDbLine
 10
-111.4999999999999
 20
-334.9529861856112
 30
0.0
 11
-99.4999999999999
 21
-334.9529861856112
 31
0.0
  0
LINE
  5
11C0
330
2AE4
100
AcDbEntity
  8
NOTE
 62
     0
100
AcDbLine
 10
-145.4999999999998
 20
-334.9529861856112
 30
0.0
 11
-157.4999999999998
 21
-334.9529861856112
 31
0.0
  0
LINE
  5
11C1
330
2AE4
100
AcDbEntity
  8
NOTE
 62
     0
100
AcDbLine
 10
-123.4999999999999
 20
-334.9529861856112
 30
0.0
 11
-133.4999999999998
 21
-334.9529861856112
 31
0.0
  0
INSERT
  5
11C2
330
2AE4
100
AcDbEntity
  8
NOTE
 62
     0
100
AcDbBlockReference
  2
_DOTBLANK
 10
-123.4999999999999
 20
-334.9529861856112
 30
0.0
 41
12.0
 42
12.0
 43
12.0
 50
180.0
  0
INSERT
  5
11C3
330
2AE4
100
AcDbEntity
  8
NOTE
 62
     0
100
AcDbBlockReference
  2
_DOTBLANK
 10
-133.4999999999998
 20
-334.9529861856112
 30
0.0
 41
12.0
 42
12.0
 43
12.0
  0
INSERT
  5
11C4
330
2AE4
100
AcDbEntity
  8
0
100
AcDbBlockReference
  2
*U15
 10
0.0
 20
0.0
 30
0.0
  0
POINT
  5
11C5
330
2AE4
100
AcDbEntity
  8
DEFPOINTS
 62
     0
100
AcDbPoint
 10
-123.4999999999999
 20
-300.0
 30
0.0
  0
POINT
  5
11C6
330
2AE4
100
AcDbEntity
  8
DEFPOINTS
 62
     0
100
AcDbPoint
 10
-133.4999999999998
 20
-311.2126909923287
 30
0.0
  0
POINT
  5
11C7
330
2AE4
100
AcDbEntity
  8
DEFPOINTS
 62
     0
100
AcDbPoint
 10
-133.4999999999998
 20
-334.9529861856112
 30
0.0
  0
ENDBLK
  5
11BC
330
2AE4
100
AcDbEntity
  8
0
100
AcDbBlockEnd
  0
BLOCK
  5
2AE7
330
2AE6
100
AcDbEntity
  8
0
100
AcDbBlockBegin
  2
*U15
 70
     1
 10
0.0
 20
0.0
 30
0.0
  3
*U15
  1

  0
TEXT
  5
1EE5
330
2AE6
100
AcDbEntity
  8
NOTE
 62
     0
100
AcDbText
 10
-169.642857142857
 20
-324.9529861856112
 30
0.0
 40
64.0
  1
10
 41
0.9
100
AcDbText
  0
ENDBLK
  5
1EE7
330
2AE6
100
AcDbEntity
  8
0
100
AcDbBlockEnd
  0
BLOCK
  5
2AE9
330
2AE8
100
AcDbEntity
  8
0
100
AcDbBlockBegin
  2
*D16
 70
     1
 10
0.0
 20
0.0
 30
0.0
  3
*D16
  1

  0
LINE
  5
11E7
330
2AE8
100
AcDbEntity
  8
NOTE
 62
     0
100
AcDbLine
 10
-135.5
 20
-333.2126909923287
 30
0.0
 11
-135.5
 21
-386.2569421441843
 31
0.0
  0
LINE
  5
11E8
330
2AE8
100
AcDbEntity
  8
NOTE
 62
     0
100
AcDbLine
 10
-123.4999999999999
 20
-320.0
 30
0.0
 11
-123.4999999999999
 21
-386.2569421441843
 31
0.0
  0
LINE
  5
11E9
330
2AE8
100
AcDbEntity
  8
NOTE
 62
     0
100
AcDbLine
 10
-147.5
 20
-366.2569421441844
 30
0.0
 11
-159.5
 21
-366.2569421441844
 31
0.0
  0
LINE
  5
11EA
330
2AE8
100
AcDbEntity
  8
NOTE
 62
     0
100
AcDbLine
 10
-111.4999999999999
 20
-366.2569421441844
 30
0.0
 11
-99.4999999999999
 21
-366.2569421441844
 31
0.0
  0
LINE
  5
11EB
330
2AE8
100
AcDbEntity
  8
NOTE
 62
     0
100
AcDbLine
 10
-135.5
 20
-366.2569421441844
 30
0.0
 11
-123.4999999999999
 21
-366.2569421441844
 31
0.0
  0
INSERT
  5
11EC
330
2AE8
100
AcDbEntity
  8
NOTE
 62
     0
100
AcDbBlockReference
  2
_DOTBLANK
 10
-135.5
 20
-366.2569421441844
 30
0.0
 41
12.0
 42
12.0
 43
12.0
  0
INSERT
  5
11ED
330
2AE8
100
AcDbEntity
  8
NOTE
 62
     0
100
AcDbBlockReference
  2
_DOTBLANK
 10
-123.4999999999999
 20
-366.2569421441844
 30
0.0
 41
12.0
 42
12.0
 43
12.0
 50
180.0
  0
INSERT
  5
11EE
330
2AE8
100
AcDbEntity
  8
0
100
AcDbBlockReference
  2
*U17
 10
0.0
 20
0.0
 30
0.0
  0
POINT
  5
11EF
330
2AE8
100
AcDbEntity
  8
DEFPOINTS
 62
     0
100
AcDbPoint
 10
-135.5
 20
-313.2126909923287
 30
0.0
  0
POINT
  5
11F0
330
2AE8
100
AcDbEntity
  8
DEFPOINTS
 62
     0
100
AcDbPoint
 10
-123.4999999999999
 20
-300.0
 30
0.0
  0
POINT
  5
11F1
330
2AE8
100
AcDbEntity
  8
DEFPOINTS
 62
     0
100
AcDbPoint
 10
-123.4999999999999
 20
-366.2569421441844
 30
0.0
  0
ENDBLK
  5
11E6
330
2AE8
100
AcDbEntity
  8
0
100
AcDbBlockEnd
  0
BLOCK
  5
2AEB
330
2AEA
100
AcDbEntity
  8
0
100
AcDbBlockBegin
  2
*U17
 70
     1
 10
0.0
 20
0.0
 30
0.0
  3
*U17
  1

  0
TEXT
  5
1EE9
330
2AEA
100
AcDbEntity
  8
NOTE
 62
     0
100
AcDbText
 10
-170.642857142857
 20
-356.2569421441843
 30
0.0
 40
64.0
  1
12
 41
0.9
100
AcDbText
  0
ENDBLK
  5
1EEB
330
2AEA
100
AcDbEntity
  8
0
100
AcDbBlockEnd
  0
BLOCK
  5
2AED
330
2AEC
100
AcDbEntity
  8
0
100
AcDbBlockBegin
  2
*D18
 70
     1
 10
0.0
 20
0.0
 30
0.0
  3
*D18
  1

  0
LINE
  5
11F6
330
2AEC
100
AcDbEntity
  8
NOTE
 62
     0
100
AcDbLine
 10
-123.4999999999999
 20
-320.0
 30
0.0
 11
-123.4999999999999
 21
-583.8286022818904
 31
0.0
  0
LINE
  5
11F7
330
2AEC
100
AcDbEntity
  8
NOTE
 62
     0
100
AcDbLine
 10
123.5
 20
-320.0
 30
0.0
 11
123.5
 21
-583.8286022818904
 31
0.0
  0
LINE
  5
11F8
330
2AEC
100
AcDbEntity
  8
NOTE
 62
     0
100
AcDbLine
 10
-111.4999999999999
 20
-563.8286022818904
 30
0.0
 11
111.5
 21
-563.8286022818904
 31
0.0
  0
INSERT
  5
11F9
330
2AEC
100
AcDbEntity
  8
NOTE
 62
     0
100
AcDbBlockReference
  2
_DOTBLANK
 10
-123.4999999999999
 20
-563.8286022818904
 30
0.0
 41
12.0
 42
12.0
 43
12.0
 50
180.0
  0
INSERT
  5
11FA
330
2AEC
100
AcDbEntity
  8
NOTE
 62
     0
100
AcDbBlockReference
  2
_DOTBLANK
 10
123.5
 20
-563.8286022818904
 30
0.0
 41
12.0
 42
12.0
 43
12.0
  0
INSERT
  5
11FB
330
2AEC
100
AcDbEntity
  8
0
100
AcDbBlockReference
  2
*U19
 10
0.0
 20
0.0
 30
0.0
  0
POINT
  5
11FC
330
2AEC
100
AcDbEntity
  8
DEFPOINTS
 62
     0
100
AcDbPoint
 10
-123.4999999999999
 20
-300.0
 30
0.0
  0
POINT
  5
11FD
330
2AEC
100
AcDbEntity
  8
DEFPOINTS
 62
     0
100
AcDbPoint
 10
123.5
 20
-300.0
 30
0.0
  0
POINT
  5
11FE
330
2AEC
100
AcDbEntity
  8
DEFPOINTS
 62
     0
100
AcDbPoint
 10
123.5
 20
-563.8286022818904
 30
0.0
  0
ENDBLK
  5
11F5
330
2AEC
100
AcDbEntity
  8
0
100
AcDbBlockEnd
  0
BLOCK
  5
2AEF
330
2AEE
100
AcDbEntity
  8
0
100
AcDbBlockBegin
  2
*U19
 70
     1
 10
0.0
 20
0.0
 30
0.0
  3
*U19
  1

  0
TEXT
  5
1EED
330
2AEE
100
AcDbEntity
  8
NOTE
 62
     0
100
AcDbText
 10
-74.05714285714281
 20
-553.8286022818904
 30
0.0
 40
64.0
  1
247
 41
0.9
100
AcDbText
  0
ENDBLK
  5
1EEF
330
2AEE
100
AcDbEntity
  8
0
100
AcDbBlockEnd
  0
BLOCK
  5
2AF1
330
2AF0
100
AcDbEntity
  8
0
100
AcDbBlockBegin
  2
*D20
 70
     1
 10
0.0
 20
0.0
 30
0.0
  3
*D20
  1

  0
LINE
  5
1284
330
2AF0
100
AcDbEntity
  8
NOTE
 62
     0
100
AcDbLine
 10
-123.5
 20
12.0
 30
0.0
 11
-123.5
 21
71.83630134534229
 31
0.0
  0
LINE
  5
1285
330
2AF0
100
AcDbEntity
  8
NOTE
 62
     0
100
AcDbLine
 10
123.5
 20
12.0
 30
0.0
 11
123.5
 21
71.83630134534229
 31
0.0
  0
LINE
  5
1286
330
2AF0
100
AcDbEntity
  8
NOTE
 62
     0
100
AcDbLine
 10
-111.5
 20
51.83630134534229
 30
0.0
 11
111.5
 21
51.83630134534229
 31
0.0
  0
INSERT
  5
1287
330
2AF0
100
AcDbEntity
  8
NOTE
 62
     0
100
AcDbBlockReference
  2
_DOTBLANK
 10
-123.5
 20
51.83630134534229
 30
0.0
 41
12.0
 42
12.0
 43
12.0
 50
180.0
  0
INSERT
  5
1288
330
2AF0
100
AcDbEntity
  8
NOTE
 62
     0
100
AcDbBlockReference
  2
_DOTBLANK
 10
123.5
 20
51.83630134534229
 30
0.0
 41
12.0
 42
12.0
 43
12.0
  0
INSERT
  5
1289
330
2AF0
100
AcDbEntity
  8
0
100
AcDbBlockReference
  2
*U21
 10
0.0
 20
0.0
 30
0.0
  0
POINT
  5
128A
330
2AF0
100
AcDbEntity
  8
DEFPOINTS
 62
     0
100
AcDbPoint
 10
-123.5
 20
-8.0
 30
0.0
  0
POINT
  5
128B
330
2AF0
100
AcDbEntity
  8
DEFPOINTS
 62
     0
100
AcDbPoint
 10
123.5
 20
-8.0
 30
0.0
  0
POINT
  5
128C
330
2AF0
100
AcDbEntity
  8
DEFPOINTS
 62
     0
100
AcDbPoint
 10
123.5
 20
51.83630134534229
 30
0.0
  0
ENDBLK
  5
1283
330
2AF0
100
AcDbEntity
  8
0
100
AcDbBlockEnd
  0
BLOCK
  5
2AF3
330
2AF2
100
AcDbEntity
  8
0
100
AcDbBlockBegin
  2
*U21
 70
     1
 10
0.0
 20
0.0
 30
0.0
  3
*U21
  1

  0
TEXT
  5
1EF1
330
2AF2
100
AcDbEntity
  8
NOTE
 62
     0
100
AcDbText
 10
-74.05714285714283
 20
61.83630134534229
 30
0.0
 40
64.0
  1
247
 41
0.9
100
AcDbText
  0
ENDBLK
  5
1EF3
330
2AF2
100
AcDbEntity
  8
0
100
AcDbBlockEnd
  0
BLOCK
  5
2AF5
330
2AF4
100
AcDbEntity
  8
0
100
AcDbBlockBegin
  2
*D22
 70
     1
 10
0.0
 20
0.0
 30
0.0
  3
*D22
  1

  0
LINE
  5
1414
330
2AF4
100
AcDbEntity
  8
SIZE
 62
     0
100
AcDbLine
 10
-22313.11521613997
 20
7365.702971374808
 30
0.0
 11
-22313.11521613997
 21
7217.685576144207
 31
0.0
  0
LINE
  5
1415
330
2AF4
100
AcDbEntity
  8
SIZE
 62
     0
100
AcDbLine
 10
-22044.11521613997
 20
7365.702971374808
 30
0.0
 11
-22044.11521613997
 21
7217.685576144207
 31
0.0
  0
LINE
  5
1416
330
2AF4
100
AcDbEntity
  8
SIZE
 62
     0
100
AcDbLine
 10
-22301.11521613997
 20
7237.685576144207
 30
0.0
 11
-22056.11521613997
 21
7237.685576144207
 31
0.0
  0
INSERT
  5
1417
330
2AF4
100
AcDbEntity
  8
SIZE
 62
     0
100
AcDbBlockReference
  2
_DOTBLANK
 10
-22313.11521613997
 20
7237.685576144207
 30
0.0
 41
12.0
 42
12.0
 43
12.0
 50
180.0
  0
INSERT
  5
1418
330
2AF4
100
AcDbEntity
  8
SIZE
 62
     0
100
AcDbBlockReference
  2
_DOTBLANK
 10
-22044.11521613997
 20
7237.685576144207
 30
0.0
 41
12.0
 42
12.0
 43
12.0
  0
INSERT
  5
1419
330
2AF4
100
AcDbEntity
  8
0
100
AcDbBlockReference
  2
*U23
 10
0.0
 20
0.0
 30
0.0
  0
POINT
  5
141A
330
2AF4
100
AcDbEntity
  8
DEFPOINTS
 62
     0
100
AcDbPoint
 10
-22313.11521613997
 20
7385.702971374808
 30
0.0
  0
POINT
  5
141B
330
2AF4
100
AcDbEntity
  8
DEFPOINTS
 62
     0
100
AcDbPoint
 10
-22044.11521613997
 20
7385.702971374808
 30
0.0
  0
POINT
  5
141C
330
2AF4
100
AcDbEntity
  8
DEFPOINTS
 62
     0
100
AcDbPoint
 10
-22044.11521613997
 20
7237.685576144207
 30
0.0
  0
ENDBLK
  5
141D
330
2AF4
100
AcDbEntity
  8
0
100
AcDbBlockEnd
  0
BLOCK
  5
2AF7
330
2AF6
100
AcDbEntity
  8
0
100
AcDbBlockBegin
  2
*U23
 70
     1
 10
0.0
 20
0.0
 30
0.0
  3
*U23
  1

  0
TEXT
  5
1EF9
330
2AF6
100
AcDbEntity
  8
SIZE
 62
     0
100
AcDbText
 10
-22251.30093042568
 20
7247.685576144205
 30
0.0
 40
64.0
  1
269
 41
0.9
100
AcDbText
  0
ENDBLK
  5
1EFB
330
2AF6
100
AcDbEntity
  8
0
100
AcDbBlockEnd
  0
BLOCK
  5
2AF9
330
2AF8
100
AcDbEntity
  8
0
100
AcDbBlockBegin
  2
*D24
 70
     1
 10
0.0
 20
0.0
 30
0.0
  3
*D24
  1

  0
LINE
  5
1420
330
2AF8
100
AcDbEntity
  8
SIZE
  6
Continuous
 62
     0
100
AcDbLine
 10
-22035.11521613997
 20
7385.702971374808
 30
0.0
 11
-21873.97193165959
 21
7385.702971374808
 31
0.0
  0
LINE
  5
1421
330
2AF8
100
AcDbEntity
  8
SIZE
  6
Continuous
 62
     0
100
AcDbLine
 10
-22001.11521613997
 20
7685.702971374808
 30
0.0
 11
-21873.97193165959
 21
7685.702971374808
 31
0.0
  0
LINE
  5
1422
330
2AF8
100
AcDbEntity
  8
SIZE
  6
Continuous
 62
     0
100
AcDbLine
 10
-21893.97193165959
 20
7397.702971374808
 30
0.0
 11
-21893.97193165959
 21
7673.702971374808
 31
0.0
  0
INSERT
  5
1423
330
2AF8
100
AcDbEntity
  8
SIZE
  6
Continuous
 62
     0
100
AcDbBlockReference
  2
_DOTBLANK
 10
-21893.97193165959
 20
7385.702971374808
 30
0.0
 41
12.0
 42
12.0
 43
12.0
 50
270.0
  0
INSERT
  5
1424
330
2AF8
100
AcDbEntity
  8
SIZE
  6
Continuous
 62
     0
100
AcDbBlockReference
  2
_DOTBLANK
 10
-21893.97193165959
 20
7685.702971374808
 30
0.0
 41
12.0
 42
12.0
 43
12.0
 50
90.0
  0
INSERT
  5
1425
330
2AF8
100
AcDbEntity
  8
0
100
AcDbBlockReference
  2
*U25
 10
0.0
 20
0.0
 30
0.0
  0
POINT
  5
1426
330
2AF8
100
AcDbEntity
  8
DEFPOINTS
  6
Continuous
 62
     0
100
AcDbPoint
 10
-22055.11521613997
 20
7385.702971374808
 30
0.0
  0
POINT
  5
1427
330
2AF8
100
AcDbEntity
  8
DEFPOINTS
  6
Continuous
 62
     0
100
AcDbPoint
 10
-22021.11521613997
 20
7685.702971374808
 30
0.0
  0
POINT
  5
1428
330
2AF8
100
AcDbEntity
  8
DEFPOINTS
  6
Continuous
 62
     0
100
AcDbPoint
 10
-21893.97193165959
 20
7685.702971374808
 30
0.0
  0
ENDBLK
  5
1429
330
2AF8
100
AcDbEntity
  8
0
100
AcDbBlockEnd
  0
BLOCK
  5
2AFB
330
2AFA
100
AcDbEntity
  8
0
100
AcDbBlockBegin
  2
*U25
 70
     1
 10
0.0
 20
0.0
 30
0.0
  3
*U25
  1

  0
TEXT
  5
1EFD
330
2AFA
100
AcDbEntity
  8
SIZE
 62
     0
100
AcDbText
 10
-21903.97193165959
 20
7461.645828517662
 30
0.0
 40
64.0
  1
300
 50
90.0
 41
0.9
100
AcDbText
  0
ENDBLK
  5
1EFF
330
2AFA
100
AcDbEntity
  8
0
100
AcDbBlockEnd
  0
BLOCK
  5
2AFD
330
2AFC
100
AcDbEntity
  8
0
100
AcDbBlockBegin
  2
*D26
 70
     1
 10
0.0
 20
0.0
 30
0.0
  3
*D26
  1

  0
LINE
  5
142C
330
2AFC
100
AcDbEntity
  8
SIZE
 62
     0
100
AcDbLine
 10
-22318.61521613997
 20
7718.167454177002
 30
0.0
 11
-22318.61521613997
 21
7822.154659243358
 31
0.0
  0
LINE
  5
142D
330
2AFC
100
AcDbEntity
  8
SIZE
 62
     0
100
AcDbLine
 10
-22038.61521613997
 20
7718.167454177002
 30
0.0
 11
-22038.61521613997
 21
7822.154659243358
 31
0.0
  0
LINE
  5
142E
330
2AFC
100
AcDbEntity
  8
SIZE
 62
     0
100
AcDbLine
 10
-22306.61521613997
 20
7802.154659243358
 30
0.0
 11
-22050.61521613997
 21
7802.154659243358
 31
0.0
  0
INSERT
  5
142F
330
2AFC
100
AcDbEntity
  8
SIZE
 62
     0
100
AcDbBlockReference
  2
_DOTBLANK
 10
-22318.61521613997
 20
7802.154659243358
 30
0.0
 41
12.0
 42
12.0
 43
12.0
 50
180.0
  0
INSERT
  5
1430
330
2AFC
100
AcDbEntity
  8
SIZE
 62
     0
100
AcDbBlockReference
  2
_DOTBLANK
 10
-22038.61521613997
 20
7802.154659243358
 30
0.0
 41
12.0
 42
12.0
 43
12.0
  0
INSERT
  5
1431
330
2AFC
100
AcDbEntity
  8
0
100
AcDbBlockReference
  2
*U27
 10
0.0
 20
0.0
 30
0.0
  0
POINT
  5
1432
330
2AFC
100
AcDbEntity
  8
DEFPOINTS
 62
     0
100
AcDbPoint
 10
-22318.61521613997
 20
7698.167454177002
 30
0.0
  0
POINT
  5
1433
330
2AFC
100
AcDbEntity
  8
DEFPOINTS
 62
     0
100
AcDbPoint
 10
-22038.61521613997
 20
7698.167454177002
 30
0.0
  0
POINT
  5
1434
330
2AFC
100
AcDbEntity
  8
DEFPOINTS
 62
     0
100
AcDbPoint
 10
-22038.61521613997
 20
7802.154659243358
 30
0.0
  0
ENDBLK
  5
1435
330
2AFC
100
AcDbEntity
  8
0
100
AcDbBlockEnd
  0
BLOCK
  5
2AFF
330
2AFE
100
AcDbEntity
  8
0
100
AcDbBlockBegin
  2
*U27
 70
     1
 10
0.0
 20
0.0
 30
0.0
  3
*U27
  1

  0
TEXT
  5
1F01
330
2AFE
100
AcDbEntity
  8
SIZE
 62
     0
100
AcDbText
 10
-22252.6723589971
 20
7812.154659243358
 30
0.0
 40
64.0
  1
280
 41
0.9
100
AcDbText
  0
ENDBLK
  5
1F03
330
2AFE
100
AcDbEntity
  8
0
100
AcDbBlockEnd
  0
BLOCK
  5
2B01
330
2B00
100
AcDbEntity
  8
0
100
AcDbBlockBegin
  2
*D28
 70
     1
 10
0.0
 20
0.0
 30
0.0
  3
*D28
  1

  0
LINE
  5
1438
330
2B00
100
AcDbEntity
  8
SIZE
 62
     0
100
AcDbLine
 10
-22336.11521613997
 20
7705.702971374808
 30
0.0
 11
-22336.11521613997
 21
7931.282433493766
 31
0.0
  0
LINE
  5
1439
330
2B00
100
AcDbEntity
  8
SIZE
 62
     0
100
AcDbLine
 10
-22021.11521613997
 20
7705.702971374808
 30
0.0
 11
-22021.11521613997
 21
7931.282433493766
 31
0.0
  0
LINE
  5
143A
330
2B00
100
AcDbEntity
  8
SIZE
 62
     0
100
AcDbLine
 10
-22324.11521613997
 20
7911.282433493766
 30
0.0
 11
-22033.11521613997
 21
7911.282433493766
 31
0.0
  0
INSERT
  5
143B
330
2B00
100
AcDbEntity
  8
SIZE
 62
     0
100
AcDbBlockReference
  2
_DOTBLANK
 10
-22336.11521613997
 20
7911.282433493766
 30
0.0
 41
12.0
 42
12.0
 43
12.0
 50
180.0
  0
INSERT
  5
143C
330
2B00
100
AcDbEntity
  8
SIZE
 62
     0
100
AcDbBlockReference
  2
_DOTBLANK
 10
-22021.11521613997
 20
7911.282433493766
 30
0.0
 41
12.0
 42
12.0
 43
12.0
  0
INSERT
  5
143D
330
2B00
100
AcDbEntity
  8
0
100
AcDbBlockReference
  2
*U29
 10
0.0
 20
0.0
 30
0.0
  0
POINT
  5
143E
330
2B00
100
AcDbEntity
  8
DEFPOINTS
 62
     0
100
AcDbPoint
 10
-22336.11521613997
 20
7685.702971374808
 30
0.0
  0
POINT
  5
143F
330
2B00
100
AcDbEntity
  8
DEFPOINTS
 62
     0
100
AcDbPoint
 10
-22021.11521613997
 20
7685.702971374808
 30
0.0
  0
POINT
  5
1440
330
2B00
100
AcDbEntity
  8
DEFPOINTS
 62
     0
100
AcDbPoint
 10
-22021.11521613997
 20
7911.282433493766
 30
0.0
  0
ENDBLK
  5
1441
330
2B00
100
AcDbEntity
  8
0
100
AcDbBlockEnd
  0
BLOCK
  5
2B03
330
2B02
100
AcDbEntity
  8
0
100
AcDbBlockBegin
  2
*U29
 70
     1
 10
0.0
 20
0.0
 30
0.0
  3
*U29
  1

  0
TEXT
  5
1F05
330
2B02
100
AcDbEntity
  8
SIZE
 62
     0
100
AcDbText
 10
-22247.18664471139
 20
7921.282433493766
 30
0.0
 40
64.0
  1
315
 41
0.9
100
AcDbText
  0
ENDBLK
  5
1F07
330
2B02
100
AcDbEntity
  8
0
100
AcDbBlockEnd
  0
BLOCK
  5
2B05
330
2B04
100
AcDbEntity
  8
0
100
AcDbBlockBegin
  2
*D30
 70
     1
 10
0.0
 20
0.0
 30
0.0
  3
*D30
  1

  0
LINE
  5
166B
330
2B04
100
AcDbEntity
  8
SIZE
 62
     0
100
AcDbLine
 10
-134.5
 20
-320.0
 30
0.0
 11
-134.5
 21
-468.0173952306001
 31
0.0
  0
LINE
  5
166C
330
2B04
100
AcDbEntity
  8
SIZE
 62
     0
100
AcDbLine
 10
134.5
 20
-320.0
 30
0.0
 11
134.5
 21
-468.0173952306001
 31
0.0
  0
LINE
  5
166D
330
2B04
100
AcDbEntity
  8
SIZE
 62
     0
100
AcDbLine
 10
-122.5
 20
-448.0173952306
 30
0.0
 11
122.5
 21
-448.0173952306
 31
0.0
  0
INSERT
  5
166E
330
2B04
100
AcDbEntity
  8
SIZE
 62
     0
100
AcDbBlockReference
  2
_DOTBLANK
 10
-134.5
 20
-448.0173952306
 30
0.0
 41
12.0
 42
12.0
 43
12.0
 50
180.0
  0
INSERT
  5
166F
330
2B04
100
AcDbEntity
  8
SIZE
 62
     0
100
AcDbBlockReference
  2
_DOTBLANK
 10
134.5
 20
-448.0173952306
 30
0.0
 41
12.0
 42
12.0
 43
12.0
  0
INSERT
  5
1670
330
2B04
100
AcDbEntity
  8
0
100
AcDbBlockReference
  2
*U31
 10
0.0
 20
0.0
 30
0.0
  0
POINT
  5
1671
330
2B04
100
AcDbEntity
  8
DEFPOINTS
 62
     0
100
AcDbPoint
 10
-134.5
 20
-300.0
 30
0.0
  0
POINT
  5
1672
330
2B04
100
AcDbEntity
  8
DEFPOINTS
 62
     0
100
AcDbPoint
 10
134.5
 20
-300.0
 30
0.0
  0
POINT
  5
1673
330
2B04
100
AcDbEntity
  8
DEFPOINTS
 62
     0
100
AcDbPoint
 10
134.5
 20
-448.0173952306
 30
0.0
  0
ENDBLK
  5
14A7
330
2B04
100
AcDbEntity
  8
0
100
AcDbBlockEnd
  0
BLOCK
  5
2B07
330
2B06
100
AcDbEntity
  8
0
100
AcDbBlockBegin
  2
*U31
 70
     1
 10
0.0
 20
0.0
 30
0.0
  3
*U31
  1

  0
TEXT
  5
1F09
330
2B06
100
AcDbEntity
  8
SIZE
 62
     0
100
AcDbText
 10
-72.68571428571426
 20
-438.0173952306002
 30
0.0
 40
64.0
  1
269
 41
0.9
100
AcDbText
  0
ENDBLK
  5
1F0B
330
2B06
100
AcDbEntity
  8
0
100
AcDbBlockEnd
  0
BLOCK
  5
2B09
330
2B08
100
AcDbEntity
  8
0
100
AcDbBlockBegin
  2
*D32
 70
     1
 10
0.0
 20
0.0
 30
0.0
  3
*D32
  1

  0
LINE
  5
1674
330
2B08
100
AcDbEntity
  8
SIZE
  6
Continuous
 62
     0
100
AcDbLine
 10
143.5
 20
-300.0
 30
0.0
 11
304.6432844803784
 21
-300.0
 31
0.0
  0
LINE
  5
1675
330
2B08
100
AcDbEntity
  8
SIZE
  6
Continuous
 62
     0
100
AcDbLine
 10
177.5
 20
-0.0000000000000057
 30
0.0
 11
304.6432844803785
 21
-0.0000000000000417
 31
0.0
  0
LINE
  5
1676
330
2B08
100
AcDbEntity
  8
SIZE
  6
Continuous
 62
     0
100
AcDbLine
 10
284.6432844803784
 20
-288.0000000000001
 30
0.0
 11
284.6432844803785
 21
-12.00000000000003
 31
0.0
  0
INSERT
  5
1677
330
2B08
100
AcDbEntity
  8
SIZE
  6
Continuous
 62
     0
100
AcDbBlockReference
  2
_DOTBLANK
 10
284.6432844803784
 20
-300.0
 30
0.0
 41
12.0
 42
12.0
 43
12.0
 50
270.0
  0
INSERT
  5
1678
330
2B08
100
AcDbEntity
  8
SIZE
  6
Continuous
 62
     0
100
AcDbBlockReference
  2
_DOTBLANK
 10
284.6432844803785
 20
-0.000000000000036
 30
0.0
 41
12.0
 42
12.0
 43
12.0
 50
90.0
  0
INSERT
  5
1679
330
2B08
100
AcDbEntity
  8
0
100
AcDbBlockReference
  2
*U33
 10
0.0
 20
0.0
 30
0.0
  0
POINT
  5
167A
330
2B08
100
AcDbEntity
  8
DEFPOINTS
  6
Continuous
 62
     0
100
AcDbPoint
 10
123.5
 20
-300.0
 30
0.0
  0
POINT
  5
167B
330
2B08
100
AcDbEntity
  8
DEFPOINTS
  6
Continuous
 62
     0
100
AcDbPoint
 10
157.5
 20
0.0
 30
0.0
  0
POINT
  5
167C
330
2B08
100
AcDbEntity
  8
DEFPOINTS
  6
Continuous
 62
     0
100
AcDbPoint
 10
284.6432844803785
 20
-0.000000000000036
 30
0.0
  0
ENDBLK
  5
14B3
330
2B08
100
AcDbEntity
  8
0
100
AcDbBlockEnd
  0
BLOCK
  5
2B0B
330
2B0A
100
AcDbEntity
  8
0
100
AcDbBlockBegin
  2
*U33
 70
     1
 10
0.0
 20
0.0
 30
0.0
  3
*U33
  1

  0
TEXT
  5
1F0D
330
2B0A
100
AcDbEntity
  8
SIZE
 62
     0
100
AcDbText
 10
274.6432844803785
 20
-224.0571428571429
 30
0.0
 40
64.0
  1
300
 50
90.0
 41
0.9
100
AcDbText
  0
ENDBLK
  5
1F0F
330
2B0A
100
AcDbEntity
  8
0
100
AcDbBlockEnd
  0
BLOCK
  5
2B0D
330
2B0C
100
AcDbEntity
  8
0
100
AcDbBlockBegin
  2
*D34
 70
     1
 10
0.0
 20
0.0
 30
0.0
  3
*D34
  1

  0
LINE
  5
167D
330
2B0C
100
AcDbEntity
  8
SIZE
 62
     0
100
AcDbLine
 10
-140.0
 20
32.46448280219375
 30
0.0
 11
-140.0
 21
136.4516878685507
 31
0.0
  0
LINE
  5
167E
330
2B0C
100
AcDbEntity
  8
SIZE
 62
     0
100
AcDbLine
 10
140.0
 20
32.46448280219375
 30
0.0
 11
140.0
 21
136.4516878685507
 31
0.0
  0
LINE
  5
167F
330
2B0C
100
AcDbEntity
  8
SIZE
 62
     0
100
AcDbLine
 10
-128.0
 20
116.4516878685508
 30
0.0
 11
128.0
 21
116.4516878685508
 31
0.0
  0
INSERT
  5
1680
330
2B0C
100
AcDbEntity
  8
SIZE
 62
     0
100
AcDbBlockReference
  2
_DOTBLANK
 10
-140.0
 20
116.4516878685508
 30
0.0
 41
12.0
 42
12.0
 43
12.0
 50
180.0
  0
INSERT
  5
1681
330
2B0C
100
AcDbEntity
  8
SIZE
 62
     0
100
AcDbBlockReference
  2
_DOTBLANK
 10
140.0
 20
116.4516878685508
 30
0.0
 41
12.0
 42
12.0
 43
12.0
  0
INSERT
  5
1682
330
2B0C
100
AcDbEntity
  8
0
100
AcDbBlockReference
  2
*U35
 10
0.0
 20
0.0
 30
0.0
  0
POINT
  5
1683
330
2B0C
100
AcDbEntity
  8
DEFPOINTS
 62
     0
100
AcDbPoint
 10
-140.0
 20
12.46448280219374
 30
0.0
  0
POINT
  5
1684
330
2B0C
100
AcDbEntity
  8
DEFPOINTS
 62
     0
100
AcDbPoint
 10
140.0
 20
12.46448280219374
 30
0.0
  0
POINT
  5
1685
330
2B0C
100
AcDbEntity
  8
DEFPOINTS
 62
     0
100
AcDbPoint
 10
140.0
 20
116.4516878685508
 30
0.0
  0
ENDBLK
  5
14BF
330
2B0C
100
AcDbEntity
  8
0
100
AcDbBlockEnd
  0
BLOCK
  5
2B0F
330
2B0E
100
AcDbEntity
  8
0
100
AcDbBlockBegin
  2
*U35
 70
     1
 10
0.0
 20
0.0
 30
0.0
  3
*U35
  1

  0
TEXT
  5
1F11
330
2B0E
100
AcDbEntity
  8
SIZE
 62
     0
100
AcDbText
 10
-74.05714285714283
 20
126.4516878685507
 30
0.0
 40
64.0
  1
280
 41
0.9
100
AcDbText
  0
ENDBLK
  5
1F13
330
2B0E
100
AcDbEntity
  8
0
100
AcDbBlockEnd
  0
BLOCK
  5
2B11
330
2B10
100
AcDbEntity
  8
0
100
AcDbBlockBegin
  2
*D36
 70
     1
 10
0.0
 20
0.0
 30
0.0
  3
*D36
  1

  0
LINE
  5
1686
330
2B10
100
AcDbEntity
  8
SIZE
 62
     0
100
AcDbLine
 10
-157.5
 20
20.0
 30
0.0
 11
-157.5
 21
245.5794621189598
 31
0.0
  0
LINE
  5
1687
330
2B10
100
AcDbEntity
  8
SIZE
 62
     0
100
AcDbLine
 10
157.5
 20
20.0
 30
0.0
 11
157.5
 21
245.5794621189598
 31
0.0
  0
LINE
  5
1688
330
2B10
100
AcDbEntity
  8
SIZE
 62
     0
100
AcDbLine
 10
-145.5
 20
225.5794621189598
 30
0.0
 11
145.5
 21
225.5794621189598
 31
0.0
  0
INSERT
  5
1689
330
2B10
100
AcDbEntity
  8
SIZE
 62
     0
100
AcDbBlockReference
  2
_DOTBLANK
 10
-157.5
 20
225.5794621189598
 30
0.0
 41
12.0
 42
12.0
 43
12.0
 50
180.0
  0
INSERT
  5
168A
330
2B10
100
AcDbEntity
  8
SIZE
 62
     0
100
AcDbBlockReference
  2
_DOTBLANK
 10
157.5
 20
225.5794621189598
 30
0.0
 41
12.0
 42
12.0
 43
12.0
  0
INSERT
  5
168B
330
2B10
100
AcDbEntity
  8
0
100
AcDbBlockReference
  2
*U37
 10
0.0
 20
0.0
 30
0.0
  0
POINT
  5
168C
330
2B10
100
AcDbEntity
  8
DEFPOINTS
 62
     0
100
AcDbPoint
 10
-157.5
 20
0.0
 30
0.0
  0
POINT
  5
168D
330
2B10
100
AcDbEntity
  8
DEFPOINTS
 62
     0
100
AcDbPoint
 10
157.5
 20
0.0
 30
0.0
  0
POINT
  5
168E
330
2B10
100
AcDbEntity
  8
DEFPOINTS
 62
     0
100
AcDbPoint
 10
157.5
 20
225.5794621189598
 30
0.0
  0
ENDBLK
  5
14CB
330
2B10
100
AcDbEntity
  8
0
100
AcDbBlockEnd
  0
BLOCK
  5
2B13
330
2B12
100
AcDbEntity
  8
0
100
AcDbBlockBegin
  2
*U37
 70
     1
 10
0.0
 20
0.0
 30
0.0
  3
*U37
  1

  0
TEXT
  5
1F15
330
2B12
100
AcDbEntity
  8
SIZE
 62
     0
100
AcDbText
 10
-68.57142857142857
 20
235.5794621189598
 30
0.0
 40
64.0
  1
315
 41
0.9
100
AcDbText
  0
ENDBLK
  5
1F17
330
2B12
100
AcDbEntity
  8
0
100
AcDbBlockEnd
  0
BLOCK
  5
2B15
330
2B14
100
AcDbEntity
  8
0
100
AcDbBlockBegin
  2
*U38
 70
     1
 10
0.0
 20
0.0
 30
0.0
  3
*U38
  1

  0
ENDBLK
  5
15CF
330
2B14
100
AcDbEntity
  8
0
100
AcDbBlockEnd
  0
BLOCK
  5
2B17
330
2B16
100
AcDbEntity
  8
0
100
AcDbBlockBegin
  2
*D39
 70
     1
 10
0.0
 20
0.0
 30
0.0
  3
*D39
  1

  0
LINE
  5
1692
330
2B16
100
AcDbEntity
  8
SIZE
 62
     0
100
AcDbLine
 10
-25844.51823276502
 20
7685.702971374808
 30
0.0
 11
-25981.04465488371
 21
7685.702971374808
 31
0.0
  0
LINE
  5
1693
330
2B16
100
AcDbEntity
  8
SIZE
 62
     0
100
AcDbLine
 10
-25844.51823276502
 20
7677.702971374808
 30
0.0
 11
-25981.04465488371
 21
7677.702971374808
 31
0.0
  0
LINE
  5
1694
330
2B16
100
AcDbEntity
  8
SIZE
 62
     0
100
AcDbLine
 10
-25961.04465488371
 20
7697.702971374808
 30
0.0
 11
-25961.04465488371
 21
7709.702971374809
 31
0.0
  0
LINE
  5
1695
330
2B16
100
AcDbEntity
  8
SIZE
 62
     0
100
AcDbLine
 10
-25961.04465488371
 20
7665.70297137481
 30
0.0
 11
-25961.04465488371
 21
7595.302971374808
 31
0.0
  0
INSERT
  5
1696
330
2B16
100
AcDbEntity
  8
SIZE
 62
     0
100
AcDbBlockReference
  2
_DOTBLANK
 10
-25961.04465488371
 20
7685.702971374808
 30
0.0
 41
12.0
 42
12.0
 43
12.0
 50
270.0
  0
INSERT
  5
1697
330
2B16
100
AcDbEntity
  8
SIZE
 62
     0
100
AcDbBlockReference
  2
_DOTBLANK
 10
-25961.04465488371
 20
7677.702971374808
 30
0.0
 41
12.0
 42
12.0
 43
12.0
 50
90.0
  0
INSERT
  5
1698
330
2B16
100
AcDbEntity
  8
0
100
AcDbBlockReference
  2
*U40
 10
0.0
 20
0.0
 30
0.0
  0
POINT
  5
1699
330
2B16
100
AcDbEntity
  8
DEFPOINTS
 62
     0
100
AcDbPoint
 10
-25824.51823276501
 20
7685.702971374808
 30
0.0
  0
POINT
  5
169A
330
2B16
100
AcDbEntity
  8
DEFPOINTS
 62
     0
100
AcDbPoint
 10
-25824.51823276501
 20
7677.702971374808
 30
0.0
  0
POINT
  5
169B
330
2B16
100
AcDbEntity
  8
DEFPOINTS
 62
     0
100
AcDbPoint
 10
-25961.04465488371
 20
7677.702971374808
 30
0.0
  0
ENDBLK
  5
169C
330
2B16
100
AcDbEntity
  8
0
100
AcDbBlockEnd
  0
BLOCK
  5
2B19
330
2B18
100
AcDbEntity
  8
0
100
AcDbBlockBegin
  2
*U40
 70
     1
 10
0.0
 20
0.0
 30
0.0
  3
*U40
  1

  0
TEXT
  5
1F19
330
2B18
100
AcDbEntity
  8
SIZE
 62
     0
100
AcDbText
 10
-25971.04465488371
 20
7605.302971374804
 30
0.0
 40
64.0
  1
8
 50
90.0
 41
0.9
100
AcDbText
  0
ENDBLK
  5
1F1B
330
2B18
100
AcDbEntity
  8
0
100
AcDbBlockEnd
  0
BLOCK
  5
2B1B
330
2B1A
100
AcDbEntity
  8
0
100
AcDbBlockBegin
  2
*D41
 70
     1
 10
0.0
 20
0.0
 30
0.0
  3
*D41
  1

  0
LINE
  5
169F
330
2B1A
100
AcDbEntity
  8
SIZE
 62
     0
100
AcDbLine
 10
-25512.51823276502
 20
7385.702971374808
 30
0.0
 11
-25362.37494828464
 21
7385.702971374808
 31
0.0
  0
LINE
  5
16A0
330
2B1A
100
AcDbEntity
  8
SIZE
 62
     0
100
AcDbLine
 10
-25523.51823276501
 20
7373.702971374808
 30
0.0
 11
-25362.37494828464
 21
7373.702971374808
 31
0.0
  0
LINE
  5
16A1
330
2B1A
100
AcDbEntity
  8
SIZE
 62
     0
100
AcDbLine
 10
-25382.37494828464
 20
7397.702971374808
 30
0.0
 11
-25382.37494828464
 21
7409.70297137481
 31
0.0
  0
LINE
  5
16A2
330
2B1A
100
AcDbEntity
  8
SIZE
 62
     0
100
AcDbLine
 10
-25382.37494828464
 20
7361.702971374808
 30
0.0
 11
-25382.37494828464
 21
7244.674399946238
 31
0.0
  0
INSERT
  5
16A3
330
2B1A
100
AcDbEntity
  8
SIZE
 62
     0
100
AcDbBlockReference
  2
_DOTBLANK
 10
-25382.37494828464
 20
7385.702971374808
 30
0.0
 41
12.0
 42
12.0
 43
12.0
 50
270.0
  0
INSERT
  5
16A4
330
2B1A
100
AcDbEntity
  8
SIZE
 62
     0
100
AcDbBlockReference
  2
_DOTBLANK
 10
-25382.37494828464
 20
7373.702971374808
 30
0.0
 41
12.0
 42
12.0
 43
12.0
 50
90.0
  0
INSERT
  5
16A5
330
2B1A
100
AcDbEntity
  8
0
100
AcDbBlockReference
  2
*U42
 10
0.0
 20
0.0
 30
0.0
  0
POINT
  5
16A6
330
2B1A
100
AcDbEntity
  8
DEFPOINTS
 62
     0
100
AcDbPoint
 10
-25532.51823276502
 20
7385.702971374808
 30
0.0
  0
POINT
  5
16A7
330
2B1A
100
AcDbEntity
  8
DEFPOINTS
 62
     0
100
AcDbPoint
 10
-25543.51823276502
 20
7373.702971374808
 30
0.0
  0
POINT
  5
16A8
330
2B1A
100
AcDbEntity
  8
DEFPOINTS
 62
     0
100
AcDbPoint
 10
-25382.37494828464
 20
7373.702971374808
 30
0.0
  0
ENDBLK
  5
16A9
330
2B1A
100
AcDbEntity
  8
0
100
AcDbBlockEnd
  0
BLOCK
  5
2B1D
330
2B1C
100
AcDbEntity
  8
0
100
AcDbBlockBegin
  2
*U42
 70
     1
 10
0.0
 20
0.0
 30
0.0
  3
*U42
  1

  0
TEXT
  5
1F1D
330
2B1C
100
AcDbEntity
  8
SIZE
 62
     0
100
AcDbText
 10
-25392.37494828464
 20
7256.045828517662
 30
0.0
 40
64.0
  1
12
 50
90.0
 41
0.9
100
AcDbText
  0
ENDBLK
  5
1F1F
330
2B1C
100
AcDbEntity
  8
0
100
AcDbBlockEnd
  0
BLOCK
  5
2B1F
330
2B1E
100
AcDbEntity
  8
0
100
AcDbBlockBegin
  2
*D43
 70
     1
 10
0.0
 20
0.0
 30
0.0
  3
*D43
  1

  0
LINE
  5
16AC
330
2B1E
100
AcDbEntity
  8
SIZE
 62
     0
100
AcDbLine
 10
-25801.51823276501
 20
7365.702971374808
 30
0.0
 11
-25801.51823276501
 21
7217.685576144207
 31
0.0
  0
LINE
  5
16AD
330
2B1E
100
AcDbEntity
  8
SIZE
 62
     0
100
AcDbLine
 10
-25532.51823276502
 20
7365.702971374808
 30
0.0
 11
-25532.51823276502
 21
7217.685576144207
 31
0.0
  0
LINE
  5
16AE
330
2B1E
100
AcDbEntity
  8
SIZE
 62
     0
100
AcDbLine
 10
-25789.51823276502
 20
7237.685576144207
 30
0.0
 11
-25544.51823276501
 21
7237.685576144207
 31
0.0
  0
INSERT
  5
16AF
330
2B1E
100
AcDbEntity
  8
SIZE
 62
     0
100
AcDbBlockReference
  2
_DOTBLANK
 10
-25801.51823276501
 20
7237.685576144207
 30
0.0
 41
12.0
 42
12.0
 43
12.0
 50
180.0
  0
INSERT
  5
16B0
330
2B1E
100
AcDbEntity
  8
SIZE
 62
     0
100
AcDbBlockReference
  2
_DOTBLANK
 10
-25532.51823276502
 20
7237.685576144207
 30
0.0
 41
12.0
 42
12.0
 43
12.0
  0
INSERT
  5
16B1
330
2B1E
100
AcDbEntity
  8
0
100
AcDbBlockReference
  2
*U44
 10
0.0
 20
0.0
 30
0.0
  0
POINT
  5
16B2
330
2B1E
100
AcDbEntity
  8
DEFPOINTS
 62
     0
100
AcDbPoint
 10
-25801.51823276501
 20
7385.702971374808
 30
0.0
  0
POINT
  5
16B3
330
2B1E
100
AcDbEntity
  8
DEFPOINTS
 62
     0
100
AcDbPoint
 10
-25532.51823276502
 20
7385.702971374808
 30
0.0
  0
POINT
  5
16B4
330
2B1E
100
AcDbEntity
  8
DEFPOINTS
 62
     0
100
AcDbPoint
 10
-25532.51823276502
 20
7237.685576144207
 30
0.0
  0
ENDBLK
  5
16B5
330
2B1E
100
AcDbEntity
  8
0
100
AcDbBlockEnd
  0
BLOCK
  5
2B21
330
2B20
100
AcDbEntity
  8
0
100
AcDbBlockBegin
  2
*U44
 70
     1
 10
0.0
 20
0.0
 30
0.0
  3
*U44
  1

  0
TEXT
  5
1F21
330
2B20
100
AcDbEntity
  8
SIZE
 62
     0
100
AcDbText
 10
-25739.70394705074
 20
7247.685576144205
 30
0.0
 40
64.0
  1
269
 41
0.9
100
AcDbText
  0
ENDBLK
  5
1F23
330
2B20
100
AcDbEntity
  8
0
100
AcDbBlockEnd
  0
BLOCK
  5
2B23
330
2B22
100
AcDbEntity
  8
0
100
AcDbBlockBegin
  2
*D45
 70
     1
 10
0.0
 20
0.0
 30
0.0
  3
*D45
  1

  0
LINE
  5
16B8
330
2B22
100
AcDbEntity
  8
SIZE
 62
     0
100
AcDbLine
 10
-25512.51823276502
 20
7385.702971374808
 30
0.0
 11
-25362.37494828464
 21
7385.702971374808
 31
0.0
  0
LINE
  5
16B9
330
2B22
100
AcDbEntity
  8
SIZE
 62
     0
100
AcDbLine
 10
-25489.51823276501
 20
7685.702971374808
 30
0.0
 11
-25362.37494828464
 21
7685.702971374808
 31
0.0
  0
LINE
  5
16BA
330
2B22
100
AcDbEntity
  8
SIZE
 62
     0
100
AcDbLine
 10
-25382.37494828464
 20
7397.702971374808
 30
0.0
 11
-25382.37494828464
 21
7673.702971374808
 31
0.0
  0
INSERT
  5
16BB
330
2B22
100
AcDbEntity
  8
SIZE
 62
     0
100
AcDbBlockReference
  2
_DOTBLANK
 10
-25382.37494828464
 20
7385.702971374808
 30
0.0
 41
12.0
 42
12.0
 43
12.0
 50
270.0
  0
INSERT
  5
16BC
330
2B22
100
AcDbEntity
  8
SIZE
 62
     0
100
AcDbBlockReference
  2
_DOTBLANK
 10
-25382.37494828464
 20
7685.702971374808
 30
0.0
 41
12.0
 42
12.0
 43
12.0
 50
90.0
  0
INSERT
  5
16BD
330
2B22
100
AcDbEntity
  8
0
100
AcDbBlockReference
  2
*U46
 10
0.0
 20
0.0
 30
0.0
  0
POINT
  5
16BE
330
2B22
100
AcDbEntity
  8
DEFPOINTS
 62
     0
100
AcDbPoint
 10
-25532.51823276502
 20
7385.702971374808
 30
0.0
  0
POINT
  5
16BF
330
2B22
100
AcDbEntity
  8
DEFPOINTS
 62
     0
100
AcDbPoint
 10
-25509.51823276502
 20
7685.702971374808
 30
0.0
  0
POINT
  5
16C0
330
2B22
100
AcDbEntity
  8
DEFPOINTS
 62
     0
100
AcDbPoint
 10
-25382.37494828464
 20
7685.702971374808
 30
0.0
  0
ENDBLK
  5
16C1
330
2B22
100
AcDbEntity
  8
0
100
AcDbBlockEnd
  0
BLOCK
  5
2B25
330
2B24
100
AcDbEntity
  8
0
100
AcDbBlockBegin
  2
*U46
 70
     1
 10
0.0
 20
0.0
 30
0.0
  3
*U46
  1

  0
TEXT
  5
1F25
330
2B24
100
AcDbEntity
  8
SIZE
 62
     0
100
AcDbText
 10
-25392.37494828464
 20
7461.645828517662
 30
0.0
 40
64.0
  1
300
 50
90.0
 41
0.9
100
AcDbText
  0
ENDBLK
  5
1F27
330
2B24
100
AcDbEntity
  8
0
100
AcDbBlockEnd
  0
BLOCK
  5
2B27
330
2B26
100
AcDbEntity
  8
0
100
AcDbBlockBegin
  2
*D47
 70
     1
 10
0.0
 20
0.0
 30
0.0
  3
*D47
  1

  0
LINE
  5
16C4
330
2B26
100
AcDbEntity
  8
SIZE
 62
     0
100
AcDbLine
 10
-25807.01823276501
 20
7718.167454177002
 30
0.0
 11
-25807.01823276501
 21
7822.154659243358
 31
0.0
  0
LINE
  5
16C5
330
2B26
100
AcDbEntity
  8
SIZE
 62
     0
100
AcDbLine
 10
-25527.01823276501
 20
7718.167454177002
 30
0.0
 11
-25527.01823276501
 21
7822.154659243358
 31
0.0
  0
LINE
  5
16C6
330
2B26
100
AcDbEntity
  8
SIZE
 62
     0
100
AcDbLine
 10
-25795.01823276502
 20
7802.154659243358
 30
0.0
 11
-25539.01823276501
 21
7802.154659243358
 31
0.0
  0
INSERT
  5
16C7
330
2B26
100
AcDbEntity
  8
SIZE
 62
     0
100
AcDbBlockReference
  2
_DOTBLANK
 10
-25807.01823276501
 20
7802.154659243358
 30
0.0
 41
12.0
 42
12.0
 43
12.0
 50
180.0
  0
INSERT
  5
16C8
330
2B26
100
AcDbEntity
  8
SIZE
 62
     0
100
AcDbBlockReference
  2
_DOTBLANK
 10
-25527.01823276501
 20
7802.154659243358
 30
0.0
 41
12.0
 42
12.0
 43
12.0
  0
INSERT
  5
16C9
330
2B26
100
AcDbEntity
  8
0
100
AcDbBlockReference
  2
*U48
 10
0.0
 20
0.0
 30
0.0
  0
POINT
  5
16CA
330
2B26
100
AcDbEntity
  8
DEFPOINTS
 62
     0
100
AcDbPoint
 10
-25807.01823276501
 20
7698.167454177002
 30
0.0
  0
POINT
  5
16CB
330
2B26
100
AcDbEntity
  8
DEFPOINTS
 62
     0
100
AcDbPoint
 10
-25527.01823276501
 20
7698.167454177002
 30
0.0
  0
POINT
  5
16CC
330
2B26
100
AcDbEntity
  8
DEFPOINTS
 62
     0
100
AcDbPoint
 10
-25527.01823276501
 20
7802.154659243358
 30
0.0
  0
ENDBLK
  5
16CD
330
2B26
100
AcDbEntity
  8
0
100
AcDbBlockEnd
  0
BLOCK
  5
2B29
330
2B28
100
AcDbEntity
  8
0
100
AcDbBlockBegin
  2
*U48
 70
     1
 10
0.0
 20
0.0
 30
0.0
  3
*U48
  1

  0
TEXT
  5
1F29
330
2B28
100
AcDbEntity
  8
SIZE
 62
     0
100
AcDbText
 10
-25741.07537562216
 20
7812.154659243358
 30
0.0
 40
64.0
  1
280
 41
0.9
100
AcDbText
  0
ENDBLK
  5
1F2B
330
2B28
100
AcDbEntity
  8
0
100
AcDbBlockEnd
  0
BLOCK
  5
2B2B
330
2B2A
100
AcDbEntity
  8
0
100
AcDbBlockBegin
  2
*D49
 70
     1
 10
0.0
 20
0.0
 30
0.0
  3
*D49
  1

  0
LINE
  5
16D0
330
2B2A
100
AcDbEntity
  8
SIZE
 62
     0
100
AcDbLine
 10
-25824.51823276501
 20
7705.702971374808
 30
0.0
 11
-25824.51823276501
 21
7931.282433493766
 31
0.0
  0
LINE
  5
16D1
330
2B2A
100
AcDbEntity
  8
SIZE
 62
     0
100
AcDbLine
 10
-25509.51823276502
 20
7705.702971374808
 30
0.0
 11
-25509.51823276502
 21
7931.282433493766
 31
0.0
  0
LINE
  5
16D2
330
2B2A
100
AcDbEntity
  8
SIZE
 62
     0
100
AcDbLine
 10
-25812.51823276502
 20
7911.282433493766
 30
0.0
 11
-25521.51823276501
 21
7911.282433493766
 31
0.0
  0
INSERT
  5
16D3
330
2B2A
100
AcDbEntity
  8
SIZE
 62
     0
100
AcDbBlockReference
  2
_DOTBLANK
 10
-25824.51823276501
 20
7911.282433493766
 30
0.0
 41
12.0
 42
12.0
 43
12.0
 50
180.0
  0
INSERT
  5
16D4
330
2B2A
100
AcDbEntity
  8
SIZE
 62
     0
100
AcDbBlockReference
  2
_DOTBLANK
 10
-25509.51823276502
 20
7911.282433493766
 30
0.0
 41
12.0
 42
12.0
 43
12.0
  0
INSERT
  5
16D5
330
2B2A
100
AcDbEntity
  8
0
100
AcDbBlockReference
  2
*U50
 10
0.0
 20
0.0
 30
0.0
  0
POINT
  5
16D6
330
2B2A
100
AcDbEntity
  8
DEFPOINTS
 62
     0
100
AcDbPoint
 10
-25824.51823276501
 20
7685.702971374808
 30
0.0
  0
POINT
  5
16D7
330
2B2A
100
AcDbEntity
  8
DEFPOINTS
 62
     0
100
AcDbPoint
 10
-25509.51823276502
 20
7685.702971374808
 30
0.0
  0
POINT
  5
16D8
330
2B2A
100
AcDbEntity
  8
DEFPOINTS
 62
     0
100
AcDbPoint
 10
-25509.51823276502
 20
7911.282433493766
 30
0.0
  0
ENDBLK
  5
16D9
330
2B2A
100
AcDbEntity
  8
0
100
AcDbBlockEnd
  0
BLOCK
  5
2B2D
330
2B2C
100
AcDbEntity
  8
0
100
AcDbBlockBegin
  2
*U50
 70
     1
 10
0.0
 20
0.0
 30
0.0
  3
*U50
  1

  0
TEXT
  5
1F2D
330
2B2C
100
AcDbEntity
  8
SIZE
 62
     0
100
AcDbText
 10
-25735.58966133645
 20
7921.282433493766
 30
0.0
 40
64.0
  1
315
 41
0.9
100
AcDbText
  0
ENDBLK
  5
1F2F
330
2B2C
100
AcDbEntity
  8
0
100
AcDbBlockEnd
  0
BLOCK
  5
2B2F
330
2B2E
100
AcDbEntity
  8
0
100
AcDbBlockBegin
  2
*D51
 70
     1
 10
0.0
 20
0.0
 30
0.0
  3
*D51
  1

  0
LINE
  5
1D83
330
2B2E
100
AcDbEntity
  8
SIZE
 62
     0
100
AcDbLine
 10
-134.5
 20
-320.0
 30
0.0
 11
-134.5
 21
-468.0173952306001
 31
0.0
  0
LINE
  5
1D84
330
2B2E
100
AcDbEntity
  8
SIZE
 62
     0
100
AcDbLine
 10
134.5
 20
-320.0
 30
0.0
 11
134.5
 21
-468.0173952306001
 31
0.0
  0
LINE
  5
1D85
330
2B2E
100
AcDbEntity
  8
SIZE
 62
     0
100
AcDbLine
 10
-122.5
 20
-448.0173952306
 30
0.0
 11
122.5
 21
-448.0173952306
 31
0.0
  0
INSERT
  5
1D86
330
2B2E
100
AcDbEntity
  8
SIZE
 62
     0
100
AcDbBlockReference
  2
_DOTBLANK
 10
-134.5
 20
-448.0173952306
 30
0.0
 41
12.0
 42
12.0
 43
12.0
 50
180.0
  0
INSERT
  5
1D87
330
2B2E
100
AcDbEntity
  8
SIZE
 62
     0
100
AcDbBlockReference
  2
_DOTBLANK
 10
134.5
 20
-448.0173952306
 30
0.0
 41
12.0
 42
12.0
 43
12.0
  0
INSERT
  5
1D88
330
2B2E
100
AcDbEntity
  8
0
100
AcDbBlockReference
  2
*U52
 10
0.0
 20
0.0
 30
0.0
  0
POINT
  5
1D89
330
2B2E
100
AcDbEntity
  8
DEFPOINTS
 62
     0
100
AcDbPoint
 10
-134.5
 20
-300.0
 30
0.0
  0
POINT
  5
1D8A
330
2B2E
100
AcDbEntity
  8
DEFPOINTS
 62
     0
100
AcDbPoint
 10
134.5
 20
-300.0
 30
0.0
  0
POINT
  5
1D8B
330
2B2E
100
AcDbEntity
  8
DEFPOINTS
 62
     0
100
AcDbPoint
 10
134.5
 20
-448.0173952306
 30
0.0
  0
ENDBLK
  5
173D
330
2B2E
100
AcDbEntity
  8
0
100
AcDbBlockEnd
  0
BLOCK
  5
2B31
330
2B30
100
AcDbEntity
  8
0
100
AcDbBlockBegin
  2
*U52
 70
     1
 10
0.0
 20
0.0
 30
0.0
  3
*U52
  1

  0
TEXT
  5
1F31
330
2B30
100
AcDbEntity
  8
SIZE
 62
     0
100
AcDbText
 10
-72.68571428571426
 20
-438.0173952306003
 30
0.0
 40
64.0
  1
269
 41
0.9
100
AcDbText
  0
ENDBLK
  5
1F33
330
2B30
100
AcDbEntity
  8
0
100
AcDbBlockEnd
  0
BLOCK
  5
2B33
330
2B32
100
AcDbEntity
  8
0
100
AcDbBlockBegin
  2
*D53
 70
     1
 10
0.0
 20
0.0
 30
0.0
  3
*D53
  1

  0
LINE
  5
1D8C
330
2B32
100
AcDbEntity
  8
SIZE
 62
     0
100
AcDbLine
 10
154.5
 20
-300.0
 30
0.0
 11
304.6432844803784
 21
-300.0
 31
0.0
  0
LINE
  5
1D8D
330
2B32
100
AcDbEntity
  8
SIZE
 62
     0
100
AcDbLine
 10
177.5
 20
-0.0000000000000057
 30
0.0
 11
304.6432844803785
 21
-0.0000000000000417
 31
0.0
  0
LINE
  5
1D8E
330
2B32
100
AcDbEntity
  8
SIZE
 62
     0
100
AcDbLine
 10
284.6432844803784
 20
-288.0
 30
0.0
 11
284.6432844803785
 21
-12.00000000000003
 31
0.0
  0
INSERT
  5
1D8F
330
2B32
100
AcDbEntity
  8
SIZE
 62
     0
100
AcDbBlockReference
  2
_DOTBLANK
 10
284.6432844803784
 20
-300.0
 30
0.0
 41
12.0
 42
12.0
 43
12.0
 50
270.0
  0
INSERT
  5
1D90
330
2B32
100
AcDbEntity
  8
SIZE
 62
     0
100
AcDbBlockReference
  2
_DOTBLANK
 10
284.6432844803785
 20
-0.000000000000036
 30
0.0
 41
12.0
 42
12.0
 43
12.0
 50
90.0
  0
INSERT
  5
1D91
330
2B32
100
AcDbEntity
  8
0
100
AcDbBlockReference
  2
*U54
 10
0.0
 20
0.0
 30
0.0
  0
POINT
  5
1D92
330
2B32
100
AcDbEntity
  8
DEFPOINTS
 62
     0
100
AcDbPoint
 10
134.5
 20
-300.0
 30
0.0
  0
POINT
  5
1D93
330
2B32
100
AcDbEntity
  8
DEFPOINTS
 62
     0
100
AcDbPoint
 10
157.5
 20
0.0
 30
0.0
  0
POINT
  5
1D94
330
2B32
100
AcDbEntity
  8
DEFPOINTS
 62
     0
100
AcDbPoint
 10
284.6432844803785
 20
-0.000000000000036
 30
0.0
  0
ENDBLK
  5
1749
330
2B32
100
AcDbEntity
  8
0
100
AcDbBlockEnd
  0
BLOCK
  5
2B35
330
2B34
100
AcDbEntity
  8
0
100
AcDbBlockBegin
  2
*U54
 70
     1
 10
0.0
 20
0.0
 30
0.0
  3
*U54
  1

  0
TEXT
  5
1F35
330
2B34
100
AcDbEntity
  8
SIZE
 62
     0
100
AcDbText
 10
274.6432844803785
 20
-224.0571428571429
 30
0.0
 40
64.0
  1
300
 50
90.0
 41
0.9
100
AcDbText
  0
ENDBLK
  5
1F37
330
2B34
100
AcDbEntity
  8
0
100
AcDbBlockEnd
  0
BLOCK
  5
2B37
330
2B36
100
AcDbEntity
  8
0
100
AcDbBlockBegin
  2
*D55
 70
     1
 10
0.0
 20
0.0
 30
0.0
  3
*D55
  1

  0
LINE
  5
1D95
330
2B36
100
AcDbEntity
  8
SIZE
 62
     0
100
AcDbLine
 10
-140.0
 20
32.46448280219375
 30
0.0
 11
-140.0
 21
136.4516878685508
 31
0.0
  0
LINE
  5
1D96
330
2B36
100
AcDbEntity
  8
SIZE
 62
     0
100
AcDbLine
 10
140.0
 20
32.46448280219375
 30
0.0
 11
140.0
 21
136.4516878685508
 31
0.0
  0
LINE
  5
1D97
330
2B36
100
AcDbEntity
  8
SIZE
 62
     0
100
AcDbLine
 10
-128.0
 20
116.4516878685508
 30
0.0
 11
128.0
 21
116.4516878685508
 31
0.0
  0
INSERT
  5
1D98
330
2B36
100
AcDbEntity
  8
SIZE
 62
     0
100
AcDbBlockReference
  2
_DOTBLANK
 10
-140.0
 20
116.4516878685508
 30
0.0
 41
12.0
 42
12.0
 43
12.0
 50
180.0
  0
INSERT
  5
1D99
330
2B36
100
AcDbEntity
  8
SIZE
 62
     0
100
AcDbBlockReference
  2
_DOTBLANK
 10
140.0
 20
116.4516878685508
 30
0.0
 41
12.0
 42
12.0
 43
12.0
  0
INSERT
  5
1D9A
330
2B36
100
AcDbEntity
  8
0
100
AcDbBlockReference
  2
*U56
 10
0.0
 20
0.0
 30
0.0
  0
POINT
  5
1D9B
330
2B36
100
AcDbEntity
  8
DEFPOINTS
 62
     0
100
AcDbPoint
 10
-140.0
 20
12.46448280219374
 30
0.0
  0
POINT
  5
1D9C
330
2B36
100
AcDbEntity
  8
DEFPOINTS
 62
     0
100
AcDbPoint
 10
140.0
 20
12.46448280219374
 30
0.0
  0
POINT
  5
1D9D
330
2B36
100
AcDbEntity
  8
DEFPOINTS
 62
     0
100
AcDbPoint
 10
140.0
 20
116.4516878685508
 30
0.0
  0
ENDBLK
  5
1755
330
2B36
100
AcDbEntity
  8
0
100
AcDbBlockEnd
  0
BLOCK
  5
2B39
330
2B38
100
AcDbEntity
  8
0
100
AcDbBlockBegin
  2
*U56
 70
     1
 10
0.0
 20
0.0
 30
0.0
  3
*U56
  1

  0
TEXT
  5
1F39
330
2B38
100
AcDbEntity
  8
SIZE
 62
     0
100
AcDbText
 10
-74.05714285714283
 20
126.4516878685508
 30
0.0
 40
64.0
  1
280
 41
0.9
100
AcDbText
  0
ENDBLK
  5
1F3B
330
2B38
100
AcDbEntity
  8
0
100
AcDbBlockEnd
  0
BLOCK
  5
2B3B
330
2B3A
100
AcDbEntity
  8
0
100
AcDbBlockBegin
  2
*D57
 70
     1
 10
0.0
 20
0.0
 30
0.0
  3
*D57
  1

  0
LINE
  5
1D9E
330
2B3A
100
AcDbEntity
  8
SIZE
 62
     0
100
AcDbLine
 10
-157.5
 20
20.0
 30
0.0
 11
-157.5
 21
245.5794621189598
 31
0.0
  0
LINE
  5
1D9F
330
2B3A
100
AcDbEntity
  8
SIZE
 62
     0
100
AcDbLine
 10
157.5
 20
20.0
 30
0.0
 11
157.5
 21
245.5794621189598
 31
0.0
  0
LINE
  5
1DA0
330
2B3A
100
AcDbEntity
  8
SIZE
 62
     0
100
AcDbLine
 10
-145.5
 20
225.5794621189598
 30
0.0
 11
145.5
 21
225.5794621189598
 31
0.0
  0
INSERT
  5
1DA1
330
2B3A
100
AcDbEntity
  8
SIZE
 62
     0
100
AcDbBlockReference
  2
_DOTBLANK
 10
-157.5
 20
225.5794621189598
 30
0.0
 41
12.0
 42
12.0
 43
12.0
 50
180.0
  0
INSERT
  5
1DA2
330
2B3A
100
AcDbEntity
  8
SIZE
 62
     0
100
AcDbBlockReference
  2
_DOTBLANK
 10
157.5
 20
225.5794621189598
 30
0.0
 41
12.0
 42
12.0
 43
12.0
  0
INSERT
  5
1DA3
330
2B3A
100
AcDbEntity
  8
0
100
AcDbBlockReference
  2
*U58
 10
0.0
 20
0.0
 30
0.0
  0
POINT
  5
1DA4
330
2B3A
100
AcDbEntity
  8
DEFPOINTS
 62
     0
100
AcDbPoint
 10
-157.5
 20
0.0
 30
0.0
  0
POINT
  5
1DA5
330
2B3A
100
AcDbEntity
  8
DEFPOINTS
 62
     0
100
AcDbPoint
 10
157.5
 20
0.0
 30
0.0
  0
POINT
  5
1DA6
330
2B3A
100
AcDbEntity
  8
DEFPOINTS
 62
     0
100
AcDbPoint
 10
157.5
 20
225.5794621189598
 30
0.0
  0
ENDBLK
  5
1761
330
2B3A
100
AcDbEntity
  8
0
100
AcDbBlockEnd
  0
BLOCK
  5
2B3D
330
2B3C
100
AcDbEntity
  8
0
100
AcDbBlockBegin
  2
*U58
 70
     1
 10
0.0
 20
0.0
 30
0.0
  3
*U58
  1

  0
TEXT
  5
1F3D
330
2B3C
100
AcDbEntity
  8
SIZE
 62
     0
100
AcDbText
 10
-68.57142857142857
 20
235.5794621189599
 30
0.0
 40
64.0
  1
315
 41
0.9
100
AcDbText
  0
ENDBLK
  5
1F3F
330
2B3C
100
AcDbEntity
  8
0
100
AcDbBlockEnd
  0
BLOCK
  5
2B3F
330
2B3E
100
AcDbEntity
  8
0
100
AcDbBlockBegin
  2
*D59
 70
     1
 10
0.0
 20
0.0
 30
0.0
  3
*D59
  1

  0
LINE
  5
1DA7
330
2B3E
100
AcDbEntity
  8
SIZE
 62
     0
100
AcDbLine
 10
-177.5
 20
0.0000000000000057
 30
0.0
 11
-314.0264221186908
 21
0.0000000000000443
 31
0.0
  0
LINE
  5
1DA8
330
2B3E
100
AcDbEntity
  8
SIZE
 62
     0
100
AcDbLine
 10
-177.5
 20
-7.999999999999992
 30
0.0
 11
-314.0264221186908
 21
-7.999999999999957
 31
0.0
  0
LINE
  5
1DA9
330
2B3E
100
AcDbEntity
  8
SIZE
 62
     0
100
AcDbLine
 10
-294.0264221186908
 20
12.00000000000003
 30
0.0
 11
-294.0264221186908
 21
24.00000000000004
 31
0.0
  0
LINE
  5
1DAA
330
2B3E
100
AcDbEntity
  8
SIZE
 62
     0
100
AcDbLine
 10
-294.0264221186908
 20
-19.99999999999996
 30
0.0
 11
-294.0264221186908
 21
-90.39999999999997
 31
0.0
  0
INSERT
  5
1DAB
330
2B3E
100
AcDbEntity
  8
SIZE
 62
     0
100
AcDbBlockReference
  2
_DOTBLANK
 10
-294.0264221186908
 20
0.0000000000000387
 30
0.0
 41
12.0
 42
12.0
 43
12.0
 50
270.0
  0
INSERT
  5
1DAC
330
2B3E
100
AcDbEntity
  8
SIZE
 62
     0
100
AcDbBlockReference
  2
_DOTBLANK
 10
-294.0264221186908
 20
-7.999999999999959
 30
0.0
 41
12.0
 42
12.0
 43
12.0
 50
90.0
  0
INSERT
  5
1DAD
330
2B3E
100
AcDbEntity
  8
0
100
AcDbBlockReference
  2
*U60
 10
0.0
 20
0.0
 30
0.0
  0
POINT
  5
1DAE
330
2B3E
100
AcDbEntity
  8
DEFPOINTS
 62
     0
100
AcDbPoint
 10
-157.5
 20
0.0
 30
0.0
  0
POINT
  5
1DAF
330
2B3E
100
AcDbEntity
  8
DEFPOINTS
 62
     0
100
AcDbPoint
 10
-157.5
 20
-8.000000000000001
 30
0.0
  0
POINT
  5
1DB0
330
2B3E
100
AcDbEntity
  8
DEFPOINTS
 62
     0
100
AcDbPoint
 10
-294.0264221186908
 20
-7.999999999999959
 30
0.0
  0
ENDBLK
  5
176D
330
2B3E
100
AcDbEntity
  8
0
100
AcDbBlockEnd
  0
BLOCK
  5
2B41
330
2B40
100
AcDbEntity
  8
0
100
AcDbBlockBegin
  2
*U60
 70
     1
 10
0.0
 20
0.0
 30
0.0
  3
*U60
  1

  0
TEXT
  5
1F41
330
2B40
100
AcDbEntity
  8
SIZE
 62
     0
100
AcDbText
 10
-304.0264221186908
 20
-80.4
 30
0.0
 40
64.0
  1
8
 50
90.0
 41
0.9
100
AcDbText
  0
ENDBLK
  5
1F43
330
2B40
100
AcDbEntity
  8
0
100
AcDbBlockEnd
  0
BLOCK
  5
2B43
330
2B42
100
AcDbEntity
  8
0
100
AcDbBlockBegin
  2
*D61
 70
     1
 10
0.0
 20
0.0
 30
0.0
  3
*D61
  1

  0
LINE
  5
1DB1
330
2B42
100
AcDbEntity
  8
SIZE
 62
     0
100
AcDbLine
 10
154.5
 20
-300.0
 30
0.0
 11
304.6432844803785
 21
-300.0
 31
0.0
  0
LINE
  5
1DB2
330
2B42
100
AcDbEntity
  8
SIZE
 62
     0
100
AcDbLine
 10
143.5
 20
-312.0
 30
0.0
 11
304.6432844803785
 21
-312.0
 31
0.0
  0
LINE
  5
1DB3
330
2B42
100
AcDbEntity
  8
SIZE
 62
     0
100
AcDbLine
 10
284.6432844803785
 20
-288.0
 30
0.0
 11
284.6432844803785
 21
-276.0
 31
0.0
  0
LINE
  5
1DB4
330
2B42
100
AcDbEntity
  8
SIZE
 62
     0
100
AcDbLine
 10
284.6432844803785
 20
-324.0000000000001
 30
0.0
 11
284.6432844803784
 21
-438.2857142857143
 31
0.0
  0
INSERT
  5
1DB5
330
2B42
100
AcDbEntity
  8
SIZE
 62
     0
100
AcDbBlockReference
  2
_DOTBLANK
 10
284.6432844803785
 20
-300.0
 30
0.0
 41
12.0
 42
12.0
 43
12.0
 50
270.0
  0
INSERT
  5
1DB6
330
2B42
100
AcDbEntity
  8
SIZE
 62
     0
100
AcDbBlockReference
  2
_DOTBLANK
 10
284.6432844803785
 20
-312.0
 30
0.0
 41
12.0
 42
12.0
 43
12.0
 50
90.0
  0
INSERT
  5
1DB7
330
2B42
100
AcDbEntity
  8
0
100
AcDbBlockReference
  2
*U62
 10
0.0
 20
0.0
 30
0.0
  0
POINT
  5
1DB8
330
2B42
100
AcDbEntity
  8
DEFPOINTS
 62
     0
100
AcDbPoint
 10
134.5
 20
-300.0
 30
0.0
  0
POINT
  5
1DB9
330
2B42
100
AcDbEntity
  8
DEFPOINTS
 62
     0
100
AcDbPoint
 10
123.5
 20
-312.0
 30
0.0
  0
POINT
  5
1DBA
330
2B42
100
AcDbEntity
  8
DEFPOINTS
 62
     0
100
AcDbPoint
 10
284.6432844803785
 20
-312.0
 30
0.0
  0
ENDBLK
  5
177B
330
2B42
100
AcDbEntity
  8
0
100
AcDbBlockEnd
  0
BLOCK
  5
2B45
330
2B44
100
AcDbEntity
  8
0
100
AcDbBlockBegin
  2
*U62
 70
     1
 10
0.0
 20
0.0
 30
0.0
  3
*U62
  1

  0
TEXT
  5
1F45
330
2B44
100
AcDbEntity
  8
SIZE
 62
     0
100
AcDbText
 10
274.6432844803785
 20
-428.2857142857142
 30
0.0
 40
64.0
  1
12
 50
90.0
 41
0.9
100
AcDbText
  0
ENDBLK
  5
1F47
330
2B44
100
AcDbEntity
  8
0
100
AcDbBlockEnd
  0
BLOCK
  5
2B47
330
2B46
100
AcDbEntity
  8
0
100
AcDbBlockBegin
  2
*U63
 70
     1
 10
0.0
 20
0.0
 30
0.0
  3
*U63
  1

  0
ENDBLK
  5
1D57
330
2B46
100
AcDbEntity
  8
0
100
AcDbBlockEnd
  0
BLOCK
  5
2B49
330
2B48
100
AcDbEntity
  8
0
100
AcDbBlockBegin
  2
*U64
 70
     1
 10
0.0
 20
0.0
 30
0.0
  3
*U64
  1

  0
INSERT
  5
2088
330
2B48
100
AcDbEntity
  8
NOTE
100
AcDbBlockReference
  2
_OPEN30
 10
-140.0
 20
0.0
 30
0.0
 41
12.0
 42
12.0
 43
12.0
 50
312.6090116116894
  0
POLYLINE
  5
2089
330
2B48
100
AcDbEntity
  8
NOTE
100
AcDb2dPolyline
 66
     1
 10
0.0
 20
0.0
 30
0.0
  0
VERTEX
  5
2124
330
2089
100
AcDbEntity
  8
NOTE
100
AcDbVertex
100
AcDb2dVertex
 10
-148.1239008361894
 20
8.831887408915473
 30
0.0
  0
VERTEX
  5
2125
330
2089
100
AcDbEntity
  8
NOTE
100
AcDbVertex
100
AcDb2dVertex
 10
-227.8693999922543
 20
95.52709505801338
 30
0.0
  0
VERTEX
  5
2126
330
2089
100
AcDbEntity
  8
NOTE
100
AcDbVertex
100
AcDb2dVertex
 10
-773.7093999922541
 20
95.52709505801338
 30
0.0
  0
SEQEND
  5
2127
330
2089
100
AcDbEntity
  8
NOTE
  0
ENDBLK
  5
208A
330
2B48
100
AcDbEntity
  8
0
100
AcDbBlockEnd
  0
BLOCK
  5
2B4B
330
2B4A
100
AcDbEntity
  8
0
100
AcDbBlockBegin
  2
*U65
 70
     1
 10
0.0
 20
0.0
 30
0.0
  3
*U65
  1

  0
TEXT
  5
208D
330
2B4A
100
AcDbEntity
  8
NOTE
100
AcDbText
 10
-773.7093999922541
 20
113.5270950580134
 30
0.0
 40
64.0
  1
4×φ10取付穴
 41
0.9
100
AcDbText
  0
ENDBLK
  5
208E
330
2B4A
100
AcDbEntity
  8
0
100
AcDbBlockEnd
  0
BLOCK
  5
2B4D
330
2B4C
100
AcDbEntity
  8
0
100
AcDbBlockBegin
  2
*U66
 70
     1
 10
0.0
 20
0.0
 30
0.0
  3
*U66
  1

  0
INSERT
  5
25A0
330
2B4C
100
AcDbEntity
  8
NOTE
100
AcDbBlockReference
  2
_OPEN30
 10
-165.0
 20
-2.0
 30
0.0
 41
12.0
 42
12.0
 43
12.0
 50
312.6090116116894
  0
POLYLINE
  5
25A1
330
2B4C
100
AcDbEntity
  8
NOTE
100
AcDb2dPolyline
 66
     1
 10
0.0
 20
0.0
 30
0.0
  0
VERTEX
  5
25A2
330
25A1
100
AcDbEntity
  8
NOTE
100
AcDbVertex
100
AcDb2dVertex
 10
-173.1239008361894
 20
6.831887408915473
 30
0.0
  0
VERTEX
  5
25A3
330
25A1
100
AcDbEntity
  8
NOTE
100
AcDbVertex
100
AcDb2dVertex
 10
-252.8693999922543
 20
93.52709505801341
 30
0.0
  0
VERTEX
  5
25A4
330
25A1
100
AcDbEntity
  8
NOTE
100
AcDbVertex
100
AcDb2dVertex
 10
-798.7093999922541
 20
93.52709505801341
 30
0.0
  0
SEQEND
  5
25A5
330
25A1
100
AcDbEntity
  8
NOTE
  0
ENDBLK
  5
25A6
330
2B4C
100
AcDbEntity
  8
0
100
AcDbBlockEnd
  0
BLOCK
  5
2B4F
330
2B4E
100
AcDbEntity
  8
0
100
AcDbBlockBegin
  2
*U67
 70
     1
 10
0.0
 20
0.0
 30
0.0
  3
*U67
  1

  0
TEXT
  5
25A9
330
2B4E
100
AcDbEntity
  8
NOTE
100
AcDbText
 10
-798.7093999922541
 20
111.5270950580134
 30
0.0
 40
64.0
  1
4×φ10取付穴
 41
0.9
100
AcDbText
  0
ENDBLK
  5
25AA
330
2B4E
100
AcDbEntity
  8
0
100
AcDbBlockEnd
  0
BLOCK
  5
2B51
330
2B50
100
AcDbEntity
  8
0
100
AcDbBlockBegin
  2
*U68
 70
     1
 10
0.0
 20
0.0
 30
0.0
  3
*U68
  1

  0
INSERT
  5
288E
330
2B50
100
AcDbEntity
  8
NOTE
100
AcDbBlockReference
  2
_OPEN30
 10
-165.0
 20
0.0
 30
0.0
 41
12.0
 42
12.0
 43
12.0
 50
312.6090116116894
  0
POLYLINE
  5
288F
330
2B50
100
AcDbEntity
  8
NOTE
100
AcDb2dPolyline
 66
     1
 10
0.0
 20
0.0
 30
0.0
  0
VERTEX
  5
2890
330
288F
100
AcDbEntity
  8
NOTE
100
AcDbVertex
100
AcDb2dVertex
 10
-173.1239008361894
 20
8.831887408915473
 30
0.0
  0
VERTEX
  5
2891
330
288F
100
AcDbEntity
  8
NOTE
100
AcDbVertex
100
AcDb2dVertex
 10
-252.8693999922543
 20
95.52709505801338
 30
0.0
  0
VERTEX
  5
2892
330
288F
100
AcDbEntity
  8
NOTE
100
AcDbVertex
100
AcDb2dVertex
 10
-798.7093999922541
 20
95.52709505801338
 30
0.0
  0
SEQEND
  5
2893
330
288F
100
AcDbEntity
  8
NOTE
  0
ENDBLK
  5
2894
330
2B50
100
AcDbEntity
  8
0
100
AcDbBlockEnd
  0
BLOCK
  5
2B53
330
2B52
100
AcDbEntity
  8
0
100
AcDbBlockBegin
  2
*U69
 70
     1
 10
0.0
 20
0.0
 30
0.0
  3
*U69
  1

  0
TEXT
  5
2897
330
2B52
100
AcDbEntity
  8
NOTE
100
AcDbText
 10
-798.7093999922541
 20
113.5270950580134
 30
0.0
 40
64.0
  1
4×φ10取付穴
 41
0.9
100
AcDbText
  0
ENDBLK
  5
2898
330
2B52
100
AcDbEntity
  8
0
100
AcDbBlockEnd
  0
BLOCK
  5
2B55
330
2B54
100
AcDbEntity
  8
0
100
AcDbBlockBegin
  2
*X70
 70
     1
 10
0.0
 20
0.0
 30
0.0
  3
*X70
  1

  0
LINE
  5
289B
330
2B54
100
AcDbEntity
  8
0
 62
     0
100
AcDbLine
 10
-132.9000000000069
 20
-277.1144716994959
 30
0.0
 11
-123.900385822997
 21
-281.4000000000015
 31
0.0
  0
LINE
  5
289C
330
2B54
100
AcDbEntity
  8
0
 62
     0
100
AcDbLine
 10
-132.9000000000087
 20
-267.1145199553603
 30
0.0
 11
-102.9004760860043
 21
-281.4000000000015
 31
0.0
  0
LINE
  5
289D
330
2B54
100
AcDbEntity
  8
0
 62
     0
100
AcDbLine
 10
-132.9000000000087
 20
-257.1145682112265
 30
0.0
 11
-81.90056634901884
 21
-281.3999999999996
 31
0.0
  0
LINE
  5
289E
330
2B54
100
AcDbEntity
  8
0
 62
     0
100
AcDbLine
 10
-132.9000000000087
 20
-247.1146164670927
 30
0.0
 11
-60.90065661202607
 21
-281.4000000000015
 31
0.0
  0
LINE
  5
289F
330
2B54
100
AcDbEntity
  8
0
 62
     0
100
AcDbLine
 10
-132.9000000000069
 20
-237.1146647229589
 30
0.0
 11
-39.90074687503511
 21
-281.4000000000015
 31
0.0
  0
LINE
  5
28A0
330
2B54
100
AcDbEntity
  8
0
 62
     0
100
AcDbLine
 10
-132.9000000000087
 20
-227.1147129788233
 30
0.0
 11
-18.90083713804413
 21
-281.4000000000015
 31
0.0
  0
LINE
  5
28A1
330
2B54
100
AcDbEntity
  8
0
 62
     0
100
AcDbLine
 10
-82.90000000000873
 20
-240.9242724882533
 30
0.0
 11
-71.40096616131995
 21
-246.4000000000015
 31
0.0
  0
LINE
  5
28A2
330
2B54
100
AcDbEntity
  8
0
 62
     0
100
AcDbLine
 10
-71.40096616131995
 20
-246.4000000000015
 30
0.0
 11
2.099072598946803
 21
-281.4000000000015
 31
0.0
  0
LINE
  5
28A3
330
2B54
100
AcDbEntity
  8
0
 62
     0
100
AcDbLine
 10
-132.9000000000069
 20
-217.1147612346895
 30
0.0
 11
-82.90000000000873
 21
-240.9242724882533
 31
0.0
  0
LINE
  5
28A4
330
2B54
100
AcDbEntity
  8
0
 62
     0
100
AcDbLine
 10
-82.9000000000069
 20
-230.9243207441195
 30
0.0
 11
-50.40105642432901
 21
-246.4000000000005
 31
0.0
  0
LINE
  5
28A5
330
2B54
100
AcDbEntity
  8
0
 62
     0
100
AcDbLine
 10
-50.40105642432901
 20
-246.4000000000005
 30
0.0
 11
23.09898233593776
 21
-281.4000000000005
 31
0.0
  0
LINE
  5
28A6
330
2B54
100
AcDbEntity
  8
0
 62
     0
100
AcDbLine
 10
-132.9000000000087
 20
-207.1148094905538
 30
0.0
 11
-82.9000000000069
 21
-230.9243207441195
 31
0.0
  0
LINE
  5
28A7
330
2B54
100
AcDbEntity
  8
0
 62
     0
100
AcDbLine
 10
-82.90000000000873
 20
-220.9243689999839
 30
0.0
 11
-29.40114668733804
 21
-246.4000000000005
 31
0.0
  0
LINE
  5
28A8
330
2B54
100
AcDbEntity
  8
0
 62
     0
100
AcDbLine
 10
-29.40114668733804
 20
-246.4000000000005
 30
0.0
 11
44.09889207292871
 21
-281.4000000000005
 31
0.0
  0
LINE
  5
28A9
330
2B54
100
AcDbEntity
  8
0
 62
     0
100
AcDbLine
 10
-132.9000000000105
 20
-197.1148577464182
 30
0.0
 11
-82.90000000000873
 21
-220.9243689999839
 31
0.0
  0
LINE
  5
28AA
330
2B54
100
AcDbEntity
  8
0
 62
     0
100
AcDbLine
 10
-82.9000000000069
 20
-210.9244172558518
 30
0.0
 11
-8.401236950348902
 21
-246.4000000000015
 31
0.0
  0
LINE
  5
28AB
330
2B54
100
AcDbEntity
  8
0
 62
     0
100
AcDbLine
 10
-8.401236950348902
 20
-246.4000000000015
 30
0.0
 11
65.09880180991604
 21
-281.4000000000015
 31
0.0
  0
LINE
  5
28AC
330
2B54
100
AcDbEntity
  8
0
 62
     0
100
AcDbLine
 10
-132.9000000000087
 20
-187.1149060022862
 30
0.0
 11
-82.9000000000069
 21
-210.9244172558518
 31
0.0
  0
LINE
  5
28AD
330
2B54
100
AcDbEntity
  8
0
 62
     0
100
AcDbLine
 10
-82.9000000000069
 20
-200.9244655117163
 30
0.0
 11
12.59867278664205
 21
-246.4000000000005
 31
0.0
  0
LINE
  5
28AE
330
2B54
100
AcDbEntity
  8
0
 62
     0
100
AcDbLine
 10
12.59867278664205
 20
-246.4000000000005
 30
0.0
 11
86.09871154690882
 21
-281.4000000000005
 31
0.0
  0
LINE
  5
28AF
330
2B54
100
AcDbEntity
  8
0
 62
     0
100
AcDbLine
 10
-132.9000000000087
 20
-177.1149542581515
 30
0.0
 11
-82.9000000000069
 21
-200.9244655117163
 31
0.0
  0
LINE
  5
28B0
330
2B54
100
AcDbEntity
  8
0
 62
     0
100
AcDbLine
 10
-82.9000000000069
 20
-190.9245137675824
 30
0.0
 11
33.59858252362939
 21
-246.3999999999996
 31
0.0
  0
LINE
  5
28B1
330
2B54
100
AcDbEntity
  8
0
 62
     0
100
AcDbLine
 10
33.5985825236312
 20
-246.4000000000005
 30
0.0
 11
107.0986212838979
 21
-281.4000000000005
 31
0.0
  0
LINE
  5
28B2
330
2B54
100
AcDbEntity
  8
0
 62
     0
100
AcDbLine
 10
-132.9000000000087
 20
-167.1150025140168
 30
0.0
 11
-82.9000000000069
 21
-190.9245137675824
 31
0.0
  0
LINE
  5
28B3
330
2B54
100
AcDbEntity
  8
0
 62
     0
100
AcDbLine
 10
-82.9000000000069
 20
-180.9245620234469
 30
0.0
 11
54.59849226062215
 21
-246.3999999999987
 31
0.0
  0
LINE
  5
28B4
330
2B54
100
AcDbEntity
  8
0
 62
     0
100
AcDbLine
 10
54.59849226062579
 20
-246.4000000000005
 30
0.0
 11
128.0985310208925
 21
-281.4000000000005
 31
0.0
  0
LINE
  5
28B5
330
2B54
100
AcDbEntity
  8
0
 62
     0
100
AcDbLine
 10
-132.9000000000105
 20
-157.1150507698803
 30
0.0
 11
-82.9000000000069
 21
-180.9245620234469
 31
0.0
  0
LINE
  5
28B6
330
2B54
100
AcDbEntity
  8
0
 62
     0
100
AcDbLine
 10
-82.90000000000508
 20
-170.9246102793131
 30
0.0
 11
75.59840199761129
 21
-246.3999999999987
 31
0.0
  0
LINE
  5
28B7
330
2B54
100
AcDbEntity
  8
0
 62
     0
100
AcDbLine
 10
75.59840199761129
 20
-246.3999999999987
 30
0.0
 11
132.899999999996
 21
-273.686460849699
 31
0.0
  0
LINE
  5
28B8
330
2B54
100
AcDbEntity
  8
0
 62
     0
100
AcDbLine
 10
-132.9000000000105
 20
-147.1150990257465
 30
0.0
 11
-82.90000000000508
 21
-170.9246102793131
 31
0.0
  0
LINE
  5
28B9
330
2B54
100
AcDbEntity
  8
0
 62
     0
100
AcDbLine
 10
-82.90000000000873
 20
-160.9246585351793
 30
0.0
 11
96.59831173460226
 21
-246.4000000000005
 31
0.0
  0
LINE
  5
28BA
330
2B54
100
AcDbEntity
  8
0
 62
     0
100
AcDbLine
 10
96.59831173460226
 20
-246.4000000000005
 30
0.0
 11
132.8999999999905
 21
-263.6865091055633
 31
0.0
  0
LINE
  5
28BB
330
2B54
100
AcDbEntity
  8
0
 62
     0
100
AcDbLine
 10
-132.9000000000142
 20
-137.1151472816127
 30
0.0
 11
-82.90000000000873
 21
-160.9246585351793
 31
0.0
  0
LINE
  5
28BC
330
2B54
100
AcDbEntity
  8
0
 62
     0
100
AcDbLine
 10
-82.90000000000324
 20
-150.9247067910455
 30
0.0
 11
117.598221471595
 21
-246.4000000000005
 31
0.0
  0
LINE
  5
28BD
330
2B54
100
AcDbEntity
  8
0
 62
     0
100
AcDbLine
 10
117.598221471595
 20
-246.4000000000005
 30
0.0
 11
132.8999999999905
 21
-253.6865573614278
 31
0.0
  0
LINE
  5
28BE
330
2B54
100
AcDbEntity
  8
0
 62
     0
100
AcDbLine
 10
-132.9000000000123
 20
-127.1151955374771
 30
0.0
 11
-82.9000000000069
 21
-150.9247067910446
 31
0.0
  0
LINE
  5
28BF
330
2B54
100
AcDbEntity
  8
0
 62
     0
100
AcDbLine
 10
-82.9000000000069
 20
-140.9247550469108
 30
0.0
 11
132.8999999999942
 21
-243.6866056172958
 31
0.0
  0
LINE
  5
28C0
330
2B54
100
AcDbEntity
  8
0
 62
     0
100
AcDbLine
 10
-132.9000000000123
 20
-117.1152437933433
 30
0.0
 11
-82.90000000001056
 21
-140.924755046909
 31
0.0
  0
LINE
  5
28C1
330
2B54
100
AcDbEntity
  8
0
 62
     0
100
AcDbLine
 10
-82.9000000000069
 20
-130.9248033027752
 30
0.0
 11
132.899999999996
 21
-233.6866538731619
 31
0.0
  0
LINE
  5
28C2
330
2B54
100
AcDbEntity
  8
0
 62
     0
100
AcDbLine
 10
-132.9000000000123
 20
-107.1152920492077
 30
0.0
 11
-82.90000000001056
 21
-130.9248033027734
 31
0.0
  0
LINE
  5
28C3
330
2B54
100
AcDbEntity
  8
0
 62
     0
100
AcDbLine
 10
-82.90000000000508
 20
-120.9248515586414
 30
0.0
 11
132.899999999996
 21
-223.6867021290263
 31
0.0
  0
LINE
  5
28C4
330
2B54
100
AcDbEntity
  8
0
 62
     0
100
AcDbLine
 10
-132.9000000000105
 20
-97.11534030507394
 30
0.0
 11
-82.90000000000873
 21
-120.9248515586396
 31
0.0
  0
LINE
  5
28C5
330
2B54
100
AcDbEntity
  8
0
 62
     0
100
AcDbLine
 10
-82.90000000000873
 20
-110.9248998145076
 30
0.0
 11
132.8999999999923
 21
-213.6867503848925
 31
0.0
  0
LINE
  5
28C6
330
2B54
100
AcDbEntity
  8
0
 62
     0
100
AcDbLine
 10
-132.9000000000142
 20
-87.11538856094014
 30
0.0
 11
-82.90000000001056
 21
-110.9248998145058
 31
0.0
  0
LINE
  5
28C7
330
2B54
100
AcDbEntity
  8
0
 62
     0
100
AcDbLine
 10
-82.90000000000508
 20
-100.9249480703738
 30
0.0
 11
132.899999999996
 21
-203.6867986407588
 31
0.0
  0
LINE
  5
28C8
330
2B54
100
AcDbEntity
  8
0
 62
     0
100
AcDbLine
 10
-132.9000000000105
 20
-77.11543681680632
 30
0.0
 11
-82.90000000001239
 21
-100.9249480703702
 31
0.0
  0
LINE
  5
28C9
330
2B54
100
AcDbEntity
  8
0
 62
     0
100
AcDbLine
 10
-82.9000000000069
 20
-90.92499632623821
 30
0.0
 11
132.8999999999942
 21
-193.686846896623
 31
0.0
  0
LINE
  5
28CA
330
2B54
100
AcDbEntity
  8
0
 62
     0
100
AcDbLine
 10
-132.9000000000123
 20
-67.11548507267071
 30
0.0
 11
-82.90000000001056
 21
-90.9249963262364
 31
0.0
  0
LINE
  5
28CB
330
2B54
100
AcDbEntity
  8
0
 62
     0
100
AcDbLine
 10
-82.9000000000069
 20
-80.9250445821044
 30
0.0
 11
132.8999999999942
 21
-183.6868951524893
 31
0.0
  0
LINE
  5
28CC
330
2B54
100
AcDbEntity
  8
0
 62
     0
100
AcDbLine
 10
-132.9000000000142
 20
-57.11553332853508
 30
0.0
 11
-82.90000000001239
 21
-80.92504458210077
 31
0.0
  0
LINE
  5
28CD
330
2B54
100
AcDbEntity
  8
0
 62
     0
100
AcDbLine
 10
-82.9000000000069
 20
-70.92509283796882
 30
0.0
 11
132.8999999999942
 21
-173.6869434083537
 31
0.0
  0
LINE
  5
28CE
330
2B54
100
AcDbEntity
  8
0
 62
     0
100
AcDbLine
 10
-121.3827152536105
 20
-52.60000000000037
 30
0.0
 11
-82.90000000001056
 21
-70.92509283796698
 31
0.0
  0
LINE
  5
28CF
330
2B54
100
AcDbEntity
  8
0
 62
     0
100
AcDbLine
 10
-82.90000000000873
 20
-60.92514109383319
 30
0.0
 11
132.899999999996
 21
-163.6869916642199
 31
0.0
  0
LINE
  5
28D0
330
2B54
100
AcDbEntity
  8
0
 62
     0
100
AcDbLine
 10
-100.3828055166195
 20
-52.60000000000037
 30
0.0
 11
-82.90000000001056
 21
-60.92514109383134
 31
0.0
  0
LINE
  5
28D1
330
2B54
100
AcDbEntity
  8
0
 62
     0
100
AcDbLine
 10
-79.38289577962859
 20
-52.60000000000218
 30
0.0
 11
132.8999999999942
 21
-153.6870399200861
 31
0.0
  0
LINE
  5
28D2
330
2B54
100
AcDbEntity
  8
0
 62
     0
100
AcDbLine
 10
-58.38298604263765
 20
-52.60000000000218
 30
0.0
 11
132.899999999996
 21
-143.6870881759523
 31
0.0
  0
LINE
  5
28D3
330
2B54
100
AcDbEntity
  8
0
 62
     0
100
AcDbLine
 10
-37.38307630564668
 20
-52.60000000000218
 30
0.0
 11
132.899999999996
 21
-133.6871364318175
 31
0.0
  0
LINE
  5
28D4
330
2B54
100
AcDbEntity
  8
0
 62
     0
100
AcDbLine
 10
-16.38316656865572
 20
-52.60000000000218
 30
0.0
 11
132.8999999999923
 21
-123.687184687682
 31
0.0
  0
LINE
  5
28D5
330
2B54
100
AcDbEntity
  8
0
 62
     0
100
AcDbLine
 10
4.616743168337047
 20
-52.60000000000128
 30
0.0
 11
132.899999999996
 21
-113.6872329435482
 31
0.0
  0
LINE
  5
28D6
330
2B54
100
AcDbEntity
  8
0
 62
     0
100
AcDbLine
 10
25.61665290532801
 20
-52.60000000000309
 30
0.0
 11
132.8999999999942
 21
-103.6872811994144
 31
0.0
  0
LINE
  5
28D7
330
2B54
100
AcDbEntity
  8
0
 62
     0
100
AcDbLine
 10
46.61656264231896
 20
-52.60000000000309
 30
0.0
 11
132.899999999996
 21
-93.68732945528064
 31
0.0
  0
LINE
  5
28D8
330
2B54
100
AcDbEntity
  8
0
 62
     0
100
AcDbLine
 10
67.61647237930811
 20
-52.60000000000128
 30
0.0
 11
132.899999999996
 21
-83.68737771114497
 31
0.0
  0
LINE
  5
28D9
330
2B54
100
AcDbEntity
  8
0
 62
     0
100
AcDbLine
 10
88.61638211629722
 20
-52.60000000000128
 30
0.0
 11
132.899999999996
 21
-73.68742596701122
 31
0.0
  0
LINE
  5
28DA
330
2B54
100
AcDbEntity
  8
0
 62
     0
100
AcDbLine
 10
109.6162918532864
 20
-52.59999999999945
 30
0.0
 11
132.8999999999942
 21
-63.68747422287561
 31
0.0
  0
LINE
  5
28DB
330
2B54
100
AcDbEntity
  8
0
 62
     0
100
AcDbLine
 10
130.6162015902773
 20
-52.59999999999945
 30
0.0
 11
132.8999999999978
 21
-53.6875224787418
 31
0.0
  0
ENDBLK
  5
28DC
330
2B54
100
AcDbEntity
  8
0
100
AcDbBlockEnd
  0
BLOCK
  5
2B57
330
2B56
100
AcDbEntity
  8
0
100
AcDbBlockBegin
  2
*X71
 70
     1
 10
0.0
 20
0.0
 30
0.0
  3
*X71
  1

  0
LINE
  5
28DF
330
2B56
100
AcDbEntity
  8
0
 62
     0
100
AcDbLine
 10
129.7842420880042
 20
-281.3999999999996
 30
0.0
 11
132.9000000000014
 21
-279.9163065386183
 31
0.0
  0
LINE
  5
28E0
330
2B56
100
AcDbEntity
  8
0
 62
     0
100
AcDbLine
 10
108.7843323510133
 20
-281.3999999999996
 30
0.0
 11
132.900000000005
 21
-269.9163547944827
 31
0.0
  0
LINE
  5
28E1
330
2B56
100
AcDbEntity
  8
0
 62
     0
100
AcDbLine
 10
87.78442261402597
 20
-281.3999999999996
 30
0.0
 11
132.900000000005
 21
-259.9164030503489
 31
0.0
  0
LINE
  5
28E2
330
2B56
100
AcDbEntity
  8
0
 62
     0
100
AcDbLine
 10
66.78451287703501
 20
-281.3999999999978
 30
0.0
 11
132.9000000000014
 21
-249.9164513062133
 31
0.0
  0
LINE
  5
28E3
330
2B56
100
AcDbEntity
  8
0
 62
     0
100
AcDbLine
 10
119.2846419003108
 20
-246.3999999999996
 30
0.0
 11
132.9000000000014
 21
-239.9164995620813
 31
0.0
  0
LINE
  5
28E4
330
2B56
100
AcDbEntity
  8
0
 62
     0
100
AcDbLine
 10
45.78460314004405
 20
-281.3999999999996
 30
0.0
 11
119.2846419003108
 21
-246.3999999999996
 31
0.0
  0
LINE
  5
28E5
330
2B56
100
AcDbEntity
  8
0
 62
     0
100
AcDbLine
 10
98.28473216331623
 20
-246.3999999999996
 30
0.0
 11
132.9000000000014
 21
-229.9165478179457
 31
0.0
  0
LINE
  5
28E6
330
2B56
100
AcDbEntity
  8
0
 62
     0
100
AcDbLine
 10
24.78469340304946
 20
-281.3999999999996
 30
0.0
 11
98.28473216331623
 21
-246.3999999999996
 31
0.0
  0
LINE
  5
28E7
330
2B56
100
AcDbEntity
  8
0
 62
     0
100
AcDbLine
 10
77.2848224263289
 20
-246.3999999999996
 30
0.0
 11
132.9000000000014
 21
-219.9165960738119
 31
0.0
  0
LINE
  5
28E8
330
2B56
100
AcDbEntity
  8
0
 62
     0
100
AcDbLine
 10
3.784783666062137
 20
-281.3999999999996
 30
0.0
 11
77.2848224263289
 21
-246.3999999999996
 31
0.0
  0
LINE
  5
28E9
330
2B56
100
AcDbEntity
  8
0
 62
     0
100
AcDbLine
 10
56.28491268933794
 20
-246.3999999999996
 30
0.0
 11
132.900000000005
 21
-209.9166443296763
 31
0.0
  0
LINE
  5
28EA
330
2B56
100
AcDbEntity
  8
0
 62
     0
100
AcDbLine
 10
-17.21512607092882
 20
-281.3999999999996
 30
0.0
 11
56.28491268933794
 21
-246.3999999999996
 31
0.0
  0
LINE
  5
28EB
330
2B56
100
AcDbEntity
  8
0
 62
     0
100
AcDbLine
 10
35.28500295234699
 20
-246.3999999999978
 30
0.0
 11
132.9000000000014
 21
-199.9166925855424
 31
0.0
  0
LINE
  5
28EC
330
2B56
100
AcDbEntity
  8
0
 62
     0
100
AcDbLine
 10
-38.21503580792342
 20
-281.3999999999996
 30
0.0
 11
35.28500295234699
 21
-246.3999999999978
 31
0.0
  0
LINE
  5
28ED
330
2B56
100
AcDbEntity
  8
0
 62
     0
100
AcDbLine
 10
14.28509321535603
 20
-246.3999999999996
 30
0.0
 11
132.9000000000014
 21
-189.9167408414084
 31
0.0
  0
LINE
  5
28EE
330
2B56
100
AcDbEntity
  8
0
 62
     0
100
AcDbLine
 10
-59.21494554491072
 20
-281.4000000000015
 30
0.0
 11
14.28509321535603
 21
-246.3999999999996
 31
0.0
  0
LINE
  5
28EF
330
2B56
100
AcDbEntity
  8
0
 62
     0
100
AcDbLine
 10
-6.714816521631287
 20
-246.3999999999996
 30
0.0
 11
132.9000000000014
 21
-179.9167890972748
 31
0.0
  0
LINE
  5
28F0
330
2B56
100
AcDbEntity
  8
0
 62
     0
100
AcDbLine
 10
-80.2148552819017
 20
-281.4000000000015
 30
0.0
 11
-6.714816521631287
 21
-246.3999999999996
 31
0.0
  0
LINE
  5
28F1
330
2B56
100
AcDbEntity
  8
0
 62
     0
100
AcDbLine
 10
-27.71472625862589
 20
-246.3999999999996
 30
0.0
 11
132.9000000000014
 21
-169.9168373531411
 31
0.0
  0
LINE
  5
28F2
330
2B56
100
AcDbEntity
  8
0
 62
     0
100
AcDbLine
 10
-101.2147650188963
 20
-281.4000000000015
 30
0.0
 11
-27.71472625862589
 21
-246.3999999999996
 31
0.0
  0
LINE
  5
28F3
330
2B56
100
AcDbEntity
  8
0
 62
     0
100
AcDbLine
 10
-48.71463599561685
 20
-246.3999999999996
 30
0.0
 11
132.900000000005
 21
-159.9168856090054
 31
0.0
  0
LINE
  5
28F4
330
2B56
100
AcDbEntity
  8
0
 62
     0
100
AcDbLine
 10
-122.2146747558836
 20
-281.4000000000015
 30
0.0
 11
-48.71463599561685
 21
-246.3999999999996
 31
0.0
  0
LINE
  5
28F5
330
2B56
100
AcDbEntity
  8
0
 62
     0
100
AcDbLine
 10
-69.71454573260053
 20
-246.3999999999978
 30
0.0
 11
132.9000000000014
 21
-149.9169338648717
 31
0.0
  0
LINE
  5
28F6
330
2B56
100
AcDbEntity
  8
0
 62
     0
100
AcDbLine
 10
-132.9000000000014
 20
-276.4882956888232
 30
0.0
 11
-69.71454573260416
 21
-246.3999999999996
 31
0.0
  0
LINE
  5
28F7
330
2B56
100
AcDbEntity
  8
0
 62
     0
100
AcDbLine
 10
-82.89999999999782
 20
-242.6788326911228
 30
0.0
 11
132.9000000000014
 21
-139.9169821207379
 31
0.0
  0
LINE
  5
28F8
330
2B56
100
AcDbEntity
  8
0
 62
     0
100
AcDbLine
 10
-132.9000000000087
 20
-266.4883439446912
 30
0.0
 11
-82.90000000000508
 21
-242.6788326911264
 31
0.0
  0
LINE
  5
28F9
330
2B56
100
AcDbEntity
  8
0
 62
     0
100
AcDbLine
 10
-82.89999999999782
 20
-232.678880946989
 30
0.0
 11
132.9000000000014
 21
-129.9170303766041
 31
0.0
  0
LINE
  5
28FA
330
2B56
100
AcDbEntity
  8
0
 62
     0
100
AcDbLine
 10
-132.900000000005
 20
-256.4883922005556
 30
0.0
 11
-82.90000000000146
 21
-232.6788809469908
 31
0.0
  0
LINE
  5
28FB
330
2B56
100
AcDbEntity
  8
0
 62
     0
100
AcDbLine
 10
-82.90000000000146
 20
-222.6789292028534
 30
0.0
 11
132.9000000000014
 21
-119.9170786324684
 31
0.0
  0
LINE
  5
28FC
330
2B56
100
AcDbEntity
  8
0
 62
     0
100
AcDbLine
 10
-132.900000000005
 20
-246.48844045642
 30
0.0
 11
-82.90000000000508
 21
-222.678929202857
 31
0.0
  0
LINE
  5
28FD
330
2B56
100
AcDbEntity
  8
0
 62
     0
100
AcDbLine
 10
-82.90000000000146
 20
-212.6789774587196
 30
0.0
 11
132.9000000000014
 21
-109.9171268883347
 31
0.0
  0
LINE
  5
28FE
330
2B56
100
AcDbEntity
  8
0
 62
     0
100
AcDbLine
 10
-132.900000000005
 20
-236.4884887122862
 30
0.0
 11
-82.90000000000508
 21
-212.6789774587214
 31
0.0
  0
LINE
  5
28FF
330
2B56
100
AcDbEntity
  8
0
 62
     0
100
AcDbLine
 10
-82.89999999999782
 20
-202.679025714584
 30
0.0
 11
132.9000000000014
 21
-99.9171751441991
 31
0.0
  0
LINE
  5
2900
330
2B56
100
AcDbEntity
  8
0
 62
     0
100
AcDbLine
 10
-132.9000000000014
 20
-226.4885369681506
 30
0.0
 11
-82.90000000000146
 21
-202.6790257145858
 31
0.0
  0
LINE
  5
2901
330
2B56
100
AcDbEntity
  8
0
 62
     0
100
AcDbLine
 10
-82.89999999999782
 20
-192.6790739704501
 30
0.0
 11
132.900000000005
 21
-89.91722340006345
 31
0.0
  0
LINE
  5
2902
330
2B56
100
AcDbEntity
  8
0
 62
     0
100
AcDbLine
 10
-132.900000000005
 20
-216.4885852240168
 30
0.0
 11
-82.89999999999782
 21
-192.6790739704501
 31
0.0
  0
LINE
  5
2903
330
2B56
100
AcDbEntity
  8
0
 62
     0
100
AcDbLine
 10
-82.89999999999782
 20
-182.6791222263164
 30
0.0
 11
132.9000000000014
 21
-79.91727165593147
 31
0.0
  0
LINE
  5
2904
330
2B56
100
AcDbEntity
  8
0
 62
     0
100
AcDbLine
 10
-132.900000000005
 20
-206.4886334798829
 30
0.0
 11
-82.89999999999782
 21
-182.6791222263164
 31
0.0
  0
LINE
  5
2905
330
2B56
100
AcDbEntity
  8
0
 62
     0
100
AcDbLine
 10
-82.90000000000146
 20
-172.6791704821826
 30
0.0
 11
132.900000000005
 21
-69.91731991179586
 31
0.0
  0
LINE
  5
2906
330
2B56
100
AcDbEntity
  8
0
 62
     0
100
AcDbLine
 10
-132.900000000005
 20
-196.4886817357492
 30
0.0
 11
-82.90000000000146
 21
-172.6791704821826
 31
0.0
  0
LINE
  5
2907
330
2B56
100
AcDbEntity
  8
0
 62
     0
100
AcDbLine
 10
-82.90000000000146
 20
-162.679218738047
 30
0.0
 11
132.9000000000014
 21
-59.91736816766206
 31
0.0
  0
LINE
  5
2908
330
2B56
100
AcDbEntity
  8
0
 62
     0
100
AcDbLine
 10
-132.900000000005
 20
-186.4887299916136
 30
0.0
 11
-82.90000000000146
 21
-162.679218738047
 31
0.0
  0
LINE
  5
2909
330
2B56
100
AcDbEntity
  8
0
 62
     0
100
AcDbLine
 10
-82.89999999999782
 20
-152.6792669939113
 30
0.0
 11
127.2665715186194
 21
-52.60000000000037
 31
0.0
  0
LINE
  5
290A
330
2B56
100
AcDbEntity
  8
0
 62
     0
100
AcDbLine
 10
-132.900000000005
 20
-176.4887782474798
 30
0.0
 11
-82.89999999999782
 21
-152.6792669939113
 31
0.0
  0
LINE
  5
290B
330
2B56
100
AcDbEntity
  8
0
 62
     0
100
AcDbLine
 10
-82.89999999999782
 20
-142.6793152497774
 30
0.0
 11
106.2666617816285
 21
-52.59999999999855
 31
0.0
  0
LINE
  5
290C
330
2B56
100
AcDbEntity
  8
0
 62
     0
100
AcDbLine
 10
-132.9000000000014
 20
-166.4888265033441
 30
0.0
 11
-82.90000000000146
 21
-142.6793152497794
 31
0.0
  0
LINE
  5
290D
330
2B56
100
AcDbEntity
  8
0
 62
     0
100
AcDbLine
 10
-82.89999999999782
 20
-132.6793635056437
 30
0.0
 11
85.26675204463391
 21
-52.60000000000037
 31
0.0
  0
LINE
  5
290E
330
2B56
100
AcDbEntity
  8
0
 62
     0
100
AcDbLine
 10
-132.9000000000014
 20
-156.4888747592104
 30
0.0
 11
-82.90000000000146
 21
-132.6793635056456
 31
0.0
  0
LINE
  5
290F
330
2B56
100
AcDbEntity
  8
0
 62
     0
100
AcDbLine
 10
-82.90000000000146
 20
-122.67941176151
 30
0.0
 11
64.26684230764658
 21
-52.60000000000037
 31
0.0
  0
LINE
  5
2910
330
2B56
100
AcDbEntity
  8
0
 62
     0
100
AcDbLine
 10
-132.9000000000014
 20
-146.4889230150766
 30
0.0
 11
-82.90000000000508
 21
-122.6794117615118
 31
0.0
  0
LINE
  5
2911
330
2B56
100
AcDbEntity
  8
0
 62
     0
100
AcDbLine
 10
-82.89999999999782
 20
-112.6794600173743
 30
0.0
 11
43.26693257065561
 21
-52.60000000000037
 31
0.0
  0
LINE
  5
2912
330
2B56
100
AcDbEntity
  8
0
 62
     0
100
AcDbLine
 10
-132.8999999999978
 20
-136.4889712709409
 30
0.0
 11
-82.90000000000146
 21
-112.6794600173762
 31
0.0
  0
LINE
  5
2913
330
2B56
100
AcDbEntity
  8
0
 62
     0
100
AcDbLine
 10
-82.90000000000146
 20
-102.6795082732405
 30
0.0
 11
22.26702283366103
 21
-52.60000000000037
 31
0.0
  0
LINE
  5
2914
330
2B56
100
AcDbEntity
  8
0
 62
     0
100
AcDbLine
 10
-132.900000000005
 20
-126.4890195268072
 30
0.0
 11
-82.90000000000508
 21
-102.6795082732424
 31
0.0
  0
LINE
  5
2915
330
2B56
100
AcDbEntity
  8
0
 62
     0
100
AcDbLine
 10
-82.89999999999421
 20
-92.67955652910314
 30
0.0
 11
1.267113096673706
 21
-52.60000000000037
 31
0.0
  0
LINE
  5
2916
330
2B56
100
AcDbEntity
  8
0
 62
     0
100
AcDbLine
 10
-132.9000000000014
 20
-116.4890677826715
 30
0.0
 11
-82.90000000000146
 21
-92.67955652910677
 31
0.0
  0
LINE
  5
2917
330
2B56
100
AcDbEntity
  8
0
 62
     0
100
AcDbLine
 10
-82.89999999999421
 20
-82.67960478496934
 30
0.0
 11
-19.73279664031725
 21
-52.60000000000218
 31
0.0
  0
LINE
  5
2918
330
2B56
100
AcDbEntity
  8
0
 62
     0
100
AcDbLine
 10
-132.9000000000014
 20
-106.4891160385396
 30
0.0
 11
-82.90000000000146
 21
-82.6796047849748
 31
0.0
  0
LINE
  5
2919
330
2B56
100
AcDbEntity
  8
0
 62
     0
100
AcDbLine
 10
-82.89999999999782
 20
-72.67965304083555
 30
0.0
 11
-40.73270637731184
 21
-52.60000000000218
 31
0.0
  0
LINE
  5
291A
330
2B56
100
AcDbEntity
  8
0
 62
     0
100
AcDbLine
 10
-132.9000000000014
 20
-96.48916429440395
 30
0.0
 11
-82.90000000000508
 21
-72.67965304083919
 31
0.0
  0
LINE
  5
291B
330
2B56
100
AcDbEntity
  8
0
 62
     0
100
AcDbLine
 10
-82.89999999999421
 20
-62.67970129669993
 30
0.0
 11
-61.73261611429914
 21
-52.60000000000037
 31
0.0
  0
LINE
  5
291C
330
2B56
100
AcDbEntity
  8
0
 62
     0
100
AcDbLine
 10
-132.8999999999978
 20
-86.48921255026834
 30
0.0
 11
-82.90000000000508
 21
-62.67970129670538
 31
0.0
  0
LINE
  5
291D
330
2B56
100
AcDbEntity
  8
0
 62
     0
100
AcDbLine
 10
-82.89999999999782
 20
-52.67974955256613
 30
0.0
 11
-82.73252585128648
 21
-52.59999999999855
 31
0.0
  0
LINE
  5
291E
330
2B56
100
AcDbEntity
  8
0
 62
     0
100
AcDbLine
 10
-132.900000000005
 20
-76.48926080613455
 30
0.0
 11
-82.90000000000508
 21
-52.67974955256978
 31
0.0
  0
LINE
  5
291F
330
2B56
100
AcDbEntity
  8
0
 62
     0
100
AcDbLine
 10
-132.9000000000014
 20
-66.48930906199892
 30
0.0
 11
-103.7324355882774
 21
-52.59999999999855
 31
0.0
  0
LINE
  5
2920
330
2B56
100
AcDbEntity
  8
0
 62
     0
100
AcDbLine
 10
-132.9000000000014
 20
-56.48935731786514
 30
0.0
 11
-124.732345325272
 21
-52.60000000000037
 31
0.0
  0
ENDBLK
  5
2921
330
2B56
100
AcDbEntity
  8
0
100
AcDbBlockEnd
  0
BLOCK
  5
2D24
330
2D23
100
AcDbEntity
  8
0
100
AcDbBlockBegin
  2
*U72
 70
     1
 10
0.0
 20
0.0
 30
0.0
  3
*U72
  1

  0
ENDBLK
  5
2D25
330
2D23
100
AcDbEntity
  8
0
100
AcDbBlockEnd
  0
BLOCK
  5
2FBC
330
2FBB
100
AcDbEntity
  8
0
100
AcDbBlockBegin
  2
*U73
 70
     1
 10
0.0
 20
0.0
 30
0.0
  3
*U73
  1

  0
ENDBLK
  5
2FBD
330
2FBB
100
AcDbEntity
  8
0
100
AcDbBlockEnd
  0
BLOCK
  5
3521
330
3520
100
AcDbEntity
  8
0
100
AcDbBlockBegin
  2
*U74
 70
     1
 10
0.0
 20
0.0
 30
0.0
  3
*U74
  1

  0
ENDBLK
  5
3522
330
3520
100
AcDbEntity
  8
0
100
AcDbBlockEnd
  0
BLOCK
  5
3602
330
3601
100
AcDbEntity
  8
0
100
AcDbBlockBegin
  2
*U75
 70
     1
 10
0.0
 20
0.0
 30
0.0
  3
*U75
  1

  0
ENDBLK
  5
3603
330
3601
100
AcDbEntity
  8
0
100
AcDbBlockEnd
  0
ENDSEC
  0
SECTION
  2
ENTITIES
  0
TEXT
  5
953
330
2A7E
100
AcDbEntity
  8
OUTLINE
  6
Continuous
 62
     3
100
AcDbText
 10
-418.231467
 20
13.715189
 30
0.0
 40
64.0
  1
 
 41
0.9
100
AcDbText
  0
TEXT
  5
954
330
2A7E
100
AcDbEntity
  8
OUTLINE
  6
Continuous
 62
     3
100
AcDbText
 10
-418.231467
 20
13.715189
 30
0.0
 40
64.0
  1
 
 41
0.9
100
AcDbText
  0
TEXT
  5
955
330
2A7E
100
AcDbEntity
  8
OUTLINE
  6
Continuous
 62
     3
100
AcDbText
 10
1341.41903
 20
-706.0588199999997
 30
0.0
 40
64.0
  1
 
 41
0.9
100
AcDbText
  0
TEXT
  5
956
330
2A7E
100
AcDbEntity
  8
OUTLINE
  6
Continuous
 62
     3
100
AcDbText
 10
1341.41903
 20
-706.0588199999997
 30
0.0
 40
64.0
  1
 
 41
0.9
100
AcDbText
  0
TEXT
  5
957
330
2A7E
100
AcDbEntity
  8
OUTLINE
  6
Continuous
 62
     3
100
AcDbText
 10
1341.41903
 20
-706.0588199999997
 30
0.0
 40
64.0
  1
 
 41
0.9
100
AcDbText
  0
TEXT
  5
958
330
2A7E
100
AcDbEntity
  8
OUTLINE
  6
Continuous
 62
     3
100
AcDbText
 10
1341.41903
 20
-706.0588199999997
 30
0.0
 40
64.0
  1
 
 41
0.9
100
AcDbText
  0
TEXT
  5
3231
330
2A7E
100
AcDbEntity
  8
ETC
100
AcDbText
 10
704.0370655150442
 20
3180.924039511118
 30
0.0
 40
64.0
  1
システム部材
 41
0.9
100
AcDbText
  0
TEXT
  5
3232
330
2A7E
100
AcDbEntity
  8
ETC
100
AcDbText
 10
710.2450635150423
 20
3281.807365511118
 30
0.0
 40
64.0
  1
W-25SDBFCM_6
 41
0.9
100
AcDbText
  0
TEXT
  5
3233
330
2A7E
100
AcDbEntity
  8
ETC
100
AcDbText
 10
704.0370655150442
 20
3080.924039511118
 30
0.0
 40
64.0
  1
W-25SDBFCM
 41
0.9
100
AcDbText
  0
LINE
  5
3234
330
2A7E
100
AcDbEntity
  8
SIZE
100
AcDbLine
 10
596.2902346233975
 20
2388.297062933756
 30
0.0
 11
596.2902346233975
 21
2234.193619277149
 31
0.0
  0
LINE
  5
3235
330
2A7E
100
AcDbEntity
  8
SIZE
100
AcDbLine
 10
299.2902346233975
 20
2388.297062933756
 30
0.0
 11
299.2902346233975
 21
2234.193619277149
 31
0.0
  0
LINE
  5
3236
330
2A7E
100
AcDbEntity
  8
SIZE
100
AcDbLine
 10
584.2902346233975
 20
2254.193619277149
 30
0.0
 11
311.2902346233975
 21
2254.193619277149
 31
0.0
  0
INSERT
  5
3237
330
2A7E
100
AcDbEntity
  8
SIZE
100
AcDbBlockReference
  2
_DOTBLANK
 10
596.2902346233975
 20
2254.193619277149
 30
0.0
 41
12.0
 42
12.0
 43
12.0
  0
INSERT
  5
3238
330
2A7E
100
AcDbEntity
  8
SIZE
100
AcDbBlockReference
  2
_DOTBLANK
 10
299.2902346233975
 20
2254.193619277149
 30
0.0
 41
12.0
 42
12.0
 43
12.0
 50
180.0
  0
MTEXT
  5
3239
330
2A7E
100
AcDbEntity
  8
SIZE
100
AcDbMText
 10
447.7902346233975
 20
2296.193619277149
 30
0.0
 40
64.0
 41
0.0
 71
     5
 72
     1
  1
\A1;297
 73
     1
 44
1.0
  0
LINE
  5
323A
330
2A7E
100
AcDbEntity
  8
SIZE
100
AcDbLine
 10
279.2902346233975
 20
2408.297062933756
 30
0.0
 11
102.4731526336879
 21
2408.297062933756
 31
0.0
  0
LINE
  5
323B
330
2A7E
100
AcDbEntity
  8
SIZE
100
AcDbLine
 10
245.2902346233975
 20
2705.297062933756
 30
0.0
 11
102.4731526336879
 21
2705.297062933756
 31
0.0
  0
LINE
  5
323C
330
2A7E
100
AcDbEntity
  8
SIZE
100
AcDbLine
 10
122.4731526336879
 20
2420.297062933756
 30
0.0
 11
122.4731526336879
 21
2693.297062933756
 31
0.0
  0
INSERT
  5
323D
330
2A7E
100
AcDbEntity
  8
SIZE
100
AcDbBlockReference
  2
_DOTBLANK
 10
122.4731526336879
 20
2408.297062933756
 30
0.0
 41
12.0
 42
12.0
 43
12.0
 50
270.0
  0
INSERT
  5
323E
330
2A7E
100
AcDbEntity
  8
SIZE
100
AcDbBlockReference
  2
_DOTBLANK
 10
122.4731526336879
 20
2705.297062933756
 30
0.0
 41
12.0
 42
12.0
 43
12.0
 50
90.0
  0
MTEXT
  5
323F
330
2A7E
100
AcDbEntity
  8
SIZE
100
AcDbMText
 10
80.47315263368796
 20
2558.385546595648
 30
0.0
 40
64.0
 41
0.0
 71
     5
 72
     1
  1
\A1;297
 11
0.0000000000000001
 21
1.0
 31
0.0
 73
     1
 44
1.0
  0
LINE
  5
3240
330
2A7E
100
AcDbEntity
  8
SIZE
100
AcDbLine
 10
612.7902346233975
 20
2737.797062933756
 30
0.0
 11
612.7902346233975
 21
2885.629153943373
 31
0.0
  0
LINE
  5
3241
330
2A7E
100
AcDbEntity
  8
SIZE
100
AcDbLine
 10
282.7902346233975
 20
2737.797062933756
 30
0.0
 11
282.7902346233975
 21
2885.629153943373
 31
0.0
  0
LINE
  5
3242
330
2A7E
100
AcDbEntity
  8
SIZE
100
AcDbLine
 10
600.7902346233975
 20
2865.629153943374
 30
0.0
 11
294.7902346233975
 21
2865.629153943374
 31
0.0
  0
INSERT
  5
3243
330
2A7E
100
AcDbEntity
  8
SIZE
100
AcDbBlockReference
  2
_DOTBLANK
 10
612.7902346233975
 20
2865.629153943374
 30
0.0
 41
12.0
 42
12.0
 43
12.0
  0
INSERT
  5
3244
330
2A7E
100
AcDbEntity
  8
SIZE
100
AcDbBlockReference
  2
_DOTBLANK
 10
282.7902346233975
 20
2865.629153943374
 30
0.0
 41
12.0
 42
12.0
 43
12.0
 50
180.0
  0
MTEXT
  5
3245
330
2A7E
100
AcDbEntity
  8
SIZE
100
AcDbMText
 10
447.2343569894043
 20
2907.629153943373
 30
0.0
 40
64.0
 41
0.0
 71
     5
 72
     1
  1
\A1;330
 73
     1
 44
1.0
  0
LINE
  5
3246
330
2A7E
100
AcDbEntity
  8
SIZE
100
AcDbLine
 10
630.2902346233975
 20
2725.297062933756
 30
0.0
 11
630.2902346233975
 21
3004.183655870273
 31
0.0
  0
LINE
  5
3247
330
2A7E
100
AcDbEntity
  8
SIZE
100
AcDbLine
 10
265.2902346233975
 20
2725.297062933756
 30
0.0
 11
265.2902346233975
 21
3004.183655870273
 31
0.0
  0
LINE
  5
3248
330
2A7E
100
AcDbEntity
  8
SIZE
100
AcDbLine
 10
618.2902346233975
 20
2984.183655870273
 30
0.0
 11
277.2902346233975
 21
2984.183655870273
 31
0.0
  0
INSERT
  5
3249
330
2A7E
100
AcDbEntity
  8
SIZE
100
AcDbBlockReference
  2
_DOTBLANK
 10
630.2902346233975
 20
2984.183655870273
 30
0.0
 41
12.0
 42
12.0
 43
12.0
  0
INSERT
  5
324A
330
2A7E
100
AcDbEntity
  8
SIZE
100
AcDbBlockReference
  2
_DOTBLANK
 10
265.2902346233975
 20
2984.183655870273
 30
0.0
 41
12.0
 42
12.0
 43
12.0
 50
180.0
  0
MTEXT
  5
324B
330
2A7E
100
AcDbEntity
  8
SIZE
100
AcDbMText
 10
447.7902346233975
 20
3026.183655870273
 30
0.0
 40
64.0
 41
0.0
 71
     5
 72
     1
  1
\A1;365
 73
     1
 44
1.0
  0
POINT
  5
324C
330
2A7E
100
AcDbEntity
  8
ARRANGE
100
AcDbPoint
 10
447.7902346233975
 20
2705.297062933756
 30
0.0
 39
50.0
  0
CIRCLE
  5
324D
330
2A7E
100
AcDbEntity
  8
ARRANGE
100
AcDbCircle
 10
447.7902346233975
 20
2705.297062933756
 30
0.0
 40
40.0
  0
LINE
  5
324E
330
2A7E
100
AcDbEntity
  8
BASIS
100
AcDbLine
 10
447.7902346233975
 20
2730.297062933756
 30
0.0
 11
447.7902346233975
 21
2383.297062933756
 31
0.0
  0
LINE
  5
324F
330
2A7E
100
AcDbEntity
  8
DETAIL
100
AcDbLine
 10
580.6902346233989
 20
2652.697062933756
 30
0.0
 11
580.6902346233989
 21
2423.897062933757
 31
0.0
  0
LINE
  5
3250
330
2A7E
100
AcDbEntity
  8
DETAIL
100
AcDbLine
 10
314.8902346233961
 20
2652.697062933756
 30
0.0
 11
314.8902346233961
 21
2423.897062933757
 31
0.0
  0
LINE
  5
3251
330
2A7E
100
AcDbEntity
  8
DETAIL
100
AcDbLine
 10
596.2902346233975
 20
2693.297062933756
 30
0.0
 11
596.2902346233975
 21
2408.297062933756
 31
0.0
  0
LINE
  5
3252
330
2A7E
100
AcDbEntity
  8
OUTLINE
100
AcDbLine
 10
299.2902346233975
 20
2693.297062933756
 30
0.0
 11
299.2902346233975
 21
2408.297062933756
 31
0.0
  0
LINE
  5
3253
330
2A7E
100
AcDbEntity
  8
DETAIL
100
AcDbLine
 10
299.2902346233975
 20
2693.297062933756
 30
0.0
 11
299.2902346233975
 21
2408.297062933756
 31
0.0
  0
LINE
  5
3254
330
2A7E
100
AcDbEntity
  8
DETAIL
100
AcDbLine
 10
314.8902346233961
 20
2652.697062933756
 30
0.0
 11
580.6902346233989
 21
2652.697062933756
 31
0.0
  0
LINE
  5
3255
330
2A7E
100
AcDbEntity
  8
DETAIL
100
AcDbLine
 10
299.2902346233975
 20
2668.297062933756
 30
0.0
 11
596.2902346233938
 21
2668.297062933756
 31
0.0
  0
LINE
  5
3256
330
2A7E
100
AcDbEntity
  8
DETAIL
100
AcDbLine
 10
265.2902346233975
 20
2705.297062933756
 30
0.0
 11
630.2902346233975
 21
2705.297062933756
 31
0.0
  0
LINE
  5
3257
330
2A7E
100
AcDbEntity
  8
DETAIL
100
AcDbLine
 10
265.2902346233975
 20
2693.297062933756
 30
0.0
 11
630.2902346233975
 21
2693.297062933756
 31
0.0
  0
LINE
  5
3258
330
2A7E
100
AcDbEntity
  8
DETAIL
100
AcDbLine
 10
265.2902346233975
 20
2705.297062933756
 30
0.0
 11
265.2902346233975
 21
2693.297062933756
 31
0.0
  0
LINE
  5
3259
330
2A7E
100
AcDbEntity
  8
NOTE
100
AcDbLine
 10
282.7902346233975
 20
2692.797062933756
 30
0.0
 11
282.7902346233975
 21
2717.797062933756
 31
0.0
  0
LINE
  5
325A
330
2A7E
100
AcDbEntity
  8
NOTE
100
AcDbLine
 10
612.7902346233975
 20
2717.797062933756
 30
0.0
 11
612.7902346233975
 21
2692.797062933756
 31
0.0
  0
LINE
  5
325B
330
2A7E
100
AcDbEntity
  8
DETAIL
100
AcDbLine
 10
630.2902346233975
 20
2705.297062933756
 30
0.0
 11
630.2902346233975
 21
2693.297062933756
 31
0.0
  0
LINE
  5
325C
330
2A7E
100
AcDbEntity
  8
DETAIL
100
AcDbLine
 10
314.8902346233961
 20
2423.897062933757
 30
0.0
 11
580.6902346233989
 21
2423.897062933757
 31
0.0
  0
LINE
  5
325D
330
2A7E
100
AcDbEntity
  8
OUTLINE
100
AcDbLine
 10
299.2902346233975
 20
2408.297062933756
 30
0.0
 11
596.2902346233975
 21
2408.297062933756
 31
0.0
  0
LINE
  5
325E
330
2A7E
100
AcDbEntity
  8
DETAIL
100
AcDbLine
 10
299.2902346233975
 20
2408.297062933756
 30
0.0
 11
596.2902346233975
 21
2408.297062933756
 31
0.0
  0
INSERT
  5
325F
330
2A7E
100
AcDbEntity
  8
NOTE
100
AcDbBlockReference
  2
_OPEN30
 10
282.7902346233975
 20
2705.297062933756
 30
0.0
 41
11.99999999999906
 42
12.0
 43
12.0
 50
312.6090116116846
1001
ACAD
1000
DSTYLE
1002
{
1070
    41
1040
12.0
1070
    42
1040
20.0
1070
    43
1040
200.0
1070
    44
1040
20.0
1070
    73
1070
     0
1070
    74
1070
     0
1070
    77
1070
     1
1070
    78
1070
     8
1070
   140
1040
64.0
1070
   147
1040
50.0
1070
   172
1070
     1
1070
   174
1070
     1
1070
   275
1070
     0
1070
   284
1070
     0
1070
   285
1070
     0
1070
   286
1070
     0
1070
   341
1005
2AD0
1070
   342
1005
2ACE
1002
}
  0
LWPOLYLINE
  5
3260
330
2A7E
100
AcDbEntity
  8
NOTE
100
AcDbPolyline
 90
        3
 70
     0
 43
0.0
 10
274.6663337872094
 20
2714.128950342672
 10
194.9208346311431
 20
2800.824157991769
 10
-353.6620225117141
 20
2800.824157991769
1001
ACAD
1000
DSTYLE
1002
{
1070
    41
1040
12.0
1070
    42
1040
20.0
1070
    43
1040
200.0
1070
    44
1040
20.0
1070
    73
1070
     0
1070
    74
1070
     0
1070
    77
1070
     1
1070
    78
1070
     8
1070
   140
1040
64.0
1070
   147
1040
50.0
1070
   172
1070
     1
1070
   174
1070
     1
1070
   275
1070
     0
1070
   284
1070
     0
1070
   285
1070
     0
1070
   286
1070
     0
1070
   341
1005
2AD0
1070
   342
1005
2ACE
1002
}
  0
TEXT
  5
3261
330
2A7E
100
AcDbEntity
  8
NOTE
100
AcDbText
 10
-361.890593940286
 20
2818.82415799177
 30
0.0
 40
64.0
  1
4×φ10取付穴
 41
0.9
100
AcDbText
  0
LINE
  5
3262
330
2A7E
100
AcDbEntity
  8
NOTE
100
AcDbLine
 39
50.0
 10
270.2902346233975
 20
2705.297062933756
 30
0.0
 11
295.2902346233975
 21
2705.297062933756
 31
0.0
  0
LINE
  5
3263
330
2A7E
100
AcDbEntity
  8
NOTE
100
AcDbLine
 39
50.0
 10
600.2902346233975
 20
2705.297062933756
 30
0.0
 11
625.2902346233975
 21
2705.297062933756
 31
0.0
  0
LINE
  5
3264
330
2A7E
100
AcDbEntity
  8
OUTLINE
100
AcDbLine
 10
596.2902346233975
 20
2693.297062933756
 30
0.0
 11
596.2902346233975
 21
2408.297062933756
 31
0.0
  0
LINE
  5
3265
330
2A7E
100
AcDbEntity
  8
OUTLINE
100
AcDbLine
 10
299.2902346233975
 20
2693.297062933756
 30
0.0
 11
299.2902346233975
 21
2408.297062933756
 31
0.0
  0
LINE
  5
3266
330
2A7E
100
AcDbEntity
  8
OUTLINE
100
AcDbLine
 10
299.2902346233975
 20
2668.297062933756
 30
0.0
 11
596.2902346233938
 21
2668.297062933756
 31
0.0
  0
LINE
  5
3267
330
2A7E
100
AcDbEntity
  8
OUTLINE
100
AcDbLine
 10
265.2902346233975
 20
2693.297062933756
 30
0.0
 11
630.2902346233975
 21
2693.297062933756
 31
0.0
  0
LINE
  5
3268
330
2A7E
100
AcDbEntity
  8
OUTLINE
100
AcDbLine
 10
299.2902346233975
 20
2408.297062933756
 30
0.0
 11
596.2902346233975
 21
2408.297062933756
 31
0.0
  0
LINE
  5
3269
330
2A7E
100
AcDbEntity
  8
OUTLINE
100
AcDbLine
 39
50.0
 10
265.2902346233975
 20
2693.297062933756
 30
0.0
 11
265.2902346233975
 21
2705.297062933756
 31
0.0
  0
LINE
  5
326A
330
2A7E
100
AcDbEntity
  8
OUTLINE
100
AcDbLine
 39
50.0
 10
265.2902346233975
 20
2705.297062933756
 30
0.0
 11
630.2902346233975
 21
2705.297062933756
 31
0.0
  0
LINE
  5
326B
330
2A7E
100
AcDbEntity
  8
OUTLINE
100
AcDbLine
 39
50.0
 10
630.2902346233975
 20
2705.297062933756
 30
0.0
 11
630.2902346233975
 21
2693.297062933756
 31
0.0
  0
LINE
  5
326C
330
2A7E
100
AcDbEntity
  8
DETAIL
100
AcDbLine
 10
580.6902346233989
 20
2652.697062933756
 30
0.0
 11
580.6902346233989
 21
2423.897062933757
 31
0.0
  0
LINE
  5
326D
330
2A7E
100
AcDbEntity
  8
DETAIL
100
AcDbLine
 10
314.8902346233961
 20
2652.697062933756
 30
0.0
 11
314.8902346233961
 21
2423.897062933757
 31
0.0
  0
LINE
  5
326E
330
2A7E
100
AcDbEntity
  8
DETAIL
100
AcDbLine
 10
314.8902346233961
 20
2652.697062933756
 30
0.0
 11
580.6902346233989
 21
2652.697062933756
 31
0.0
  0
LINE
  5
326F
330
2A7E
100
AcDbEntity
  8
DETAIL
100
AcDbLine
 10
314.8902346233961
 20
2423.897062933757
 30
0.0
 11
580.6902346233989
 21
2423.897062933757
 31
0.0
  0
LINE
  5
3270
330
2A7E
100
AcDbEntity
  8
DETAIL
100
AcDbLine
 10
314.8902346233961
 20
2652.697062933756
 30
0.0
 11
580.6902346233989
 21
2652.697062933756
 31
0.0
  0
LINE
  5
3271
330
2A7E
100
AcDbEntity
  8
DETAIL
100
AcDbLine
 10
314.8902346233961
 20
2423.897062933756
 30
0.0
 11
580.6902346233989
 21
2423.897062933756
 31
0.0
  0
LINE
  5
3272
330
2A7E
100
AcDbEntity
  8
DETAIL
100
AcDbLine
 10
314.8902346233961
 20
2652.697062933756
 30
0.0
 11
314.8902346233961
 21
2423.897062933756
 31
0.0
  0
LINE
  5
3273
330
2A7E
100
AcDbEntity
  8
DETAIL
100
AcDbLine
 10
580.6902346233989
 20
2652.697062933756
 30
0.0
 11
580.6902346233989
 21
2423.897062933756
 31
0.0
  0
LINE
  5
3274
330
2A7E
100
AcDbEntity
  8
DETAIL
100
AcDbLine
 10
314.8902346233851
 20
2652.125283488342
 30
0.0
 11
315.7479059815857
 21
2652.697062933754
 31
0.0
1001
ACAD
1010
0.0
1020
0.0
1030
0.0
1001
ACADANNOTATIVE
1000
AnnotativeData
1002
{
1070
     1
1070
     1
1002
}
  0
LINE
  5
3275
330
2A7E
100
AcDbEntity
  8
DETAIL
100
AcDbLine
 10
314.8902346233851
 20
2649.125316952927
 30
0.0
 11
320.2478672754703
 21
2652.697062933754
 31
0.0
1001
ACAD
1010
0.0
1020
0.0
1030
0.0
1001
ACADANNOTATIVE
1000
AnnotativeData
1002
{
1070
     1
1070
     1
1002
}
  0
LINE
  5
3276
330
2A7E
100
AcDbEntity
  8
DETAIL
100
AcDbLine
 10
314.8902346233888
 20
2646.125350417511
 30
0.0
 11
324.7478285693621
 21
2652.697062933754
 31
0.0
1001
ACAD
1010
0.0
1020
0.0
1030
0.0
1001
ACADANNOTATIVE
1000
AnnotativeData
1002
{
1070
     1
1070
     1
1002
}
  0
LINE
  5
3277
330
2A7E
100
AcDbEntity
  8
DETAIL
100
AcDbLine
 10
314.8902346233851
 20
2643.125383882094
 30
0.0
 11
329.2477898632467
 21
2652.697062933754
 31
0.0
1001
ACAD
1010
0.0
1020
0.0
1030
0.0
1001
ACADANNOTATIVE
1000
AnnotativeData
1002
{
1070
     1
1070
     1
1002
}
  0
LINE
  5
3278
330
2A7E
100
AcDbEntity
  8
DETAIL
100
AcDbLine
 10
314.8902346233851
 20
2640.125417346677
 30
0.0
 11
333.7477511571312
 21
2652.697062933754
 31
0.0
1001
ACAD
1010
0.0
1020
0.0
1030
0.0
1001
ACADANNOTATIVE
1000
AnnotativeData
1002
{
1070
     1
1070
     1
1002
}
  0
LINE
  5
3279
330
2A7E
100
AcDbEntity
  8
DETAIL
100
AcDbLine
 10
314.8902346233851
 20
2637.12545081126
 30
0.0
 11
338.2477124510158
 21
2652.697062933752
 31
0.0
1001
ACAD
1010
0.0
1020
0.0
1030
0.0
1001
ACADANNOTATIVE
1000
AnnotativeData
1002
{
1070
     1
1070
     1
1002
}
  0
LINE
  5
327A
330
2A7E
100
AcDbEntity
  8
DETAIL
100
AcDbLine
 10
314.8902346233851
 20
2634.125484275845
 30
0.0
 11
342.747673744904
 21
2652.697062933756
 31
0.0
1001
ACAD
1010
0.0
1020
0.0
1030
0.0
1001
ACADANNOTATIVE
1000
AnnotativeData
1002
{
1070
     1
1070
     1
1002
}
  0
LINE
  5
327B
330
2A7E
100
AcDbEntity
  8
DETAIL
100
AcDbLine
 10
314.8902346233851
 20
2631.125517740429
 30
0.0
 11
347.2476350387885
 21
2652.697062933754
 31
0.0
1001
ACAD
1010
0.0
1020
0.0
1030
0.0
1001
ACADANNOTATIVE
1000
AnnotativeData
1002
{
1070
     1
1070
     1
1002
}
  0
LINE
  5
327C
330
2A7E
100
AcDbEntity
  8
DETAIL
100
AcDbLine
 10
314.8902346233851
 20
2628.125551205012
 30
0.0
 11
351.7475963326731
 21
2652.697062933754
 31
0.0
1001
ACAD
1010
0.0
1020
0.0
1030
0.0
1001
ACADANNOTATIVE
1000
AnnotativeData
1002
{
1070
     1
1070
     1
1002
}
  0
LINE
  5
327D
330
2A7E
100
AcDbEntity
  8
DETAIL
100
AcDbLine
 10
314.8902346233888
 20
2625.125584669597
 30
0.0
 11
356.2475576265577
 21
2652.697062933752
 31
0.0
1001
ACAD
1010
0.0
1020
0.0
1030
0.0
1001
ACADANNOTATIVE
1000
AnnotativeData
1002
{
1070
     1
1070
     1
1002
}
  0
LINE
  5
327E
330
2A7E
100
AcDbEntity
  8
DETAIL
100
AcDbLine
 10
314.8902346233851
 20
2622.12561813418
 30
0.0
 11
360.7475189204422
 21
2652.697062933754
 31
0.0
1001
ACAD
1010
0.0
1020
0.0
1030
0.0
1001
ACADANNOTATIVE
1000
AnnotativeData
1002
{
1070
     1
1070
     1
1002
}
  0
LINE
  5
327F
330
2A7E
100
AcDbEntity
  8
DETAIL
100
AcDbLine
 10
314.8902346233851
 20
2619.125651598765
 30
0.0
 11
364.8902346233888
 21
2652.458899814618
 31
0.0
1001
ACAD
1010
0.0
1020
0.0
1030
0.0
1001
ACADANNOTATIVE
1000
AnnotativeData
1002
{
1070
     1
1070
     1
1002
}
  0
LINE
  5
3280
330
2A7E
100
AcDbEntity
  8
DETAIL
100
AcDbLine
 10
364.8902346233924
 20
2652.458899814621
 30
0.0
 11
365.2474802143304
 21
2652.697062933756
 31
0.0
1001
ACAD
1010
0.0
1020
0.0
1030
0.0
1001
ACADANNOTATIVE
1000
AnnotativeData
1002
{
1070
     1
1070
     1
1002
}
  0
LINE
  5
3281
330
2A7E
100
AcDbEntity
  8
DETAIL
100
AcDbLine
 10
314.8902346233851
 20
2616.125685063347
 30
0.0
 11
364.8902346233924
 21
2649.458933279202
 31
0.0
1001
ACAD
1010
0.0
1020
0.0
1030
0.0
1001
ACADANNOTATIVE
1000
AnnotativeData
1002
{
1070
     1
1070
     1
1002
}
  0
LINE
  5
3282
330
2A7E
100
AcDbEntity
  8
DETAIL
100
AcDbLine
 10
364.8902346233924
 20
2649.458933279202
 30
0.0
 11
369.7474415082149
 21
2652.697062933752
 31
0.0
1001
ACAD
1010
0.0
1020
0.0
1030
0.0
1001
ACADANNOTATIVE
1000
AnnotativeData
1002
{
1070
     1
1070
     1
1002
}
  0
LINE
  5
3283
330
2A7E
100
AcDbEntity
  8
DETAIL
100
AcDbLine
 10
314.8902346233851
 20
2613.125718527931
 30
0.0
 11
364.8902346233888
 21
2646.458966743785
 31
0.0
1001
ACAD
1010
0.0
1020
0.0
1030
0.0
1001
ACADANNOTATIVE
1000
AnnotativeData
1002
{
1070
     1
1070
     1
1002
}
  0
LINE
  5
3284
330
2A7E
100
AcDbEntity
  8
DETAIL
100
AcDbLine
 10
364.8902346233888
 20
2646.458966743785
 30
0.0
 11
374.2474028020995
 21
2652.697062933752
 31
0.0
1001
ACAD
1010
0.0
1020
0.0
1030
0.0
1001
ACADANNOTATIVE
1000
AnnotativeData
1002
{
1070
     1
1070
     1
1002
}
  0
LINE
  5
3285
330
2A7E
100
AcDbEntity
  8
DETAIL
100
AcDbLine
 10
314.8902346233851
 20
2610.125751992517
 30
0.0
 11
364.8902346233924
 21
2643.45900020837
 31
0.0
1001
ACAD
1010
0.0
1020
0.0
1030
0.0
1001
ACADANNOTATIVE
1000
AnnotativeData
1002
{
1070
     1
1070
     1
1002
}
  0
LINE
  5
3286
330
2A7E
100
AcDbEntity
  8
DETAIL
100
AcDbLine
 10
364.8902346233924
 20
2643.45900020837
 30
0.0
 11
378.7473640959841
 21
2652.697062933754
 31
0.0
1001
ACAD
1010
0.0
1020
0.0
1030
0.0
1001
ACADANNOTATIVE
1000
AnnotativeData
1002
{
1070
     1
1070
     1
1002
}
  0
LINE
  5
3287
330
2A7E
100
AcDbEntity
  8
DETAIL
100
AcDbLine
 10
314.8902346233851
 20
2607.125785457098
 30
0.0
 11
364.8902346233888
 21
2640.459033672953
 31
0.0
1001
ACAD
1010
0.0
1020
0.0
1030
0.0
1001
ACADANNOTATIVE
1000
AnnotativeData
1002
{
1070
     1
1070
     1
1002
}
  0
LINE
  5
3288
330
2A7E
100
AcDbEntity
  8
DETAIL
100
AcDbLine
 10
364.8902346233888
 20
2640.459033672953
 30
0.0
 11
383.2473253898722
 21
2652.697062933754
 31
0.0
1001
ACAD
1010
0.0
1020
0.0
1030
0.0
1001
ACADANNOTATIVE
1000
AnnotativeData
1002
{
1070
     1
1070
     1
1002
}
  0
LINE
  5
3289
330
2A7E
100
AcDbEntity
  8
DETAIL
100
AcDbLine
 10
314.8902346233851
 20
2604.125818921684
 30
0.0
 11
364.8902346233924
 21
2637.459067137539
 31
0.0
1001
ACAD
1010
0.0
1020
0.0
1030
0.0
1001
ACADANNOTATIVE
1000
AnnotativeData
1002
{
1070
     1
1070
     1
1002
}
  0
LINE
  5
328A
330
2A7E
100
AcDbEntity
  8
DETAIL
100
AcDbLine
 10
364.8902346233924
 20
2637.459067137539
 30
0.0
 11
387.7472866837568
 21
2652.697062933754
 31
0.0
1001
ACAD
1010
0.0
1020
0.0
1030
0.0
1001
ACADANNOTATIVE
1000
AnnotativeData
1002
{
1070
     1
1070
     1
1002
}
  0
LINE
  5
328B
330
2A7E
100
AcDbEntity
  8
DETAIL
100
AcDbLine
 10
314.8902346233851
 20
2601.125852386266
 30
0.0
 11
364.8902346233888
 21
2634.45910060212
 31
0.0
1001
ACAD
1010
0.0
1020
0.0
1030
0.0
1001
ACADANNOTATIVE
1000
AnnotativeData
1002
{
1070
     1
1070
     1
1002
}
  0
LINE
  5
328C
330
2A7E
100
AcDbEntity
  8
DETAIL
100
AcDbLine
 10
364.8902346233888
 20
2634.45910060212
 30
0.0
 11
392.247247977645
 21
2652.697062933756
 31
0.0
1001
ACAD
1010
0.0
1020
0.0
1030
0.0
1001
ACADANNOTATIVE
1000
AnnotativeData
1002
{
1070
     1
1070
     1
1002
}
  0
LINE
  5
328D
330
2A7E
100
AcDbEntity
  8
DETAIL
100
AcDbLine
 10
314.8902346233851
 20
2598.12588585085
 30
0.0
 11
364.8902346233924
 21
2631.459134066705
 31
0.0
1001
ACAD
1010
0.0
1020
0.0
1030
0.0
1001
ACADANNOTATIVE
1000
AnnotativeData
1002
{
1070
     1
1070
     1
1002
}
  0
LINE
  5
328E
330
2A7E
100
AcDbEntity
  8
DETAIL
100
AcDbLine
 10
364.8902346233924
 20
2631.459134066705
 30
0.0
 11
396.7472092715259
 21
2652.697062933752
 31
0.0
1001
ACAD
1010
0.0
1020
0.0
1030
0.0
1001
ACADANNOTATIVE
1000
AnnotativeData
1002
{
1070
     1
1070
     1
1002
}
  0
LINE
  5
328F
330
2A7E
100
AcDbEntity
  8
DETAIL
100
AcDbLine
 10
314.8902346233851
 20
2595.125919315435
 30
0.0
 11
364.8902346233888
 21
2628.459167531288
 31
0.0
1001
ACAD
1010
0.0
1020
0.0
1030
0.0
1001
ACADANNOTATIVE
1000
AnnotativeData
1002
{
1070
     1
1070
     1
1002
}
  0
LINE
  5
3290
330
2A7E
100
AcDbEntity
  8
DETAIL
100
AcDbLine
 10
364.8902346233888
 20
2628.459167531288
 30
0.0
 11
401.2471705654141
 21
2652.697062933754
 31
0.0
1001
ACAD
1010
0.0
1020
0.0
1030
0.0
1001
ACADANNOTATIVE
1000
AnnotativeData
1002
{
1070
     1
1070
     1
1002
}
  0
LINE
  5
3291
330
2A7E
100
AcDbEntity
  8
DETAIL
100
AcDbLine
 10
314.8902346233851
 20
2592.12595278002
 30
0.0
 11
364.8902346233888
 21
2625.459200995873
 31
0.0
1001
ACAD
1010
0.0
1020
0.0
1030
0.0
1001
ACADANNOTATIVE
1000
AnnotativeData
1002
{
1070
     1
1070
     1
1002
}
  0
LINE
  5
3292
330
2A7E
100
AcDbEntity
  8
DETAIL
100
AcDbLine
 10
364.8902346233924
 20
2625.459200995874
 30
0.0
 11
405.7471318592986
 21
2652.697062933754
 31
0.0
1001
ACAD
1010
0.0
1020
0.0
1030
0.0
1001
ACADANNOTATIVE
1000
AnnotativeData
1002
{
1070
     1
1070
     1
1002
}
  0
LINE
  5
3293
330
2A7E
100
AcDbEntity
  8
DETAIL
100
AcDbLine
 10
314.8902346233851
 20
2589.125986244602
 30
0.0
 11
364.8902346233888
 21
2622.459234460457
 31
0.0
1001
ACAD
1010
0.0
1020
0.0
1030
0.0
1001
ACADANNOTATIVE
1000
AnnotativeData
1002
{
1070
     1
1070
     1
1002
}
  0
LINE
  5
3294
330
2A7E
100
AcDbEntity
  8
DETAIL
100
AcDbLine
 10
364.8902346233888
 20
2622.459234460457
 30
0.0
 11
410.2470931531831
 21
2652.697062933754
 31
0.0
1001
ACAD
1010
0.0
1020
0.0
1030
0.0
1001
ACADANNOTATIVE
1000
AnnotativeData
1002
{
1070
     1
1070
     1
1002
}
  0
LINE
  5
3295
330
2A7E
100
AcDbEntity
  8
DETAIL
100
AcDbLine
 10
314.8902346233851
 20
2586.126019709184
 30
0.0
 11
364.8902346233888
 21
2619.459267925038
 31
0.0
1001
ACAD
1010
0.0
1020
0.0
1030
0.0
1001
ACADANNOTATIVE
1000
AnnotativeData
1002
{
1070
     1
1070
     1
1002
}
  0
LINE
  5
3296
330
2A7E
100
AcDbEntity
  8
DETAIL
100
AcDbLine
 10
364.8902346233924
 20
2619.45926792504
 30
0.0
 11
414.7470544470677
 21
2652.697062933752
 31
0.0
1001
ACAD
1010
0.0
1020
0.0
1030
0.0
1001
ACADANNOTATIVE
1000
AnnotativeData
1002
{
1070
     1
1070
     1
1002
}
  0
LINE
  5
3297
330
2A7E
100
AcDbEntity
  8
DETAIL
100
AcDbLine
 10
314.8902346233851
 20
2583.12605317377
 30
0.0
 11
364.8902346233924
 21
2616.459301389625
 31
0.0
1001
ACAD
1010
0.0
1020
0.0
1030
0.0
1001
ACADANNOTATIVE
1000
AnnotativeData
1002
{
1070
     1
1070
     1
1002
}
  0
LINE
  5
3298
330
2A7E
100
AcDbEntity
  8
DETAIL
100
AcDbLine
 10
364.8902346233924
 20
2616.459301389625
 30
0.0
 11
419.2470157409558
 21
2652.697062933754
 31
0.0
1001
ACAD
1010
0.0
1020
0.0
1030
0.0
1001
ACADANNOTATIVE
1000
AnnotativeData
1002
{
1070
     1
1070
     1
1002
}
  0
LINE
  5
3299
330
2A7E
100
AcDbEntity
  8
DETAIL
100
AcDbLine
 10
314.8902346233851
 20
2580.126086638355
 30
0.0
 11
364.8902346233888
 21
2613.459334854208
 31
0.0
1001
ACAD
1010
0.0
1020
0.0
1030
0.0
1001
ACADANNOTATIVE
1000
AnnotativeData
1002
{
1070
     1
1070
     1
1002
}
  0
LINE
  5
329A
330
2A7E
100
AcDbEntity
  8
DETAIL
100
AcDbLine
 10
364.8902346233888
 20
2613.459334854208
 30
0.0
 11
423.7469770348368
 21
2652.697062933754
 31
0.0
1001
ACAD
1010
0.0
1020
0.0
1030
0.0
1001
ACADANNOTATIVE
1000
AnnotativeData
1002
{
1070
     1
1070
     1
1002
}
  0
LINE
  5
329B
330
2A7E
100
AcDbEntity
  8
DETAIL
100
AcDbLine
 10
314.8902346233851
 20
2577.126120102938
 30
0.0
 11
364.8902346233924
 21
2610.459368318792
 31
0.0
1001
ACAD
1010
0.0
1020
0.0
1030
0.0
1001
ACADANNOTATIVE
1000
AnnotativeData
1002
{
1070
     1
1070
     1
1002
}
  0
LINE
  5
329C
330
2A7E
100
AcDbEntity
  8
DETAIL
100
AcDbLine
 10
364.8902346233924
 20
2610.459368318792
 30
0.0
 11
428.2469383287287
 21
2652.697062933754
 31
0.0
1001
ACAD
1010
0.0
1020
0.0
1030
0.0
1001
ACADANNOTATIVE
1000
AnnotativeData
1002
{
1070
     1
1070
     1
1002
}
  0
LINE
  5
329D
330
2A7E
100
AcDbEntity
  8
DETAIL
100
AcDbLine
 10
314.8902346233851
 20
2574.126153567521
 30
0.0
 11
364.8902346233888
 21
2607.459401783373
 31
0.0
1001
ACAD
1010
0.0
1020
0.0
1030
0.0
1001
ACADANNOTATIVE
1000
AnnotativeData
1002
{
1070
     1
1070
     1
1002
}
  0
LINE
  5
329E
330
2A7E
100
AcDbEntity
  8
DETAIL
100
AcDbLine
 10
364.8902346233888
 20
2607.459401783373
 30
0.0
 11
432.7468996226132
 21
2652.697062933754
 31
0.0
1001
ACAD
1010
0.0
1020
0.0
1030
0.0
1001
ACADANNOTATIVE
1000
AnnotativeData
1002
{
1070
     1
1070
     1
1002
}
  0
LINE
  5
329F
330
2A7E
100
AcDbEntity
  8
DETAIL
100
AcDbLine
 10
314.8902346233851
 20
2571.126187032105
 30
0.0
 11
364.8902346233888
 21
2604.459435247958
 31
0.0
1001
ACAD
1010
0.0
1020
0.0
1030
0.0
1001
ACADANNOTATIVE
1000
AnnotativeData
1002
{
1070
     1
1070
     1
1002
}
  0
LINE
  5
32A0
330
2A7E
100
AcDbEntity
  8
DETAIL
100
AcDbLine
 10
364.8902346233924
 20
2604.459435247961
 30
0.0
 11
437.2468609164976
 21
2652.697062933752
 31
0.0
1001
ACAD
1010
0.0
1020
0.0
1030
0.0
1001
ACADANNOTATIVE
1000
AnnotativeData
1002
{
1070
     1
1070
     1
1002
}
  0
LINE
  5
32A1
330
2A7E
100
AcDbEntity
  8
DETAIL
100
AcDbLine
 10
314.8902346233851
 20
2568.12622049669
 30
0.0
 11
364.8902346233888
 21
2601.459468712544
 31
0.0
1001
ACAD
1010
0.0
1020
0.0
1030
0.0
1001
ACADANNOTATIVE
1000
AnnotativeData
1002
{
1070
     1
1070
     1
1002
}
  0
LINE
  5
32A2
330
2A7E
100
AcDbEntity
  8
DETAIL
100
AcDbLine
 10
364.8902346233888
 20
2601.459468712544
 30
0.0
 11
441.746822210386
 21
2652.697062933756
 31
0.0
1001
ACAD
1010
0.0
1020
0.0
1030
0.0
1001
ACADANNOTATIVE
1000
AnnotativeData
1002
{
1070
     1
1070
     1
1002
}
  0
LINE
  5
32A3
330
2A7E
100
AcDbEntity
  8
DETAIL
100
AcDbLine
 10
314.8902346233851
 20
2565.126253961271
 30
0.0
 11
364.8902346233888
 21
2598.459502177127
 31
0.0
1001
ACAD
1010
0.0
1020
0.0
1030
0.0
1001
ACADANNOTATIVE
1000
AnnotativeData
1002
{
1070
     1
1070
     1
1002
}
  0
LINE
  5
32A4
330
2A7E
100
AcDbEntity
  8
DETAIL
100
AcDbLine
 10
364.8902346233924
 20
2598.459502177127
 30
0.0
 11
446.2467835042668
 21
2652.697062933754
 31
0.0
1001
ACAD
1010
0.0
1020
0.0
1030
0.0
1001
ACADANNOTATIVE
1000
AnnotativeData
1002
{
1070
     1
1070
     1
1002
}
  0
LINE
  5
32A5
330
2A7E
100
AcDbEntity
  8
DETAIL
100
AcDbLine
 10
314.8902346233851
 20
2562.126287425856
 30
0.0
 11
364.8902346233924
 21
2595.45953564171
 31
0.0
1001
ACAD
1010
0.0
1020
0.0
1030
0.0
1001
ACADANNOTATIVE
1000
AnnotativeData
1002
{
1070
     1
1070
     1
1002
}
  0
LINE
  5
32A6
330
2A7E
100
AcDbEntity
  8
DETAIL
100
AcDbLine
 10
364.8902346233924
 20
2595.45953564171
 30
0.0
 11
450.7467447981548
 21
2652.697062933754
 31
0.0
1001
ACAD
1010
0.0
1020
0.0
1030
0.0
1001
ACADANNOTATIVE
1000
AnnotativeData
1002
{
1070
     1
1070
     1
1002
}
  0
LINE
  5
32A7
330
2A7E
100
AcDbEntity
  8
DETAIL
100
AcDbLine
 10
314.8902346233851
 20
2559.12632089044
 30
0.0
 11
364.8902346233888
 21
2592.459569106293
 31
0.0
1001
ACAD
1010
0.0
1020
0.0
1030
0.0
1001
ACADANNOTATIVE
1000
AnnotativeData
1002
{
1070
     1
1070
     1
1002
}
  0
LINE
  5
32A8
330
2A7E
100
AcDbEntity
  8
DETAIL
100
AcDbLine
 10
364.8902346233888
 20
2592.459569106293
 30
0.0
 11
455.2467060920396
 21
2652.697062933752
 31
0.0
1001
ACAD
1010
0.0
1020
0.0
1030
0.0
1001
ACADANNOTATIVE
1000
AnnotativeData
1002
{
1070
     1
1070
     1
1002
}
  0
LINE
  5
32A9
330
2A7E
100
AcDbEntity
  8
DETAIL
100
AcDbLine
 10
314.8902346233851
 20
2556.126354355023
 30
0.0
 11
364.8902346233924
 21
2589.459602570878
 31
0.0
1001
ACAD
1010
0.0
1020
0.0
1030
0.0
1001
ACADANNOTATIVE
1000
AnnotativeData
1002
{
1070
     1
1070
     1
1002
}
  0
LINE
  5
32AA
330
2A7E
100
AcDbEntity
  8
DETAIL
100
AcDbLine
 10
364.8902346233924
 20
2589.459602570878
 30
0.0
 11
459.7466673859278
 21
2652.697062933756
 31
0.0
1001
ACAD
1010
0.0
1020
0.0
1030
0.0
1001
ACADANNOTATIVE
1000
AnnotativeData
1002
{
1070
     1
1070
     1
1002
}
  0
LINE
  5
32AB
330
2A7E
100
AcDbEntity
  8
DETAIL
100
AcDbLine
 10
314.8902346233851
 20
2553.126387819608
 30
0.0
 11
364.8902346233888
 21
2586.459636035463
 31
0.0
1001
ACAD
1010
0.0
1020
0.0
1030
0.0
1001
ACADANNOTATIVE
1000
AnnotativeData
1002
{
1070
     1
1070
     1
1002
}
  0
LINE
  5
32AC
330
2A7E
100
AcDbEntity
  8
DETAIL
100
AcDbLine
 10
364.8902346233888
 20
2586.459636035463
 30
0.0
 11
464.2466286798123
 21
2652.697062933754
 31
0.0
1001
ACAD
1010
0.0
1020
0.0
1030
0.0
1001
ACADANNOTATIVE
1000
AnnotativeData
1002
{
1070
     1
1070
     1
1002
}
  0
LINE
  5
32AD
330
2A7E
100
AcDbEntity
  8
DETAIL
100
AcDbLine
 10
314.8902346233851
 20
2550.126421284192
 30
0.0
 11
364.8902346233924
 21
2583.459669500046
 31
0.0
1001
ACAD
1010
0.0
1020
0.0
1030
0.0
1001
ACADANNOTATIVE
1000
AnnotativeData
1002
{
1070
     1
1070
     1
1002
}
  0
LINE
  5
32AE
330
2A7E
100
AcDbEntity
  8
DETAIL
100
AcDbLine
 10
364.8902346233924
 20
2583.459669500046
 30
0.0
 11
468.7465899736969
 21
2652.697062933754
 31
0.0
1001
ACAD
1010
0.0
1020
0.0
1030
0.0
1001
ACADANNOTATIVE
1000
AnnotativeData
1002
{
1070
     1
1070
     1
1002
}
  0
LINE
  5
32AF
330
2A7E
100
AcDbEntity
  8
DETAIL
100
AcDbLine
 10
314.8902346233851
 20
2547.126454748774
 30
0.0
 11
364.8902346233888
 21
2580.459702964629
 31
0.0
1001
ACAD
1010
0.0
1020
0.0
1030
0.0
1001
ACADANNOTATIVE
1000
AnnotativeData
1002
{
1070
     1
1070
     1
1002
}
  0
LINE
  5
32B0
330
2A7E
100
AcDbEntity
  8
DETAIL
100
AcDbLine
 10
364.8902346233888
 20
2580.459702964629
 30
0.0
 11
473.2465512675815
 21
2652.697062933752
 31
0.0
1001
ACAD
1010
0.0
1020
0.0
1030
0.0
1001
ACADANNOTATIVE
1000
AnnotativeData
1002
{
1070
     1
1070
     1
1002
}
  0
LINE
  5
32B1
330
2A7E
100
AcDbEntity
  8
DETAIL
100
AcDbLine
 10
314.8902346233851
 20
2544.126488213358
 30
0.0
 11
364.8902346233924
 21
2577.459736429213
 31
0.0
1001
ACAD
1010
0.0
1020
0.0
1030
0.0
1001
ACADANNOTATIVE
1000
AnnotativeData
1002
{
1070
     1
1070
     1
1002
}
  0
LINE
  5
32B2
330
2A7E
100
AcDbEntity
  8
DETAIL
100
AcDbLine
 10
364.8902346233924
 20
2577.459736429213
 30
0.0
 11
477.746512561466
 21
2652.697062933754
 31
0.0
1001
ACAD
1010
0.0
1020
0.0
1030
0.0
1001
ACADANNOTATIVE
1000
AnnotativeData
1002
{
1070
     1
1070
     1
1002
}
  0
LINE
  5
32B3
330
2A7E
100
AcDbEntity
  8
DETAIL
100
AcDbLine
 10
314.8902346233851
 20
2541.126521677943
 30
0.0
 11
364.8902346233924
 21
2574.459769893798
 31
0.0
1001
ACAD
1010
0.0
1020
0.0
1030
0.0
1001
ACADANNOTATIVE
1000
AnnotativeData
1002
{
1070
     1
1070
     1
1002
}
  0
LINE
  5
32B4
330
2A7E
100
AcDbEntity
  8
DETAIL
100
AcDbLine
 10
364.8902346233924
 20
2574.459769893798
 30
0.0
 11
482.2464738553541
 21
2652.697062933754
 31
0.0
1001
ACAD
1010
0.0
1020
0.0
1030
0.0
1001
ACADANNOTATIVE
1000
AnnotativeData
1002
{
1070
     1
1070
     1
1002
}
  0
LINE
  5
32B5
330
2A7E
100
AcDbEntity
  8
DETAIL
100
AcDbLine
 10
314.8902346233851
 20
2538.126555142526
 30
0.0
 11
364.8902346233888
 21
2571.459803358381
 31
0.0
1001
ACAD
1010
0.0
1020
0.0
1030
0.0
1001
ACADANNOTATIVE
1000
AnnotativeData
1002
{
1070
     1
1070
     1
1002
}
  0
LINE
  5
32B6
330
2A7E
100
AcDbEntity
  8
DETAIL
100
AcDbLine
 10
364.8902346233888
 20
2571.459803358381
 30
0.0
 11
486.7464351492351
 21
2652.697062933752
 31
0.0
1001
ACAD
1010
0.0
1020
0.0
1030
0.0
1001
ACADANNOTATIVE
1000
AnnotativeData
1002
{
1070
     1
1070
     1
1002
}
  0
LINE
  5
32B7
330
2A7E
100
AcDbEntity
  8
DETAIL
100
AcDbLine
 10
314.8902346233851
 20
2535.12658860711
 30
0.0
 11
364.8902346233924
 21
2568.459836822964
 31
0.0
1001
ACAD
1010
0.0
1020
0.0
1030
0.0
1001
ACADANNOTATIVE
1000
AnnotativeData
1002
{
1070
     1
1070
     1
1002
}
  0
LINE
  5
32B8
330
2A7E
100
AcDbEntity
  8
DETAIL
100
AcDbLine
 10
364.8902346233924
 20
2568.459836822964
 30
0.0
 11
491.2463964431268
 21
2652.697062933754
 31
0.0
1001
ACAD
1010
0.0
1020
0.0
1030
0.0
1001
ACADANNOTATIVE
1000
AnnotativeData
1002
{
1070
     1
1070
     1
1002
}
  0
LINE
  5
32B9
330
2A7E
100
AcDbEntity
  8
DETAIL
100
AcDbLine
 10
314.8902346233851
 20
2532.126622071694
 30
0.0
 11
364.8902346233888
 21
2565.459870287548
 31
0.0
1001
ACAD
1010
0.0
1020
0.0
1030
0.0
1001
ACADANNOTATIVE
1000
AnnotativeData
1002
{
1070
     1
1070
     1
1002
}
  0
LINE
  5
32BA
330
2A7E
100
AcDbEntity
  8
DETAIL
100
AcDbLine
 10
364.8902346233888
 20
2565.459870287548
 30
0.0
 11
495.7463577370078
 21
2652.697062933754
 31
0.0
1001
ACAD
1010
0.0
1020
0.0
1030
0.0
1001
ACADANNOTATIVE
1000
AnnotativeData
1002
{
1070
     1
1070
     1
1002
}
  0
LINE
  5
32BB
330
2A7E
100
AcDbEntity
  8
DETAIL
100
AcDbLine
 10
314.8902346233851
 20
2529.126655536281
 30
0.0
 11
364.8902346233924
 21
2562.459903752133
 31
0.0
1001
ACAD
1010
0.0
1020
0.0
1030
0.0
1001
ACADANNOTATIVE
1000
AnnotativeData
1002
{
1070
     1
1070
     1
1002
}
  0
LINE
  5
32BC
330
2A7E
100
AcDbEntity
  8
DETAIL
100
AcDbLine
 10
364.8902346233924
 20
2562.459903752133
 30
0.0
 11
500.2463190308961
 21
2652.697062933756
 31
0.0
1001
ACAD
1010
0.0
1020
0.0
1030
0.0
1001
ACADANNOTATIVE
1000
AnnotativeData
1002
{
1070
     1
1070
     1
1002
}
  0
LINE
  5
32BD
330
2A7E
100
AcDbEntity
  8
DETAIL
100
AcDbLine
 10
314.8902346233851
 20
2526.126689000861
 30
0.0
 11
364.8902346233924
 21
2559.459937216716
 31
0.0
1001
ACAD
1010
0.0
1020
0.0
1030
0.0
1001
ACADANNOTATIVE
1000
AnnotativeData
1002
{
1070
     1
1070
     1
1002
}
  0
LINE
  5
32BE
330
2A7E
100
AcDbEntity
  8
DETAIL
100
AcDbLine
 10
364.8902346233924
 20
2559.459937216716
 30
0.0
 11
504.7462803247806
 21
2652.697062933752
 31
0.0
1001
ACAD
1010
0.0
1020
0.0
1030
0.0
1001
ACADANNOTATIVE
1000
AnnotativeData
1002
{
1070
     1
1070
     1
1002
}
  0
LINE
  5
32BF
330
2A7E
100
AcDbEntity
  8
DETAIL
100
AcDbLine
 10
314.8902346233851
 20
2523.126722465446
 30
0.0
 11
364.8902346233924
 21
2556.459970681301
 31
0.0
1001
ACAD
1010
0.0
1020
0.0
1030
0.0
1001
ACADANNOTATIVE
1000
AnnotativeData
1002
{
1070
     1
1070
     1
1002
}
  0
LINE
  5
32C0
330
2A7E
100
AcDbEntity
  8
DETAIL
100
AcDbLine
 10
364.8902346233924
 20
2556.459970681301
 30
0.0
 11
509.2462416186688
 21
2652.697062933754
 31
0.0
1001
ACAD
1010
0.0
1020
0.0
1030
0.0
1001
ACADANNOTATIVE
1000
AnnotativeData
1002
{
1070
     1
1070
     1
1002
}
  0
LINE
  5
32C1
330
2A7E
100
AcDbEntity
  8
DETAIL
100
AcDbLine
 10
314.8902346233851
 20
2520.126755930027
 30
0.0
 11
364.8902346233924
 21
2553.460004145882
 31
0.0
1001
ACAD
1010
0.0
1020
0.0
1030
0.0
1001
ACADANNOTATIVE
1000
AnnotativeData
1002
{
1070
     1
1070
     1
1002
}
  0
LINE
  5
32C2
330
2A7E
100
AcDbEntity
  8
DETAIL
100
AcDbLine
 10
364.8902346233924
 20
2553.460004145882
 30
0.0
 11
513.7462029125495
 21
2652.697062933752
 31
0.0
1001
ACAD
1010
0.0
1020
0.0
1030
0.0
1001
ACADANNOTATIVE
1000
AnnotativeData
1002
{
1070
     1
1070
     1
1002
}
  0
LINE
  5
32C3
330
2A7E
100
AcDbEntity
  8
DETAIL
100
AcDbLine
 10
314.8902346233851
 20
2517.126789394613
 30
0.0
 11
364.8902346233888
 21
2550.460037610466
 31
0.0
1001
ACAD
1010
0.0
1020
0.0
1030
0.0
1001
ACADANNOTATIVE
1000
AnnotativeData
1002
{
1070
     1
1070
     1
1002
}
  0
LINE
  5
32C4
330
2A7E
100
AcDbEntity
  8
DETAIL
100
AcDbLine
 10
364.8902346233888
 20
2550.460037610466
 30
0.0
 11
518.2461642064379
 21
2652.697062933754
 31
0.0
1001
ACAD
1010
0.0
1020
0.0
1030
0.0
1001
ACADANNOTATIVE
1000
AnnotativeData
1002
{
1070
     1
1070
     1
1002
}
  0
LINE
  5
32C5
330
2A7E
100
AcDbEntity
  8
DETAIL
100
AcDbLine
 10
314.8902346233851
 20
2514.126822859198
 30
0.0
 11
364.8902346233924
 21
2547.460071075051
 31
0.0
1001
ACAD
1010
0.0
1020
0.0
1030
0.0
1001
ACADANNOTATIVE
1000
AnnotativeData
1002
{
1070
     1
1070
     1
1002
}
  0
LINE
  5
32C6
330
2A7E
100
AcDbEntity
  8
DETAIL
100
AcDbLine
 10
364.8902346233924
 20
2547.460071075051
 30
0.0
 11
522.7461255003188
 21
2652.697062933754
 31
0.0
1001
ACAD
1010
0.0
1020
0.0
1030
0.0
1001
ACADANNOTATIVE
1000
AnnotativeData
1002
{
1070
     1
1070
     1
1002
}
  0
LINE
  5
32C7
330
2A7E
100
AcDbEntity
  8
DETAIL
100
AcDbLine
 10
314.8902346233851
 20
2511.126856323779
 30
0.0
 11
364.8902346233888
 21
2544.460104539634
 31
0.0
1001
ACAD
1010
0.0
1020
0.0
1030
0.0
1001
ACADANNOTATIVE
1000
AnnotativeData
1002
{
1070
     1
1070
     1
1002
}
  0
LINE
  5
32C8
330
2A7E
100
AcDbEntity
  8
DETAIL
100
AcDbLine
 10
364.8902346233888
 20
2544.460104539634
 30
0.0
 11
527.2460867942107
 21
2652.697062933756
 31
0.0
1001
ACAD
1010
0.0
1020
0.0
1030
0.0
1001
ACADANNOTATIVE
1000
AnnotativeData
1002
{
1070
     1
1070
     1
1002
}
  0
LINE
  5
32C9
330
2A7E
100
AcDbEntity
  8
DETAIL
100
AcDbLine
 10
314.8902346233851
 20
2508.126889788364
 30
0.0
 11
364.8902346233924
 21
2541.460138004218
 31
0.0
1001
ACAD
1010
0.0
1020
0.0
1030
0.0
1001
ACADANNOTATIVE
1000
AnnotativeData
1002
{
1070
     1
1070
     1
1002
}
  0
LINE
  5
32CA
330
2A7E
100
AcDbEntity
  8
DETAIL
100
AcDbLine
 10
364.8902346233924
 20
2541.460138004218
 30
0.0
 11
531.7460480880952
 21
2652.697062933752
 31
0.0
1001
ACAD
1010
0.0
1020
0.0
1030
0.0
1001
ACADANNOTATIVE
1000
AnnotativeData
1002
{
1070
     1
1070
     1
1002
}
  0
LINE
  5
32CB
330
2A7E
100
AcDbEntity
  8
DETAIL
100
AcDbLine
 10
314.8902346233851
 20
2505.126923252947
 30
0.0
 11
364.8902346233888
 21
2538.460171468802
 31
0.0
1001
ACAD
1010
0.0
1020
0.0
1030
0.0
1001
ACADANNOTATIVE
1000
AnnotativeData
1002
{
1070
     1
1070
     1
1002
}
  0
LINE
  5
32CC
330
2A7E
100
AcDbEntity
  8
DETAIL
100
AcDbLine
 10
364.8902346233888
 20
2538.460171468802
 30
0.0
 11
536.2460093819795
 21
2652.697062933754
 31
0.0
1001
ACAD
1010
0.0
1020
0.0
1030
0.0
1001
ACADANNOTATIVE
1000
AnnotativeData
1002
{
1070
     1
1070
     1
1002
}
  0
LINE
  5
32CD
330
2A7E
100
AcDbEntity
  8
DETAIL
100
AcDbLine
 10
314.8902346233851
 20
2502.126956717533
 30
0.0
 11
364.8902346233924
 21
2535.460204933388
 31
0.0
1001
ACAD
1010
0.0
1020
0.0
1030
0.0
1001
ACADANNOTATIVE
1000
AnnotativeData
1002
{
1070
     1
1070
     1
1002
}
  0
LINE
  5
32CE
330
2A7E
100
AcDbEntity
  8
DETAIL
100
AcDbLine
 10
364.8902346233924
 20
2535.460204933388
 30
0.0
 11
540.7459706758678
 21
2652.697062933756
 31
0.0
1001
ACAD
1010
0.0
1020
0.0
1030
0.0
1001
ACADANNOTATIVE
1000
AnnotativeData
1002
{
1070
     1
1070
     1
1002
}
  0
LINE
  5
32CF
330
2A7E
100
AcDbEntity
  8
DETAIL
100
AcDbLine
 10
314.8902346233851
 20
2499.126990182116
 30
0.0
 11
364.8902346233888
 21
2532.460238397969
 31
0.0
1001
ACAD
1010
0.0
1020
0.0
1030
0.0
1001
ACADANNOTATIVE
1000
AnnotativeData
1002
{
1070
     1
1070
     1
1002
}
  0
LINE
  5
32D0
330
2A7E
100
AcDbEntity
  8
DETAIL
100
AcDbLine
 10
364.8902346233888
 20
2532.460238397969
 30
0.0
 11
545.2459319697489
 21
2652.697062933754
 31
0.0
1001
ACAD
1010
0.0
1020
0.0
1030
0.0
1001
ACADANNOTATIVE
1000
AnnotativeData
1002
{
1070
     1
1070
     1
1002
}
  0
LINE
  5
32D1
330
2A7E
100
AcDbEntity
  8
DETAIL
100
AcDbLine
 10
314.8902346233851
 20
2496.127023646699
 30
0.0
 11
364.8902346233924
 21
2529.460271862554
 31
0.0
1001
ACAD
1010
0.0
1020
0.0
1030
0.0
1001
ACADANNOTATIVE
1000
AnnotativeData
1002
{
1070
     1
1070
     1
1002
}
  0
LINE
  5
32D2
330
2A7E
100
AcDbEntity
  8
DETAIL
100
AcDbLine
 10
364.8902346233924
 20
2529.460271862554
 30
0.0
 11
549.7458932636367
 21
2652.697062933754
 31
0.0
1001
ACAD
1010
0.0
1020
0.0
1030
0.0
1001
ACADANNOTATIVE
1000
AnnotativeData
1002
{
1070
     1
1070
     1
1002
}
  0
LINE
  5
32D3
330
2A7E
100
AcDbEntity
  8
DETAIL
100
AcDbLine
 10
314.8902346233851
 20
2493.127057111284
 30
0.0
 11
364.8902346233888
 21
2526.460305327139
 31
0.0
1001
ACAD
1010
0.0
1020
0.0
1030
0.0
1001
ACADANNOTATIVE
1000
AnnotativeData
1002
{
1070
     1
1070
     1
1002
}
  0
LINE
  5
32D4
330
2A7E
100
AcDbEntity
  8
DETAIL
100
AcDbLine
 10
364.8902346233888
 20
2526.460305327139
 30
0.0
 11
554.2458545575176
 21
2652.697062933752
 31
0.0
1001
ACAD
1010
0.0
1020
0.0
1030
0.0
1001
ACADANNOTATIVE
1000
AnnotativeData
1002
{
1070
     1
1070
     1
1002
}
  0
LINE
  5
32D5
330
2A7E
100
AcDbEntity
  8
DETAIL
100
AcDbLine
 10
314.8902346233851
 20
2490.127090575867
 30
0.0
 11
364.8902346233924
 21
2523.460338791724
 31
0.0
1001
ACAD
1010
0.0
1020
0.0
1030
0.0
1001
ACADANNOTATIVE
1000
AnnotativeData
1002
{
1070
     1
1070
     1
1002
}
  0
LINE
  5
32D6
330
2A7E
100
AcDbEntity
  8
DETAIL
100
AcDbLine
 10
364.8902346233924
 20
2523.460338791724
 30
0.0
 11
558.7458158514098
 21
2652.697062933756
 31
0.0
1001
ACAD
1010
0.0
1020
0.0
1030
0.0
1001
ACADANNOTATIVE
1000
AnnotativeData
1002
{
1070
     1
1070
     1
1002
}
  0
LINE
  5
32D7
330
2A7E
100
AcDbEntity
  8
DETAIL
100
AcDbLine
 10
314.8902346233851
 20
2487.127124040452
 30
0.0
 11
364.8902346233888
 21
2520.460372256306
 31
0.0
1001
ACAD
1010
0.0
1020
0.0
1030
0.0
1001
ACADANNOTATIVE
1000
AnnotativeData
1002
{
1070
     1
1070
     1
1002
}
  0
LINE
  5
32D8
330
2A7E
100
AcDbEntity
  8
DETAIL
100
AcDbLine
 10
364.8902346233888
 20
2520.460372256306
 30
0.0
 11
563.2457771452942
 21
2652.697062933754
 31
0.0
1001
ACAD
1010
0.0
1020
0.0
1030
0.0
1001
ACADANNOTATIVE
1000
AnnotativeData
1002
{
1070
     1
1070
     1
1002
}
  0
LINE
  5
32D9
330
2A7E
100
AcDbEntity
  8
DETAIL
100
AcDbLine
 10
314.8902346233851
 20
2484.127157505034
 30
0.0
 11
364.8902346233888
 21
2517.460405720887
 31
0.0
1001
ACAD
1010
0.0
1020
0.0
1030
0.0
1001
ACADANNOTATIVE
1000
AnnotativeData
1002
{
1070
     1
1070
     1
1002
}
  0
LINE
  5
32DA
330
2A7E
100
AcDbEntity
  8
DETAIL
100
AcDbLine
 10
364.8902346233888
 20
2517.460405720887
 30
0.0
 11
567.7457384391788
 21
2652.697062933754
 31
0.0
1001
ACAD
1010
0.0
1020
0.0
1030
0.0
1001
ACADANNOTATIVE
1000
AnnotativeData
1002
{
1070
     1
1070
     1
1002
}
  0
LINE
  5
32DB
330
2A7E
100
AcDbEntity
  8
DETAIL
100
AcDbLine
 10
314.8902346233851
 20
2481.127190969617
 30
0.0
 11
364.8902346233888
 21
2514.460439185473
 31
0.0
1001
ACAD
1010
0.0
1020
0.0
1030
0.0
1001
ACADANNOTATIVE
1000
AnnotativeData
1002
{
1070
     1
1070
     1
1002
}
  0
LINE
  5
32DC
330
2A7E
100
AcDbEntity
  8
DETAIL
100
AcDbLine
 10
364.8902346233888
 20
2514.460439185473
 30
0.0
 11
572.2456997330635
 21
2652.69706293375
 31
0.0
1001
ACAD
1010
0.0
1020
0.0
1030
0.0
1001
ACADANNOTATIVE
1000
AnnotativeData
1002
{
1070
     1
1070
     1
1002
}
  0
LINE
  5
32DD
330
2A7E
100
AcDbEntity
  8
DETAIL
100
AcDbLine
 10
314.8902346233851
 20
2478.127224434202
 30
0.0
 11
364.8902346233888
 21
2511.460472650055
 31
0.0
1001
ACAD
1010
0.0
1020
0.0
1030
0.0
1001
ACADANNOTATIVE
1000
AnnotativeData
1002
{
1070
     1
1070
     1
1002
}
  0
LINE
  5
32DE
330
2A7E
100
AcDbEntity
  8
DETAIL
100
AcDbLine
 10
364.8902346233888
 20
2511.460472650055
 30
0.0
 11
576.7456610269515
 21
2652.697062933754
 31
0.0
1001
ACAD
1010
0.0
1020
0.0
1030
0.0
1001
ACADANNOTATIVE
1000
AnnotativeData
1002
{
1070
     1
1070
     1
1002
}
  0
LINE
  5
32DF
330
2A7E
100
AcDbEntity
  8
DETAIL
100
AcDbLine
 10
314.8902346233851
 20
2475.127257898787
 30
0.0
 11
364.8902346233888
 21
2508.460506114641
 31
0.0
1001
ACAD
1010
0.0
1020
0.0
1030
0.0
1001
ACADANNOTATIVE
1000
AnnotativeData
1002
{
1070
     1
1070
     1
1002
}
  0
LINE
  5
32E0
330
2A7E
100
AcDbEntity
  8
DETAIL
100
AcDbLine
 10
364.8902346233888
 20
2508.460506114641
 30
0.0
 11
580.6902346233917
 21
2652.326805414256
 31
0.0
1001
ACAD
1010
0.0
1020
0.0
1030
0.0
1001
ACADANNOTATIVE
1000
AnnotativeData
1002
{
1070
     1
1070
     1
1002
}
  0
LINE
  5
32E1
330
2A7E
100
AcDbEntity
  8
DETAIL
100
AcDbLine
 10
314.8902346233851
 20
2472.127291363369
 30
0.0
 11
364.8902346233888
 21
2505.460539579224
 31
0.0
1001
ACAD
1010
0.0
1020
0.0
1030
0.0
1001
ACADANNOTATIVE
1000
AnnotativeData
1002
{
1070
     1
1070
     1
1002
}
  0
LINE
  5
32E2
330
2A7E
100
AcDbEntity
  8
DETAIL
100
AcDbLine
 10
364.8902346233888
 20
2505.460539579224
 30
0.0
 11
580.6902346233879
 21
2649.326838878837
 31
0.0
1001
ACAD
1010
0.0
1020
0.0
1030
0.0
1001
ACADANNOTATIVE
1000
AnnotativeData
1002
{
1070
     1
1070
     1
1002
}
  0
LINE
  5
32E3
330
2A7E
100
AcDbEntity
  8
DETAIL
100
AcDbLine
 10
314.8902346233851
 20
2469.127324827951
 30
0.0
 11
364.8902346233924
 21
2502.460573043807
 31
0.0
1001
ACAD
1010
0.0
1020
0.0
1030
0.0
1001
ACADANNOTATIVE
1000
AnnotativeData
1002
{
1070
     1
1070
     1
1002
}
  0
LINE
  5
32E4
330
2A7E
100
AcDbEntity
  8
DETAIL
100
AcDbLine
 10
364.8902346233924
 20
2502.460573043807
 30
0.0
 11
580.6902346233917
 21
2646.326872343421
 31
0.0
1001
ACAD
1010
0.0
1020
0.0
1030
0.0
1001
ACADANNOTATIVE
1000
AnnotativeData
1002
{
1070
     1
1070
     1
1002
}
  0
LINE
  5
32E5
330
2A7E
100
AcDbEntity
  8
DETAIL
100
AcDbLine
 10
314.8902346233851
 20
2466.127358292537
 30
0.0
 11
364.8902346233888
 21
2499.460606508392
 31
0.0
1001
ACAD
1010
0.0
1020
0.0
1030
0.0
1001
ACADANNOTATIVE
1000
AnnotativeData
1002
{
1070
     1
1070
     1
1002
}
  0
LINE
  5
32E6
330
2A7E
100
AcDbEntity
  8
DETAIL
100
AcDbLine
 10
364.8902346233888
 20
2499.460606508392
 30
0.0
 11
580.6902346233879
 21
2643.326905808006
 31
0.0
1001
ACAD
1010
0.0
1020
0.0
1030
0.0
1001
ACADANNOTATIVE
1000
AnnotativeData
1002
{
1070
     1
1070
     1
1002
}
  0
LINE
  5
32E7
330
2A7E
100
AcDbEntity
  8
DETAIL
100
AcDbLine
 10
314.8902346233851
 20
2463.127391757122
 30
0.0
 11
364.8902346233888
 21
2496.460639972975
 31
0.0
1001
ACAD
1010
0.0
1020
0.0
1030
0.0
1001
ACADANNOTATIVE
1000
AnnotativeData
1002
{
1070
     1
1070
     1
1002
}
  0
LINE
  5
32E8
330
2A7E
100
AcDbEntity
  8
DETAIL
100
AcDbLine
 10
364.8902346233888
 20
2496.460639972975
 30
0.0
 11
580.6902346233879
 21
2640.326939272589
 31
0.0
1001
ACAD
1010
0.0
1020
0.0
1030
0.0
1001
ACADANNOTATIVE
1000
AnnotativeData
1002
{
1070
     1
1070
     1
1002
}
  0
LINE
  5
32E9
330
2A7E
100
AcDbEntity
  8
DETAIL
100
AcDbLine
 10
314.8902346233851
 20
2460.127425221705
 30
0.0
 11
364.8902346233888
 21
2493.460673437559
 31
0.0
1001
ACAD
1010
0.0
1020
0.0
1030
0.0
1001
ACADANNOTATIVE
1000
AnnotativeData
1002
{
1070
     1
1070
     1
1002
}
  0
LINE
  5
32EA
330
2A7E
100
AcDbEntity
  8
DETAIL
100
AcDbLine
 10
364.8902346233888
 20
2493.460673437559
 30
0.0
 11
580.6902346233879
 21
2637.326972737174
 31
0.0
1001
ACAD
1010
0.0
1020
0.0
1030
0.0
1001
ACADANNOTATIVE
1000
AnnotativeData
1002
{
1070
     1
1070
     1
1002
}
  0
LINE
  5
32EB
330
2A7E
100
AcDbEntity
  8
DETAIL
100
AcDbLine
 10
314.8902346233851
 20
2457.127458686287
 30
0.0
 11
364.8902346233888
 21
2490.460706902143
 31
0.0
1001
ACAD
1010
0.0
1020
0.0
1030
0.0
1001
ACADANNOTATIVE
1000
AnnotativeData
1002
{
1070
     1
1070
     1
1002
}
  0
LINE
  5
32EC
330
2A7E
100
AcDbEntity
  8
DETAIL
100
AcDbLine
 10
364.8902346233888
 20
2490.460706902143
 30
0.0
 11
580.6902346233879
 21
2634.327006201754
 31
0.0
1001
ACAD
1010
0.0
1020
0.0
1030
0.0
1001
ACADANNOTATIVE
1000
AnnotativeData
1002
{
1070
     1
1070
     1
1002
}
  0
LINE
  5
32ED
330
2A7E
100
AcDbEntity
  8
DETAIL
100
AcDbLine
 10
314.8902346233851
 20
2454.127492150874
 30
0.0
 11
364.8902346233924
 21
2487.460740366727
 31
0.0
1001
ACAD
1010
0.0
1020
0.0
1030
0.0
1001
ACADANNOTATIVE
1000
AnnotativeData
1002
{
1070
     1
1070
     1
1002
}
  0
LINE
  5
32EE
330
2A7E
100
AcDbEntity
  8
DETAIL
100
AcDbLine
 10
364.8902346233924
 20
2487.460740366727
 30
0.0
 11
580.6902346233879
 21
2631.327039666341
 31
0.0
1001
ACAD
1010
0.0
1020
0.0
1030
0.0
1001
ACADANNOTATIVE
1000
AnnotativeData
1002
{
1070
     1
1070
     1
1002
}
  0
LINE
  5
32EF
330
2A7E
100
AcDbEntity
  8
DETAIL
100
AcDbLine
 10
314.8902346233851
 20
2451.127525615457
 30
0.0
 11
364.8902346233888
 21
2484.460773831312
 31
0.0
1001
ACAD
1010
0.0
1020
0.0
1030
0.0
1001
ACADANNOTATIVE
1000
AnnotativeData
1002
{
1070
     1
1070
     1
1002
}
  0
LINE
  5
32F0
330
2A7E
100
AcDbEntity
  8
DETAIL
100
AcDbLine
 10
364.8902346233888
 20
2484.460773831312
 30
0.0
 11
580.6902346233879
 21
2628.327073130926
 31
0.0
1001
ACAD
1010
0.0
1020
0.0
1030
0.0
1001
ACADANNOTATIVE
1000
AnnotativeData
1002
{
1070
     1
1070
     1
1002
}
  0
LINE
  5
32F1
330
2A7E
100
AcDbEntity
  8
DETAIL
100
AcDbLine
 10
314.8902346233851
 20
2448.127559080042
 30
0.0
 11
364.8902346233924
 21
2481.460807295895
 31
0.0
1001
ACAD
1010
0.0
1020
0.0
1030
0.0
1001
ACADANNOTATIVE
1000
AnnotativeData
1002
{
1070
     1
1070
     1
1002
}
  0
LINE
  5
32F2
330
2A7E
100
AcDbEntity
  8
DETAIL
100
AcDbLine
 10
364.8902346233924
 20
2481.460807295895
 30
0.0
 11
580.6902346233879
 21
2625.327106595509
 31
0.0
1001
ACAD
1010
0.0
1020
0.0
1030
0.0
1001
ACADANNOTATIVE
1000
AnnotativeData
1002
{
1070
     1
1070
     1
1002
}
  0
LINE
  5
32F3
330
2A7E
100
AcDbEntity
  8
DETAIL
100
AcDbLine
 10
314.8902346233851
 20
2445.127592544622
 30
0.0
 11
364.8902346233888
 21
2478.460840760478
 31
0.0
1001
ACAD
1010
0.0
1020
0.0
1030
0.0
1001
ACADANNOTATIVE
1000
AnnotativeData
1002
{
1070
     1
1070
     1
1002
}
  0
LINE
  5
32F4
330
2A7E
100
AcDbEntity
  8
DETAIL
100
AcDbLine
 10
364.8902346233888
 20
2478.460840760478
 30
0.0
 11
580.6902346233879
 21
2622.327140060092
 31
0.0
1001
ACAD
1010
0.0
1020
0.0
1030
0.0
1001
ACADANNOTATIVE
1000
AnnotativeData
1002
{
1070
     1
1070
     1
1002
}
  0
LINE
  5
32F5
330
2A7E
100
AcDbEntity
  8
DETAIL
100
AcDbLine
 10
314.8902346233851
 20
2442.127626009205
 30
0.0
 11
364.8902346233888
 21
2475.46087422506
 31
0.0
1001
ACAD
1010
0.0
1020
0.0
1030
0.0
1001
ACADANNOTATIVE
1000
AnnotativeData
1002
{
1070
     1
1070
     1
1002
}
  0
LINE
  5
32F6
330
2A7E
100
AcDbEntity
  8
DETAIL
100
AcDbLine
 10
364.8902346233924
 20
2475.460874225062
 30
0.0
 11
580.6902346233879
 21
2619.327173524673
 31
0.0
1001
ACAD
1010
0.0
1020
0.0
1030
0.0
1001
ACADANNOTATIVE
1000
AnnotativeData
1002
{
1070
     1
1070
     1
1002
}
  0
LINE
  5
32F7
330
2A7E
100
AcDbEntity
  8
DETAIL
100
AcDbLine
 10
314.8902346233851
 20
2439.127659473792
 30
0.0
 11
364.8902346233924
 21
2472.460907689645
 31
0.0
1001
ACAD
1010
0.0
1020
0.0
1030
0.0
1001
ACADANNOTATIVE
1000
AnnotativeData
1002
{
1070
     1
1070
     1
1002
}
  0
LINE
  5
32F8
330
2A7E
100
AcDbEntity
  8
DETAIL
100
AcDbLine
 10
364.8902346233924
 20
2472.460907689645
 30
0.0
 11
580.6902346233879
 21
2616.32720698926
 31
0.0
1001
ACAD
1010
0.0
1020
0.0
1030
0.0
1001
ACADANNOTATIVE
1000
AnnotativeData
1002
{
1070
     1
1070
     1
1002
}
  0
LINE
  5
32F9
330
2A7E
100
AcDbEntity
  8
DETAIL
100
AcDbLine
 10
314.8902346233851
 20
2436.127692938375
 30
0.0
 11
364.8902346233888
 21
2469.46094115423
 31
0.0
1001
ACAD
1010
0.0
1020
0.0
1030
0.0
1001
ACADANNOTATIVE
1000
AnnotativeData
1002
{
1070
     1
1070
     1
1002
}
  0
LINE
  5
32FA
330
2A7E
100
AcDbEntity
  8
DETAIL
100
AcDbLine
 10
364.8902346233924
 20
2469.460941154232
 30
0.0
 11
580.6902346233879
 21
2613.327240453844
 31
0.0
1001
ACAD
1010
0.0
1020
0.0
1030
0.0
1001
ACADANNOTATIVE
1000
AnnotativeData
1002
{
1070
     1
1070
     1
1002
}
  0
LINE
  5
32FB
330
2A7E
100
AcDbEntity
  8
DETAIL
100
AcDbLine
 10
314.8902346233851
 20
2433.12772640296
 30
0.0
 11
364.8902346233924
 21
2466.460974618813
 31
0.0
1001
ACAD
1010
0.0
1020
0.0
1030
0.0
1001
ACADANNOTATIVE
1000
AnnotativeData
1002
{
1070
     1
1070
     1
1002
}
  0
LINE
  5
32FC
330
2A7E
100
AcDbEntity
  8
DETAIL
100
AcDbLine
 10
364.8902346233924
 20
2466.460974618813
 30
0.0
 11
580.6902346233879
 21
2610.327273918427
 31
0.0
1001
ACAD
1010
0.0
1020
0.0
1030
0.0
1001
ACADANNOTATIVE
1000
AnnotativeData
1002
{
1070
     1
1070
     1
1002
}
  0
LINE
  5
32FD
330
2A7E
100
AcDbEntity
  8
DETAIL
100
AcDbLine
 10
314.8902346233851
 20
2430.127759867541
 30
0.0
 11
364.8902346233888
 21
2463.461008083396
 31
0.0
1001
ACAD
1010
0.0
1020
0.0
1030
0.0
1001
ACADANNOTATIVE
1000
AnnotativeData
1002
{
1070
     1
1070
     1
1002
}
  0
LINE
  5
32FE
330
2A7E
100
AcDbEntity
  8
DETAIL
100
AcDbLine
 10
364.8902346233888
 20
2463.461008083396
 30
0.0
 11
580.6902346233879
 21
2607.32730738301
 31
0.0
1001
ACAD
1010
0.0
1020
0.0
1030
0.0
1001
ACADANNOTATIVE
1000
AnnotativeData
1002
{
1070
     1
1070
     1
1002
}
  0
LINE
  5
32FF
330
2A7E
100
AcDbEntity
  8
DETAIL
100
AcDbLine
 10
314.8902346233851
 20
2427.127793332128
 30
0.0
 11
364.8902346233924
 21
2460.461041547982
 31
0.0
1001
ACAD
1010
0.0
1020
0.0
1030
0.0
1001
ACADANNOTATIVE
1000
AnnotativeData
1002
{
1070
     1
1070
     1
1002
}
  0
LINE
  5
3300
330
2A7E
100
AcDbEntity
  8
DETAIL
100
AcDbLine
 10
364.8902346233924
 20
2460.461041547982
 30
0.0
 11
580.6902346233879
 21
2604.327340847595
 31
0.0
1001
ACAD
1010
0.0
1020
0.0
1030
0.0
1001
ACADANNOTATIVE
1000
AnnotativeData
1002
{
1070
     1
1070
     1
1002
}
  0
LINE
  5
3301
330
2A7E
100
AcDbEntity
  8
DETAIL
100
AcDbLine
 10
314.8902346233851
 20
2424.12782679671
 30
0.0
 11
367.0442220054327
 21
2458.897062933754
 31
0.0
1001
ACAD
1010
0.0
1020
0.0
1030
0.0
1001
ACADANNOTATIVE
1000
AnnotativeData
1002
{
1070
     1
1070
     1
1002
}
  0
LINE
  5
3302
330
2A7E
100
AcDbEntity
  8
DETAIL
100
AcDbLine
 10
367.0442220054327
 20
2458.897062933754
 30
0.0
 11
580.6902346233879
 21
2601.327374312179
 31
0.0
1001
ACAD
1010
0.0
1020
0.0
1030
0.0
1001
ACADANNOTATIVE
1000
AnnotativeData
1002
{
1070
     1
1070
     1
1002
}
  0
LINE
  5
3303
330
2A7E
100
AcDbEntity
  8
DETAIL
100
AcDbLine
 10
319.0440492389396
 20
2423.897062933753
 30
0.0
 11
371.5441832993172
 21
2458.897062933753
 31
0.0
1001
ACAD
1010
0.0
1020
0.0
1030
0.0
1001
ACADANNOTATIVE
1000
AnnotativeData
1002
{
1070
     1
1070
     1
1002
}
  0
LINE
  5
3304
330
2A7E
100
AcDbEntity
  8
DETAIL
100
AcDbLine
 10
371.5441832993172
 20
2458.897062933753
 30
0.0
 11
580.6902346233879
 21
2598.32740777676
 31
0.0
1001
ACAD
1010
0.0
1020
0.0
1030
0.0
1001
ACADANNOTATIVE
1000
AnnotativeData
1002
{
1070
     1
1070
     1
1002
}
  0
LINE
  5
3305
330
2A7E
100
AcDbEntity
  8
DETAIL
100
AcDbLine
 10
323.5440105328278
 20
2423.897062933753
 30
0.0
 11
376.0441445932053
 21
2458.897062933753
 31
0.0
1001
ACAD
1010
0.0
1020
0.0
1030
0.0
1001
ACADANNOTATIVE
1000
AnnotativeData
1002
{
1070
     1
1070
     1
1002
}
  0
LINE
  5
3306
330
2A7E
100
AcDbEntity
  8
DETAIL
100
AcDbLine
 10
376.0441445932053
 20
2458.897062933753
 30
0.0
 11
580.6902346233879
 21
2595.327441241345
 31
0.0
1001
ACAD
1010
0.0
1020
0.0
1030
0.0
1001
ACADANNOTATIVE
1000
AnnotativeData
1002
{
1070
     1
1070
     1
1002
}
  0
LINE
  5
3307
330
2A7E
100
AcDbEntity
  8
DETAIL
100
AcDbLine
 10
328.0439718267123
 20
2423.897062933755
 30
0.0
 11
380.5441058870899
 21
2458.897062933754
 31
0.0
1001
ACAD
1010
0.0
1020
0.0
1030
0.0
1001
ACADANNOTATIVE
1000
AnnotativeData
1002
{
1070
     1
1070
     1
1002
}
  0
LINE
  5
3308
330
2A7E
100
AcDbEntity
  8
DETAIL
100
AcDbLine
 10
380.5441058870899
 20
2458.897062933754
 30
0.0
 11
580.6902346233879
 21
2592.327474705931
 31
0.0
1001
ACAD
1010
0.0
1020
0.0
1030
0.0
1001
ACADANNOTATIVE
1000
AnnotativeData
1002
{
1070
     1
1070
     1
1002
}
  0
LINE
  5
3309
330
2A7E
100
AcDbEntity
  8
DETAIL
100
AcDbLine
 10
332.5439331205969
 20
2423.897062933755
 30
0.0
 11
385.0440671809745
 21
2458.897062933756
 31
0.0
1001
ACAD
1010
0.0
1020
0.0
1030
0.0
1001
ACADANNOTATIVE
1000
AnnotativeData
1002
{
1070
     1
1070
     1
1002
}
  0
LINE
  5
330A
330
2A7E
100
AcDbEntity
  8
DETAIL
100
AcDbLine
 10
385.0440671809745
 20
2458.897062933756
 30
0.0
 11
580.6902346233879
 21
2589.327508170514
 31
0.0
1001
ACAD
1010
0.0
1020
0.0
1030
0.0
1001
ACADANNOTATIVE
1000
AnnotativeData
1002
{
1070
     1
1070
     1
1002
}
  0
LINE
  5
330B
330
2A7E
100
AcDbEntity
  8
DETAIL
100
AcDbLine
 10
337.0438944144814
 20
2423.897062933753
 30
0.0
 11
389.544028474859
 21
2458.897062933753
 31
0.0
1001
ACAD
1010
0.0
1020
0.0
1030
0.0
1001
ACADANNOTATIVE
1000
AnnotativeData
1002
{
1070
     1
1070
     1
1002
}
  0
LINE
  5
330C
330
2A7E
100
AcDbEntity
  8
DETAIL
100
AcDbLine
 10
389.544028474859
 20
2458.897062933753
 30
0.0
 11
580.6902346233879
 21
2586.327541635097
 31
0.0
1001
ACAD
1010
0.0
1020
0.0
1030
0.0
1001
ACADANNOTATIVE
1000
AnnotativeData
1002
{
1070
     1
1070
     1
1002
}
  0
LINE
  5
330D
330
2A7E
100
AcDbEntity
  8
DETAIL
100
AcDbLine
 10
341.5438557083732
 20
2423.897062933755
 30
0.0
 11
394.0439897687436
 21
2458.897062933753
 31
0.0
1001
ACAD
1010
0.0
1020
0.0
1030
0.0
1001
ACADANNOTATIVE
1000
AnnotativeData
1002
{
1070
     1
1070
     1
1002
}
  0
LINE
  5
330E
330
2A7E
100
AcDbEntity
  8
DETAIL
100
AcDbLine
 10
394.0439897687436
 20
2458.897062933753
 30
0.0
 11
580.6902346233879
 21
2583.327575099682
 31
0.0
1001
ACAD
1010
0.0
1020
0.0
1030
0.0
1001
ACADANNOTATIVE
1000
AnnotativeData
1002
{
1070
     1
1070
     1
1002
}
  0
LINE
  5
330F
330
2A7E
100
AcDbEntity
  8
DETAIL
100
AcDbLine
 10
346.0438170022579
 20
2423.897062933753
 30
0.0
 11
398.5439510626354
 21
2458.897062933753
 31
0.0
1001
ACAD
1010
0.0
1020
0.0
1030
0.0
1001
ACADANNOTATIVE
1000
AnnotativeData
1002
{
1070
     1
1070
     1
1002
}
  0
LINE
  5
3310
330
2A7E
100
AcDbEntity
  8
DETAIL
100
AcDbLine
 10
398.5439510626354
 20
2458.897062933753
 30
0.0
 11
580.6902346233879
 21
2580.327608564263
 31
0.0
1001
ACAD
1010
0.0
1020
0.0
1030
0.0
1001
ACADANNOTATIVE
1000
AnnotativeData
1002
{
1070
     1
1070
     1
1002
}
  0
LINE
  5
3311
330
2A7E
100
AcDbEntity
  8
DETAIL
100
AcDbLine
 10
350.5437782961424
 20
2423.897062933755
 30
0.0
 11
403.04391235652
 21
2458.897062933754
 31
0.0
1001
ACAD
1010
0.0
1020
0.0
1030
0.0
1001
ACADANNOTATIVE
1000
AnnotativeData
1002
{
1070
     1
1070
     1
1002
}
  0
LINE
  5
3312
330
2A7E
100
AcDbEntity
  8
DETAIL
100
AcDbLine
 10
403.04391235652
 20
2458.897062933754
 30
0.0
 11
580.6902346233917
 21
2577.32764202885
 31
0.0
1001
ACAD
1010
0.0
1020
0.0
1030
0.0
1001
ACADANNOTATIVE
1000
AnnotativeData
1002
{
1070
     1
1070
     1
1002
}
  0
LINE
  5
3313
330
2A7E
100
AcDbEntity
  8
DETAIL
100
AcDbLine
 10
355.0437395900269
 20
2423.897062933753
 30
0.0
 11
407.5438736504045
 21
2458.897062933754
 31
0.0
1001
ACAD
1010
0.0
1020
0.0
1030
0.0
1001
ACADANNOTATIVE
1000
AnnotativeData
1002
{
1070
     1
1070
     1
1002
}
  0
LINE
  5
3314
330
2A7E
100
AcDbEntity
  8
DETAIL
100
AcDbLine
 10
407.5438736504045
 20
2458.897062933754
 30
0.0
 11
580.6902346233879
 21
2574.327675493432
 31
0.0
1001
ACAD
1010
0.0
1020
0.0
1030
0.0
1001
ACADANNOTATIVE
1000
AnnotativeData
1002
{
1070
     1
1070
     1
1002
}
  0
LINE
  5
3315
330
2A7E
100
AcDbEntity
  8
DETAIL
100
AcDbLine
 10
359.5437008839115
 20
2423.897062933753
 30
0.0
 11
412.043834944289
 21
2458.897062933753
 31
0.0
1001
ACAD
1010
0.0
1020
0.0
1030
0.0
1001
ACADANNOTATIVE
1000
AnnotativeData
1002
{
1070
     1
1070
     1
1002
}
  0
LINE
  5
3316
330
2A7E
100
AcDbEntity
  8
DETAIL
100
AcDbLine
 10
412.043834944289
 20
2458.897062933753
 30
0.0
 11
580.6902346233917
 21
2571.327708958017
 31
0.0
1001
ACAD
1010
0.0
1020
0.0
1030
0.0
1001
ACADANNOTATIVE
1000
AnnotativeData
1002
{
1070
     1
1070
     1
1002
}
  0
LINE
  5
3317
330
2A7E
100
AcDbEntity
  8
DETAIL
100
AcDbLine
 10
364.043662177796
 20
2423.897062933753
 30
0.0
 11
416.5437962381735
 21
2458.897062933753
 31
0.0
1001
ACAD
1010
0.0
1020
0.0
1030
0.0
1001
ACADANNOTATIVE
1000
AnnotativeData
1002
{
1070
     1
1070
     1
1002
}
  0
LINE
  5
3318
330
2A7E
100
AcDbEntity
  8
DETAIL
100
AcDbLine
 10
416.5437962381735
 20
2458.897062933753
 30
0.0
 11
580.6902346233879
 21
2568.327742422598
 31
0.0
1001
ACAD
1010
0.0
1020
0.0
1030
0.0
1001
ACADANNOTATIVE
1000
AnnotativeData
1002
{
1070
     1
1070
     1
1002
}
  0
LINE
  5
3319
330
2A7E
100
AcDbEntity
  8
DETAIL
100
AcDbLine
 10
368.5436234716806
 20
2423.897062933753
 30
0.0
 11
421.0437575320582
 21
2458.897062933753
 31
0.0
1001
ACAD
1010
0.0
1020
0.0
1030
0.0
1001
ACADANNOTATIVE
1000
AnnotativeData
1002
{
1070
     1
1070
     1
1002
}
  0
LINE
  5
331A
330
2A7E
100
AcDbEntity
  8
DETAIL
100
AcDbLine
 10
421.0437575320582
 20
2458.897062933753
 30
0.0
 11
580.6902346233879
 21
2565.327775887183
 31
0.0
1001
ACAD
1010
0.0
1020
0.0
1030
0.0
1001
ACADANNOTATIVE
1000
AnnotativeData
1002
{
1070
     1
1070
     1
1002
}
  0
LINE
  5
331B
330
2A7E
100
AcDbEntity
  8
DETAIL
100
AcDbLine
 10
373.0435847655688
 20
2423.897062933755
 30
0.0
 11
425.5437188259463
 21
2458.897062933754
 31
0.0
1001
ACAD
1010
0.0
1020
0.0
1030
0.0
1001
ACADANNOTATIVE
1000
AnnotativeData
1002
{
1070
     1
1070
     1
1002
}
  0
LINE
  5
331C
330
2A7E
100
AcDbEntity
  8
DETAIL
100
AcDbLine
 10
425.5437188259463
 20
2458.897062933754
 30
0.0
 11
580.6902346233917
 21
2562.327809351769
 31
0.0
1001
ACAD
1010
0.0
1020
0.0
1030
0.0
1001
ACADANNOTATIVE
1000
AnnotativeData
1002
{
1070
     1
1070
     1
1002
}
  0
LINE
  5
331D
330
2A7E
100
AcDbEntity
  8
DETAIL
100
AcDbLine
 10
377.5435460594533
 20
2423.897062933753
 30
0.0
 11
430.0436801198308
 21
2458.897062933754
 31
0.0
1001
ACAD
1010
0.0
1020
0.0
1030
0.0
1001
ACADANNOTATIVE
1000
AnnotativeData
1002
{
1070
     1
1070
     1
1002
}
  0
LINE
  5
331E
330
2A7E
100
AcDbEntity
  8
DETAIL
100
AcDbLine
 10
430.0436801198308
 20
2458.897062933754
 30
0.0
 11
580.6902346233879
 21
2559.327842816351
 31
0.0
1001
ACAD
1010
0.0
1020
0.0
1030
0.0
1001
ACADANNOTATIVE
1000
AnnotativeData
1002
{
1070
     1
1070
     1
1002
}
  0
LINE
  5
331F
330
2A7E
100
AcDbEntity
  8
DETAIL
100
AcDbLine
 10
382.0435073533415
 20
2423.897062933753
 30
0.0
 11
434.5436414137191
 21
2458.897062933753
 31
0.0
1001
ACAD
1010
0.0
1020
0.0
1030
0.0
1001
ACADANNOTATIVE
1000
AnnotativeData
1002
{
1070
     1
1070
     1
1002
}
  0
LINE
  5
3320
330
2A7E
100
AcDbEntity
  8
DETAIL
100
AcDbLine
 10
434.5436414137191
 20
2458.897062933753
 30
0.0
 11
580.6902346233917
 21
2556.327876280935
 31
0.0
1001
ACAD
1010
0.0
1020
0.0
1030
0.0
1001
ACADANNOTATIVE
1000
AnnotativeData
1002
{
1070
     1
1070
     1
1002
}
  0
LINE
  5
3321
330
2A7E
100
AcDbEntity
  8
DETAIL
100
AcDbLine
 10
386.5434686472224
 20
2423.897062933753
 30
0.0
 11
439.0436027076
 21
2458.897062933753
 31
0.0
1001
ACAD
1010
0.0
1020
0.0
1030
0.0
1001
ACADANNOTATIVE
1000
AnnotativeData
1002
{
1070
     1
1070
     1
1002
}
  0
LINE
  5
3322
330
2A7E
100
AcDbEntity
  8
DETAIL
100
AcDbLine
 10
439.0436027076
 20
2458.897062933753
 30
0.0
 11
580.6902346233879
 21
2553.327909745518
 31
0.0
1001
ACAD
1010
0.0
1020
0.0
1030
0.0
1001
ACADANNOTATIVE
1000
AnnotativeData
1002
{
1070
     1
1070
     1
1002
}
  0
LINE
  5
3323
330
2A7E
100
AcDbEntity
  8
DETAIL
100
AcDbLine
 10
391.0434299411106
 20
2423.897062933757
 30
0.0
 11
443.5435640014881
 21
2458.897062933754
 31
0.0
1001
ACAD
1010
0.0
1020
0.0
1030
0.0
1001
ACADANNOTATIVE
1000
AnnotativeData
1002
{
1070
     1
1070
     1
1002
}
  0
LINE
  5
3324
330
2A7E
100
AcDbEntity
  8
DETAIL
100
AcDbLine
 10
443.5435640014881
 20
2458.897062933754
 30
0.0
 11
580.6902346233917
 21
2550.327943210105
 31
0.0
1001
ACAD
1010
0.0
1020
0.0
1030
0.0
1001
ACADANNOTATIVE
1000
AnnotativeData
1002
{
1070
     1
1070
     1
1002
}
  0
LINE
  5
3325
330
2A7E
100
AcDbEntity
  8
DETAIL
100
AcDbLine
 10
395.5433912349952
 20
2423.897062933755
 30
0.0
 11
448.0435252953728
 21
2458.897062933754
 31
0.0
1001
ACAD
1010
0.0
1020
0.0
1030
0.0
1001
ACADANNOTATIVE
1000
AnnotativeData
1002
{
1070
     1
1070
     1
1002
}
  0
LINE
  5
3326
330
2A7E
100
AcDbEntity
  8
DETAIL
100
AcDbLine
 10
448.0435252953728
 20
2458.897062933754
 30
0.0
 11
580.6902346233879
 21
2547.327976674687
 31
0.0
1001
ACAD
1010
0.0
1020
0.0
1030
0.0
1001
ACADANNOTATIVE
1000
AnnotativeData
1002
{
1070
     1
1070
     1
1002
}
  0
LINE
  5
3327
330
2A7E
100
AcDbEntity
  8
DETAIL
100
AcDbLine
 10
400.0433525288833
 20
2423.897062933753
 30
0.0
 11
452.5434865892608
 21
2458.897062933754
 31
0.0
1001
ACAD
1010
0.0
1020
0.0
1030
0.0
1001
ACADANNOTATIVE
1000
AnnotativeData
1002
{
1070
     1
1070
     1
1002
}
  0
LINE
  5
3328
330
2A7E
100
AcDbEntity
  8
DETAIL
100
AcDbLine
 10
452.5434865892608
 20
2458.897062933754
 30
0.0
 11
580.6902346233879
 21
2544.32801013927
 31
0.0
1001
ACAD
1010
0.0
1020
0.0
1030
0.0
1001
ACADANNOTATIVE
1000
AnnotativeData
1002
{
1070
     1
1070
     1
1002
}
  0
LINE
  5
3329
330
2A7E
100
AcDbEntity
  8
DETAIL
100
AcDbLine
 10
404.543313822764
 20
2423.897062933751
 30
0.0
 11
457.0434478831416
 21
2458.897062933751
 31
0.0
1001
ACAD
1010
0.0
1020
0.0
1030
0.0
1001
ACADANNOTATIVE
1000
AnnotativeData
1002
{
1070
     1
1070
     1
1002
}
  0
LINE
  5
332A
330
2A7E
100
AcDbEntity
  8
DETAIL
100
AcDbLine
 10
457.0434478831416
 20
2458.897062933751
 30
0.0
 11
580.6902346233879
 21
2541.328043603853
 31
0.0
1001
ACAD
1010
0.0
1020
0.0
1030
0.0
1001
ACADANNOTATIVE
1000
AnnotativeData
1002
{
1070
     1
1070
     1
1002
}
  0
LINE
  5
332B
330
2A7E
100
AcDbEntity
  8
DETAIL
100
AcDbLine
 10
409.0432751166522
 20
2423.897062933753
 30
0.0
 11
461.5434091770301
 21
2458.897062933753
 31
0.0
1001
ACAD
1010
0.0
1020
0.0
1030
0.0
1001
ACADANNOTATIVE
1000
AnnotativeData
1002
{
1070
     1
1070
     1
1002
}
  0
LINE
  5
332C
330
2A7E
100
AcDbEntity
  8
DETAIL
100
AcDbLine
 10
461.5434091770301
 20
2458.897062933753
 30
0.0
 11
580.6902346233879
 21
2538.328077068436
 31
0.0
1001
ACAD
1010
0.0
1020
0.0
1030
0.0
1001
ACADANNOTATIVE
1000
AnnotativeData
1002
{
1070
     1
1070
     1
1002
}
  0
LINE
  5
332D
330
2A7E
100
AcDbEntity
  8
DETAIL
100
AcDbLine
 10
413.543236410537
 20
2423.897062933755
 30
0.0
 11
466.0433704709146
 21
2458.897062933754
 31
0.0
1001
ACAD
1010
0.0
1020
0.0
1030
0.0
1001
ACADANNOTATIVE
1000
AnnotativeData
1002
{
1070
     1
1070
     1
1002
}
  0
LINE
  5
332E
330
2A7E
100
AcDbEntity
  8
DETAIL
100
AcDbLine
 10
466.0433704709146
 20
2458.897062933754
 30
0.0
 11
580.6902346233879
 21
2535.328110533022
 31
0.0
1001
ACAD
1010
0.0
1020
0.0
1030
0.0
1001
ACADANNOTATIVE
1000
AnnotativeData
1002
{
1070
     1
1070
     1
1002
}
  0
LINE
  5
332F
330
2A7E
100
AcDbEntity
  8
DETAIL
100
AcDbLine
 10
418.0431977044252
 20
2423.897062933755
 30
0.0
 11
470.5433317648028
 21
2458.897062933754
 31
0.0
1001
ACAD
1010
0.0
1020
0.0
1030
0.0
1001
ACADANNOTATIVE
1000
AnnotativeData
1002
{
1070
     1
1070
     1
1002
}
  0
LINE
  5
3330
330
2A7E
100
AcDbEntity
  8
DETAIL
100
AcDbLine
 10
470.5433317648028
 20
2458.897062933754
 30
0.0
 11
580.6902346233879
 21
2532.328143997605
 31
0.0
1001
ACAD
1010
0.0
1020
0.0
1030
0.0
1001
ACADANNOTATIVE
1000
AnnotativeData
1002
{
1070
     1
1070
     1
1002
}
  0
LINE
  5
3331
330
2A7E
100
AcDbEntity
  8
DETAIL
100
AcDbLine
 10
422.5431589983061
 20
2423.897062933751
 30
0.0
 11
475.0432930586836
 21
2458.897062933753
 31
0.0
1001
ACAD
1010
0.0
1020
0.0
1030
0.0
1001
ACADANNOTATIVE
1000
AnnotativeData
1002
{
1070
     1
1070
     1
1002
}
  0
LINE
  5
3332
330
2A7E
100
AcDbEntity
  8
DETAIL
100
AcDbLine
 10
475.0432930586836
 20
2458.897062933753
 30
0.0
 11
580.6902346233879
 21
2529.328177462188
 31
0.0
1001
ACAD
1010
0.0
1020
0.0
1030
0.0
1001
ACADANNOTATIVE
1000
AnnotativeData
1002
{
1070
     1
1070
     1
1002
}
  0
LINE
  5
3333
330
2A7E
100
AcDbEntity
  8
DETAIL
100
AcDbLine
 10
427.0431202921943
 20
2423.897062933753
 30
0.0
 11
479.5432543525718
 21
2458.897062933753
 31
0.0
1001
ACAD
1010
0.0
1020
0.0
1030
0.0
1001
ACADANNOTATIVE
1000
AnnotativeData
1002
{
1070
     1
1070
     1
1002
}
  0
LINE
  5
3334
330
2A7E
100
AcDbEntity
  8
DETAIL
100
AcDbLine
 10
479.5432543525718
 20
2458.897062933753
 30
0.0
 11
580.6902346233879
 21
2526.328210926773
 31
0.0
1001
ACAD
1010
0.0
1020
0.0
1030
0.0
1001
ACADANNOTATIVE
1000
AnnotativeData
1002
{
1070
     1
1070
     1
1002
}
  0
LINE
  5
3335
330
2A7E
100
AcDbEntity
  8
DETAIL
100
AcDbLine
 10
431.5430815860787
 20
2423.897062933755
 30
0.0
 11
484.0432156464562
 21
2458.897062933754
 31
0.0
1001
ACAD
1010
0.0
1020
0.0
1030
0.0
1001
ACADANNOTATIVE
1000
AnnotativeData
1002
{
1070
     1
1070
     1
1002
}
  0
LINE
  5
3336
330
2A7E
100
AcDbEntity
  8
DETAIL
100
AcDbLine
 10
484.0432156464562
 20
2458.897062933754
 30
0.0
 11
580.6902346233879
 21
2523.328244391356
 31
0.0
1001
ACAD
1010
0.0
1020
0.0
1030
0.0
1001
ACADANNOTATIVE
1000
AnnotativeData
1002
{
1070
     1
1070
     1
1002
}
  0
LINE
  5
3337
330
2A7E
100
AcDbEntity
  8
DETAIL
100
AcDbLine
 10
436.0430428799634
 20
2423.897062933753
 30
0.0
 11
488.5431769403409
 21
2458.897062933753
 31
0.0
1001
ACAD
1010
0.0
1020
0.0
1030
0.0
1001
ACADANNOTATIVE
1000
AnnotativeData
1002
{
1070
     1
1070
     1
1002
}
  0
LINE
  5
3338
330
2A7E
100
AcDbEntity
  8
DETAIL
100
AcDbLine
 10
488.5431769403409
 20
2458.897062933753
 30
0.0
 11
580.6902346233879
 21
2520.328277855941
 31
0.0
1001
ACAD
1010
0.0
1020
0.0
1030
0.0
1001
ACADANNOTATIVE
1000
AnnotativeData
1002
{
1070
     1
1070
     1
1002
}
  0
LINE
  5
3339
330
2A7E
100
AcDbEntity
  8
DETAIL
100
AcDbLine
 10
440.5430041738553
 20
2423.897062933755
 30
0.0
 11
493.0431382342256
 21
2458.897062933753
 31
0.0
1001
ACAD
1010
0.0
1020
0.0
1030
0.0
1001
ACADANNOTATIVE
1000
AnnotativeData
1002
{
1070
     1
1070
     1
1002
}
  0
LINE
  5
333A
330
2A7E
100
AcDbEntity
  8
DETAIL
100
AcDbLine
 10
493.0431382342256
 20
2458.897062933753
 30
0.0
 11
580.6902346233879
 21
2517.328311320524
 31
0.0
1001
ACAD
1010
0.0
1020
0.0
1030
0.0
1001
ACADANNOTATIVE
1000
AnnotativeData
1002
{
1070
     1
1070
     1
1002
}
  0
LINE
  5
333B
330
2A7E
100
AcDbEntity
  8
DETAIL
100
AcDbLine
 10
445.042965467736
 20
2423.897062933753
 30
0.0
 11
497.5430995281136
 21
2458.897062933754
 31
0.0
1001
ACAD
1010
0.0
1020
0.0
1030
0.0
1001
ACADANNOTATIVE
1000
AnnotativeData
1002
{
1070
     1
1070
     1
1002
}
  0
LINE
  5
333C
330
2A7E
100
AcDbEntity
  8
DETAIL
100
AcDbLine
 10
497.5430995281136
 20
2458.897062933754
 30
0.0
 11
580.6902346233879
 21
2514.328344785108
 31
0.0
1001
ACAD
1010
0.0
1020
0.0
1030
0.0
1001
ACADANNOTATIVE
1000
AnnotativeData
1002
{
1070
     1
1070
     1
1002
}
  0
LINE
  5
333D
330
2A7E
100
AcDbEntity
  8
DETAIL
100
AcDbLine
 10
449.5429267616243
 20
2423.897062933755
 30
0.0
 11
502.0430608220017
 21
2458.897062933756
 31
0.0
1001
ACAD
1010
0.0
1020
0.0
1030
0.0
1001
ACADANNOTATIVE
1000
AnnotativeData
1002
{
1070
     1
1070
     1
1002
}
  0
LINE
  5
333E
330
2A7E
100
AcDbEntity
  8
DETAIL
100
AcDbLine
 10
502.0430608220017
 20
2458.897062933756
 30
0.0
 11
580.6902346233879
 21
2511.328378249693
 31
0.0
1001
ACAD
1010
0.0
1020
0.0
1030
0.0
1001
ACADANNOTATIVE
1000
AnnotativeData
1002
{
1070
     1
1070
     1
1002
}
  0
LINE
  5
333F
330
2A7E
100
AcDbEntity
  8
DETAIL
100
AcDbLine
 10
454.0428880555086
 20
2423.897062933753
 30
0.0
 11
506.5430221158865
 21
2458.897062933753
 31
0.0
1001
ACAD
1010
0.0
1020
0.0
1030
0.0
1001
ACADANNOTATIVE
1000
AnnotativeData
1002
{
1070
     1
1070
     1
1002
}
  0
LINE
  5
3340
330
2A7E
100
AcDbEntity
  8
DETAIL
100
AcDbLine
 10
506.5430221158865
 20
2458.897062933753
 30
0.0
 11
580.6902346233879
 21
2508.328411714277
 31
0.0
1001
ACAD
1010
0.0
1020
0.0
1030
0.0
1001
ACADANNOTATIVE
1000
AnnotativeData
1002
{
1070
     1
1070
     1
1002
}
  0
LINE
  5
3341
330
2A7E
100
AcDbEntity
  8
DETAIL
100
AcDbLine
 10
458.5428493493971
 20
2423.897062933755
 30
0.0
 11
511.0429834097709
 21
2458.897062933753
 31
0.0
1001
ACAD
1010
0.0
1020
0.0
1030
0.0
1001
ACADANNOTATIVE
1000
AnnotativeData
1002
{
1070
     1
1070
     1
1002
}
  0
LINE
  5
3342
330
2A7E
100
AcDbEntity
  8
DETAIL
100
AcDbLine
 10
511.0429834097747
 20
2458.897062933754
 30
0.0
 11
580.6902346233879
 21
2505.328445178859
 31
0.0
1001
ACAD
1010
0.0
1020
0.0
1030
0.0
1001
ACADANNOTATIVE
1000
AnnotativeData
1002
{
1070
     1
1070
     1
1002
}
  0
LINE
  5
3343
330
2A7E
100
AcDbEntity
  8
DETAIL
100
AcDbLine
 10
463.042810643278
 20
2423.897062933753
 30
0.0
 11
515.5429447036556
 21
2458.897062933753
 31
0.0
1001
ACAD
1010
0.0
1020
0.0
1030
0.0
1001
ACADANNOTATIVE
1000
AnnotativeData
1002
{
1070
     1
1070
     1
1002
}
  0
LINE
  5
3344
330
2A7E
100
AcDbEntity
  8
DETAIL
100
AcDbLine
 10
515.5429447036556
 20
2458.897062933753
 30
0.0
 11
580.6902346233879
 21
2502.32847864344
 31
0.0
1001
ACAD
1010
0.0
1020
0.0
1030
0.0
1001
ACADANNOTATIVE
1000
AnnotativeData
1002
{
1070
     1
1070
     1
1002
}
  0
LINE
  5
3345
330
2A7E
100
AcDbEntity
  8
DETAIL
100
AcDbLine
 10
467.5427719371661
 20
2423.897062933753
 30
0.0
 11
520.0429059975438
 21
2458.897062933754
 31
0.0
1001
ACAD
1010
0.0
1020
0.0
1030
0.0
1001
ACADANNOTATIVE
1000
AnnotativeData
1002
{
1070
     1
1070
     1
1002
}
  0
LINE
  5
3346
330
2A7E
100
AcDbEntity
  8
DETAIL
100
AcDbLine
 10
520.0429059975438
 20
2458.897062933754
 30
0.0
 11
580.6902346233879
 21
2499.328512108026
 31
0.0
1001
ACAD
1010
0.0
1020
0.0
1030
0.0
1001
ACADANNOTATIVE
1000
AnnotativeData
1002
{
1070
     1
1070
     1
1002
}
  0
LINE
  5
3347
330
2A7E
100
AcDbEntity
  8
DETAIL
100
AcDbLine
 10
472.0427332310507
 20
2423.897062933755
 30
0.0
 11
524.5428672914247
 21
2458.897062933753
 31
0.0
1001
ACAD
1010
0.0
1020
0.0
1030
0.0
1001
ACADANNOTATIVE
1000
AnnotativeData
1002
{
1070
     1
1070
     1
1002
}
  0
LINE
  5
3348
330
2A7E
100
AcDbEntity
  8
DETAIL
100
AcDbLine
 10
524.5428672914247
 20
2458.897062933753
 30
0.0
 11
580.6902346233879
 21
2496.328545572611
 31
0.0
1001
ACAD
1010
0.0
1020
0.0
1030
0.0
1001
ACADANNOTATIVE
1000
AnnotativeData
1002
{
1070
     1
1070
     1
1002
}
  0
LINE
  5
3349
330
2A7E
100
AcDbEntity
  8
DETAIL
100
AcDbLine
 10
476.5426945249353
 20
2423.897062933753
 30
0.0
 11
529.0428285853129
 21
2458.897062933753
 31
0.0
1001
ACAD
1010
0.0
1020
0.0
1030
0.0
1001
ACADANNOTATIVE
1000
AnnotativeData
1002
{
1070
     1
1070
     1
1002
}
  0
LINE
  5
334A
330
2A7E
100
AcDbEntity
  8
DETAIL
100
AcDbLine
 10
529.0428285853129
 20
2458.897062933753
 30
0.0
 11
580.6902346233879
 21
2493.328579037194
 31
0.0
1001
ACAD
1010
0.0
1020
0.0
1030
0.0
1001
ACADANNOTATIVE
1000
AnnotativeData
1002
{
1070
     1
1070
     1
1002
}
  0
LINE
  5
334B
330
2A7E
100
AcDbEntity
  8
DETAIL
100
AcDbLine
 10
481.0426558188233
 20
2423.897062933753
 30
0.0
 11
533.5427898791975
 21
2458.897062933753
 31
0.0
1001
ACAD
1010
0.0
1020
0.0
1030
0.0
1001
ACADANNOTATIVE
1000
AnnotativeData
1002
{
1070
     1
1070
     1
1002
}
  0
LINE
  5
334C
330
2A7E
100
AcDbEntity
  8
DETAIL
100
AcDbLine
 10
533.5427898791975
 20
2458.897062933753
 30
0.0
 11
580.6902346233879
 21
2490.328612501777
 31
0.0
1001
ACAD
1010
0.0
1020
0.0
1030
0.0
1001
ACADANNOTATIVE
1000
AnnotativeData
1002
{
1070
     1
1070
     1
1002
}
  0
LINE
  5
334D
330
2A7E
100
AcDbEntity
  8
DETAIL
100
AcDbLine
 10
485.5426171127041
 20
2423.897062933753
 30
0.0
 11
538.042751173082
 21
2458.897062933753
 31
0.0
1001
ACAD
1010
0.0
1020
0.0
1030
0.0
1001
ACADANNOTATIVE
1000
AnnotativeData
1002
{
1070
     1
1070
     1
1002
}
  0
LINE
  5
334E
330
2A7E
100
AcDbEntity
  8
DETAIL
100
AcDbLine
 10
538.042751173082
 20
2458.897062933753
 30
0.0
 11
580.6902346233879
 21
2487.328645966363
 31
0.0
1001
ACAD
1010
0.0
1020
0.0
1030
0.0
1001
ACADANNOTATIVE
1000
AnnotativeData
1002
{
1070
     1
1070
     1
1002
}
  0
LINE
  5
334F
330
2A7E
100
AcDbEntity
  8
DETAIL
100
AcDbLine
 10
490.0425784065926
 20
2423.897062933755
 30
0.0
 11
542.5427124669702
 21
2458.897062933754
 31
0.0
1001
ACAD
1010
0.0
1020
0.0
1030
0.0
1001
ACADANNOTATIVE
1000
AnnotativeData
1002
{
1070
     1
1070
     1
1002
}
  0
LINE
  5
3350
330
2A7E
100
AcDbEntity
  8
DETAIL
100
AcDbLine
 10
542.5427124669702
 20
2458.897062933754
 30
0.0
 11
580.6902346233879
 21
2484.328679430946
 31
0.0
1001
ACAD
1010
0.0
1020
0.0
1030
0.0
1001
ACADANNOTATIVE
1000
AnnotativeData
1002
{
1070
     1
1070
     1
1002
}
  0
LINE
  5
3351
330
2A7E
100
AcDbEntity
  8
DETAIL
100
AcDbLine
 10
494.5425397004771
 20
2423.897062933753
 30
0.0
 11
547.0426737608547
 21
2458.897062933754
 31
0.0
1001
ACAD
1010
0.0
1020
0.0
1030
0.0
1001
ACADANNOTATIVE
1000
AnnotativeData
1002
{
1070
     1
1070
     1
1002
}
  0
LINE
  5
3352
330
2A7E
100
AcDbEntity
  8
DETAIL
100
AcDbLine
 10
547.0426737608547
 20
2458.897062933754
 30
0.0
 11
580.6902346233879
 21
2481.328712895529
 31
0.0
1001
ACAD
1010
0.0
1020
0.0
1030
0.0
1001
ACADANNOTATIVE
1000
AnnotativeData
1002
{
1070
     1
1070
     1
1002
}
  0
LINE
  5
3353
330
2A7E
100
AcDbEntity
  8
DETAIL
100
AcDbLine
 10
499.0425009943654
 20
2423.897062933753
 30
0.0
 11
551.5426350547393
 21
2458.897062933753
 31
0.0
1001
ACAD
1010
0.0
1020
0.0
1030
0.0
1001
ACADANNOTATIVE
1000
AnnotativeData
1002
{
1070
     1
1070
     1
1002
}
  0
LINE
  5
3354
330
2A7E
100
AcDbEntity
  8
DETAIL
100
AcDbLine
 10
551.5426350547393
 20
2458.897062933753
 30
0.0
 11
580.6902346233879
 21
2478.328746360112
 31
0.0
1001
ACAD
1010
0.0
1020
0.0
1030
0.0
1001
ACADANNOTATIVE
1000
AnnotativeData
1002
{
1070
     1
1070
     1
1002
}
  0
LINE
  5
3355
330
2A7E
100
AcDbEntity
  8
DETAIL
100
AcDbLine
 10
503.5424622882461
 20
2423.897062933753
 30
0.0
 11
556.0425963486236
 21
2458.897062933753
 31
0.0
1001
ACAD
1010
0.0
1020
0.0
1030
0.0
1001
ACADANNOTATIVE
1000
AnnotativeData
1002
{
1070
     1
1070
     1
1002
}
  0
LINE
  5
3356
330
2A7E
100
AcDbEntity
  8
DETAIL
100
AcDbLine
 10
556.0425963486236
 20
2458.897062933753
 30
0.0
 11
580.6902346233879
 21
2475.328779824697
 31
0.0
1001
ACAD
1010
0.0
1020
0.0
1030
0.0
1001
ACADANNOTATIVE
1000
AnnotativeData
1002
{
1070
     1
1070
     1
1002
}
  0
LINE
  5
3357
330
2A7E
100
AcDbEntity
  8
DETAIL
100
AcDbLine
 10
508.042423582138
 20
2423.897062933757
 30
0.0
 11
560.5425576425119
 21
2458.897062933754
 31
0.0
1001
ACAD
1010
0.0
1020
0.0
1030
0.0
1001
ACADANNOTATIVE
1000
AnnotativeData
1002
{
1070
     1
1070
     1
1002
}
  0
LINE
  5
3358
330
2A7E
100
AcDbEntity
  8
DETAIL
100
AcDbLine
 10
560.5425576425155
 20
2458.897062933756
 30
0.0
 11
580.6902346233879
 21
2472.328813289281
 31
0.0
1001
ACAD
1010
0.0
1020
0.0
1030
0.0
1001
ACADANNOTATIVE
1000
AnnotativeData
1002
{
1070
     1
1070
     1
1002
}
  0
LINE
  5
3359
330
2A7E
100
AcDbEntity
  8
DETAIL
100
AcDbLine
 10
512.542384876019
 20
2423.897062933753
 30
0.0
 11
565.0425189363966
 21
2458.897062933754
 31
0.0
1001
ACAD
1010
0.0
1020
0.0
1030
0.0
1001
ACADANNOTATIVE
1000
AnnotativeData
1002
{
1070
     1
1070
     1
1002
}
  0
LINE
  5
335A
330
2A7E
100
AcDbEntity
  8
DETAIL
100
AcDbLine
 10
565.0425189363966
 20
2458.897062933754
 30
0.0
 11
580.6902346233879
 21
2469.328846753864
 31
0.0
1001
ACAD
1010
0.0
1020
0.0
1030
0.0
1001
ACADANNOTATIVE
1000
AnnotativeData
1002
{
1070
     1
1070
     1
1002
}
  0
LINE
  5
335B
330
2A7E
100
AcDbEntity
  8
DETAIL
100
AcDbLine
 10
517.0423461699072
 20
2423.897062933753
 30
0.0
 11
569.5424802302847
 21
2458.897062933754
 31
0.0
1001
ACAD
1010
0.0
1020
0.0
1030
0.0
1001
ACADANNOTATIVE
1000
AnnotativeData
1002
{
1070
     1
1070
     1
1002
}
  0
LINE
  5
335C
330
2A7E
100
AcDbEntity
  8
DETAIL
100
AcDbLine
 10
569.5424802302847
 20
2458.897062933754
 30
0.0
 11
580.6902346233879
 21
2466.328880218449
 31
0.0
1001
ACAD
1010
0.0
1020
0.0
1030
0.0
1001
ACADANNOTATIVE
1000
AnnotativeData
1002
{
1070
     1
1070
     1
1002
}
  0
LINE
  5
335D
330
2A7E
100
AcDbEntity
  8
DETAIL
100
AcDbLine
 10
521.5423074637916
 20
2423.897062933754
 30
0.0
 11
574.0424415241657
 21
2458.897062933753
 31
0.0
1001
ACAD
1010
0.0
1020
0.0
1030
0.0
1001
ACADANNOTATIVE
1000
AnnotativeData
1002
{
1070
     1
1070
     1
1002
}
  0
LINE
  5
335E
330
2A7E
100
AcDbEntity
  8
DETAIL
100
AcDbLine
 10
574.0424415241657
 20
2458.897062933753
 30
0.0
 11
580.6902346233879
 21
2463.328913683031
 31
0.0
1001
ACAD
1010
0.0
1020
0.0
1030
0.0
1001
ACADANNOTATIVE
1000
AnnotativeData
1002
{
1070
     1
1070
     1
1002
}
  0
LINE
  5
335F
330
2A7E
100
AcDbEntity
  8
DETAIL
100
AcDbLine
 10
526.0422687576761
 20
2423.897062933755
 30
0.0
 11
578.5424028180539
 21
2458.897062933754
 31
0.0
1001
ACAD
1010
0.0
1020
0.0
1030
0.0
1001
ACADANNOTATIVE
1000
AnnotativeData
1002
{
1070
     1
1070
     1
1002
}
  0
LINE
  5
3360
330
2A7E
100
AcDbEntity
  8
DETAIL
100
AcDbLine
 10
578.5424028180539
 20
2458.897062933754
 30
0.0
 11
580.6902346233879
 21
2460.328947147615
 31
0.0
1001
ACAD
1010
0.0
1020
0.0
1030
0.0
1001
ACADANNOTATIVE
1000
AnnotativeData
1002
{
1070
     1
1070
     1
1002
}
  0
LINE
  5
3361
330
2A7E
100
AcDbEntity
  8
DETAIL
100
AcDbLine
 10
530.5422300515608
 20
2423.897062933754
 30
0.0
 11
580.6902346233879
 21
2457.328980612198
 31
0.0
1001
ACAD
1010
0.0
1020
0.0
1030
0.0
1001
ACADANNOTATIVE
1000
AnnotativeData
1002
{
1070
     1
1070
     1
1002
}
  0
LINE
  5
3362
330
2A7E
100
AcDbEntity
  8
DETAIL
100
AcDbLine
 10
535.0421913454488
 20
2423.897062933753
 30
0.0
 11
580.6902346233917
 21
2454.329014076784
 31
0.0
1001
ACAD
1010
0.0
1020
0.0
1030
0.0
1001
ACADANNOTATIVE
1000
AnnotativeData
1002
{
1070
     1
1070
     1
1002
}
  0
LINE
  5
3363
330
2A7E
100
AcDbEntity
  8
DETAIL
100
AcDbLine
 10
539.5421526393371
 20
2423.897062933754
 30
0.0
 11
580.6902346233879
 21
2451.329047541368
 31
0.0
1001
ACAD
1010
0.0
1020
0.0
1030
0.0
1001
ACADANNOTATIVE
1000
AnnotativeData
1002
{
1070
     1
1070
     1
1002
}
  0
LINE
  5
3364
330
2A7E
100
AcDbEntity
  8
DETAIL
100
AcDbLine
 10
544.0421139332181
 20
2423.897062933753
 30
0.0
 11
580.6902346233917
 21
2448.329081005951
 31
0.0
1001
ACAD
1010
0.0
1020
0.0
1030
0.0
1001
ACADANNOTATIVE
1000
AnnotativeData
1002
{
1070
     1
1070
     1
1002
}
  0
LINE
  5
3365
330
2A7E
100
AcDbEntity
  8
DETAIL
100
AcDbLine
 10
548.5420752271063
 20
2423.897062933754
 30
0.0
 11
580.6902346233879
 21
2445.329114470535
 31
0.0
1001
ACAD
1010
0.0
1020
0.0
1030
0.0
1001
ACADANNOTATIVE
1000
AnnotativeData
1002
{
1070
     1
1070
     1
1002
}
  0
LINE
  5
3366
330
2A7E
100
AcDbEntity
  8
DETAIL
100
AcDbLine
 10
553.0420365209907
 20
2423.897062933755
 30
0.0
 11
580.6902346233917
 21
2442.329147935119
 31
0.0
1001
ACAD
1010
0.0
1020
0.0
1030
0.0
1001
ACADANNOTATIVE
1000
AnnotativeData
1002
{
1070
     1
1070
     1
1002
}
  0
LINE
  5
3367
330
2A7E
100
AcDbEntity
  8
DETAIL
100
AcDbLine
 10
557.5419978148791
 20
2423.897062933756
 30
0.0
 11
580.6902346233879
 21
2439.329181399703
 31
0.0
1001
ACAD
1010
0.0
1020
0.0
1030
0.0
1001
ACADANNOTATIVE
1000
AnnotativeData
1002
{
1070
     1
1070
     1
1002
}
  0
LINE
  5
3368
330
2A7E
100
AcDbEntity
  8
DETAIL
100
AcDbLine
 10
562.04195910876
 20
2423.897062933753
 30
0.0
 11
580.6902346233879
 21
2436.329214864287
 31
0.0
1001
ACAD
1010
0.0
1020
0.0
1030
0.0
1001
ACADANNOTATIVE
1000
AnnotativeData
1002
{
1070
     1
1070
     1
1002
}
  0
LINE
  5
3369
330
2A7E
100
AcDbEntity
  8
DETAIL
100
AcDbLine
 10
566.5419204026481
 20
2423.897062933754
 30
0.0
 11
580.6902346233879
 21
2433.329248328871
 31
0.0
1001
ACAD
1010
0.0
1020
0.0
1030
0.0
1001
ACADANNOTATIVE
1000
AnnotativeData
1002
{
1070
     1
1070
     1
1002
}
  0
LINE
  5
336A
330
2A7E
100
AcDbEntity
  8
DETAIL
100
AcDbLine
 10
571.0418816965328
 20
2423.897062933755
 30
0.0
 11
580.6902346233879
 21
2430.329281793455
 31
0.0
1001
ACAD
1010
0.0
1020
0.0
1030
0.0
1001
ACADANNOTATIVE
1000
AnnotativeData
1002
{
1070
     1
1070
     1
1002
}
  0
LINE
  5
336B
330
2A7E
100
AcDbEntity
  8
DETAIL
100
AcDbLine
 10
575.5418429904207
 20
2423.897062933755
 30
0.0
 11
580.6902346233879
 21
2427.329315258037
 31
0.0
1001
ACAD
1010
0.0
1020
0.0
1030
0.0
1001
ACADANNOTATIVE
1000
AnnotativeData
1002
{
1070
     1
1070
     1
1002
}
  0
LINE
  5
336C
330
2A7E
100
AcDbEntity
  8
DETAIL
100
AcDbLine
 10
580.0418042843017
 20
2423.897062933753
 30
0.0
 11
580.6902346233879
 21
2424.329348722621
 31
0.0
1001
ACAD
1010
0.0
1020
0.0
1030
0.0
1001
ACADANNOTATIVE
1000
AnnotativeData
1002
{
1070
     1
1070
     1
1002
}
  0
LINE
  5
336D
330
2A7E
100
AcDbEntity
  8
DETAIL
100
AcDbLine
 10
578.2552471916976
 20
2652.697062933756
 30
0.0
 11
580.6902346233879
 21
2651.073742124498
 31
0.0
1001
ACAD
1010
0.0
1020
0.0
1030
0.0
1001
ACADANNOTATIVE
1000
AnnotativeData
1002
{
1070
     1
1070
     1
1002
}
  0
LINE
  5
336E
330
2A7E
100
AcDbEntity
  8
DETAIL
100
AcDbLine
 10
573.7552858978131
 20
2652.697062933756
 30
0.0
 11
580.6902346233879
 21
2648.07377558908
 31
0.0
1001
ACAD
1010
0.0
1020
0.0
1030
0.0
1001
ACADANNOTATIVE
1000
AnnotativeData
1002
{
1070
     1
1070
     1
1002
}
  0
LINE
  5
336F
330
2A7E
100
AcDbEntity
  8
DETAIL
100
AcDbLine
 10
569.2553246039286
 20
2652.697062933753
 30
0.0
 11
580.6902346233879
 21
2645.073809053663
 31
0.0
1001
ACAD
1010
0.0
1020
0.0
1030
0.0
1001
ACADANNOTATIVE
1000
AnnotativeData
1002
{
1070
     1
1070
     1
1002
}
  0
LINE
  5
3370
330
2A7E
100
AcDbEntity
  8
DETAIL
100
AcDbLine
 10
564.7553633100439
 20
2652.697062933757
 30
0.0
 11
580.6902346233879
 21
2642.073842518249
 31
0.0
1001
ACAD
1010
0.0
1020
0.0
1030
0.0
1001
ACADANNOTATIVE
1000
AnnotativeData
1002
{
1070
     1
1070
     1
1002
}
  0
LINE
  5
3371
330
2A7E
100
AcDbEntity
  8
DETAIL
100
AcDbLine
 10
560.2554020161558
 20
2652.697062933757
 30
0.0
 11
580.6902346233879
 21
2639.073875982832
 31
0.0
1001
ACAD
1010
0.0
1020
0.0
1030
0.0
1001
ACADANNOTATIVE
1000
AnnotativeData
1002
{
1070
     1
1070
     1
1002
}
  0
LINE
  5
3372
330
2A7E
100
AcDbEntity
  8
DETAIL
100
AcDbLine
 10
555.7554407222711
 20
2652.697062933756
 30
0.0
 11
580.6902346233879
 21
2636.073909447417
 31
0.0
1001
ACAD
1010
0.0
1020
0.0
1030
0.0
1001
ACADANNOTATIVE
1000
AnnotativeData
1002
{
1070
     1
1070
     1
1002
}
  0
LINE
  5
3373
330
2A7E
100
AcDbEntity
  8
DETAIL
100
AcDbLine
 10
551.2554794283865
 20
2652.697062933754
 30
0.0
 11
580.6902346233879
 21
2633.073942911999
 31
0.0
1001
ACAD
1010
0.0
1020
0.0
1030
0.0
1001
ACADANNOTATIVE
1000
AnnotativeData
1002
{
1070
     1
1070
     1
1002
}
  0
LINE
  5
3374
330
2A7E
100
AcDbEntity
  8
DETAIL
100
AcDbLine
 10
546.7555181345021
 20
2652.697062933753
 30
0.0
 11
580.6902346233879
 21
2630.073976376582
 31
0.0
1001
ACAD
1010
0.0
1020
0.0
1030
0.0
1001
ACADANNOTATIVE
1000
AnnotativeData
1002
{
1070
     1
1070
     1
1002
}
  0
LINE
  5
3375
330
2A7E
100
AcDbEntity
  8
DETAIL
100
AcDbLine
 10
542.2555568406137
 20
2652.697062933757
 30
0.0
 11
580.6902346233879
 21
2627.074009841167
 31
0.0
1001
ACAD
1010
0.0
1020
0.0
1030
0.0
1001
ACADANNOTATIVE
1000
AnnotativeData
1002
{
1070
     1
1070
     1
1002
}
  0
LINE
  5
3376
330
2A7E
100
AcDbEntity
  8
DETAIL
100
AcDbLine
 10
537.7555955467292
 20
2652.697062933757
 30
0.0
 11
580.6902346233879
 21
2624.07404330575
 31
0.0
1001
ACAD
1010
0.0
1020
0.0
1030
0.0
1001
ACADANNOTATIVE
1000
AnnotativeData
1002
{
1070
     1
1070
     1
1002
}
  0
LINE
  5
3377
330
2A7E
100
AcDbEntity
  8
DETAIL
100
AcDbLine
 10
533.2556342528448
 20
2652.697062933754
 30
0.0
 11
580.6902346233879
 21
2621.074076770333
 31
0.0
1001
ACAD
1010
0.0
1020
0.0
1030
0.0
1001
ACADANNOTATIVE
1000
AnnotativeData
1002
{
1070
     1
1070
     1
1002
}
  0
LINE
  5
3378
330
2A7E
100
AcDbEntity
  8
DETAIL
100
AcDbLine
 10
528.7556729589603
 20
2652.697062933754
 30
0.0
 11
580.6902346233879
 21
2618.074110234917
 31
0.0
1001
ACAD
1010
0.0
1020
0.0
1030
0.0
1001
ACADANNOTATIVE
1000
AnnotativeData
1002
{
1070
     1
1070
     1
1002
}
  0
LINE
  5
3379
330
2A7E
100
AcDbEntity
  8
DETAIL
100
AcDbLine
 10
524.2557116650721
 20
2652.697062933757
 30
0.0
 11
580.6902346233879
 21
2615.074143699503
 31
0.0
1001
ACAD
1010
0.0
1020
0.0
1030
0.0
1001
ACADANNOTATIVE
1000
AnnotativeData
1002
{
1070
     1
1070
     1
1002
}
  0
LINE
  5
337A
330
2A7E
100
AcDbEntity
  8
DETAIL
100
AcDbLine
 10
519.7557503711875
 20
2652.697062933755
 30
0.0
 11
580.6902346233879
 21
2612.074177164086
 31
0.0
1001
ACAD
1010
0.0
1020
0.0
1030
0.0
1001
ACADANNOTATIVE
1000
AnnotativeData
1002
{
1070
     1
1070
     1
1002
}
  0
LINE
  5
337B
330
2A7E
100
AcDbEntity
  8
DETAIL
100
AcDbLine
 10
515.2557890772993
 20
2652.697062933755
 30
0.0
 11
580.6902346233879
 21
2609.074210628671
 31
0.0
1001
ACAD
1010
0.0
1020
0.0
1030
0.0
1001
ACADANNOTATIVE
1000
AnnotativeData
1002
{
1070
     1
1070
     1
1002
}
  0
LINE
  5
337C
330
2A7E
100
AcDbEntity
  8
DETAIL
100
AcDbLine
 10
510.7558277834148
 20
2652.697062933754
 30
0.0
 11
580.6902346233879
 21
2606.074244093251
 31
0.0
1001
ACAD
1010
0.0
1020
0.0
1030
0.0
1001
ACADANNOTATIVE
1000
AnnotativeData
1002
{
1070
     1
1070
     1
1002
}
  0
LINE
  5
337D
330
2A7E
100
AcDbEntity
  8
DETAIL
100
AcDbLine
 10
506.2558664895302
 20
2652.697062933758
 30
0.0
 11
580.6902346233879
 21
2603.074277557839
 31
0.0
1001
ACAD
1010
0.0
1020
0.0
1030
0.0
1001
ACADANNOTATIVE
1000
AnnotativeData
1002
{
1070
     1
1070
     1
1002
}
  0
LINE
  5
337E
330
2A7E
100
AcDbEntity
  8
DETAIL
100
AcDbLine
 10
501.7559051956456
 20
2652.697062933755
 30
0.0
 11
580.6902346233879
 21
2600.074311022421
 31
0.0
1001
ACAD
1010
0.0
1020
0.0
1030
0.0
1001
ACADANNOTATIVE
1000
AnnotativeData
1002
{
1070
     1
1070
     1
1002
}
  0
LINE
  5
337F
330
2A7E
100
AcDbEntity
  8
DETAIL
100
AcDbLine
 10
497.2559439017611
 20
2652.697062933755
 30
0.0
 11
580.6902346233879
 21
2597.074344487004
 31
0.0
1001
ACAD
1010
0.0
1020
0.0
1030
0.0
1001
ACADANNOTATIVE
1000
AnnotativeData
1002
{
1070
     1
1070
     1
1002
}
  0
LINE
  5
3380
330
2A7E
100
AcDbEntity
  8
DETAIL
100
AcDbLine
 10
492.7559826078728
 20
2652.697062933754
 30
0.0
 11
580.6902346233879
 21
2594.074377951587
 31
0.0
1001
ACAD
1010
0.0
1020
0.0
1030
0.0
1001
ACADANNOTATIVE
1000
AnnotativeData
1002
{
1070
     1
1070
     1
1002
}
  0
LINE
  5
3381
330
2A7E
100
AcDbEntity
  8
DETAIL
100
AcDbLine
 10
488.2560213139846
 20
2652.697062933754
 30
0.0
 11
580.6902346233879
 21
2591.07441141617
 31
0.0
1001
ACAD
1010
0.0
1020
0.0
1030
0.0
1001
ACADANNOTATIVE
1000
AnnotativeData
1002
{
1070
     1
1070
     1
1002
}
  0
LINE
  5
3382
330
2A7E
100
AcDbEntity
  8
DETAIL
100
AcDbLine
 10
483.7560600201038
 20
2652.697062933756
 30
0.0
 11
580.6902346233879
 21
2588.074444880757
 31
0.0
1001
ACAD
1010
0.0
1020
0.0
1030
0.0
1001
ACADANNOTATIVE
1000
AnnotativeData
1002
{
1070
     1
1070
     1
1002
}
  0
LINE
  5
3383
330
2A7E
100
AcDbEntity
  8
DETAIL
100
AcDbLine
 10
479.2560987262156
 20
2652.697062933756
 30
0.0
 11
580.6902346233879
 21
2585.074478345339
 31
0.0
1001
ACAD
1010
0.0
1020
0.0
1030
0.0
1001
ACADANNOTATIVE
1000
AnnotativeData
1002
{
1070
     1
1070
     1
1002
}
  0
LINE
  5
3384
330
2A7E
100
AcDbEntity
  8
DETAIL
100
AcDbLine
 10
474.7561374323312
 20
2652.697062933756
 30
0.0
 11
580.6902346233879
 21
2582.074511809923
 31
0.0
1001
ACAD
1010
0.0
1020
0.0
1030
0.0
1001
ACADANNOTATIVE
1000
AnnotativeData
1002
{
1070
     1
1070
     1
1002
}
  0
LINE
  5
3385
330
2A7E
100
AcDbEntity
  8
DETAIL
100
AcDbLine
 10
470.2561761384465
 20
2652.697062933754
 30
0.0
 11
580.6902346233879
 21
2579.074545274505
 31
0.0
1001
ACAD
1010
0.0
1020
0.0
1030
0.0
1001
ACADANNOTATIVE
1000
AnnotativeData
1002
{
1070
     1
1070
     1
1002
}
  0
LINE
  5
3386
330
2A7E
100
AcDbEntity
  8
DETAIL
100
AcDbLine
 10
465.7562148445618
 20
2652.697062933756
 30
0.0
 11
580.6902346233879
 21
2576.074578739092
 31
0.0
1001
ACAD
1010
0.0
1020
0.0
1030
0.0
1001
ACADANNOTATIVE
1000
AnnotativeData
1002
{
1070
     1
1070
     1
1002
}
  0
LINE
  5
3387
330
2A7E
100
AcDbEntity
  8
DETAIL
100
AcDbLine
 10
461.2562535506738
 20
2652.697062933756
 30
0.0
 11
580.6902346233879
 21
2573.074612203674
 31
0.0
1001
ACAD
1010
0.0
1020
0.0
1030
0.0
1001
ACADANNOTATIVE
1000
AnnotativeData
1002
{
1070
     1
1070
     1
1002
}
  0
LINE
  5
3388
330
2A7E
100
AcDbEntity
  8
DETAIL
100
AcDbLine
 10
456.7562922567891
 20
2652.697062933756
 30
0.0
 11
580.6902346233879
 21
2570.074645668258
 31
0.0
1001
ACAD
1010
0.0
1020
0.0
1030
0.0
1001
ACADANNOTATIVE
1000
AnnotativeData
1002
{
1070
     1
1070
     1
1002
}
  0
LINE
  5
3389
330
2A7E
100
AcDbEntity
  8
DETAIL
100
AcDbLine
 10
452.2563309629046
 20
2652.697062933752
 30
0.0
 11
580.6902346233879
 21
2567.074679132841
 31
0.0
1001
ACAD
1010
0.0
1020
0.0
1030
0.0
1001
ACADANNOTATIVE
1000
AnnotativeData
1002
{
1070
     1
1070
     1
1002
}
  0
LINE
  5
338A
330
2A7E
100
AcDbEntity
  8
DETAIL
100
AcDbLine
 10
447.7563696690201
 20
2652.697062933756
 30
0.0
 11
580.6902346233879
 21
2564.074712597428
 31
0.0
1001
ACAD
1010
0.0
1020
0.0
1030
0.0
1001
ACADANNOTATIVE
1000
AnnotativeData
1002
{
1070
     1
1070
     1
1002
}
  0
LINE
  5
338B
330
2A7E
100
AcDbEntity
  8
DETAIL
100
AcDbLine
 10
443.2564083751318
 20
2652.697062933756
 30
0.0
 11
580.6902346233879
 21
2561.07474606201
 31
0.0
1001
ACAD
1010
0.0
1020
0.0
1030
0.0
1001
ACADANNOTATIVE
1000
AnnotativeData
1002
{
1070
     1
1070
     1
1002
}
  0
LINE
  5
338C
330
2A7E
100
AcDbEntity
  8
DETAIL
100
AcDbLine
 10
438.7564470812474
 20
2652.697062933756
 30
0.0
 11
580.6902346233879
 21
2558.074779526593
 31
0.0
1001
ACAD
1010
0.0
1020
0.0
1030
0.0
1001
ACADANNOTATIVE
1000
AnnotativeData
1002
{
1070
     1
1070
     1
1002
}
  0
LINE
  5
338D
330
2A7E
100
AcDbEntity
  8
DETAIL
100
AcDbLine
 10
434.2564857873628
 20
2652.697062933754
 30
0.0
 11
580.6902346233917
 21
2555.074812991174
 31
0.0
1001
ACAD
1010
0.0
1020
0.0
1030
0.0
1001
ACADANNOTATIVE
1000
AnnotativeData
1002
{
1070
     1
1070
     1
1002
}
  0
LINE
  5
338E
330
2A7E
100
AcDbEntity
  8
DETAIL
100
AcDbLine
 10
429.7565244934783
 20
2652.697062933754
 30
0.0
 11
580.6902346233917
 21
2552.074846455758
 31
0.0
1001
ACAD
1010
0.0
1020
0.0
1030
0.0
1001
ACADANNOTATIVE
1000
AnnotativeData
1002
{
1070
     1
1070
     1
1002
}
  0
LINE
  5
338F
330
2A7E
100
AcDbEntity
  8
DETAIL
100
AcDbLine
 10
425.2565631995901
 20
2652.697062933756
 30
0.0
 11
580.6902346233917
 21
2549.074879920344
 31
0.0
1001
ACAD
1010
0.0
1020
0.0
1030
0.0
1001
ACADANNOTATIVE
1000
AnnotativeData
1002
{
1070
     1
1070
     1
1002
}
  0
LINE
  5
3390
330
2A7E
100
AcDbEntity
  8
DETAIL
100
AcDbLine
 10
420.7566019057018
 20
2652.697062933756
 30
0.0
 11
580.6902346233917
 21
2546.074913384928
 31
0.0
1001
ACAD
1010
0.0
1020
0.0
1030
0.0
1001
ACADANNOTATIVE
1000
AnnotativeData
1002
{
1070
     1
1070
     1
1002
}
  0
LINE
  5
3391
330
2A7E
100
AcDbEntity
  8
DETAIL
100
AcDbLine
 10
416.2566406118209
 20
2652.697062933754
 30
0.0
 11
580.6902346233917
 21
2543.07494684951
 31
0.0
1001
ACAD
1010
0.0
1020
0.0
1030
0.0
1001
ACADANNOTATIVE
1000
AnnotativeData
1002
{
1070
     1
1070
     1
1002
}
  0
LINE
  5
3392
330
2A7E
100
AcDbEntity
  8
DETAIL
100
AcDbLine
 10
411.7566793179328
 20
2652.697062933754
 30
0.0
 11
580.6902346233917
 21
2540.074980314093
 31
0.0
1001
ACAD
1010
0.0
1020
0.0
1030
0.0
1001
ACADANNOTATIVE
1000
AnnotativeData
1002
{
1070
     1
1070
     1
1002
}
  0
LINE
  5
3393
330
2A7E
100
AcDbEntity
  8
DETAIL
100
AcDbLine
 10
407.2567180240481
 20
2652.697062933758
 30
0.0
 11
580.6902346233917
 21
2537.075013778678
 31
0.0
1001
ACAD
1010
0.0
1020
0.0
1030
0.0
1001
ACADANNOTATIVE
1000
AnnotativeData
1002
{
1070
     1
1070
     1
1002
}
  0
LINE
  5
3394
330
2A7E
100
AcDbEntity
  8
DETAIL
100
AcDbLine
 10
402.7567567301636
 20
2652.697062933754
 30
0.0
 11
580.6902346233917
 21
2534.075047243263
 31
0.0
1001
ACAD
1010
0.0
1020
0.0
1030
0.0
1001
ACADANNOTATIVE
1000
AnnotativeData
1002
{
1070
     1
1070
     1
1002
}
  0
LINE
  5
3395
330
2A7E
100
AcDbEntity
  8
DETAIL
100
AcDbLine
 10
398.2567954362792
 20
2652.697062933754
 30
0.0
 11
580.6902346233917
 21
2531.075080707845
 31
0.0
1001
ACAD
1010
0.0
1020
0.0
1030
0.0
1001
ACADANNOTATIVE
1000
AnnotativeData
1002
{
1070
     1
1070
     1
1002
}
  0
LINE
  5
3396
330
2A7E
100
AcDbEntity
  8
DETAIL
100
AcDbLine
 10
393.756834142391
 20
2652.697062933754
 30
0.0
 11
580.6902346233917
 21
2528.075114172428
 31
0.0
1001
ACAD
1010
0.0
1020
0.0
1030
0.0
1001
ACADANNOTATIVE
1000
AnnotativeData
1002
{
1070
     1
1070
     1
1002
}
  0
LINE
  5
3397
330
2A7E
100
AcDbEntity
  8
DETAIL
100
AcDbLine
 10
389.2568728485064
 20
2652.697062933758
 30
0.0
 11
580.6902346233917
 21
2525.075147637014
 31
0.0
1001
ACAD
1010
0.0
1020
0.0
1030
0.0
1001
ACADANNOTATIVE
1000
AnnotativeData
1002
{
1070
     1
1070
     1
1002
}
  0
LINE
  5
3398
330
2A7E
100
AcDbEntity
  8
DETAIL
100
AcDbLine
 10
384.7569115546219
 20
2652.697062933756
 30
0.0
 11
580.6902346233917
 21
2522.075181101597
 31
0.0
1001
ACAD
1010
0.0
1020
0.0
1030
0.0
1001
ACADANNOTATIVE
1000
AnnotativeData
1002
{
1070
     1
1070
     1
1002
}
  0
LINE
  5
3399
330
2A7E
100
AcDbEntity
  8
DETAIL
100
AcDbLine
 10
380.2569502607337
 20
2652.697062933756
 30
0.0
 11
580.6902346233917
 21
2519.075214566181
 31
0.0
1001
ACAD
1010
0.0
1020
0.0
1030
0.0
1001
ACADANNOTATIVE
1000
AnnotativeData
1002
{
1070
     1
1070
     1
1002
}
  0
LINE
  5
339A
330
2A7E
100
AcDbEntity
  8
DETAIL
100
AcDbLine
 10
375.7569889668491
 20
2652.697062933754
 30
0.0
 11
580.6902346233917
 21
2516.075248030763
 31
0.0
1001
ACAD
1010
0.0
1020
0.0
1030
0.0
1001
ACADANNOTATIVE
1000
AnnotativeData
1002
{
1070
     1
1070
     1
1002
}
  0
LINE
  5
339B
330
2A7E
100
AcDbEntity
  8
DETAIL
100
AcDbLine
 10
371.2570276729646
 20
2652.697062933754
 30
0.0
 11
580.6902346233917
 21
2513.075281495347
 31
0.0
1001
ACAD
1010
0.0
1020
0.0
1030
0.0
1001
ACADANNOTATIVE
1000
AnnotativeData
1002
{
1070
     1
1070
     1
1002
}
  0
LINE
  5
339C
330
2A7E
100
AcDbEntity
  8
DETAIL
100
AcDbLine
 10
366.75706637908
 20
2652.697062933756
 30
0.0
 11
580.6902346233917
 21
2510.075314959932
 31
0.0
1001
ACAD
1010
0.0
1020
0.0
1030
0.0
1001
ACADANNOTATIVE
1000
AnnotativeData
1002
{
1070
     1
1070
     1
1002
}
  0
LINE
  5
339D
330
2A7E
100
AcDbEntity
  8
DETAIL
100
AcDbLine
 10
362.2571050851882
 20
2652.697062933758
 30
0.0
 11
364.8902346233851
 21
2650.941647724132
 31
0.0
1001
ACAD
1010
0.0
1020
0.0
1030
0.0
1001
ACADANNOTATIVE
1000
AnnotativeData
1002
{
1070
     1
1070
     1
1002
}
  0
LINE
  5
339E
330
2A7E
100
AcDbEntity
  8
DETAIL
100
AcDbLine
 10
364.8902346233924
 20
2650.941647724128
 30
0.0
 11
580.6902346233917
 21
2507.075348424515
 31
0.0
1001
ACAD
1010
0.0
1020
0.0
1030
0.0
1001
ACADANNOTATIVE
1000
AnnotativeData
1002
{
1070
     1
1070
     1
1002
}
  0
LINE
  5
339F
330
2A7E
100
AcDbEntity
  8
DETAIL
100
AcDbLine
 10
357.7571437913073
 20
2652.697062933754
 30
0.0
 11
364.8902346233888
 21
2647.941681188715
 31
0.0
1001
ACAD
1010
0.0
1020
0.0
1030
0.0
1001
ACADANNOTATIVE
1000
AnnotativeData
1002
{
1070
     1
1070
     1
1002
}
  0
LINE
  5
33A0
330
2A7E
100
AcDbEntity
  8
DETAIL
100
AcDbLine
 10
364.8902346233924
 20
2647.941681188713
 30
0.0
 11
580.6902346233917
 21
2504.075381889099
 31
0.0
1001
ACAD
1010
0.0
1020
0.0
1030
0.0
1001
ACADANNOTATIVE
1000
AnnotativeData
1002
{
1070
     1
1070
     1
1002
}
  0
LINE
  5
33A1
330
2A7E
100
AcDbEntity
  8
DETAIL
100
AcDbLine
 10
353.2571824974191
 20
2652.697062933754
 30
0.0
 11
364.8902346233888
 21
2644.941714653298
 31
0.0
1001
ACAD
1010
0.0
1020
0.0
1030
0.0
1001
ACADANNOTATIVE
1000
AnnotativeData
1002
{
1070
     1
1070
     1
1002
}
  0
LINE
  5
33A2
330
2A7E
100
AcDbEntity
  8
DETAIL
100
AcDbLine
 10
364.8902346233924
 20
2644.941714653296
 30
0.0
 11
580.6902346233917
 21
2501.075415353682
 31
0.0
1001
ACAD
1010
0.0
1020
0.0
1030
0.0
1001
ACADANNOTATIVE
1000
AnnotativeData
1002
{
1070
     1
1070
     1
1002
}
  0
LINE
  5
33A3
330
2A7E
100
AcDbEntity
  8
DETAIL
100
AcDbLine
 10
348.7572212035382
 20
2652.697062933756
 30
0.0
 11
364.8902346233888
 21
2641.941748117885
 31
0.0
1001
ACAD
1010
0.0
1020
0.0
1030
0.0
1001
ACADANNOTATIVE
1000
AnnotativeData
1002
{
1070
     1
1070
     1
1002
}
  0
LINE
  5
33A4
330
2A7E
100
AcDbEntity
  8
DETAIL
100
AcDbLine
 10
364.8902346233924
 20
2641.941748117883
 30
0.0
 11
580.6902346233917
 21
2498.075448818268
 31
0.0
1001
ACAD
1010
0.0
1020
0.0
1030
0.0
1001
ACADANNOTATIVE
1000
AnnotativeData
1002
{
1070
     1
1070
     1
1002
}
  0
LINE
  5
33A5
330
2A7E
100
AcDbEntity
  8
DETAIL
100
AcDbLine
 10
344.25725990965
 20
2652.697062933756
 30
0.0
 11
364.8902346233888
 21
2638.941781582467
 31
0.0
1001
ACAD
1010
0.0
1020
0.0
1030
0.0
1001
ACADANNOTATIVE
1000
AnnotativeData
1002
{
1070
     1
1070
     1
1002
}
  0
LINE
  5
33A6
330
2A7E
100
AcDbEntity
  8
DETAIL
100
AcDbLine
 10
364.8902346233924
 20
2638.941781582464
 30
0.0
 11
580.6902346233917
 21
2495.075482282852
 31
0.0
1001
ACAD
1010
0.0
1020
0.0
1030
0.0
1001
ACADANNOTATIVE
1000
AnnotativeData
1002
{
1070
     1
1070
     1
1002
}
  0
LINE
  5
33A7
330
2A7E
100
AcDbEntity
  8
DETAIL
100
AcDbLine
 10
339.7572986157654
 20
2652.697062933756
 30
0.0
 11
364.8902346233888
 21
2635.941815047051
 31
0.0
1001
ACAD
1010
0.0
1020
0.0
1030
0.0
1001
ACADANNOTATIVE
1000
AnnotativeData
1002
{
1070
     1
1070
     1
1002
}
  0
LINE
  5
33A8
330
2A7E
100
AcDbEntity
  8
DETAIL
100
AcDbLine
 10
364.8902346233924
 20
2635.941815047048
 30
0.0
 11
580.6902346233917
 21
2492.075515747434
 31
0.0
1001
ACAD
1010
0.0
1020
0.0
1030
0.0
1001
ACADANNOTATIVE
1000
AnnotativeData
1002
{
1070
     1
1070
     1
1002
}
  0
LINE
  5
33A9
330
2A7E
100
AcDbEntity
  8
DETAIL
100
AcDbLine
 10
335.2573373218809
 20
2652.697062933752
 30
0.0
 11
364.8902346233888
 21
2632.941848511633
 31
0.0
1001
ACAD
1010
0.0
1020
0.0
1030
0.0
1001
ACADANNOTATIVE
1000
AnnotativeData
1002
{
1070
     1
1070
     1
1002
}
  0
LINE
  5
33AA
330
2A7E
100
AcDbEntity
  8
DETAIL
100
AcDbLine
 10
364.8902346233924
 20
2632.94184851163
 30
0.0
 11
580.6902346233917
 21
2489.075549212016
 31
0.0
1001
ACAD
1010
0.0
1020
0.0
1030
0.0
1001
ACADANNOTATIVE
1000
AnnotativeData
1002
{
1070
     1
1070
     1
1002
}
  0
LINE
  5
33AB
330
2A7E
100
AcDbEntity
  8
DETAIL
100
AcDbLine
 10
330.7573760279963
 20
2652.697062933756
 30
0.0
 11
364.8902346233888
 21
2629.94188197622
 31
0.0
1001
ACAD
1010
0.0
1020
0.0
1030
0.0
1001
ACADANNOTATIVE
1000
AnnotativeData
1002
{
1070
     1
1070
     1
1002
}
  0
LINE
  5
33AC
330
2A7E
100
AcDbEntity
  8
DETAIL
100
AcDbLine
 10
364.8902346233924
 20
2629.941881976218
 30
0.0
 11
580.6902346233917
 21
2486.075582676603
 31
0.0
1001
ACAD
1010
0.0
1020
0.0
1030
0.0
1001
ACADANNOTATIVE
1000
AnnotativeData
1002
{
1070
     1
1070
     1
1002
}
  0
LINE
  5
33AD
330
2A7E
100
AcDbEntity
  8
DETAIL
100
AcDbLine
 10
326.2574147341081
 20
2652.697062933756
 30
0.0
 11
364.8902346233888
 21
2626.941915440803
 31
0.0
1001
ACAD
1010
0.0
1020
0.0
1030
0.0
1001
ACADANNOTATIVE
1000
AnnotativeData
1002
{
1070
     1
1070
     1
1002
}
  0
LINE
  5
33AE
330
2A7E
100
AcDbEntity
  8
DETAIL
100
AcDbLine
 10
364.8902346233924
 20
2626.941915440801
 30
0.0
 11
580.6902346233917
 21
2483.075616141187
 31
0.0
1001
ACAD
1010
0.0
1020
0.0
1030
0.0
1001
ACADANNOTATIVE
1000
AnnotativeData
1002
{
1070
     1
1070
     1
1002
}
  0
LINE
  5
33AF
330
2A7E
100
AcDbEntity
  8
DETAIL
100
AcDbLine
 10
321.7574534402199
 20
2652.697062933756
 30
0.0
 11
364.8902346233888
 21
2623.941948905387
 31
0.0
1001
ACAD
1010
0.0
1020
0.0
1030
0.0
1001
ACADANNOTATIVE
1000
AnnotativeData
1002
{
1070
     1
1070
     1
1002
}
  0
LINE
  5
33B0
330
2A7E
100
AcDbEntity
  8
DETAIL
100
AcDbLine
 10
364.8902346233924
 20
2623.941948905383
 30
0.0
 11
580.6902346233917
 21
2480.075649605769
 31
0.0
1001
ACAD
1010
0.0
1020
0.0
1030
0.0
1001
ACADANNOTATIVE
1000
AnnotativeData
1002
{
1070
     1
1070
     1
1002
}
  0
LINE
  5
33B1
330
2A7E
100
AcDbEntity
  8
DETAIL
100
AcDbLine
 10
317.257492146339
 20
2652.697062933754
 30
0.0
 11
364.8902346233888
 21
2620.941982369969
 31
0.0
1001
ACAD
1010
0.0
1020
0.0
1030
0.0
1001
ACADANNOTATIVE
1000
AnnotativeData
1002
{
1070
     1
1070
     1
1002
}
  0
LINE
  5
33B2
330
2A7E
100
AcDbEntity
  8
DETAIL
100
AcDbLine
 10
364.8902346233924
 20
2620.941982369967
 30
0.0
 11
580.6902346233917
 21
2477.075683070352
 31
0.0
1001
ACAD
1010
0.0
1020
0.0
1030
0.0
1001
ACADANNOTATIVE
1000
AnnotativeData
1002
{
1070
     1
1070
     1
1002
}
  0
LINE
  5
33B3
330
2A7E
100
AcDbEntity
  8
DETAIL
100
AcDbLine
 10
314.8902346233851
 20
2651.275264050404
 30
0.0
 11
364.8902346233888
 21
2617.942015834551
 31
0.0
1001
ACAD
1010
0.0
1020
0.0
1030
0.0
1001
ACADANNOTATIVE
1000
AnnotativeData
1002
{
1070
     1
1070
     1
1002
}
  0
LINE
  5
33B4
330
2A7E
100
AcDbEntity
  8
DETAIL
100
AcDbLine
 10
364.8902346233924
 20
2617.942015834549
 30
0.0
 11
580.6902346233917
 21
2474.075716534935
 31
0.0
1001
ACAD
1010
0.0
1020
0.0
1030
0.0
1001
ACADANNOTATIVE
1000
AnnotativeData
1002
{
1070
     1
1070
     1
1002
}
  0
LINE
  5
33B5
330
2A7E
100
AcDbEntity
  8
DETAIL
100
AcDbLine
 10
314.8902346233851
 20
2648.275297514991
 30
0.0
 11
364.8902346233888
 21
2614.942049299138
 31
0.0
1001
ACAD
1010
0.0
1020
0.0
1030
0.0
1001
ACADANNOTATIVE
1000
AnnotativeData
1002
{
1070
     1
1070
     1
1002
}
  0
LINE
  5
33B6
330
2A7E
100
AcDbEntity
  8
DETAIL
100
AcDbLine
 10
364.8902346233924
 20
2614.942049299136
 30
0.0
 11
580.6902346233917
 21
2471.075749999523
 31
0.0
1001
ACAD
1010
0.0
1020
0.0
1030
0.0
1001
ACADANNOTATIVE
1000
AnnotativeData
1002
{
1070
     1
1070
     1
1002
}
  0
LINE
  5
33B7
330
2A7E
100
AcDbEntity
  8
DETAIL
100
AcDbLine
 10
314.8902346233888
 20
2645.275330979572
 30
0.0
 11
364.8902346233888
 21
2611.942082763721
 31
0.0
1001
ACAD
1010
0.0
1020
0.0
1030
0.0
1001
ACADANNOTATIVE
1000
AnnotativeData
1002
{
1070
     1
1070
     1
1002
}
  0
LINE
  5
33B8
330
2A7E
100
AcDbEntity
  8
DETAIL
100
AcDbLine
 10
364.8902346233924
 20
2611.942082763718
 30
0.0
 11
580.6902346233917
 21
2468.075783464105
 31
0.0
1001
ACAD
1010
0.0
1020
0.0
1030
0.0
1001
ACADANNOTATIVE
1000
AnnotativeData
1002
{
1070
     1
1070
     1
1002
}
  0
LINE
  5
33B9
330
2A7E
100
AcDbEntity
  8
DETAIL
100
AcDbLine
 10
314.8902346233851
 20
2642.275364444156
 30
0.0
 11
364.8902346233888
 21
2608.942116228304
 31
0.0
1001
ACAD
1010
0.0
1020
0.0
1030
0.0
1001
ACADANNOTATIVE
1000
AnnotativeData
1002
{
1070
     1
1070
     1
1002
}
  0
LINE
  5
33BA
330
2A7E
100
AcDbEntity
  8
DETAIL
100
AcDbLine
 10
364.8902346233924
 20
2608.942116228302
 30
0.0
 11
580.6902346233917
 21
2465.075816928689
 31
0.0
1001
ACAD
1010
0.0
1020
0.0
1030
0.0
1001
ACADANNOTATIVE
1000
AnnotativeData
1002
{
1070
     1
1070
     1
1002
}
  0
LINE
  5
33BB
330
2A7E
100
AcDbEntity
  8
DETAIL
100
AcDbLine
 10
314.8902346233888
 20
2639.275397908739
 30
0.0
 11
364.8902346233888
 21
2605.942149692886
 31
0.0
1001
ACAD
1010
0.0
1020
0.0
1030
0.0
1001
ACADANNOTATIVE
1000
AnnotativeData
1002
{
1070
     1
1070
     1
1002
}
  0
LINE
  5
33BC
330
2A7E
100
AcDbEntity
  8
DETAIL
100
AcDbLine
 10
364.8902346233924
 20
2605.942149692884
 30
0.0
 11
580.6902346233917
 21
2462.07585039327
 31
0.0
1001
ACAD
1010
0.0
1020
0.0
1030
0.0
1001
ACADANNOTATIVE
1000
AnnotativeData
1002
{
1070
     1
1070
     1
1002
}
  0
LINE
  5
33BD
330
2A7E
100
AcDbEntity
  8
DETAIL
100
AcDbLine
 10
314.8902346233888
 20
2636.275431373326
 30
0.0
 11
364.8902346233888
 21
2602.942183157475
 31
0.0
1001
ACAD
1010
0.0
1020
0.0
1030
0.0
1001
ACADANNOTATIVE
1000
AnnotativeData
1002
{
1070
     1
1070
     1
1002
}
  0
LINE
  5
33BE
330
2A7E
100
AcDbEntity
  8
DETAIL
100
AcDbLine
 10
364.8902346233924
 20
2602.942183157471
 30
0.0
 11
580.6902346233917
 21
2459.075883857857
 31
0.0
1001
ACAD
1010
0.0
1020
0.0
1030
0.0
1001
ACADANNOTATIVE
1000
AnnotativeData
1002
{
1070
     1
1070
     1
1002
}
  0
LINE
  5
33BF
330
2A7E
100
AcDbEntity
  8
DETAIL
100
AcDbLine
 10
314.8902346233888
 20
2633.275464837909
 30
0.0
 11
364.8902346233888
 21
2599.942216622056
 31
0.0
1001
ACAD
1010
0.0
1020
0.0
1030
0.0
1001
ACADANNOTATIVE
1000
AnnotativeData
1002
{
1070
     1
1070
     1
1002
}
  0
LINE
  5
33C0
330
2A7E
100
AcDbEntity
  8
DETAIL
100
AcDbLine
 10
576.4585054005989
 20
2458.897062933754
 30
0.0
 11
580.6902346233917
 21
2456.07591732244
 31
0.0
1001
ACAD
1010
0.0
1020
0.0
1030
0.0
1001
ACADANNOTATIVE
1000
AnnotativeData
1002
{
1070
     1
1070
     1
1002
}
  0
LINE
  5
33C1
330
2A7E
100
AcDbEntity
  8
DETAIL
100
AcDbLine
 10
364.8902346233924
 20
2599.942216622054
 30
0.0
 11
576.4585054005954
 21
2458.897062933756
 31
0.0
1001
ACAD
1010
0.0
1020
0.0
1030
0.0
1001
ACADANNOTATIVE
1000
AnnotativeData
1002
{
1070
     1
1070
     1
1002
}
  0
LINE
  5
33C2
330
2A7E
100
AcDbEntity
  8
DETAIL
100
AcDbLine
 10
314.8902346233888
 20
2630.275498302492
 30
0.0
 11
364.8902346233888
 21
2596.942250086641
 31
0.0
1001
ACAD
1010
0.0
1020
0.0
1030
0.0
1001
ACADANNOTATIVE
1000
AnnotativeData
1002
{
1070
     1
1070
     1
1002
}
  0
LINE
  5
33C3
330
2A7E
100
AcDbEntity
  8
DETAIL
100
AcDbLine
 10
571.9585441067072
 20
2458.897062933756
 30
0.0
 11
580.6902346233917
 21
2453.075950787024
 31
0.0
1001
ACAD
1010
0.0
1020
0.0
1030
0.0
1001
ACADANNOTATIVE
1000
AnnotativeData
1002
{
1070
     1
1070
     1
1002
}
  0
LINE
  5
33C4
330
2A7E
100
AcDbEntity
  8
DETAIL
100
AcDbLine
 10
364.8902346233924
 20
2596.942250086637
 30
0.0
 11
571.9585441067072
 21
2458.897062933756
 31
0.0
1001
ACAD
1010
0.0
1020
0.0
1030
0.0
1001
ACADANNOTATIVE
1000
AnnotativeData
1002
{
1070
     1
1070
     1
1002
}
  0
LINE
  5
33C5
330
2A7E
100
AcDbEntity
  8
DETAIL
100
AcDbLine
 10
314.8902346233851
 20
2627.275531767074
 30
0.0
 11
364.8902346233888
 21
2593.942283551222
 31
0.0
1001
ACAD
1010
0.0
1020
0.0
1030
0.0
1001
ACADANNOTATIVE
1000
AnnotativeData
1002
{
1070
     1
1070
     1
1002
}
  0
LINE
  5
33C6
330
2A7E
100
AcDbEntity
  8
DETAIL
100
AcDbLine
 10
567.4585828128226
 20
2458.897062933754
 30
0.0
 11
580.6902346233917
 21
2450.075984251606
 31
0.0
1001
ACAD
1010
0.0
1020
0.0
1030
0.0
1001
ACADANNOTATIVE
1000
AnnotativeData
1002
{
1070
     1
1070
     1
1002
}
  0
LINE
  5
33C7
330
2A7E
100
AcDbEntity
  8
DETAIL
100
AcDbLine
 10
364.8902346233924
 20
2593.94228355122
 30
0.0
 11
567.4585828128226
 21
2458.897062933754
 31
0.0
1001
ACAD
1010
0.0
1020
0.0
1030
0.0
1001
ACADANNOTATIVE
1000
AnnotativeData
1002
{
1070
     1
1070
     1
1002
}
  0
LINE
  5
33C8
330
2A7E
100
AcDbEntity
  8
DETAIL
100
AcDbLine
 10
314.8902346233888
 20
2624.275565231661
 30
0.0
 11
364.8902346233888
 21
2590.942317015808
 31
0.0
1001
ACAD
1010
0.0
1020
0.0
1030
0.0
1001
ACADANNOTATIVE
1000
AnnotativeData
1002
{
1070
     1
1070
     1
1002
}
  0
LINE
  5
33C9
330
2A7E
100
AcDbEntity
  8
DETAIL
100
AcDbLine
 10
562.9586215189381
 20
2458.897062933758
 30
0.0
 11
580.6902346233917
 21
2447.076017716193
 31
0.0
1001
ACAD
1010
0.0
1020
0.0
1030
0.0
1001
ACADANNOTATIVE
1000
AnnotativeData
1002
{
1070
     1
1070
     1
1002
}
  0
LINE
  5
33CA
330
2A7E
100
AcDbEntity
  8
DETAIL
100
AcDbLine
 10
364.8902346233924
 20
2590.942317015806
 30
0.0
 11
562.9586215189381
 21
2458.897062933758
 31
0.0
1001
ACAD
1010
0.0
1020
0.0
1030
0.0
1001
ACADANNOTATIVE
1000
AnnotativeData
1002
{
1070
     1
1070
     1
1002
}
  0
LINE
  5
33CB
330
2A7E
100
AcDbEntity
  8
DETAIL
100
AcDbLine
 10
314.8902346233851
 20
2621.275598696244
 30
0.0
 11
364.8902346233888
 21
2587.942350480393
 31
0.0
1001
ACAD
1010
0.0
1020
0.0
1030
0.0
1001
ACADANNOTATIVE
1000
AnnotativeData
1002
{
1070
     1
1070
     1
1002
}
  0
LINE
  5
33CC
330
2A7E
100
AcDbEntity
  8
DETAIL
100
AcDbLine
 10
558.4586602250534
 20
2458.897062933756
 30
0.0
 11
580.6902346233917
 21
2444.076051180776
 31
0.0
1001
ACAD
1010
0.0
1020
0.0
1030
0.0
1001
ACADANNOTATIVE
1000
AnnotativeData
1002
{
1070
     1
1070
     1
1002
}
  0
LINE
  5
33CD
330
2A7E
100
AcDbEntity
  8
DETAIL
100
AcDbLine
 10
364.8902346233924
 20
2587.94235048039
 30
0.0
 11
558.4586602250534
 21
2458.897062933756
 31
0.0
1001
ACAD
1010
0.0
1020
0.0
1030
0.0
1001
ACADANNOTATIVE
1000
AnnotativeData
1002
{
1070
     1
1070
     1
1002
}
  0
LINE
  5
33CE
330
2A7E
100
AcDbEntity
  8
DETAIL
100
AcDbLine
 10
314.8902346233888
 20
2618.275632160827
 30
0.0
 11
364.8902346233888
 21
2584.942383944976
 31
0.0
1001
ACAD
1010
0.0
1020
0.0
1030
0.0
1001
ACADANNOTATIVE
1000
AnnotativeData
1002
{
1070
     1
1070
     1
1002
}
  0
LINE
  5
33CF
330
2A7E
100
AcDbEntity
  8
DETAIL
100
AcDbLine
 10
553.9586989311651
 20
2458.897062933756
 30
0.0
 11
580.6902346233917
 21
2441.076084645358
 31
0.0
1001
ACAD
1010
0.0
1020
0.0
1030
0.0
1001
ACADANNOTATIVE
1000
AnnotativeData
1002
{
1070
     1
1070
     1
1002
}
  0
LINE
  5
33D0
330
2A7E
100
AcDbEntity
  8
DETAIL
100
AcDbLine
 10
364.8902346233924
 20
2584.942383944972
 30
0.0
 11
553.9586989311651
 21
2458.897062933756
 31
0.0
1001
ACAD
1010
0.0
1020
0.0
1030
0.0
1001
ACADANNOTATIVE
1000
AnnotativeData
1002
{
1070
     1
1070
     1
1002
}
  0
LINE
  5
33D1
330
2A7E
100
AcDbEntity
  8
DETAIL
100
AcDbLine
 10
314.8902346233851
 20
2615.27566562541
 30
0.0
 11
364.8902346233888
 21
2581.942417409559
 31
0.0
1001
ACAD
1010
0.0
1020
0.0
1030
0.0
1001
ACADANNOTATIVE
1000
AnnotativeData
1002
{
1070
     1
1070
     1
1002
}
  0
LINE
  5
33D2
330
2A7E
100
AcDbEntity
  8
DETAIL
100
AcDbLine
 10
549.4587376372845
 20
2458.897062933754
 30
0.0
 11
580.6902346233917
 21
2438.076118109942
 31
0.0
1001
ACAD
1010
0.0
1020
0.0
1030
0.0
1001
ACADANNOTATIVE
1000
AnnotativeData
1002
{
1070
     1
1070
     1
1002
}
  0
LINE
  5
33D3
330
2A7E
100
AcDbEntity
  8
DETAIL
100
AcDbLine
 10
364.8902346233924
 20
2581.942417409555
 30
0.0
 11
549.4587376372845
 21
2458.897062933754
 31
0.0
1001
ACAD
1010
0.0
1020
0.0
1030
0.0
1001
ACADANNOTATIVE
1000
AnnotativeData
1002
{
1070
     1
1070
     1
1002
}
  0
LINE
  5
33D4
330
2A7E
100
AcDbEntity
  8
DETAIL
100
AcDbLine
 10
314.8902346233851
 20
2612.275699089993
 30
0.0
 11
364.8902346233888
 21
2578.942450874141
 31
0.0
1001
ACAD
1010
0.0
1020
0.0
1030
0.0
1001
ACADANNOTATIVE
1000
AnnotativeData
1002
{
1070
     1
1070
     1
1002
}
  0
LINE
  5
33D5
330
2A7E
100
AcDbEntity
  8
DETAIL
100
AcDbLine
 10
544.9587763433926
 20
2458.897062933754
 30
0.0
 11
580.6902346233917
 21
2435.076151574524
 31
0.0
1001
ACAD
1010
0.0
1020
0.0
1030
0.0
1001
ACADANNOTATIVE
1000
AnnotativeData
1002
{
1070
     1
1070
     1
1002
}
  0
LINE
  5
33D6
330
2A7E
100
AcDbEntity
  8
DETAIL
100
AcDbLine
 10
364.8902346233924
 20
2578.942450874138
 30
0.0
 11
544.9587763433926
 21
2458.897062933754
 31
0.0
1001
ACAD
1010
0.0
1020
0.0
1030
0.0
1001
ACADANNOTATIVE
1000
AnnotativeData
1002
{
1070
     1
1070
     1
1002
}
  0
LINE
  5
33D7
330
2A7E
100
AcDbEntity
  8
DETAIL
100
AcDbLine
 10
314.8902346233888
 20
2609.275732554579
 30
0.0
 11
364.8902346233888
 21
2575.942484338728
 31
0.0
1001
ACAD
1010
0.0
1020
0.0
1030
0.0
1001
ACADANNOTATIVE
1000
AnnotativeData
1002
{
1070
     1
1070
     1
1002
}
  0
LINE
  5
33D8
330
2A7E
100
AcDbEntity
  8
DETAIL
100
AcDbLine
 10
540.4588150495079
 20
2458.897062933758
 30
0.0
 11
580.6902346233917
 21
2432.076185039111
 31
0.0
1001
ACAD
1010
0.0
1020
0.0
1030
0.0
1001
ACADANNOTATIVE
1000
AnnotativeData
1002
{
1070
     1
1070
     1
1002
}
  0
LINE
  5
33D9
330
2A7E
100
AcDbEntity
  8
DETAIL
100
AcDbLine
 10
364.8902346233924
 20
2575.942484338725
 30
0.0
 11
540.4588150495079
 21
2458.897062933758
 31
0.0
1001
ACAD
1010
0.0
1020
0.0
1030
0.0
1001
ACADANNOTATIVE
1000
AnnotativeData
1002
{
1070
     1
1070
     1
1002
}
  0
LINE
  5
33DA
330
2A7E
100
AcDbEntity
  8
DETAIL
100
AcDbLine
 10
314.8902346233851
 20
2606.275766019162
 30
0.0
 11
364.8902346233888
 21
2572.942517803309
 31
0.0
1001
ACAD
1010
0.0
1020
0.0
1030
0.0
1001
ACADANNOTATIVE
1000
AnnotativeData
1002
{
1070
     1
1070
     1
1002
}
  0
LINE
  5
33DB
330
2A7E
100
AcDbEntity
  8
DETAIL
100
AcDbLine
 10
535.9588537556235
 20
2458.897062933756
 30
0.0
 11
580.6902346233917
 21
2429.076218503694
 31
0.0
1001
ACAD
1010
0.0
1020
0.0
1030
0.0
1001
ACADANNOTATIVE
1000
AnnotativeData
1002
{
1070
     1
1070
     1
1002
}
  0
LINE
  5
33DC
330
2A7E
100
AcDbEntity
  8
DETAIL
100
AcDbLine
 10
364.8902346233924
 20
2572.942517803307
 30
0.0
 11
535.9588537556235
 21
2458.897062933756
 31
0.0
1001
ACAD
1010
0.0
1020
0.0
1030
0.0
1001
ACADANNOTATIVE
1000
AnnotativeData
1002
{
1070
     1
1070
     1
1002
}
  0
LINE
  5
33DD
330
2A7E
100
AcDbEntity
  8
DETAIL
100
AcDbLine
 10
314.8902346233888
 20
2603.275799483745
 30
0.0
 11
364.8902346233888
 21
2569.942551267895
 31
0.0
1001
ACAD
1010
0.0
1020
0.0
1030
0.0
1001
ACADANNOTATIVE
1000
AnnotativeData
1002
{
1070
     1
1070
     1
1002
}
  0
LINE
  5
33DE
330
2A7E
100
AcDbEntity
  8
DETAIL
100
AcDbLine
 10
531.4588924617388
 20
2458.897062933754
 30
0.0
 11
580.6902346233917
 21
2426.076251968277
 31
0.0
1001
ACAD
1010
0.0
1020
0.0
1030
0.0
1001
ACADANNOTATIVE
1000
AnnotativeData
1002
{
1070
     1
1070
     1
1002
}
  0
LINE
  5
33DF
330
2A7E
100
AcDbEntity
  8
DETAIL
100
AcDbLine
 10
364.8902346233924
 20
2569.94255126789
 30
0.0
 11
531.4588924617388
 21
2458.897062933754
 31
0.0
1001
ACAD
1010
0.0
1020
0.0
1030
0.0
1001
ACADANNOTATIVE
1000
AnnotativeData
1002
{
1070
     1
1070
     1
1002
}
  0
LINE
  5
33E0
330
2A7E
100
AcDbEntity
  8
DETAIL
100
AcDbLine
 10
314.8902346233851
 20
2600.275832948328
 30
0.0
 11
364.8902346233888
 21
2566.942584732477
 31
0.0
1001
ACAD
1010
0.0
1020
0.0
1030
0.0
1001
ACADANNOTATIVE
1000
AnnotativeData
1002
{
1070
     1
1070
     1
1002
}
  0
LINE
  5
33E1
330
2A7E
100
AcDbEntity
  8
DETAIL
100
AcDbLine
 10
526.9589311678544
 20
2458.897062933754
 30
0.0
 11
579.459065228232
 21
2423.897062933754
 31
0.0
1001
ACAD
1010
0.0
1020
0.0
1030
0.0
1001
ACADANNOTATIVE
1000
AnnotativeData
1002
{
1070
     1
1070
     1
1002
}
  0
LINE
  5
33E2
330
2A7E
100
AcDbEntity
  8
DETAIL
100
AcDbLine
 10
364.8902346233924
 20
2566.942584732475
 30
0.0
 11
526.9589311678544
 21
2458.897062933754
 31
0.0
1001
ACAD
1010
0.0
1020
0.0
1030
0.0
1001
ACADANNOTATIVE
1000
AnnotativeData
1002
{
1070
     1
1070
     1
1002
}
  0
LINE
  5
33E3
330
2A7E
100
AcDbEntity
  8
DETAIL
100
AcDbLine
 10
314.8902346233888
 20
2597.275866412914
 30
0.0
 11
364.8902346233888
 21
2563.942618197063
 31
0.0
1001
ACAD
1010
0.0
1020
0.0
1030
0.0
1001
ACADANNOTATIVE
1000
AnnotativeData
1002
{
1070
     1
1070
     1
1002
}
  0
LINE
  5
33E4
330
2A7E
100
AcDbEntity
  8
DETAIL
100
AcDbLine
 10
522.4589698739662
 20
2458.897062933758
 30
0.0
 11
574.9591039343437
 21
2423.897062933757
 31
0.0
1001
ACAD
1010
0.0
1020
0.0
1030
0.0
1001
ACADANNOTATIVE
1000
AnnotativeData
1002
{
1070
     1
1070
     1
1002
}
  0
LINE
  5
33E5
330
2A7E
100
AcDbEntity
  8
DETAIL
100
AcDbLine
 10
364.8902346233924
 20
2563.942618197061
 30
0.0
 11
522.4589698739662
 21
2458.897062933758
 31
0.0
1001
ACAD
1010
0.0
1020
0.0
1030
0.0
1001
ACADANNOTATIVE
1000
AnnotativeData
1002
{
1070
     1
1070
     1
1002
}
  0
LINE
  5
33E6
330
2A7E
100
AcDbEntity
  8
DETAIL
100
AcDbLine
 10
314.8902346233851
 20
2594.275899877499
 30
0.0
 11
364.8902346233888
 21
2560.942651661646
 31
0.0
1001
ACAD
1010
0.0
1020
0.0
1030
0.0
1001
ACADANNOTATIVE
1000
AnnotativeData
1002
{
1070
     1
1070
     1
1002
}
  0
LINE
  5
33E7
330
2A7E
100
AcDbEntity
  8
DETAIL
100
AcDbLine
 10
517.9590085800817
 20
2458.897062933756
 30
0.0
 11
570.4591426404591
 21
2423.897062933755
 31
0.0
1001
ACAD
1010
0.0
1020
0.0
1030
0.0
1001
ACADANNOTATIVE
1000
AnnotativeData
1002
{
1070
     1
1070
     1
1002
}
  0
LINE
  5
33E8
330
2A7E
100
AcDbEntity
  8
DETAIL
100
AcDbLine
 10
364.8902346233924
 20
2560.942651661644
 30
0.0
 11
517.9590085800817
 21
2458.897062933756
 31
0.0
1001
ACAD
1010
0.0
1020
0.0
1030
0.0
1001
ACADANNOTATIVE
1000
AnnotativeData
1002
{
1070
     1
1070
     1
1002
}
  0
LINE
  5
33E9
330
2A7E
100
AcDbEntity
  8
DETAIL
100
AcDbLine
 10
314.8902346233888
 20
2591.27593334208
 30
0.0
 11
364.8902346233888
 21
2557.942685126229
 31
0.0
1001
ACAD
1010
0.0
1020
0.0
1030
0.0
1001
ACADANNOTATIVE
1000
AnnotativeData
1002
{
1070
     1
1070
     1
1002
}
  0
LINE
  5
33EA
330
2A7E
100
AcDbEntity
  8
DETAIL
100
AcDbLine
 10
513.4590472861971
 20
2458.897062933754
 30
0.0
 11
565.9591813465748
 21
2423.897062933755
 31
0.0
1001
ACAD
1010
0.0
1020
0.0
1030
0.0
1001
ACADANNOTATIVE
1000
AnnotativeData
1002
{
1070
     1
1070
     1
1002
}
  0
LINE
  5
33EB
330
2A7E
100
AcDbEntity
  8
DETAIL
100
AcDbLine
 10
364.8902346233924
 20
2557.942685126225
 30
0.0
 11
513.4590472861971
 21
2458.897062933754
 31
0.0
1001
ACAD
1010
0.0
1020
0.0
1030
0.0
1001
ACADANNOTATIVE
1000
AnnotativeData
1002
{
1070
     1
1070
     1
1002
}
  0
LINE
  5
33EC
330
2A7E
100
AcDbEntity
  8
DETAIL
100
AcDbLine
 10
314.8902346233851
 20
2588.275966806665
 30
0.0
 11
364.8902346233888
 21
2554.942718590812
 31
0.0
1001
ACAD
1010
0.0
1020
0.0
1030
0.0
1001
ACADANNOTATIVE
1000
AnnotativeData
1002
{
1070
     1
1070
     1
1002
}
  0
LINE
  5
33ED
330
2A7E
100
AcDbEntity
  8
DETAIL
100
AcDbLine
 10
508.9590859923088
 20
2458.897062933754
 30
0.0
 11
561.4592200526864
 21
2423.897062933754
 31
0.0
1001
ACAD
1010
0.0
1020
0.0
1030
0.0
1001
ACADANNOTATIVE
1000
AnnotativeData
1002
{
1070
     1
1070
     1
1002
}
  0
LINE
  5
33EE
330
2A7E
100
AcDbEntity
  8
DETAIL
100
AcDbLine
 10
364.8902346233924
 20
2554.942718590808
 30
0.0
 11
508.9590859923088
 21
2458.897062933754
 31
0.0
1001
ACAD
1010
0.0
1020
0.0
1030
0.0
1001
ACADANNOTATIVE
1000
AnnotativeData
1002
{
1070
     1
1070
     1
1002
}
  0
LINE
  5
33EF
330
2A7E
100
AcDbEntity
  8
DETAIL
100
AcDbLine
 10
314.8902346233888
 20
2585.27600027125
 30
0.0
 11
364.8902346233888
 21
2551.942752055398
 31
0.0
1001
ACAD
1010
0.0
1020
0.0
1030
0.0
1001
ACADANNOTATIVE
1000
AnnotativeData
1002
{
1070
     1
1070
     1
1002
}
  0
LINE
  5
33F0
330
2A7E
100
AcDbEntity
  8
DETAIL
100
AcDbLine
 10
504.4591246984244
 20
2458.897062933758
 30
0.0
 11
556.959258758802
 21
2423.897062933757
 31
0.0
1001
ACAD
1010
0.0
1020
0.0
1030
0.0
1001
ACADANNOTATIVE
1000
AnnotativeData
1002
{
1070
     1
1070
     1
1002
}
  0
LINE
  5
33F1
330
2A7E
100
AcDbEntity
  8
DETAIL
100
AcDbLine
 10
364.8902346233924
 20
2551.942752055397
 30
0.0
 11
504.4591246984244
 21
2458.897062933758
 31
0.0
1001
ACAD
1010
0.0
1020
0.0
1030
0.0
1001
ACADANNOTATIVE
1000
AnnotativeData
1002
{
1070
     1
1070
     1
1002
}
  0
LINE
  5
33F2
330
2A7E
100
AcDbEntity
  8
DETAIL
100
AcDbLine
 10
314.8902346233888
 20
2582.276033735832
 30
0.0
 11
364.8902346233888
 21
2548.942785519981
 31
0.0
1001
ACAD
1010
0.0
1020
0.0
1030
0.0
1001
ACADANNOTATIVE
1000
AnnotativeData
1002
{
1070
     1
1070
     1
1002
}
  0
LINE
  5
33F3
330
2A7E
100
AcDbEntity
  8
DETAIL
100
AcDbLine
 10
499.9591634045398
 20
2458.897062933756
 30
0.0
 11
552.4592974649173
 21
2423.897062933755
 31
0.0
1001
ACAD
1010
0.0
1020
0.0
1030
0.0
1001
ACADANNOTATIVE
1000
AnnotativeData
1002
{
1070
     1
1070
     1
1002
}
  0
LINE
  5
33F4
330
2A7E
100
AcDbEntity
  8
DETAIL
100
AcDbLine
 10
364.8902346233924
 20
2548.942785519979
 30
0.0
 11
499.9591634045398
 21
2458.897062933756
 31
0.0
1001
ACAD
1010
0.0
1020
0.0
1030
0.0
1001
ACADANNOTATIVE
1000
AnnotativeData
1002
{
1070
     1
1070
     1
1002
}
  0
LINE
  5
33F5
330
2A7E
100
AcDbEntity
  8
DETAIL
100
AcDbLine
 10
314.8902346233888
 20
2579.276067200416
 30
0.0
 11
364.8902346233924
 21
2545.942818984564
 31
0.0
1001
ACAD
1010
0.0
1020
0.0
1030
0.0
1001
ACADANNOTATIVE
1000
AnnotativeData
1002
{
1070
     1
1070
     1
1002
}
  0
LINE
  5
33F6
330
2A7E
100
AcDbEntity
  8
DETAIL
100
AcDbLine
 10
495.4592021106551
 20
2458.897062933756
 30
0.0
 11
547.9593361710292
 21
2423.897062933757
 31
0.0
1001
ACAD
1010
0.0
1020
0.0
1030
0.0
1001
ACADANNOTATIVE
1000
AnnotativeData
1002
{
1070
     1
1070
     1
1002
}
  0
LINE
  5
33F7
330
2A7E
100
AcDbEntity
  8
DETAIL
100
AcDbLine
 10
364.8902346233924
 20
2545.942818984562
 30
0.0
 11
495.4592021106551
 21
2458.897062933756
 31
0.0
1001
ACAD
1010
0.0
1020
0.0
1030
0.0
1001
ACADANNOTATIVE
1000
AnnotativeData
1002
{
1070
     1
1070
     1
1002
}
  0
LINE
  5
33F8
330
2A7E
100
AcDbEntity
  8
DETAIL
100
AcDbLine
 10
314.8902346233851
 20
2576.276100665
 30
0.0
 11
364.8902346233851
 21
2542.942852449149
 31
0.0
1001
ACAD
1010
0.0
1020
0.0
1030
0.0
1001
ACADANNOTATIVE
1000
AnnotativeData
1002
{
1070
     1
1070
     1
1002
}
  0
LINE
  5
33F9
330
2A7E
100
AcDbEntity
  8
DETAIL
100
AcDbLine
 10
490.9592408167707
 20
2458.897062933754
 30
0.0
 11
543.4593748771447
 21
2423.897062933755
 31
0.0
1001
ACAD
1010
0.0
1020
0.0
1030
0.0
1001
ACADANNOTATIVE
1000
AnnotativeData
1002
{
1070
     1
1070
     1
1002
}
  0
LINE
  5
33FA
330
2A7E
100
AcDbEntity
  8
DETAIL
100
AcDbLine
 10
364.8902346233924
 20
2542.942852449145
 30
0.0
 11
490.9592408167707
 21
2458.897062933754
 31
0.0
1001
ACAD
1010
0.0
1020
0.0
1030
0.0
1001
ACADANNOTATIVE
1000
AnnotativeData
1002
{
1070
     1
1070
     1
1002
}
  0
LINE
  5
33FB
330
2A7E
100
AcDbEntity
  8
DETAIL
100
AcDbLine
 10
314.8902346233888
 20
2573.276134129583
 30
0.0
 11
364.8902346233888
 21
2539.94288591373
 31
0.0
1001
ACAD
1010
0.0
1020
0.0
1030
0.0
1001
ACADANNOTATIVE
1000
AnnotativeData
1002
{
1070
     1
1070
     1
1002
}
  0
LINE
  5
33FC
330
2A7E
100
AcDbEntity
  8
DETAIL
100
AcDbLine
 10
486.4592795228825
 20
2458.897062933754
 30
0.0
 11
538.9594135832601
 21
2423.897062933754
 31
0.0
1001
ACAD
1010
0.0
1020
0.0
1030
0.0
1001
ACADANNOTATIVE
1000
AnnotativeData
1002
{
1070
     1
1070
     1
1002
}
  0
LINE
  5
33FD
330
2A7E
100
AcDbEntity
  8
DETAIL
100
AcDbLine
 10
364.8902346233924
 20
2539.942885913728
 30
0.0
 11
486.4592795228825
 21
2458.897062933754
 31
0.0
1001
ACAD
1010
0.0
1020
0.0
1030
0.0
1001
ACADANNOTATIVE
1000
AnnotativeData
1002
{
1070
     1
1070
     1
1002
}
  0
LINE
  5
33FE
330
2A7E
100
AcDbEntity
  8
DETAIL
100
AcDbLine
 10
314.8902346233851
 20
2570.276167594169
 30
0.0
 11
364.8902346233888
 21
2536.942919378316
 31
0.0
1001
ACAD
1010
0.0
1020
0.0
1030
0.0
1001
ACADANNOTATIVE
1000
AnnotativeData
1002
{
1070
     1
1070
     1
1002
}
  0
LINE
  5
33FF
330
2A7E
100
AcDbEntity
  8
DETAIL
100
AcDbLine
 10
481.9593182289978
 20
2458.897062933756
 30
0.0
 11
534.4594522893755
 21
2423.897062933756
 31
0.0
1001
ACAD
1010
0.0
1020
0.0
1030
0.0
1001
ACADANNOTATIVE
1000
AnnotativeData
1002
{
1070
     1
1070
     1
1002
}
  0
LINE
  5
3400
330
2A7E
100
AcDbEntity
  8
DETAIL
100
AcDbLine
 10
364.8902346233924
 20
2536.942919378313
 30
0.0
 11
481.9593182289978
 21
2458.897062933756
 31
0.0
1001
ACAD
1010
0.0
1020
0.0
1030
0.0
1001
ACADANNOTATIVE
1000
AnnotativeData
1002
{
1070
     1
1070
     1
1002
}
  0
LINE
  5
3401
330
2A7E
100
AcDbEntity
  8
DETAIL
100
AcDbLine
 10
314.8902346233888
 20
2567.276201058752
 30
0.0
 11
364.8902346233888
 21
2533.942952842899
 31
0.0
1001
ACAD
1010
0.0
1020
0.0
1030
0.0
1001
ACADANNOTATIVE
1000
AnnotativeData
1002
{
1070
     1
1070
     1
1002
}
  0
LINE
  5
3402
330
2A7E
100
AcDbEntity
  8
DETAIL
100
AcDbLine
 10
477.4593569351131
 20
2458.897062933756
 30
0.0
 11
529.959490995491
 21
2423.897062933755
 31
0.0
1001
ACAD
1010
0.0
1020
0.0
1030
0.0
1001
ACADANNOTATIVE
1000
AnnotativeData
1002
{
1070
     1
1070
     1
1002
}
  0
LINE
  5
3403
330
2A7E
100
AcDbEntity
  8
DETAIL
100
AcDbLine
 10
364.8902346233924
 20
2533.942952842898
 30
0.0
 11
477.4593569351131
 21
2458.897062933756
 31
0.0
1001
ACAD
1010
0.0
1020
0.0
1030
0.0
1001
ACADANNOTATIVE
1000
AnnotativeData
1002
{
1070
     1
1070
     1
1002
}
  0
LINE
  5
3404
330
2A7E
100
AcDbEntity
  8
DETAIL
100
AcDbLine
 10
314.8902346233888
 20
2564.276234523334
 30
0.0
 11
364.8902346233888
 21
2530.942986307482
 31
0.0
1001
ACAD
1010
0.0
1020
0.0
1030
0.0
1001
ACADANNOTATIVE
1000
AnnotativeData
1002
{
1070
     1
1070
     1
1002
}
  0
LINE
  5
3405
330
2A7E
100
AcDbEntity
  8
DETAIL
100
AcDbLine
 10
472.9593956412251
 20
2458.897062933756
 30
0.0
 11
525.4595297016028
 21
2423.897062933755
 31
0.0
1001
ACAD
1010
0.0
1020
0.0
1030
0.0
1001
ACADANNOTATIVE
1000
AnnotativeData
1002
{
1070
     1
1070
     1
1002
}
  0
LINE
  5
3406
330
2A7E
100
AcDbEntity
  8
DETAIL
100
AcDbLine
 10
364.8902346233924
 20
2530.94298630748
 30
0.0
 11
472.9593956412251
 21
2458.897062933756
 31
0.0
1001
ACAD
1010
0.0
1020
0.0
1030
0.0
1001
ACADANNOTATIVE
1000
AnnotativeData
1002
{
1070
     1
1070
     1
1002
}
  0
LINE
  5
3407
330
2A7E
100
AcDbEntity
  8
DETAIL
100
AcDbLine
 10
314.8902346233851
 20
2561.276267987918
 30
0.0
 11
364.8902346233888
 21
2527.943019772065
 31
0.0
1001
ACAD
1010
0.0
1020
0.0
1030
0.0
1001
ACADANNOTATIVE
1000
AnnotativeData
1002
{
1070
     1
1070
     1
1002
}
  0
LINE
  5
3408
330
2A7E
100
AcDbEntity
  8
DETAIL
100
AcDbLine
 10
468.4594343473404
 20
2458.897062933753
 30
0.0
 11
520.9595684077181
 21
2423.897062933753
 31
0.0
1001
ACAD
1010
0.0
1020
0.0
1030
0.0
1001
ACADANNOTATIVE
1000
AnnotativeData
1002
{
1070
     1
1070
     1
1002
}
  0
LINE
  5
3409
330
2A7E
100
AcDbEntity
  8
DETAIL
100
AcDbLine
 10
364.8902346233924
 20
2527.943019772064
 30
0.0
 11
468.4594343473404
 21
2458.897062933753
 31
0.0
1001
ACAD
1010
0.0
1020
0.0
1030
0.0
1001
ACADANNOTATIVE
1000
AnnotativeData
1002
{
1070
     1
1070
     1
1002
}
  0
LINE
  5
340A
330
2A7E
100
AcDbEntity
  8
DETAIL
100
AcDbLine
 10
314.8902346233888
 20
2558.276301452505
 30
0.0
 11
364.8902346233888
 21
2524.943053236653
 31
0.0
1001
ACAD
1010
0.0
1020
0.0
1030
0.0
1001
ACADANNOTATIVE
1000
AnnotativeData
1002
{
1070
     1
1070
     1
1002
}
  0
LINE
  5
340B
330
2A7E
100
AcDbEntity
  8
DETAIL
100
AcDbLine
 10
463.9594730534561
 20
2458.897062933756
 30
0.0
 11
516.4596071138337
 21
2423.897062933756
 31
0.0
1001
ACAD
1010
0.0
1020
0.0
1030
0.0
1001
ACADANNOTATIVE
1000
AnnotativeData
1002
{
1070
     1
1070
     1
1002
}
  0
LINE
  5
340C
330
2A7E
100
AcDbEntity
  8
DETAIL
100
AcDbLine
 10
364.8902346233924
 20
2524.94305323665
 30
0.0
 11
463.9594730534561
 21
2458.897062933756
 31
0.0
1001
ACAD
1010
0.0
1020
0.0
1030
0.0
1001
ACADANNOTATIVE
1000
AnnotativeData
1002
{
1070
     1
1070
     1
1002
}
  0
LINE
  5
340D
330
2A7E
100
AcDbEntity
  8
DETAIL
100
AcDbLine
 10
314.8902346233851
 20
2555.276334917087
 30
0.0
 11
364.8902346233888
 21
2521.943086701237
 31
0.0
1001
ACAD
1010
0.0
1020
0.0
1030
0.0
1001
ACADANNOTATIVE
1000
AnnotativeData
1002
{
1070
     1
1070
     1
1002
}
  0
LINE
  5
340E
330
2A7E
100
AcDbEntity
  8
DETAIL
100
AcDbLine
 10
459.4595117595715
 20
2458.897062933756
 30
0.0
 11
511.9596458199492
 21
2423.897062933756
 31
0.0
1001
ACAD
1010
0.0
1020
0.0
1030
0.0
1001
ACADANNOTATIVE
1000
AnnotativeData
1002
{
1070
     1
1070
     1
1002
}
  0
LINE
  5
340F
330
2A7E
100
AcDbEntity
  8
DETAIL
100
AcDbLine
 10
364.8902346233924
 20
2521.943086701233
 30
0.0
 11
459.4595117595715
 21
2458.897062933756
 31
0.0
1001
ACAD
1010
0.0
1020
0.0
1030
0.0
1001
ACADANNOTATIVE
1000
AnnotativeData
1002
{
1070
     1
1070
     1
1002
}
  0
LINE
  5
3410
330
2A7E
100
AcDbEntity
  8
DETAIL
100
AcDbLine
 10
314.8902346233888
 20
2552.27636838167
 30
0.0
 11
364.8902346233888
 21
2518.943120165817
 31
0.0
1001
ACAD
1010
0.0
1020
0.0
1030
0.0
1001
ACADANNOTATIVE
1000
AnnotativeData
1002
{
1070
     1
1070
     1
1002
}
  0
LINE
  5
3411
330
2A7E
100
AcDbEntity
  8
DETAIL
100
AcDbLine
 10
454.9595504656831
 20
2458.897062933756
 30
0.0
 11
507.4596845260606
 21
2423.897062933756
 31
0.0
1001
ACAD
1010
0.0
1020
0.0
1030
0.0
1001
ACADANNOTATIVE
1000
AnnotativeData
1002
{
1070
     1
1070
     1
1002
}
  0
LINE
  5
3412
330
2A7E
100
AcDbEntity
  8
DETAIL
100
AcDbLine
 10
364.8902346233924
 20
2518.943120165815
 30
0.0
 11
454.9595504656831
 21
2458.897062933756
 31
0.0
1001
ACAD
1010
0.0
1020
0.0
1030
0.0
1001
ACADANNOTATIVE
1000
AnnotativeData
1002
{
1070
     1
1070
     1
1002
}
  0
LINE
  5
3413
330
2A7E
100
AcDbEntity
  8
DETAIL
100
AcDbLine
 10
314.8902346233851
 20
2549.276401846253
 30
0.0
 11
364.8902346233888
 21
2515.943153630402
 31
0.0
1001
ACAD
1010
0.0
1020
0.0
1030
0.0
1001
ACADANNOTATIVE
1000
AnnotativeData
1002
{
1070
     1
1070
     1
1002
}
  0
LINE
  5
3414
330
2A7E
100
AcDbEntity
  8
DETAIL
100
AcDbLine
 10
450.4595891718023
 20
2458.897062933754
 30
0.0
 11
502.9597232321799
 21
2423.897062933753
 31
0.0
1001
ACAD
1010
0.0
1020
0.0
1030
0.0
1001
ACADANNOTATIVE
1000
AnnotativeData
1002
{
1070
     1
1070
     1
1002
}
  0
LINE
  5
3415
330
2A7E
100
AcDbEntity
  8
DETAIL
100
AcDbLine
 10
364.8902346233924
 20
2515.943153630399
 30
0.0
 11
450.4595891718023
 21
2458.897062933754
 31
0.0
1001
ACAD
1010
0.0
1020
0.0
1030
0.0
1001
ACADANNOTATIVE
1000
AnnotativeData
1002
{
1070
     1
1070
     1
1002
}
  0
LINE
  5
3416
330
2A7E
100
AcDbEntity
  8
DETAIL
100
AcDbLine
 10
314.8902346233888
 20
2546.27643531084
 30
0.0
 11
364.8902346233888
 21
2512.943187094986
 31
0.0
1001
ACAD
1010
0.0
1020
0.0
1030
0.0
1001
ACADANNOTATIVE
1000
AnnotativeData
1002
{
1070
     1
1070
     1
1002
}
  0
LINE
  5
3417
330
2A7E
100
AcDbEntity
  8
DETAIL
100
AcDbLine
 10
445.9596278779143
 20
2458.897062933756
 30
0.0
 11
498.4597619382919
 21
2423.897062933757
 31
0.0
1001
ACAD
1010
0.0
1020
0.0
1030
0.0
1001
ACADANNOTATIVE
1000
AnnotativeData
1002
{
1070
     1
1070
     1
1002
}
  0
LINE
  5
3418
330
2A7E
100
AcDbEntity
  8
DETAIL
100
AcDbLine
 10
364.8902346233924
 20
2512.943187094985
 30
0.0
 11
445.9596278779143
 21
2458.897062933756
 31
0.0
1001
ACAD
1010
0.0
1020
0.0
1030
0.0
1001
ACADANNOTATIVE
1000
AnnotativeData
1002
{
1070
     1
1070
     1
1002
}
  0
LINE
  5
3419
330
2A7E
100
AcDbEntity
  8
DETAIL
100
AcDbLine
 10
314.8902346233851
 20
2543.276468775423
 30
0.0
 11
364.8902346233888
 21
2509.943220559572
 31
0.0
1001
ACAD
1010
0.0
1020
0.0
1030
0.0
1001
ACADANNOTATIVE
1000
AnnotativeData
1002
{
1070
     1
1070
     1
1002
}
  0
LINE
  5
341A
330
2A7E
100
AcDbEntity
  8
DETAIL
100
AcDbLine
 10
441.459666584026
 20
2458.897062933756
 30
0.0
 11
493.9598006444036
 21
2423.897062933756
 31
0.0
1001
ACAD
1010
0.0
1020
0.0
1030
0.0
1001
ACADANNOTATIVE
1000
AnnotativeData
1002
{
1070
     1
1070
     1
1002
}
  0
LINE
  5
341B
330
2A7E
100
AcDbEntity
  8
DETAIL
100
AcDbLine
 10
364.8902346233924
 20
2509.943220559569
 30
0.0
 11
441.459666584026
 21
2458.897062933756
 31
0.0
1001
ACAD
1010
0.0
1020
0.0
1030
0.0
1001
ACADANNOTATIVE
1000
AnnotativeData
1002
{
1070
     1
1070
     1
1002
}
  0
LINE
  5
341C
330
2A7E
100
AcDbEntity
  8
DETAIL
100
AcDbLine
 10
314.8902346233851
 20
2540.276502240006
 30
0.0
 11
364.8902346233888
 21
2506.943254024154
 31
0.0
1001
ACAD
1010
0.0
1020
0.0
1030
0.0
1001
ACADANNOTATIVE
1000
AnnotativeData
1002
{
1070
     1
1070
     1
1002
}
  0
LINE
  5
341D
330
2A7E
100
AcDbEntity
  8
DETAIL
100
AcDbLine
 10
436.9597052901415
 20
2458.897062933756
 30
0.0
 11
489.459839350519
 21
2423.897062933756
 31
0.0
1001
ACAD
1010
0.0
1020
0.0
1030
0.0
1001
ACADANNOTATIVE
1000
AnnotativeData
1002
{
1070
     1
1070
     1
1002
}
  0
LINE
  5
341E
330
2A7E
100
AcDbEntity
  8
DETAIL
100
AcDbLine
 10
364.8902346233924
 20
2506.943254024151
 30
0.0
 11
436.9597052901415
 21
2458.897062933756
 31
0.0
1001
ACAD
1010
0.0
1020
0.0
1030
0.0
1001
ACADANNOTATIVE
1000
AnnotativeData
1002
{
1070
     1
1070
     1
1002
}
  0
LINE
  5
341F
330
2A7E
100
AcDbEntity
  8
DETAIL
100
AcDbLine
 10
314.8902346233851
 20
2537.27653570459
 30
0.0
 11
364.8902346233888
 21
2503.943287488737
 31
0.0
1001
ACAD
1010
0.0
1020
0.0
1030
0.0
1001
ACADANNOTATIVE
1000
AnnotativeData
1002
{
1070
     1
1070
     1
1002
}
  0
LINE
  5
3420
330
2A7E
100
AcDbEntity
  8
DETAIL
100
AcDbLine
 10
432.459743996257
 20
2458.897062933754
 30
0.0
 11
484.9598780566346
 21
2423.897062933753
 31
0.0
1001
ACAD
1010
0.0
1020
0.0
1030
0.0
1001
ACADANNOTATIVE
1000
AnnotativeData
1002
{
1070
     1
1070
     1
1002
}
  0
LINE
  5
3421
330
2A7E
100
AcDbEntity
  8
DETAIL
100
AcDbLine
 10
364.8902346233924
 20
2503.943287488735
 30
0.0
 11
432.459743996257
 21
2458.897062933754
 31
0.0
1001
ACAD
1010
0.0
1020
0.0
1030
0.0
1001
ACADANNOTATIVE
1000
AnnotativeData
1002
{
1070
     1
1070
     1
1002
}
  0
LINE
  5
3422
330
2A7E
100
AcDbEntity
  8
DETAIL
100
AcDbLine
 10
314.8902346233851
 20
2534.276569169175
 30
0.0
 11
364.8902346233888
 21
2500.94332095332
 31
0.0
1001
ACAD
1010
0.0
1020
0.0
1030
0.0
1001
ACADANNOTATIVE
1000
AnnotativeData
1002
{
1070
     1
1070
     1
1002
}
  0
LINE
  5
3423
330
2A7E
100
AcDbEntity
  8
DETAIL
100
AcDbLine
 10
427.9597827023724
 20
2458.897062933754
 30
0.0
 11
480.4599167627462
 21
2423.897062933755
 31
0.0
1001
ACAD
1010
0.0
1020
0.0
1030
0.0
1001
ACADANNOTATIVE
1000
AnnotativeData
1002
{
1070
     1
1070
     1
1002
}
  0
LINE
  5
3424
330
2A7E
100
AcDbEntity
  8
DETAIL
100
AcDbLine
 10
364.8902346233924
 20
2500.943320953317
 30
0.0
 11
427.9597827023724
 21
2458.897062933754
 31
0.0
1001
ACAD
1010
0.0
1020
0.0
1030
0.0
1001
ACADANNOTATIVE
1000
AnnotativeData
1002
{
1070
     1
1070
     1
1002
}
  0
LINE
  5
3425
330
2A7E
100
AcDbEntity
  8
DETAIL
100
AcDbLine
 10
314.8902346233851
 20
2531.27660263376
 30
0.0
 11
364.8902346233888
 21
2497.943354417907
 31
0.0
1001
ACAD
1010
0.0
1020
0.0
1030
0.0
1001
ACADANNOTATIVE
1000
AnnotativeData
1002
{
1070
     1
1070
     1
1002
}
  0
LINE
  5
3426
330
2A7E
100
AcDbEntity
  8
DETAIL
100
AcDbLine
 10
423.4598214084841
 20
2458.897062933756
 30
0.0
 11
475.9599554688618
 21
2423.897062933757
 31
0.0
1001
ACAD
1010
0.0
1020
0.0
1030
0.0
1001
ACADANNOTATIVE
1000
AnnotativeData
1002
{
1070
     1
1070
     1
1002
}
  0
LINE
  5
3427
330
2A7E
100
AcDbEntity
  8
DETAIL
100
AcDbLine
 10
364.8902346233924
 20
2497.943354417904
 30
0.0
 11
423.4598214084841
 21
2458.897062933756
 31
0.0
1001
ACAD
1010
0.0
1020
0.0
1030
0.0
1001
ACADANNOTATIVE
1000
AnnotativeData
1002
{
1070
     1
1070
     1
1002
}
  0
LINE
  5
3428
330
2A7E
100
AcDbEntity
  8
DETAIL
100
AcDbLine
 10
314.8902346233851
 20
2528.276636098342
 30
0.0
 11
364.8902346233888
 21
2494.94338788249
 31
0.0
1001
ACAD
1010
0.0
1020
0.0
1030
0.0
1001
ACADANNOTATIVE
1000
AnnotativeData
1002
{
1070
     1
1070
     1
1002
}
  0
LINE
  5
3429
330
2A7E
100
AcDbEntity
  8
DETAIL
100
AcDbLine
 10
418.9598601145997
 20
2458.897062933756
 30
0.0
 11
471.4599941749773
 21
2423.897062933756
 31
0.0
1001
ACAD
1010
0.0
1020
0.0
1030
0.0
1001
ACADANNOTATIVE
1000
AnnotativeData
1002
{
1070
     1
1070
     1
1002
}
  0
LINE
  5
342A
330
2A7E
100
AcDbEntity
  8
DETAIL
100
AcDbLine
 10
364.8902346233924
 20
2494.943387882486
 30
0.0
 11
418.9598601145997
 21
2458.897062933756
 31
0.0
1001
ACAD
1010
0.0
1020
0.0
1030
0.0
1001
ACADANNOTATIVE
1000
AnnotativeData
1002
{
1070
     1
1070
     1
1002
}
  0
LINE
  5
342B
330
2A7E
100
AcDbEntity
  8
DETAIL
100
AcDbLine
 10
314.8902346233851
 20
2525.276669562925
 30
0.0
 11
364.8902346233888
 21
2491.943421347072
 31
0.0
1001
ACAD
1010
0.0
1020
0.0
1030
0.0
1001
ACADANNOTATIVE
1000
AnnotativeData
1002
{
1070
     1
1070
     1
1002
}
  0
LINE
  5
342C
330
2A7E
100
AcDbEntity
  8
DETAIL
100
AcDbLine
 10
414.4598988207151
 20
2458.897062933754
 30
0.0
 11
466.9600328810926
 21
2423.897062933754
 31
0.0
1001
ACAD
1010
0.0
1020
0.0
1030
0.0
1001
ACADANNOTATIVE
1000
AnnotativeData
1002
{
1070
     1
1070
     1
1002
}
  0
LINE
  5
342D
330
2A7E
100
AcDbEntity
  8
DETAIL
100
AcDbLine
 10
364.8902346233924
 20
2491.943421347069
 30
0.0
 11
414.4598988207151
 21
2458.897062933754
 31
0.0
1001
ACAD
1010
0.0
1020
0.0
1030
0.0
1001
ACADANNOTATIVE
1000
AnnotativeData
1002
{
1070
     1
1070
     1
1002
}
  0
LINE
  5
342E
330
2A7E
100
AcDbEntity
  8
DETAIL
100
AcDbLine
 10
314.8902346233851
 20
2522.276703027508
 30
0.0
 11
364.8902346233888
 21
2488.943454811655
 31
0.0
1001
ACAD
1010
0.0
1020
0.0
1030
0.0
1001
ACADANNOTATIVE
1000
AnnotativeData
1002
{
1070
     1
1070
     1
1002
}
  0
LINE
  5
342F
330
2A7E
100
AcDbEntity
  8
DETAIL
100
AcDbLine
 10
409.9599375268303
 20
2458.897062933754
 30
0.0
 11
462.4600715872081
 21
2423.897062933754
 31
0.0
1001
ACAD
1010
0.0
1020
0.0
1030
0.0
1001
ACADANNOTATIVE
1000
AnnotativeData
1002
{
1070
     1
1070
     1
1002
}
  0
LINE
  5
3430
330
2A7E
100
AcDbEntity
  8
DETAIL
100
AcDbLine
 10
364.8902346233924
 20
2488.943454811652
 30
0.0
 11
409.9599375268303
 21
2458.897062933754
 31
0.0
1001
ACAD
1010
0.0
1020
0.0
1030
0.0
1001
ACADANNOTATIVE
1000
AnnotativeData
1002
{
1070
     1
1070
     1
1002
}
  0
LINE
  5
3431
330
2A7E
100
AcDbEntity
  8
DETAIL
100
AcDbLine
 10
314.8902346233851
 20
2519.276736492095
 30
0.0
 11
364.8902346233888
 21
2485.943488276242
 31
0.0
1001
ACAD
1010
0.0
1020
0.0
1030
0.0
1001
ACADANNOTATIVE
1000
AnnotativeData
1002
{
1070
     1
1070
     1
1002
}
  0
LINE
  5
3432
330
2A7E
100
AcDbEntity
  8
DETAIL
100
AcDbLine
 10
405.4599762329422
 20
2458.897062933758
 30
0.0
 11
457.9601102933199
 21
2423.897062933757
 31
0.0
1001
ACAD
1010
0.0
1020
0.0
1030
0.0
1001
ACADANNOTATIVE
1000
AnnotativeData
1002
{
1070
     1
1070
     1
1002
}
  0
LINE
  5
3433
330
2A7E
100
AcDbEntity
  8
DETAIL
100
AcDbLine
 10
364.8902346233924
 20
2485.94348827624
 30
0.0
 11
405.4599762329422
 21
2458.897062933758
 31
0.0
1001
ACAD
1010
0.0
1020
0.0
1030
0.0
1001
ACADANNOTATIVE
1000
AnnotativeData
1002
{
1070
     1
1070
     1
1002
}
  0
LINE
  5
3434
330
2A7E
100
AcDbEntity
  8
DETAIL
100
AcDbLine
 10
314.8902346233851
 20
2516.276769956679
 30
0.0
 11
364.8902346233888
 21
2482.943521740825
 31
0.0
1001
ACAD
1010
0.0
1020
0.0
1030
0.0
1001
ACADANNOTATIVE
1000
AnnotativeData
1002
{
1070
     1
1070
     1
1002
}
  0
LINE
  5
3435
330
2A7E
100
AcDbEntity
  8
DETAIL
100
AcDbLine
 10
400.9600149390577
 20
2458.897062933754
 30
0.0
 11
453.4601489994353
 21
2423.897062933755
 31
0.0
1001
ACAD
1010
0.0
1020
0.0
1030
0.0
1001
ACADANNOTATIVE
1000
AnnotativeData
1002
{
1070
     1
1070
     1
1002
}
  0
LINE
  5
3436
330
2A7E
100
AcDbEntity
  8
DETAIL
100
AcDbLine
 10
364.8902346233924
 20
2482.943521740821
 30
0.0
 11
400.9600149390577
 21
2458.897062933754
 31
0.0
1001
ACAD
1010
0.0
1020
0.0
1030
0.0
1001
ACADANNOTATIVE
1000
AnnotativeData
1002
{
1070
     1
1070
     1
1002
}
  0
LINE
  5
3437
330
2A7E
100
AcDbEntity
  8
DETAIL
100
AcDbLine
 10
314.8902346233851
 20
2513.276803421263
 30
0.0
 11
364.8902346233888
 21
2479.943555205407
 31
0.0
1001
ACAD
1010
0.0
1020
0.0
1030
0.0
1001
ACADANNOTATIVE
1000
AnnotativeData
1002
{
1070
     1
1070
     1
1002
}
  0
LINE
  5
3438
330
2A7E
100
AcDbEntity
  8
DETAIL
100
AcDbLine
 10
396.4600536451733
 20
2458.897062933754
 30
0.0
 11
448.9601877055508
 21
2423.897062933754
 31
0.0
1001
ACAD
1010
0.0
1020
0.0
1030
0.0
1001
ACADANNOTATIVE
1000
AnnotativeData
1002
{
1070
     1
1070
     1
1002
}
  0
LINE
  5
3439
330
2A7E
100
AcDbEntity
  8
DETAIL
100
AcDbLine
 10
364.8902346233924
 20
2479.943555205404
 30
0.0
 11
396.4600536451733
 21
2458.897062933754
 31
0.0
1001
ACAD
1010
0.0
1020
0.0
1030
0.0
1001
ACADANNOTATIVE
1000
AnnotativeData
1002
{
1070
     1
1070
     1
1002
}
  0
LINE
  5
343A
330
2A7E
100
AcDbEntity
  8
DETAIL
100
AcDbLine
 10
314.8902346233851
 20
2510.276836885845
 30
0.0
 11
364.8902346233888
 21
2476.94358866999
 31
0.0
1001
ACAD
1010
0.0
1020
0.0
1030
0.0
1001
ACADANNOTATIVE
1000
AnnotativeData
1002
{
1070
     1
1070
     1
1002
}
  0
LINE
  5
343B
330
2A7E
100
AcDbEntity
  8
DETAIL
100
AcDbLine
 10
391.9600923512888
 20
2458.897062933754
 30
0.0
 11
444.4602264116663
 21
2423.897062933754
 31
0.0
1001
ACAD
1010
0.0
1020
0.0
1030
0.0
1001
ACADANNOTATIVE
1000
AnnotativeData
1002
{
1070
     1
1070
     1
1002
}
  0
LINE
  5
343C
330
2A7E
100
AcDbEntity
  8
DETAIL
100
AcDbLine
 10
364.8902346233924
 20
2476.943588669987
 30
0.0
 11
391.9600923512888
 21
2458.897062933754
 31
0.0
1001
ACAD
1010
0.0
1020
0.0
1030
0.0
1001
ACADANNOTATIVE
1000
AnnotativeData
1002
{
1070
     1
1070
     1
1002
}
  0
LINE
  5
343D
330
2A7E
100
AcDbEntity
  8
DETAIL
100
AcDbLine
 10
314.8902346233851
 20
2507.276870350433
 30
0.0
 11
364.8902346233888
 21
2473.943622134577
 31
0.0
1001
ACAD
1010
0.0
1020
0.0
1030
0.0
1001
ACADANNOTATIVE
1000
AnnotativeData
1002
{
1070
     1
1070
     1
1002
}
  0
LINE
  5
343E
330
2A7E
100
AcDbEntity
  8
DETAIL
100
AcDbLine
 10
387.4601310574005
 20
2458.897062933758
 30
0.0
 11
439.9602651177779
 21
2423.897062933757
 31
0.0
1001
ACAD
1010
0.0
1020
0.0
1030
0.0
1001
ACADANNOTATIVE
1000
AnnotativeData
1002
{
1070
     1
1070
     1
1002
}
  0
LINE
  5
343F
330
2A7E
100
AcDbEntity
  8
DETAIL
100
AcDbLine
 10
364.8902346233924
 20
2473.943622134573
 30
0.0
 11
387.4601310574005
 21
2458.897062933758
 31
0.0
1001
ACAD
1010
0.0
1020
0.0
1030
0.0
1001
ACADANNOTATIVE
1000
AnnotativeData
1002
{
1070
     1
1070
     1
1002
}
  0
LINE
  5
3440
330
2A7E
100
AcDbEntity
  8
DETAIL
100
AcDbLine
 10
314.8902346233851
 20
2504.276903815013
 30
0.0
 11
364.8902346233888
 21
2470.94365559916
 31
0.0
1001
ACAD
1010
0.0
1020
0.0
1030
0.0
1001
ACADANNOTATIVE
1000
AnnotativeData
1002
{
1070
     1
1070
     1
1002
}
  0
LINE
  5
3441
330
2A7E
100
AcDbEntity
  8
DETAIL
100
AcDbLine
 10
382.960169763516
 20
2458.897062933756
 30
0.0
 11
435.4603038238935
 21
2423.897062933755
 31
0.0
1001
ACAD
1010
0.0
1020
0.0
1030
0.0
1001
ACADANNOTATIVE
1000
AnnotativeData
1002
{
1070
     1
1070
     1
1002
}
  0
LINE
  5
3442
330
2A7E
100
AcDbEntity
  8
DETAIL
100
AcDbLine
 10
364.8902346233924
 20
2470.943655599158
 30
0.0
 11
382.960169763516
 21
2458.897062933756
 31
0.0
1001
ACAD
1010
0.0
1020
0.0
1030
0.0
1001
ACADANNOTATIVE
1000
AnnotativeData
1002
{
1070
     1
1070
     1
1002
}
  0
LINE
  5
3443
330
2A7E
100
AcDbEntity
  8
DETAIL
100
AcDbLine
 10
314.8902346233851
 20
2501.276937279598
 30
0.0
 11
364.8902346233888
 21
2467.943689063743
 31
0.0
1001
ACAD
1010
0.0
1020
0.0
1030
0.0
1001
ACADANNOTATIVE
1000
AnnotativeData
1002
{
1070
     1
1070
     1
1002
}
  0
LINE
  5
3444
330
2A7E
100
AcDbEntity
  8
DETAIL
100
AcDbLine
 10
378.4602084696313
 20
2458.897062933754
 30
0.0
 11
430.960342530009
 21
2423.897062933755
 31
0.0
1001
ACAD
1010
0.0
1020
0.0
1030
0.0
1001
ACADANNOTATIVE
1000
AnnotativeData
1002
{
1070
     1
1070
     1
1002
}
  0
LINE
  5
3445
330
2A7E
100
AcDbEntity
  8
DETAIL
100
AcDbLine
 10
364.8902346233924
 20
2467.943689063741
 30
0.0
 11
378.4602084696278
 21
2458.897062933758
 31
0.0
1001
ACAD
1010
0.0
1020
0.0
1030
0.0
1001
ACADANNOTATIVE
1000
AnnotativeData
1002
{
1070
     1
1070
     1
1002
}
  0
LINE
  5
3446
330
2A7E
100
AcDbEntity
  8
DETAIL
100
AcDbLine
 10
314.8902346233851
 20
2498.276970744181
 30
0.0
 11
364.8902346233888
 21
2464.943722528325
 31
0.0
1001
ACAD
1010
0.0
1020
0.0
1030
0.0
1001
ACADANNOTATIVE
1000
AnnotativeData
1002
{
1070
     1
1070
     1
1002
}
  0
LINE
  5
3447
330
2A7E
100
AcDbEntity
  8
DETAIL
100
AcDbLine
 10
373.9602471757432
 20
2458.897062933754
 30
0.0
 11
426.4603812361208
 21
2423.897062933754
 31
0.0
1001
ACAD
1010
0.0
1020
0.0
1030
0.0
1001
ACADANNOTATIVE
1000
AnnotativeData
1002
{
1070
     1
1070
     1
1002
}
  0
LINE
  5
3448
330
2A7E
100
AcDbEntity
  8
DETAIL
100
AcDbLine
 10
364.8902346233924
 20
2464.943722528324
 30
0.0
 11
373.9602471757432
 21
2458.897062933754
 31
0.0
1001
ACAD
1010
0.0
1020
0.0
1030
0.0
1001
ACADANNOTATIVE
1000
AnnotativeData
1002
{
1070
     1
1070
     1
1002
}
  0
LINE
  5
3449
330
2A7E
100
AcDbEntity
  8
DETAIL
100
AcDbLine
 10
314.8902346233851
 20
2495.277004208763
 30
0.0
 11
364.8902346233888
 21
2461.943755992908
 31
0.0
1001
ACAD
1010
0.0
1020
0.0
1030
0.0
1001
ACADANNOTATIVE
1000
AnnotativeData
1002
{
1070
     1
1070
     1
1002
}
  0
LINE
  5
344A
330
2A7E
100
AcDbEntity
  8
DETAIL
100
AcDbLine
 10
369.4602858818587
 20
2458.897062933754
 30
0.0
 11
421.9604199422361
 21
2423.897062933754
 31
0.0
1001
ACAD
1010
0.0
1020
0.0
1030
0.0
1001
ACADANNOTATIVE
1000
AnnotativeData
1002
{
1070
     1
1070
     1
1002
}
  0
LINE
  5
344B
330
2A7E
100
AcDbEntity
  8
DETAIL
100
AcDbLine
 10
364.8902346233924
 20
2461.943755992905
 30
0.0
 11
369.4602858818587
 21
2458.897062933754
 31
0.0
1001
ACAD
1010
0.0
1020
0.0
1030
0.0
1001
ACADANNOTATIVE
1000
AnnotativeData
1002
{
1070
     1
1070
     1
1002
}
  0
LINE
  5
344C
330
2A7E
100
AcDbEntity
  8
DETAIL
100
AcDbLine
 10
314.8902346233851
 20
2492.27703767335
 30
0.0
 11
364.8902346233888
 21
2458.943789457495
 31
0.0
1001
ACAD
1010
0.0
1020
0.0
1030
0.0
1001
ACADANNOTATIVE
1000
AnnotativeData
1002
{
1070
     1
1070
     1
1002
}
  0
LINE
  5
344D
330
2A7E
100
AcDbEntity
  8
DETAIL
100
AcDbLine
 10
364.9603245879741
 20
2458.897062933756
 30
0.0
 11
417.4604586483516
 21
2423.897062933755
 31
0.0
1001
ACAD
1010
0.0
1020
0.0
1030
0.0
1001
ACADANNOTATIVE
1000
AnnotativeData
1002
{
1070
     1
1070
     1
1002
}
  0
LINE
  5
344E
330
2A7E
100
AcDbEntity
  8
DETAIL
100
AcDbLine
 10
364.8902346233924
 20
2458.943789457493
 30
0.0
 11
364.9603245879741
 21
2458.897062933756
 31
0.0
1001
ACAD
1010
0.0
1020
0.0
1030
0.0
1001
ACADANNOTATIVE
1000
AnnotativeData
1002
{
1070
     1
1070
     1
1002
}
  0
LINE
  5
344F
330
2A7E
100
AcDbEntity
  8
DETAIL
100
AcDbLine
 10
314.8902346233851
 20
2489.277071137933
 30
0.0
 11
412.9604973544672
 21
2423.897062933755
 31
0.0
1001
ACAD
1010
0.0
1020
0.0
1030
0.0
1001
ACADANNOTATIVE
1000
AnnotativeData
1002
{
1070
     1
1070
     1
1002
}
  0
LINE
  5
3450
330
2A7E
100
AcDbEntity
  8
DETAIL
100
AcDbLine
 10
314.8902346233851
 20
2486.277104602516
 30
0.0
 11
408.460536060579
 21
2423.897062933755
 31
0.0
1001
ACAD
1010
0.0
1020
0.0
1030
0.0
1001
ACADANNOTATIVE
1000
AnnotativeData
1002
{
1070
     1
1070
     1
1002
}
  0
LINE
  5
3451
330
2A7E
100
AcDbEntity
  8
DETAIL
100
AcDbLine
 10
314.8902346233851
 20
2483.277138067098
 30
0.0
 11
403.960574766698
 21
2423.897062933753
 31
0.0
1001
ACAD
1010
0.0
1020
0.0
1030
0.0
1001
ACADANNOTATIVE
1000
AnnotativeData
1002
{
1070
     1
1070
     1
1002
}
  0
LINE
  5
3452
330
2A7E
100
AcDbEntity
  8
DETAIL
100
AcDbLine
 10
314.8902346233851
 20
2480.277171531685
 30
0.0
 11
399.4606134728099
 21
2423.897062933756
 31
0.0
1001
ACAD
1010
0.0
1020
0.0
1030
0.0
1001
ACADANNOTATIVE
1000
AnnotativeData
1002
{
1070
     1
1070
     1
1002
}
  0
LINE
  5
3453
330
2A7E
100
AcDbEntity
  8
DETAIL
100
AcDbLine
 10
314.8902346233851
 20
2477.277204996268
 30
0.0
 11
394.9606521789216
 21
2423.897062933756
 31
0.0
1001
ACAD
1010
0.0
1020
0.0
1030
0.0
1001
ACADANNOTATIVE
1000
AnnotativeData
1002
{
1070
     1
1070
     1
1002
}
  0
LINE
  5
3454
330
2A7E
100
AcDbEntity
  8
DETAIL
100
AcDbLine
 10
314.8902346233851
 20
2474.277238460851
 30
0.0
 11
390.4606908850372
 21
2423.897062933755
 31
0.0
1001
ACAD
1010
0.0
1020
0.0
1030
0.0
1001
ACADANNOTATIVE
1000
AnnotativeData
1002
{
1070
     1
1070
     1
1002
}
  0
LINE
  5
3455
330
2A7E
100
AcDbEntity
  8
DETAIL
100
AcDbLine
 10
314.8902346233851
 20
2471.277271925434
 30
0.0
 11
385.9607295911526
 21
2423.897062933753
 31
0.0
1001
ACAD
1010
0.0
1020
0.0
1030
0.0
1001
ACADANNOTATIVE
1000
AnnotativeData
1002
{
1070
     1
1070
     1
1002
}
  0
LINE
  5
3456
330
2A7E
100
AcDbEntity
  8
DETAIL
100
AcDbLine
 10
314.8902346233851
 20
2468.27730539002
 30
0.0
 11
381.460768297268
 21
2423.897062933756
 31
0.0
1001
ACAD
1010
0.0
1020
0.0
1030
0.0
1001
ACADANNOTATIVE
1000
AnnotativeData
1002
{
1070
     1
1070
     1
1002
}
  0
LINE
  5
3457
330
2A7E
100
AcDbEntity
  8
DETAIL
100
AcDbLine
 10
314.8902346233851
 20
2465.277338854603
 30
0.0
 11
376.9608070033799
 21
2423.897062933756
 31
0.0
1001
ACAD
1010
0.0
1020
0.0
1030
0.0
1001
ACADANNOTATIVE
1000
AnnotativeData
1002
{
1070
     1
1070
     1
1002
}
  0
LINE
  5
3458
330
2A7E
100
AcDbEntity
  8
DETAIL
100
AcDbLine
 10
314.8902346233851
 20
2462.277372319186
 30
0.0
 11
372.4608457094953
 21
2423.897062933756
 31
0.0
1001
ACAD
1010
0.0
1020
0.0
1030
0.0
1001
ACADANNOTATIVE
1000
AnnotativeData
1002
{
1070
     1
1070
     1
1002
}
  0
LINE
  5
3459
330
2A7E
100
AcDbEntity
  8
DETAIL
100
AcDbLine
 10
314.8902346233851
 20
2459.277405783769
 30
0.0
 11
367.9608844156107
 21
2423.897062933753
 31
0.0
1001
ACAD
1010
0.0
1020
0.0
1030
0.0
1001
ACADANNOTATIVE
1000
AnnotativeData
1002
{
1070
     1
1070
     1
1002
}
  0
LINE
  5
345A
330
2A7E
100
AcDbEntity
  8
DETAIL
100
AcDbLine
 10
314.8902346233851
 20
2456.277439248351
 30
0.0
 11
363.4609231217261
 21
2423.897062933753
 31
0.0
1001
ACAD
1010
0.0
1020
0.0
1030
0.0
1001
ACADANNOTATIVE
1000
AnnotativeData
1002
{
1070
     1
1070
     1
1002
}
  0
LINE
  5
345B
330
2A7E
100
AcDbEntity
  8
DETAIL
100
AcDbLine
 10
314.8902346233851
 20
2453.27747271294
 30
0.0
 11
358.960961827838
 21
2423.897062933756
 31
0.0
1001
ACAD
1010
0.0
1020
0.0
1030
0.0
1001
ACADANNOTATIVE
1000
AnnotativeData
1002
{
1070
     1
1070
     1
1002
}
  0
LINE
  5
345C
330
2A7E
100
AcDbEntity
  8
DETAIL
100
AcDbLine
 10
314.8902346233851
 20
2450.277506177521
 30
0.0
 11
354.4610005339535
 21
2423.897062933756
 31
0.0
1001
ACAD
1010
0.0
1020
0.0
1030
0.0
1001
ACADANNOTATIVE
1000
AnnotativeData
1002
{
1070
     1
1070
     1
1002
}
  0
LINE
  5
345D
330
2A7E
100
AcDbEntity
  8
DETAIL
100
AcDbLine
 10
314.8902346233851
 20
2447.277539642107
 30
0.0
 11
349.9610392400689
 21
2423.897062933754
 31
0.0
1001
ACAD
1010
0.0
1020
0.0
1030
0.0
1001
ACADANNOTATIVE
1000
AnnotativeData
1002
{
1070
     1
1070
     1
1002
}
  0
LINE
  5
345E
330
2A7E
100
AcDbEntity
  8
DETAIL
100
AcDbLine
 10
314.8902346233851
 20
2444.277573106687
 30
0.0
 11
345.4610779461843
 21
2423.897062933753
 31
0.0
1001
ACAD
1010
0.0
1020
0.0
1030
0.0
1001
ACADANNOTATIVE
1000
AnnotativeData
1002
{
1070
     1
1070
     1
1002
}
  0
LINE
  5
345F
330
2A7E
100
AcDbEntity
  8
DETAIL
100
AcDbLine
 10
314.8902346233851
 20
2441.277606571274
 30
0.0
 11
340.9611166522962
 21
2423.897062933757
 31
0.0
1001
ACAD
1010
0.0
1020
0.0
1030
0.0
1001
ACADANNOTATIVE
1000
AnnotativeData
1002
{
1070
     1
1070
     1
1002
}
  0
LINE
  5
3460
330
2A7E
100
AcDbEntity
  8
DETAIL
100
AcDbLine
 10
314.8902346233851
 20
2438.277640035858
 30
0.0
 11
336.4611553584152
 21
2423.897062933755
 31
0.0
1001
ACAD
1010
0.0
1020
0.0
1030
0.0
1001
ACADANNOTATIVE
1000
AnnotativeData
1002
{
1070
     1
1070
     1
1002
}
  0
LINE
  5
3461
330
2A7E
100
AcDbEntity
  8
DETAIL
100
AcDbLine
 10
314.8902346233851
 20
2435.277673500441
 30
0.0
 11
331.961194064527
 21
2423.897062933753
 31
0.0
1001
ACAD
1010
0.0
1020
0.0
1030
0.0
1001
ACADANNOTATIVE
1000
AnnotativeData
1002
{
1070
     1
1070
     1
1002
}
  0
LINE
  5
3462
330
2A7E
100
AcDbEntity
  8
DETAIL
100
AcDbLine
 10
314.8902346233851
 20
2432.277706965024
 30
0.0
 11
327.4612327706388
 21
2423.897062933753
 31
0.0
1001
ACAD
1010
0.0
1020
0.0
1030
0.0
1001
ACADANNOTATIVE
1000
AnnotativeData
1002
{
1070
     1
1070
     1
1002
}
  0
LINE
  5
3463
330
2A7E
100
AcDbEntity
  8
DETAIL
100
AcDbLine
 10
314.8902346233851
 20
2429.27774042961
 30
0.0
 11
322.9612714767543
 21
2423.897062933757
 31
0.0
1001
ACAD
1010
0.0
1020
0.0
1030
0.0
1001
ACADANNOTATIVE
1000
AnnotativeData
1002
{
1070
     1
1070
     1
1002
}
  0
LINE
  5
3464
330
2A7E
100
AcDbEntity
  8
DETAIL
100
AcDbLine
 10
314.8902346233851
 20
2426.277773894193
 30
0.0
 11
318.4613101828698
 21
2423.897062933755
 31
0.0
1001
ACAD
1010
0.0
1020
0.0
1030
0.0
1001
ACADANNOTATIVE
1000
AnnotativeData
1002
{
1070
     1
1070
     1
1002
}
  0
LINE
  5
3465
330
2A7E
100
AcDbEntity
  8
DETAIL
100
AcDbLine
 10
314.8902346233961
 20
2652.697062933756
 30
0.0
 11
580.6902346233989
 21
2652.697062933756
 31
0.0
  0
LINE
  5
3466
330
2A7E
100
AcDbEntity
  8
DETAIL
100
AcDbLine
 10
314.8902346233961
 20
2423.897062933756
 30
0.0
 11
580.6902346233989
 21
2423.897062933756
 31
0.0
  0
LINE
  5
3467
330
2A7E
100
AcDbEntity
  8
DETAIL
100
AcDbLine
 10
314.8902346233961
 20
2652.697062933756
 30
0.0
 11
314.8902346233961
 21
2423.897062933756
 31
0.0
  0
LINE
  5
3468
330
2A7E
100
AcDbEntity
  8
DETAIL
100
AcDbLine
 10
580.6902346233989
 20
2652.697062933756
 30
0.0
 11
580.6902346233989
 21
2423.897062933756
 31
0.0
  0
LINE
  5
3469
330
2A7E
100
AcDbEntity
  8
SIZE
100
AcDbLine
 10
650.2902346233975
 20
2705.297062933756
 30
0.0
 11
744.5518705824513
 21
2705.297062933756
 31
0.0
  0
LINE
  5
346A
330
2A7E
100
AcDbEntity
  8
SIZE
100
AcDbLine
 10
650.2902346233975
 20
2693.297062933756
 30
0.0
 11
744.5518705824513
 21
2693.297062933756
 31
0.0
  0
LINE
  5
346B
330
2A7E
100
AcDbEntity
  8
SIZE
100
AcDbLine
 10
724.5518705824513
 20
2717.297062933756
 30
0.0
 11
724.5518705824513
 21
2729.297062933756
 31
0.0
  0
LINE
  5
346C
330
2A7E
100
AcDbEntity
  8
SIZE
100
AcDbLine
 10
724.5518705824513
 20
2681.297062933756
 30
0.0
 11
724.5518705824513
 21
2564.268491505185
 31
0.0
  0
INSERT
  5
346D
330
2A7E
100
AcDbEntity
  8
SIZE
100
AcDbBlockReference
  2
_DOTBLANK
 10
724.5518705824513
 20
2705.297062933756
 30
0.0
 41
12.0
 42
12.0
 43
12.0
 50
270.0
  0
INSERT
  5
346E
330
2A7E
100
AcDbEntity
  8
SIZE
100
AcDbBlockReference
  2
_DOTBLANK
 10
724.5518705824513
 20
2693.297062933756
 30
0.0
 41
12.0
 42
12.0
 43
12.0
 50
90.0
  0
MTEXT
  5
346F
330
2A7E
100
AcDbEntity
  8
SIZE
100
AcDbMText
 10
682.5518705824512
 20
2616.782777219468
 30
0.0
 40
64.0
 41
0.0
 71
     5
 72
     1
  1
\A1;12
 11
0.0000000000000001
 21
1.0
 31
0.0
 73
     1
 44
1.0
  0
ENDSEC
  0
SECTION
  2
OBJECTS
  0
DICTIONARY
  5
2A16
330
0
100
AcDbDictionary
281
     1
  3
ACAD_2007HEADERVARS_RT
350
36B1
  3
ACAD_COLOR
350
2A74
  3
ACAD_GROUP
350
2A17
  3
ACAD_LAYOUT
350
2A73
  3
ACAD_MATERIAL
350
2A1A
  3
ACAD_MLEADERSTYLE
350
2A77
  3
ACAD_MLINESTYLE
350
2A70
  3
ACAD_PLOTSETTINGS
350
2A72
  3
ACAD_PLOTSTYLENAME
350
2A18
  3
ACAD_SCALELIST
350
2A44
  3
ACAD_TABLESTYLE
350
2A75
  3
ACAD_VISUALSTYLE
350
2A33
  3
ACDB_RECOMPOSE_DATA
350
2C61
  3
AcDbVariableDictionary
350
2C58
  3
AcmDictionary
350
2C0B
  3
AcmSystemVariableManager
350
36B7
  3
AMG
350
2B58
  3
AMGSNAPSETTINGS
350
2D52
  0
DICTIONARY
  5
2D5B
330
2A0C
100
AcDbDictionary
280
     1
281
     1
  3
ACAD_LAYERSTATES
360
2D5C
  0
DICTIONARY
  5
2C33
330
2A66
100
AcDbDictionary
280
     1
281
     1
  3
ADSK_XREC_LAYER_RECONCILED
360
2C34
  0
DICTIONARY
  5
2C35
330
2A95
100
AcDbDictionary
280
     1
281
     1
  3
ADSK_XREC_LAYER_RECONCILED
360
2C36
  0
DICTIONARY
  5
2C37
330
2A96
100
AcDbDictionary
280
     1
281
     1
  3
ADSK_XREC_LAYER_RECONCILED
360
2C38
  0
DICTIONARY
  5
2C39
330
2A97
100
AcDbDictionary
280
     1
281
     1
  3
ADSK_XREC_LAYER_RECONCILED
360
2C3A
  0
DICTIONARY
  5
2C3B
330
2A98
100
AcDbDictionary
280
     1
281
     1
  3
ADSK_XREC_LAYER_RECONCILED
360
2C3C
  0
DICTIONARY
  5
2C3D
330
2A99
100
AcDbDictionary
280
     1
281
     1
  3
ADSK_XREC_LAYER_RECONCILED
360
2C3E
  0
DICTIONARY
  5
2C3F
330
2A9B
100
AcDbDictionary
280
     1
281
     1
  3
ADSK_XREC_LAYER_RECONCILED
360
2C40
  0
DICTIONARY
  5
2C41
330
2A9C
100
AcDbDictionary
280
     1
281
     1
  3
ADSK_XREC_LAYER_RECONCILED
360
2C42
  0
DICTIONARY
  5
2C43
330
2A9D
100
AcDbDictionary
280
     1
281
     1
  3
ADSK_XREC_LAYER_RECONCILED
360
2C44
  0
DICTIONARY
  5
2C45
330
2A9E
100
AcDbDictionary
280
     1
281
     1
  3
ADSK_XREC_LAYER_RECONCILED
360
2C46
  0
DICTIONARY
  5
2C47
330
2A9F
100
AcDbDictionary
280
     1
281
     1
  3
ADSK_XREC_LAYER_RECONCILED
360
2C48
  0
DICTIONARY
  5
2C49
330
2A7E
100
AcDbDictionary
280
     1
281
     1
  3
ACAD_INDEX
360
2C4A
  0
DICTIONARY
  5
36B1
102
{ACAD_REACTORS
330
2A16
102
}
330
2A16
100
AcDbDictionary
281
     1
  3
DIMARCSYM
350
36B2
  3
DIMLTEX1
350
36B4
  3
DIMLTEX2
350
36B5
  3
DIMLTYPE
350
36B3
  0
DICTIONARY
  5
2A74
102
{ACAD_REACTORS
330
2A16
102
}
330
2A16
100
AcDbDictionary
281
     1
  0
DICTIONARY
  5
2A17
102
{ACAD_REACTORS
330
2A16
102
}
330
2A16
100
AcDbDictionary
281
     1
  0
DICTIONARY
  5
2A73
102
{ACAD_REACTORS
330
2A16
102
}
330
2A16
100
AcDbDictionary
281
     1
  3
Model
350
2A81
  3
レイアウト1
350
2A7D
  0
DICTIONARY
  5
2A1A
102
{ACAD_REACTORS
330
2A16
102
}
330
2A16
100
AcDbDictionary
281
     1
  3
ByBlock
350
2A23
  3
ByLayer
350
2A1B
  3
Global
350
2A2B
  0
DICTIONARY
  5
2A77
102
{ACAD_REACTORS
330
2A16
102
}
330
2A16
100
AcDbDictionary
281
     1
  3
Standard
350
2A78
  0
DICTIONARY
  5
2A70
102
{ACAD_REACTORS
330
2A16
102
}
330
2A16
100
AcDbDictionary
281
     1
  3
Standard
350
2A71
  0
DICTIONARY
  5
2A72
102
{ACAD_REACTORS
330
2A16
102
}
330
2A16
100
AcDbDictionary
281
     1
  0
ACDBDICTIONARYWDFLT
  5
2A18
102
{ACAD_REACTORS
330
2A16
102
}
330
2A16
100
AcDbDictionary
281
     1
  3
Normal
350
2A19
100
AcDbDictionaryWithDefault
340
2A19
  0
DICTIONARY
  5
2A44
102
{ACAD_REACTORS
330
2A16
102
}
330
2A16
100
AcDbDictionary
281
     1
  3
A0
350
2A45
  3
A1
350
2A46
  3
A2
350
2A47
  3
A3
350
2A48
  3
A4
350
2A49
  3
A5
350
2A4A
  3
A6
350
2A4B
  3
A7
350
2A4C
  3
A8
350
2A4D
  3
A9
350
2A4E
  3
B0
350
2A4F
  3
B1
350
2A50
  3
B2
350
2A51
  3
B3
350
2A52
  3
B4
350
2A53
  3
B5
350
2A54
  3
B6
350
2A55
  3
B7
350
2A56
  3
B8
350
2A57
  3
B9
350
2A58
  3
C0
350
2A59
  3
C1
350
2A5A
  3
C2
350
2A5B
  3
C3
350
2A5C
  3
C4
350
2A5D
  3
C5
350
2A5E
  3
C6
350
2A5F
  3
C7
350
2A60
  3
C8
350
2A61
  3
C9
350
2A62
  3
D0
350
2A63
  3
D1
350
2A64
  3
D2
350
2A65
  0
DICTIONARY
  5
2A75
102
{ACAD_REACTORS
330
2A16
102
}
330
2A16
100
AcDbDictionary
281
     1
  3
Standard
350
2A76
  0
DICTIONARY
  5
2A33
102
{ACAD_REACTORS
330
2A16
102
}
330
2A16
100
AcDbDictionary
281
     1
  3
2dWireframe
350
2A39
  3
3D Hidden
350
2A3B
  3
3dWireframe
350
2A3A
  3
Basic
350
2A38
  3
Brighten
350
2A3F
  3
ColorChange
350
2A43
  3
Conceptual
350
2A3C
  3
Dim
350
2A3E
  3
Facepattern
350
2A42
  3
Flat
350
2A34
  3
FlatWithEdges
350
2A35
  3
Gouraud
350
2A36
  3
GouraudWithEdges
350
2A37
  3
Linepattern
350
2A41
  3
Realistic
350
2A3D
  3
Thicken
350
2A40
  0
XRECORD
  5
2C61
102
{ACAD_REACTORS
330
2A16
102
}
330
2A16
100
AcDbXrecord
280
     1
 90
        1
330
2A76
  0
DICTIONARY
  5
2C58
102
{ACAD_REACTORS
330
2A16
102
}
330
2A16
100
AcDbDictionary
281
     1
  3
CANNOSCALE
350
2C5B
  3
CMLEADERSTYLE
350
2C5A
  3
CTABLESTYLE
350
2C59
  3
DIMASSOC
350
2C5E
  3
INDEXCTL
350
2C5D
  3
LAYEREVAL
350
2F08
  3
LAYERNOTIFY
350
2F09
  3
LIGHTINGUNITS
350
2F07
  3
LOFTANG1
350
36AD
  3
LOFTANG2
350
36AE
  3
LONGITUDE
350
36AF
  3
MSLTSCALE
350
2F06
  3
SORTENTS
350
2C5C
  0
DICTIONARY
  5
2C0B
102
{ACAD_REACTORS
330
2A16
102
}
330
2A16
100
AcDbDictionary
281
     1
  3
AcmStdDictionary
350
2C19
  0
DICTIONARY
  5
2B58
102
{ACAD_REACTORS
330
2A16
102
}
330
2A16
100
AcDbDictionary
281
     1
  0
DICTIONARY
  5
2D52
102
{ACAD_REACTORS
330
2A16
102
}
330
2A16
100
AcDbDictionary
281
     1
  0
DICTIONARY
  5
2D5C
102
{ACAD_REACTORS
330
2D5B
102
}
330
2D5B
100
AcDbDictionary
281
     1
  0
XRECORD
  5
2C34
102
{ACAD_REACTORS
330
2C33
102
}
330
2C33
100
AcDbXrecord
280
     1
290
     1
  0
XRECORD
  5
2C36
102
{ACAD_REACTORS
330
2C35
102
}
330
2C35
100
AcDbXrecord
280
     1
290
     1
  0
XRECORD
  5
2C38
102
{ACAD_REACTORS
330
2C37
102
}
330
2C37
100
AcDbXrecord
280
     1
290
     1
  0
XRECORD
  5
2C3A
102
{ACAD_REACTORS
330
2C39
102
}
330
2C39
100
AcDbXrecord
280
     1
290
     1
  0
XRECORD
  5
2C3C
102
{ACAD_REACTORS
330
2C3B
102
}
330
2C3B
100
AcDbXrecord
280
     1
290
     1
  0
XRECORD
  5
2C3E
102
{ACAD_REACTORS
330
2C3D
102
}
330
2C3D
100
AcDbXrecord
280
     1
290
     1
  0
XRECORD
  5
2C40
102
{ACAD_REACTORS
330
2C3F
102
}
330
2C3F
100
AcDbXrecord
280
     1
290
     1
  0
XRECORD
  5
2C42
102
{ACAD_REACTORS
330
2C41
102
}
330
2C41
100
AcDbXrecord
280
     1
290
     1
  0
XRECORD
  5
2C44
102
{ACAD_REACTORS
330
2C43
102
}
330
2C43
100
AcDbXrecord
280
     1
290
     1
  0
XRECORD
  5
2C46
102
{ACAD_REACTORS
330
2C45
102
}
330
2C45
100
AcDbXrecord
280
     1
290
     1
  0
XRECORD
  5
2C48
102
{ACAD_REACTORS
330
2C47
102
}
330
2C47
100
AcDbXrecord
280
     1
290
     1
  0
DICTIONARY
  5
2C4A
102
{ACAD_REACTORS
330
2C49
102
}
330
2C49
100
AcDbDictionary
281
     1
  3
*A1
350
2C4B
  0
XRECORD
  5
36B2
102
{ACAD_REACTORS
330
36B1
102
}
330
36B1
100
AcDbXrecord
280
     1
 70
     1
  0
XRECORD
  5
36B4
102
{ACAD_REACTORS
330
36B1
102
}
330
36B1
100
AcDbXrecord
280
     1
340
2A6C
  0
XRECORD
  5
36B5
102
{ACAD_REACTORS
330
36B1
102
}
330
36B1
100
AcDbXrecord
280
     1
340
2A6C
  0
XRECORD
  5
36B3
102
{ACAD_REACTORS
330
36B1
102
}
330
36B1
100
AcDbXrecord
280
     1
340
2A6C
  0
LAYOUT
  5
2A81
102
{ACAD_REACTORS
330
2A73
102
}
330
2A73
100
AcDbPlotSettings
  1

  2
自動 EPSON LP-9600S (W2450527 上)
  4

  6

 40
0.0
 41
0.0
 42
0.0
 43
0.0
 44
0.0
 45
0.0
 46
0.0
 47
0.0
 48
0.0
 49
0.0
140
0.0
141
0.0
142
1.0
143
1.0
 70
  1712
 72
     0
 73
     0
 74
     0
  7

 75
     0
147
1.0
 76
     0
 77
     2
 78
   300
148
0.0
149
0.0
100
AcDbLayout
  1
Model
 70
     1
 71
     0
 10
0.0
 20
0.0
 11
12.0
 21
9.0
 12
0.0
 22
0.0
 32
0.0
 14
0.0
 24
0.0
 34
0.0
 15
0.0
 25
0.0
 35
0.0
146
0.0
 13
0.0
 23
0.0
 33
0.0
 16
1.0
 26
0.0
 36
0.0
 17
0.0
 27
1.0
 37
0.0
 76
     0
330
2A7E
331
2A82
  0
LAYOUT
  5
2A7D
102
{ACAD_REACTORS
330
2A73
102
}
330
2A73
100
AcDbPlotSettings
  1

  2
自動 EPSON LP-9600S (W2450527 上)
  4

  6

 40
0.0
 41
0.0
 42
0.0
 43
0.0
 44
0.0
 45
0.0
 46
0.0
 47
0.0
 48
0.0
 49
0.0
140
0.0
141
0.0
142
1.0
143
1.0
 70
   688
 72
     0
 73
     0
 74
     5
  7

 75
    16
147
1.0
 76
     0
 77
     2
 78
   300
148
0.0
149
0.0
100
AcDbLayout
  1
レイアウト1
 70
     1
 71
     1
 10
0.0
 20
0.0
 11
12.0
 21
9.0
 12
0.0
 22
0.0
 32
0.0
 14
1.000000000000000E+20
 24
1.000000000000000E+20
 34
1.000000000000000E+20
 15
-1.000000000000000E+20
 25
-1.000000000000000E+20
 35
-1.000000000000000E+20
146
0.0
 13
0.0
 23
0.0
 33
0.0
 16
1.0
 26
0.0
 36
0.0
 17
0.0
 27
1.0
 37
0.0
 76
     0
330
2A7A
  0
MATERIAL
  5
2A23
102
{ACAD_XDICTIONARY
360
2A24
102
}
102
{ACAD_REACTORS
330
2A1A
102
}
330
2A1A
100
AcDbMaterial
  1
ByBlock
 72
     0
 43
0.0208333333333333
 43
0.0
 43
0.0
 43
0.0
 43
0.0
 43
0.0208333333333333
 43
0.0
 43
0.0
 43
0.0
 43
0.0
 43
1.0
 43
0.0
 43
0.0
 43
0.0
 43
0.0
 43
1.0
 77
     0
 47
0.0208333333333333
 47
0.0
 47
0.0
 47
0.0
 47
0.0
 47
0.0208333333333333
 47
0.0
 47
0.0
 47
0.0
 47
0.0
 47
1.0
 47
0.0
 47
0.0
 47
0.0
 47
0.0
 47
1.0
171
     0
 49
0.0208333333333333
 49
0.0
 49
0.0
 49
0.0
 49
0.0
 49
0.0208333333333333
 49
0.0
 49
0.0
 49
0.0
 49
0.0
 49
1.0
 49
0.0
 49
0.0
 49
0.0
 49
0.0
 49
1.0
175
     0
142
0.0208333333333333
142
0.0
142
0.0
142
0.0
142
0.0
142
0.0208333333333333
142
0.0
142
0.0
142
0.0
142
0.0
142
1.0
142
0.0
142
0.0
142
0.0
142
0.0
142
1.0
179
     0
144
0.0208333333333333
144
0.0
144
0.0
144
0.0
144
0.0
144
0.0208333333333333
144
0.0
144
0.0
144
0.0
144
0.0
144
1.0
144
0.0
144
0.0
144
0.0
144
0.0
144
1.0
147
0.0208333333333333
147
0.0
147
0.0
147
0.0
147
0.0
147
0.0208333333333333
147
0.0
147
0.0
147
0.0
147
0.0
147
1.0
147
0.0
147
0.0
147
0.0
147
0.0
147
1.0
  0
MATERIAL
  5
2A1B
102
{ACAD_XDICTIONARY
360
2A1C
102
}
102
{ACAD_REACTORS
330
2A1A
102
}
330
2A1A
100
AcDbMaterial
  1
ByLayer
 72
     0
 43
0.0208333333333333
 43
0.0
 43
0.0
 43
0.0
 43
0.0
 43
0.0208333333333333
 43
0.0
 43
0.0
 43
0.0
 43
0.0
 43
1.0
 43
0.0
 43
0.0
 43
0.0
 43
0.0
 43
1.0
 77
     0
 47
0.0208333333333333
 47
0.0
 47
0.0
 47
0.0
 47
0.0
 47
0.0208333333333333
 47
0.0
 47
0.0
 47
0.0
 47
0.0
 47
1.0
 47
0.0
 47
0.0
 47
0.0
 47
0.0
 47
1.0
171
     0
 49
0.0208333333333333
 49
0.0
 49
0.0
 49
0.0
 49
0.0
 49
0.0208333333333333
 49
0.0
 49
0.0
 49
0.0
 49
0.0
 49
1.0
 49
0.0
 49
0.0
 49
0.0
 49
0.0
 49
1.0
175
     0
142
0.0208333333333333
142
0.0
142
0.0
142
0.0
142
0.0
142
0.0208333333333333
142
0.0
142
0.0
142
0.0
142
0.0
142
1.0
142
0.0
142
0.0
142
0.0
142
0.0
142
1.0
179
     0
144
0.0208333333333333
144
0.0
144
0.0
144
0.0
144
0.0
144
0.0208333333333333
144
0.0
144
0.0
144
0.0
144
0.0
144
1.0
144
0.0
144
0.0
144
0.0
144
0.0
144
1.0
147
0.0208333333333333
147
0.0
147
0.0
147
0.0
147
0.0
147
0.0208333333333333
147
0.0
147
0.0
147
0.0
147
0.0
147
1.0
147
0.0
147
0.0
147
0.0
147
0.0
147
1.0
  0
MATERIAL
  5
2A2B
102
{ACAD_XDICTIONARY
360
2A2C
102
}
102
{ACAD_REACTORS
330
2A1A
102
}
330
2A1A
100
AcDbMaterial
  1
Global
 72
     0
 43
0.0208333333333333
 43
0.0
 43
0.0
 43
0.0
 43
0.0
 43
0.0208333333333333
 43
0.0
 43
0.0
 43
0.0
 43
0.0
 43
1.0
 43
0.0
 43
0.0
 43
0.0
 43
0.0
 43
1.0
 77
     0
 47
0.0208333333333333
 47
0.0
 47
0.0
 47
0.0
 47
0.0
 47
0.0208333333333333
 47
0.0
 47
0.0
 47
0.0
 47
0.0
 47
1.0
 47
0.0
 47
0.0
 47
0.0
 47
0.0
 47
1.0
171
     0
 49
0.0208333333333333
 49
0.0
 49
0.0
 49
0.0
 49
0.0
 49
0.0208333333333333
 49
0.0
 49
0.0
 49
0.0
 49
0.0
 49
1.0
 49
0.0
 49
0.0
 49
0.0
 49
0.0
 49
1.0
175
     0
142
0.0208333333333333
142
0.0
142
0.0
142
0.0
142
0.0
142
0.0208333333333333
142
0.0
142
0.0
142
0.0
142
0.0
142
1.0
142
0.0
142
0.0
142
0.0
142
0.0
142
1.0
179
     0
144
0.0208333333333333
144
0.0
144
0.0
144
0.0
144
0.0
144
0.0208333333333333
144
0.0
144
0.0
144
0.0
144
0.0
144
1.0
144
0.0
144
0.0
144
0.0
144
0.0
144
1.0
147
0.0208333333333333
147
0.0
147
0.0
147
0.0
147
0.0
147
0.0208333333333333
147
0.0
147
0.0
147
0.0
147
0.0
147
1.0
147
0.0
147
0.0
147
0.0
147
0.0
147
1.0
  0
MLEADERSTYLE
  5
2A78
102
{ACAD_REACTORS
330
2A77
102
}
330
2A77
100
AcDbMLeaderStyle
170
     2
171
     1
172
     0
 90
        2
 40
0.0
 41
0.0
173
     1
 91
-1056964608
340
2A6C
 92
       -2
290
     1
 42
0.09
291
     1
 43
0.36
  3
Standard
 44
0.18
300

342
2A67
174
     1
178
     6
175
     1
176
     0
 93
-1056964608
 45
0.18
292
     0
297
     0
 46
0.18
 94
-1056964608
 47
1.0
 49
1.0
140
1.0
293
     1
141
0.0
294
     1
177
     0
142
1.0
295
     0
296
     0
143
0.125
1001
ACAD_MLEADERVER
1070
     2
  0
MLINESTYLE
  5
2A71
102
{ACAD_REACTORS
330
2A70
102
}
330
2A70
100
AcDbMlineStyle
  2
STANDARD
 70
     0
  3

 62
   256
 51
90.0
 52
90.0
 71
     2
 49
0.5
 62
   256
  6
BYLAYER
 49
-0.5
 62
   256
  6
BYLAYER
  0
ACDBPLACEHOLDER
  5
2A19
102
{ACAD_REACTORS
330
2A18
102
}
330
2A18
  0
SCALE
  5
2A45
102
{ACAD_REACTORS
330
2A44
102
}
330
2A44
100
AcDbScale
 70
     0
300
1:1
140
1.0
141
1.0
290
     1
  0
SCALE
  5
2A46
102
{ACAD_REACTORS
330
2A44
102
}
330
2A44
100
AcDbScale
 70
     0
300
1:2
140
1.0
141
2.0
290
     0
  0
SCALE
  5
2A47
102
{ACAD_REACTORS
330
2A44
102
}
330
2A44
100
AcDbScale
 70
     0
300
1:4
140
1.0
141
4.0
290
     0
  0
SCALE
  5
2A48
102
{ACAD_REACTORS
330
2A44
102
}
330
2A44
100
AcDbScale
 70
     0
300
1:5
140
1.0
141
5.0
290
     0
  0
SCALE
  5
2A49
102
{ACAD_REACTORS
330
2A44
102
}
330
2A44
100
AcDbScale
 70
     0
300
1:8
140
1.0
141
8.0
290
     0
  0
SCALE
  5
2A4A
102
{ACAD_REACTORS
330
2A44
102
}
330
2A44
100
AcDbScale
 70
     0
300
1:10
140
1.0
141
10.0
290
     0
  0
SCALE
  5
2A4B
102
{ACAD_REACTORS
330
2A44
102
}
330
2A44
100
AcDbScale
 70
     0
300
1:16
140
1.0
141
16.0
290
     0
  0
SCALE
  5
2A4C
102
{ACAD_REACTORS
330
2A44
102
}
330
2A44
100
AcDbScale
 70
     0
300
1:20
140
1.0
141
20.0
290
     0
  0
SCALE
  5
2A4D
102
{ACAD_REACTORS
330
2A44
102
}
330
2A44
100
AcDbScale
 70
     0
300
1:30
140
1.0
141
30.0
290
     0
  0
SCALE
  5
2A4E
102
{ACAD_REACTORS
330
2A44
102
}
330
2A44
100
AcDbScale
 70
     0
300
1:40
140
1.0
141
40.0
290
     0
  0
SCALE
  5
2A4F
102
{ACAD_REACTORS
330
2A44
102
}
330
2A44
100
AcDbScale
 70
     0
300
1:50
140
1.0
141
50.0
290
     0
  0
SCALE
  5
2A50
102
{ACAD_REACTORS
330
2A44
102
}
330
2A44
100
AcDbScale
 70
     0
300
1:100
140
1.0
141
100.0
290
     0
  0
SCALE
  5
2A51
102
{ACAD_REACTORS
330
2A44
102
}
330
2A44
100
AcDbScale
 70
     0
300
2:1
140
2.0
141
1.0
290
     0
  0
SCALE
  5
2A52
102
{ACAD_REACTORS
330
2A44
102
}
330
2A44
100
AcDbScale
 70
     0
300
4:1
140
4.0
141
1.0
290
     0
  0
SCALE
  5
2A53
102
{ACAD_REACTORS
330
2A44
102
}
330
2A44
100
AcDbScale
 70
     0
300
8:1
140
8.0
141
1.0
290
     0
  0
SCALE
  5
2A54
102
{ACAD_REACTORS
330
2A44
102
}
330
2A44
100
AcDbScale
 70
     0
300
10:1
140
10.0
141
1.0
290
     0
  0
SCALE
  5
2A55
102
{ACAD_REACTORS
330
2A44
102
}
330
2A44
100
AcDbScale
 70
     0
300
100:1
140
100.0
141
1.0
290
     0
  0
SCALE
  5
2A56
102
{ACAD_REACTORS
330
2A44
102
}
330
2A44
100
AcDbScale
 70
     0
300
1/128" = 1'-0"
140
0.0078125
141
12.0
290
     0
  0
SCALE
  5
2A57
102
{ACAD_REACTORS
330
2A44
102
}
330
2A44
100
AcDbScale
 70
     0
300
1/64" = 1'-0"
140
0.015625
141
12.0
290
     0
  0
SCALE
  5
2A58
102
{ACAD_REACTORS
330
2A44
102
}
330
2A44
100
AcDbScale
 70
     0
300
1/32" = 1'-0"
140
0.03125
141
12.0
290
     0
  0
SCALE
  5
2A59
102
{ACAD_REACTORS
330
2A44
102
}
330
2A44
100
AcDbScale
 70
     0
300
1/16" = 1'-0"
140
0.0625
141
12.0
290
     0
  0
SCALE
  5
2A5A
102
{ACAD_REACTORS
330
2A44
102
}
330
2A44
100
AcDbScale
 70
     0
300
3/32" = 1'-0"
140
0.09375
141
12.0
290
     0
  0
SCALE
  5
2A5B
102
{ACAD_REACTORS
330
2A44
102
}
330
2A44
100
AcDbScale
 70
     0
300
1/8" = 1'-0"
140
0.125
141
12.0
290
     0
  0
SCALE
  5
2A5C
102
{ACAD_REACTORS
330
2A44
102
}
330
2A44
100
AcDbScale
 70
     0
300
3/16" = 1'-0"
140
0.1875
141
12.0
290
     0
  0
SCALE
  5
2A5D
102
{ACAD_REACTORS
330
2A44
102
}
330
2A44
100
AcDbScale
 70
     0
300
1/4" = 1'-0"
140
0.25
141
12.0
290
     0
  0
SCALE
  5
2A5E
102
{ACAD_REACTORS
330
2A44
102
}
330
2A44
100
AcDbScale
 70
     0
300
3/8" = 1'-0"
140
0.375
141
12.0
290
     0
  0
SCALE
  5
2A5F
102
{ACAD_REACTORS
330
2A44
102
}
330
2A44
100
AcDbScale
 70
     0
300
1/2" = 1'-0"
140
0.5
141
12.0
290
     0
  0
SCALE
  5
2A60
102
{ACAD_REACTORS
330
2A44
102
}
330
2A44
100
AcDbScale
 70
     0
300
3/4" = 1'-0"
140
0.75
141
12.0
290
     0
  0
SCALE
  5
2A61
102
{ACAD_REACTORS
330
2A44
102
}
330
2A44
100
AcDbScale
 70
     0
300
1" = 1'-0"
140
1.0
141
12.0
290
     0
  0
SCALE
  5
2A62
102
{ACAD_REACTORS
330
2A44
102
}
330
2A44
100
AcDbScale
 70
     0
300
1-1/2" = 1'-0"
140
1.5
141
12.0
290
     0
  0
SCALE
  5
2A63
102
{ACAD_REACTORS
330
2A44
102
}
330
2A44
100
AcDbScale
 70
     0
300
3" = 1'-0"
140
3.0
141
12.0
290
     0
  0
SCALE
  5
2A64
102
{ACAD_REACTORS
330
2A44
102
}
330
2A44
100
AcDbScale
 70
     0
300
6" = 1'-0"
140
6.0
141
12.0
290
     0
  0
SCALE
  5
2A65
102
{ACAD_REACTORS
330
2A44
102
}
330
2A44
100
AcDbScale
 70
     0
300
1'-0" = 1'-0"
140
12.0
141
12.0
290
     0
  0
TABLESTYLE
  5
2A76
102
{ACAD_XDICTIONARY
360
2C5F
102
}
102
{ACAD_REACTORS
330
2A75
102
}
330
2A75
100
AcDbTableStyle
  3
Standard
 70
     0
 71
     0
 40
0.06
 41
0.06
280
     0
281
     0
  7
STANDARD
140
0.18
170
     2
 62
     0
 63
     7
283
     0
274
    -2
284
     1
 64
     0
275
    -2
285
     1
 65
     0
276
    -2
286
     1
 66
     0
277
    -2
287
     1
 67
     0
278
    -2
288
     1
 68
     0
279
    -2
289
     1
 69
     0
  7
STANDARD
140
0.25
170
     5
 62
     0
 63
     7
283
     0
274
    -2
284
     1
 64
     0
275
    -2
285
     1
 65
     0
276
    -2
286
     1
 66
     0
277
    -2
287
     1
 67
     0
278
    -2
288
     1
 68
     0
279
    -2
289
     1
 69
     0
  7
STANDARD
140
0.18
170
     5
 62
     0
 63
     7
283
     0
274
    -2
284
     1
 64
     0
275
    -2
285
     1
 65
     0
276
    -2
286
     1
 66
     0
277
    -2
287
     1
 67
     0
278
    -2
288
     1
 68
     0
279
    -2
289
     1
 69
     0
  0
VISUALSTYLE
  5
2A39
102
{ACAD_REACTORS
330
2A33
102
}
330
2A33
100
AcDbVisualStyle
  2
2dWireframe
 70
     4
 71
     0
 72
     2
 73
     0
 90
        0
 40
-0.6
 41
-30.0
 62
     5
 63
     7
 74
     1
 91
        4
 64
     7
 65
   257
 75
     1
175
     1
 42
1.0
 92
        0
 66
   257
 43
1.0
 76
     1
 77
     6
 78
     2
 67
     7
 79
     5
170
     0
171
     0
290
     0
174
     0
 93
        1
 44
0.0
173
     0
291
     0
 45
0.0
1001
ACAD
1000
AcDbSavedByObjectVersion
1070
     0
1000
AcDbSavedByObjectVersion
1070
     0
  0
VISUALSTYLE
  5
2A3B
102
{ACAD_REACTORS
330
2A33
102
}
330
2A33
100
AcDbVisualStyle
  2
3D Hidden
 70
     6
 71
     1
 72
     2
 73
     2
 90
        0
 40
-0.6
 41
-30.0
 62
     5
 63
     7
 74
     2
 91
        2
 64
     7
 65
   257
 75
     2
175
     1
 42
40.0
 92
        0
 66
   257
 43
1.0
 76
     1
 77
     6
 78
     2
 67
     7
 79
     3
170
     0
171
     0
290
     0
174
     0
 93
        1
 44
0.0
173
     0
291
     0
 45
0.0
1001
ACAD
1000
AcDbSavedByObjectVersion
1070
     0
1000
AcDbSavedByObjectVersion
1070
     0
  0
VISUALSTYLE
  5
2A3A
102
{ACAD_REACTORS
330
2A33
102
}
330
2A33
100
AcDbVisualStyle
  2
3dWireframe
 70
     5
 71
     0
 72
     2
 73
     0
 90
        0
 40
-0.6
 41
-30.0
 62
     5
 63
     7
 74
     1
 91
        4
 64
     7
 65
   257
 75
     1
175
     1
 42
1.0
 92
        0
 66
   257
 43
1.0
 76
     1
 77
     6
 78
     2
 67
     7
 79
     5
170
     0
171
     0
290
     0
174
     0
 93
        1
 44
0.0
173
     0
291
     0
 45
0.0
1001
ACAD
1000
AcDbSavedByObjectVersion
1070
     0
1000
AcDbSavedByObjectVersion
1070
     0
  0
VISUALSTYLE
  5
2A38
102
{ACAD_REACTORS
330
2A33
102
}
330
2A33
100
AcDbVisualStyle
  2
Basic
 70
     7
 71
     1
 72
     0
 73
     1
 90
        0
 40
-0.6
 41
-30.0
 62
     5
 63
     7
 74
     0
 91
        4
 64
     7
 65
   257
 75
     1
175
     1
 42
1.0
 92
        8
 66
     7
 43
1.0
 76
     1
 77
     6
 78
     2
 67
     7
 79
     5
170
     0
171
     0
290
     0
174
     0
 93
        1
 44
0.0
173
     0
291
     1
 45
0.0
1001
ACAD
1000
AcDbSavedByObjectVersion
1070
     0
1000
AcDbSavedByObjectVersion
1070
     0
  0
VISUALSTYLE
  5
2A3F
102
{ACAD_REACTORS
330
2A33
102
}
330
2A33
100
AcDbVisualStyle
  2
Brighten
 70
    12
 71
     2
 72
     2
 73
     0
 90
        0
 40
-0.6
 41
-30.0
 62
     5
 63
     7
 74
     1
 91
        4
 64
     7
 65
   257
 75
     1
175
     1
 42
1.0
 92
        8
 66
     7
 43
1.0
 76
     1
 77
     6
 78
     2
 67
     7
 79
     5
170
     0
171
     0
290
     0
174
     0
 93
        1
 44
50.0
173
     0
291
     1
 45
0.0
1001
ACAD
1000
AcDbSavedByObjectVersion
1070
     0
1000
AcDbSavedByObjectVersion
1070
     0
  0
VISUALSTYLE
  5
2A43
102
{ACAD_REACTORS
330
2A33
102
}
330
2A33
100
AcDbVisualStyle
  2
ColorChange
 70
    16
 71
     2
 72
     2
 73
     3
 90
        0
 40
-0.6
 41
-30.0
 62
     5
 63
     8
 74
     1
 91
        4
 64
     7
 65
   257
 75
     1
175
     1
 42
1.0
 92
        8
 66
     8
 43
1.0
 76
     1
 77
     6
 78
     2
 67
     7
 79
     5
170
     0
171
     0
290
     0
174
     0
 93
        1
 44
0.0
173
     0
291
     1
 45
0.0
1001
ACAD
1000
AcDbSavedByObjectVersion
1070
     0
1000
AcDbSavedByObjectVersion
1070
     0
  0
VISUALSTYLE
  5
2A3C
102
{ACAD_REACTORS
330
2A33
102
}
330
2A33
100
AcDbVisualStyle
  2
Conceptual
 70
     9
 71
     3
 72
     2
 73
     0
 90
        0
 40
-0.6
 41
-30.0
 62
     5
 63
     7
 74
     2
 91
        2
 64
     7
 65
   257
 75
     1
175
     1
 42
40.0
 92
        8
 66
     7
 43
1.0
 76
     1
 77
     6
 78
     2
 67
     7
 79
     3
170
     0
171
     0
290
     0
174
     0
 93
        1
 44
0.0
173
     0
291
     0
 45
0.0
1001
ACAD
1000
AcDbSavedByObjectVersion
1070
     0
1000
AcDbSavedByObjectVersion
1070
     0
  0
VISUALSTYLE
  5
2A3E
102
{ACAD_REACTORS
330
2A33
102
}
330
2A33
100
AcDbVisualStyle
  2
Dim
 70
    11
 71
     2
 72
     2
 73
     0
 90
        0
 40
-0.6
 41
-30.0
 62
     5
 63
     7
 74
     1
 91
        4
 64
     7
 65
   257
 75
     1
175
     1
 42
1.0
 92
        8
 66
     7
 43
1.0
 76
     1
 77
     6
 78
     2
 67
     7
 79
     5
170
     0
171
     0
290
     0
174
     0
 93
        1
 44
-50.0
173
     0
291
     1
 45
0.0
1001
ACAD
1000
AcDbSavedByObjectVersion
1070
     0
1000
AcDbSavedByObjectVersion
1070
     0
  0
VISUALSTYLE
  5
2A42
102
{ACAD_REACTORS
330
2A33
102
}
330
2A33
100
AcDbVisualStyle
  2
Facepattern
 70
    15
 71
     2
 72
     2
 73
     0
 90
        0
 40
-0.6
 41
-30.0
 62
     5
 63
     7
 74
     1
 91
        4
 64
     7
 65
   257
 75
     1
175
     1
 42
1.0
 92
        8
 66
     7
 43
1.0
 76
     1
 77
     6
 78
     2
 67
     7
 79
     5
170
     0
171
     0
290
     0
174
     0
 93
        1
 44
0.0
173
     0
291
     1
 45
0.0
1001
ACAD
1000
AcDbSavedByObjectVersion
1070
     0
1000
AcDbSavedByObjectVersion
1070
     0
  0
VISUALSTYLE
  5
2A34
102
{ACAD_REACTORS
330
2A33
102
}
330
2A33
100
AcDbVisualStyle
  2
Flat
 70
     0
 71
     2
 72
     1
 73
     1
 90
        2
 40
-0.6
 41
30.0
 62
     5
 63
     7
 74
     0
 91
        4
 64
     7
 65
   257
 75
     1
175
     1
 42
1.0
 92
        8
 66
     7
 43
1.0
 76
     1
 77
     6
 78
     2
 67
     7
 79
     5
170
     0
171
     0
290
     0
174
     0
 93
       13
 44
0.0
173
     0
291
     1
 45
0.0
1001
ACAD
1000
AcDbSavedByObjectVersion
1070
     0
1000
AcDbSavedByObjectVersion
1070
     0
  0
VISUALSTYLE
  5
2A35
102
{ACAD_REACTORS
330
2A33
102
}
330
2A33
100
AcDbVisualStyle
  2
FlatWithEdges
 70
     1
 71
     2
 72
     1
 73
     1
 90
        2
 40
-0.6
 41
30.0
 62
     5
 63
     7
 74
     1
 91
        4
 64
     7
 65
   257
 75
     1
175
     1
 42
1.0
 92
        0
 66
   257
 43
1.0
 76
     1
 77
     6
 78
     2
 67
     7
 79
     5
170
     0
171
     0
290
     0
174
     0
 93
       13
 44
0.0
173
     0
291
     1
 45
0.0
1001
ACAD
1000
AcDbSavedByObjectVersion
1070
     0
1000
AcDbSavedByObjectVersion
1070
     0
  0
VISUALSTYLE
  5
2A36
102
{ACAD_REACTORS
330
2A33
102
}
330
2A33
100
AcDbVisualStyle
  2
Gouraud
 70
     2
 71
     2
 72
     2
 73
     1
 90
        2
 40
-0.6
 41
30.0
 62
     5
 63
     7
 74
     0
 91
        4
 64
     7
 65
   257
 75
     1
175
     1
 42
1.0
 92
        0
 66
     7
 43
1.0
 76
     1
 77
     6
 78
     2
 67
     7
 79
     5
170
     0
171
     0
290
     0
174
     0
 93
       13
 44
0.0
173
     0
291
     1
 45
0.0
1001
ACAD
1000
AcDbSavedByObjectVersion
1070
     0
1000
AcDbSavedByObjectVersion
1070
     0
  0
VISUALSTYLE
  5
2A37
102
{ACAD_REACTORS
330
2A33
102
}
330
2A33
100
AcDbVisualStyle
  2
GouraudWithEdges
 70
     3
 71
     2
 72
     2
 73
     1
 90
        2
 40
-0.6
 41
30.0
 62
     5
 63
     7
 74
     1
 91
        4
 64
     7
 65
   257
 75
     1
175
     1
 42
1.0
 92
        0
 66
   257
 43
1.0
 76
     1
 77
     6
 78
     2
 67
     7
 79
     5
170
     0
171
     0
290
     0
174
     0
 93
       13
 44
0.0
173
     0
291
     1
 45
0.0
1001
ACAD
1000
AcDbSavedByObjectVersion
1070
     0
1000
AcDbSavedByObjectVersion
1070
     0
  0
VISUALSTYLE
  5
2A41
102
{ACAD_REACTORS
330
2A33
102
}
330
2A33
100
AcDbVisualStyle
  2
Linepattern
 70
    14
 71
     2
 72
     2
 73
     0
 90
        0
 40
-0.6
 41
-30.0
 62
     5
 63
     7
 74
     1
 91
        4
 64
     7
 65
   257
 75
     7
175
     7
 42
1.0
 92
        8
 66
     7
 43
1.0
 76
     1
 77
     6
 78
     2
 67
     7
 79
     5
170
     0
171
     0
290
     0
174
     0
 93
        1
 44
0.0
173
     0
291
     1
 45
0.0
1001
ACAD
1000
AcDbSavedByObjectVersion
1070
     0
1000
AcDbSavedByObjectVersion
1070
     0
  0
VISUALSTYLE
  5
2A3D
102
{ACAD_REACTORS
330
2A33
102
}
330
2A33
100
AcDbVisualStyle
  2
Realistic
 70
     8
 71
     2
 72
     2
 73
     0
 90
        0
 40
-0.6
 41
-30.0
 62
     5
 63
     7
 74
     1
 91
        0
 64
     7
 65
   257
 75
     1
175
     1
 42
1.0
 92
        8
 66
     8
 43
1.0
 76
     1
 77
     6
 78
     2
 67
     7
 79
     5
170
     0
171
     0
290
     0
174
     0
 93
       13
 44
0.0
173
     0
291
     0
 45
0.0
1001
ACAD
1000
AcDbSavedByObjectVersion
1070
     0
1000
AcDbSavedByObjectVersion
1070
     0
  0
VISUALSTYLE
  5
2A40
102
{ACAD_REACTORS
330
2A33
102
}
330
2A33
100
AcDbVisualStyle
  2
Thicken
 70
    13
 71
     2
 72
     2
 73
     0
 90
        0
 40
-0.6
 41
-30.0
 62
     5
 63
     7
 74
     1
 91
        4
 64
     7
 65
   257
 75
     1
175
     1
 42
1.0
 92
       12
 66
     7
 43
1.0
 76
     1
 77
     6
 78
     2
 67
     7
 79
     5
170
     0
171
     0
290
     0
174
     0
 93
        1
 44
0.0
173
     0
291
     1
 45
0.0
1001
ACAD
1000
AcDbSavedByObjectVersion
1070
     0
1000
AcDbSavedByObjectVersion
1070
     0
  0
DICTIONARYVAR
  5
2C5B
102
{ACAD_REACTORS
330
2C58
102
}
330
2C58
100
DictionaryVariables
280
     0
  1
1:1
  0
DICTIONARYVAR
  5
2C5A
102
{ACAD_REACTORS
330
2C58
102
}
330
2C58
100
DictionaryVariables
280
     0
  1
STANDARD
  0
DICTIONARYVAR
  5
2C59
102
{ACAD_REACTORS
330
2C58
102
}
330
2C58
100
DictionaryVariables
280
     0
  1
STANDARD
  0
DICTIONARYVAR
  5
2C5E
102
{ACAD_REACTORS
330
2C58
102
}
330
2C58
100
DictionaryVariables
280
     0
  1
1
  0
DICTIONARYVAR
  5
2C5D
102
{ACAD_REACTORS
330
2C58
102
}
330
2C58
100
DictionaryVariables
280
     0
  1
1
  0
DICTIONARYVAR
  5
2F08
102
{ACAD_REACTORS
330
2C58
102
}
330
2C58
100
DictionaryVariables
280
     0
  1
1
  0
DICTIONARYVAR
  5
2F09
102
{ACAD_REACTORS
330
2C58
102
}
330
2C58
100
DictionaryVariables
280
     0
  1
15
  0
DICTIONARYVAR
  5
2F07
102
{ACAD_REACTORS
330
2C58
102
}
330
2C58
100
DictionaryVariables
280
     0
  1
0
  0
DICTIONARYVAR
  5
36AD
102
{ACAD_REACTORS
330
2C58
102
}
330
2C58
100
DictionaryVariables
280
     0
  1
1.570796
  0
DICTIONARYVAR
  5
36AE
102
{ACAD_REACTORS
330
2C58
102
}
330
2C58
100
DictionaryVariables
280
     0
  1
1.570796
  0
DICTIONARYVAR
  5
36AF
102
{ACAD_REACTORS
330
2C58
102
}
330
2C58
100
DictionaryVariables
280
     0
  1
-122.394000
  0
DICTIONARYVAR
  5
2F06
102
{ACAD_REACTORS
330
2C58
102
}
330
2C58
100
DictionaryVariables
280
     0
  1
0
  0
DICTIONARYVAR
  5
2C5C
102
{ACAD_REACTORS
330
2C58
102
}
330
2C58
100
DictionaryVariables
280
     0
  1
127
  0
DICTIONARY
  5
2C19
102
{ACAD_REACTORS
330
2C0B
102
}
330
2C0B
100
AcDbDictionary
281
     1
  0
LAYER_INDEX
  5
2C4B
102
{ACAD_REACTORS
330
2C4A
102
}
330
2C4A
100
AcDbIndex
 40
2457491.725028114
100
AcDbLayerIndex
  8
0
360
2C4C
 90
        0
  8
OUTLINE
360
2C4D
 90
       16
  8
SIZE
360
2C4E
 90
       31
  8
BASIS
360
2C4F
 90
        1
  8
DETAIL
360
2C50
 90
      521
  8
ARRANGE
360
2C51
 90
        2
  8
DEFPOINTS
360
2C52
 90
        0
  8
ETC
360
2C53
 90
        3
  8
FIX
360
2C54
 90
        0
  8
NOTE
360
2C55
 90
        7
  8
SERVICESPACE
360
2C56
 90
        0
  8
SYMBOLLINE
360
2C57
 90
        0
  0
DICTIONARY
  5
2A24
330
2A23
100
AcDbDictionary
280
     1
281
     1
  3
ACAD_XREC_ROUNDTRIP
360
2C69
  3
BUMPTILE
360
2A26
  3
DIFFUSETILE
360
2A25
  3
OPACITYTILE
360
2A29
  3
REFLECTIONTILE
360
2A28
  3
REFRACTIONTILE
360
2A2A
  3
SPECULARTILE
360
2A27
  0
DICTIONARY
  5
2A1C
330
2A1B
100
AcDbDictionary
280
     1
281
     1
  3
ACAD_XREC_ROUNDTRIP
360
2C68
  3
BUMPTILE
360
2A1E
  3
DIFFUSETILE
360
2A1D
  3
OPACITYTILE
360
2A21
  3
REFLECTIONTILE
360
2A20
  3
REFRACTIONTILE
360
2A22
  3
SPECULARTILE
360
2A1F
  0
DICTIONARY
  5
2A2C
330
2A2B
100
AcDbDictionary
280
     1
281
     1
  3
ACAD_XREC_ROUNDTRIP
360
2C6A
  3
BUMPTILE
360
2A2E
  3
DIFFUSETILE
360
2A2D
  3
OPACITYTILE
360
2A31
  3
REFLECTIONTILE
360
2A30
  3
REFRACTIONTILE
360
2A32
  3
SPECULARTILE
360
2A2F
  0
DICTIONARY
  5
2C5F
330
2A76
100
AcDbDictionary
280
     1
281
     1
  3
ACAD_ROUNDTRIP_2008_TABLESTYLE_CELLSTYLEMAP
360
36B0
  3
ACAD_XREC_ROUNDTRIP
360
36B6
  0
IDBUFFER
  5
2C4C
330
0
100
AcDbIdBuffer
  0
IDBUFFER
  5
2C4D
330
0
100
AcDbIdBuffer
330
953
330
954
330
955
330
956
330
957
330
958
330
3252
330
325D
330
3264
330
3265
330
3266
330
3267
330
3268
330
3269
330
326A
330
326B
  0
IDBUFFER
  5
2C4E
330
0
100
AcDbIdBuffer
330
3234
330
3235
330
3236
330
3237
330
3238
330
3239
330
323A
330
323B
330
323C
330
323D
330
323E
330
323F
330
3240
330
3241
330
3242
330
3243
330
3244
330
3245
330
3246
330
3247
330
3248
330
3249
330
324A
330
324B
330
3469
330
346A
330
346B
330
346C
330
346D
330
346E
330
346F
  0
IDBUFFER
  5
2C4F
330
0
100
AcDbIdBuffer
330
324E
  0
IDBUFFER
  5
2C50
330
0
100
AcDbIdBuffer
330
324F
330
3250
330
3251
330
3253
330
3254
330
3255
330
3256
330
3257
330
3258
330
325B
330
325C
330
325E
330
326C
330
326D
330
326E
330
326F
330
3270
330
3271
330
3272
330
3273
330
3274
330
3275
330
3276
330
3277
330
3278
330
3279
330
327A
330
327B
330
327C
330
327D
330
327E
330
327F
330
3280
330
3281
330
3282
330
3283
330
3284
330
3285
330
3286
330
3287
330
3288
330
3289
330
328A
330
328B
330
328C
330
328D
330
328E
330
328F
330
3290
330
3291
330
3292
330
3293
330
3294
330
3295
330
3296
330
3297
330
3298
330
3299
330
329A
330
329B
330
329C
330
329D
330
329E
330
329F
330
32A0
330
32A1
330
32A2
330
32A3
330
32A4
330
32A5
330
32A6
330
32A7
330
32A8
330
32A9
330
32AA
330
32AB
330
32AC
330
32AD
330
32AE
330
32AF
330
32B0
330
32B1
330
32B2
330
32B3
330
32B4
330
32B5
330
32B6
330
32B7
330
32B8
330
32B9
330
32BA
330
32BB
330
32BC
330
32BD
330
32BE
330
32BF
330
32C0
330
32C1
330
32C2
330
32C3
330
32C4
330
32C5
330
32C6
330
32C7
330
32C8
330
32C9
330
32CA
330
32CB
330
32CC
330
32CD
330
32CE
330
32CF
330
32D0
330
32D1
330
32D2
330
32D3
330
32D4
330
32D5
330
32D6
330
32D7
330
32D8
330
32D9
330
32DA
330
32DB
330
32DC
330
32DD
330
32DE
330
32DF
330
32E0
330
32E1
330
32E2
330
32E3
330
32E4
330
32E5
330
32E6
330
32E7
330
32E8
330
32E9
330
32EA
330
32EB
330
32EC
330
32ED
330
32EE
330
32EF
330
32F0
330
32F1
330
32F2
330
32F3
330
32F4
330
32F5
330
32F6
330
32F7
330
32F8
330
32F9
330
32FA
330
32FB
330
32FC
330
32FD
330
32FE
330
32FF
330
3300
330
3301
330
3302
330
3303
330
3304
330
3305
330
3306
330
3307
330
3308
330
3309
330
330A
330
330B
330
330C
330
330D
330
330E
330
330F
330
3310
330
3311
330
3312
330
3313
330
3314
330
3315
330
3316
330
3317
330
3318
330
3319
330
331A
330
331B
330
331C
330
331D
330
331E
330
331F
330
3320
330
3321
330
3322
330
3323
330
3324
330
3325
330
3326
330
3327
330
3328
330
3329
330
332A
330
332B
330
332C
330
332D
330
332E
330
332F
330
3330
330
3331
330
3332
330
3333
330
3334
330
3335
330
3336
330
3337
330
3338
330
3339
330
333A
330
333B
330
333C
330
333D
330
333E
330
333F
330
3340
330
3341
330
3342
330
3343
330
3344
330
3345
330
3346
330
3347
330
3348
330
3349
330
334A
330
334B
330
334C
330
334D
330
334E
330
334F
330
3350
330
3351
330
3352
330
3353
330
3354
330
3355
330
3356
330
3357
330
3358
330
3359
330
335A
330
335B
330
335C
330
335D
330
335E
330
335F
330
3360
330
3361
330
3362
330
3363
330
3364
330
3365
330
3366
330
3367
330
3368
330
3369
330
336A
330
336B
330
336C
330
336D
330
336E
330
336F
330
3370
330
3371
330
3372
330
3373
330
3374
330
3375
330
3376
330
3377
330
3378
330
3379
330
337A
330
337B
330
337C
330
337D
330
337E
330
337F
330
3380
330
3381
330
3382
330
3383
330
3384
330
3385
330
3386
330
3387
330
3388
330
3389
330
338A
330
338B
330
338C
330
338D
330
338E
330
338F
330
3390
330
3391
330
3392
330
3393
330
3394
330
3395
330
3396
330
3397
330
3398
330
3399
330
339A
330
339B
330
339C
330
339D
330
339E
330
339F
330
33A0
330
33A1
330
33A2
330
33A3
330
33A4
330
33A5
330
33A6
330
33A7
330
33A8
330
33A9
330
33AA
330
33AB
330
33AC
330
33AD
330
33AE
330
33AF
330
33B0
330
33B1
330
33B2
330
33B3
330
33B4
330
33B5
330
33B6
330
33B7
330
33B8
330
33B9
330
33BA
330
33BB
330
33BC
330
33BD
330
33BE
330
33BF
330
33C0
330
33C1
330
33C2
330
33C3
330
33C4
330
33C5
330
33C6
330
33C7
330
33C8
330
33C9
330
33CA
330
33CB
330
33CC
330
33CD
330
33CE
330
33CF
330
33D0
330
33D1
330
33D2
330
33D3
330
33D4
330
33D5
330
33D6
330
33D7
330
33D8
330
33D9
330
33DA
330
33DB
330
33DC
330
33DD
330
33DE
330
33DF
330
33E0
330
33E1
330
33E2
330
33E3
330
33E4
330
33E5
330
33E6
330
33E7
330
33E8
330
33E9
330
33EA
330
33EB
330
33EC
330
33ED
330
33EE
330
33EF
330
33F0
330
33F1
330
33F2
330
33F3
330
33F4
330
33F5
330
33F6
330
33F7
330
33F8
330
33F9
330
33FA
330
33FB
330
33FC
330
33FD
330
33FE
330
33FF
330
3400
330
3401
330
3402
330
3403
330
3404
330
3405
330
3406
330
3407
330
3408
330
3409
330
340A
330
340B
330
340C
330
340D
330
340E
330
340F
330
3410
330
3411
330
3412
330
3413
330
3414
330
3415
330
3416
330
3417
330
3418
330
3419
330
341A
330
341B
330
341C
330
341D
330
341E
330
341F
330
3420
330
3421
330
3422
330
3423
330
3424
330
3425
330
3426
330
3427
330
3428
330
3429
330
342A
330
342B
330
342C
330
342D
330
342E
330
342F
330
3430
330
3431
330
3432
330
3433
330
3434
330
3435
330
3436
330
3437
330
3438
330
3439
330
343A
330
343B
330
343C
330
343D
330
343E
330
343F
330
3440
330
3441
330
3442
330
3443
330
3444
330
3445
330
3446
330
3447
330
3448
330
3449
330
344A
330
344B
330
344C
330
344D
330
344E
330
344F
330
3450
330
3451
330
3452
330
3453
330
3454
330
3455
330
3456
330
3457
330
3458
330
3459
330
345A
330
345B
330
345C
330
345D
330
345E
330
345F
330
3460
330
3461
330
3462
330
3463
330
3464
330
3465
330
3466
330
3467
330
3468
  0
IDBUFFER
  5
2C51
330
0
100
AcDbIdBuffer
330
324C
330
324D
  0
IDBUFFER
  5
2C52
330
0
100
AcDbIdBuffer
  0
IDBUFFER
  5
2C53
330
0
100
AcDbIdBuffer
330
3231
330
3232
330
3233
  0
IDBUFFER
  5
2C54
330
0
100
AcDbIdBuffer
  0
IDBUFFER
  5
2C55
330
0
100
AcDbIdBuffer
330
3259
330
325A
330
325F
330
3260
330
3261
330
3262
330
3263
  0
IDBUFFER
  5
2C56
330
0
100
AcDbIdBuffer
  0
IDBUFFER
  5
2C57
330
0
100
AcDbIdBuffer
  0
XRECORD
  5
2C69
102
{ACAD_REACTORS
330
2A24
102
}
330
2A24
100
AcDbXrecord
280
     1
102
MATERIAL
148
0.0
149
0.0
149
0.0
 93
        0
 94
      127
282
     0
 72
     0
 77
     0
171
     0
175
     0
179
     0
273
     0
  0
XRECORD
  5
2A26
102
{ACAD_REACTORS
330
2A24
102
}
330
2A24
100
AcDbXrecord
280
     1
270
     1
271
     1
  0
XRECORD
  5
2A25
102
{ACAD_REACTORS
330
2A24
102
}
330
2A24
100
AcDbXrecord
280
     1
270
     1
271
     1
  0
XRECORD
  5
2A29
102
{ACAD_REACTORS
330
2A24
102
}
330
2A24
100
AcDbXrecord
280
     1
270
     1
271
     1
  0
XRECORD
  5
2A28
102
{ACAD_REACTORS
330
2A24
102
}
330
2A24
100
AcDbXrecord
280
     1
270
     1
271
     1
  0
XRECORD
  5
2A2A
102
{ACAD_REACTORS
330
2A24
102
}
330
2A24
100
AcDbXrecord
280
     1
270
     1
271
     1
  0
XRECORD
  5
2A27
102
{ACAD_REACTORS
330
2A24
102
}
330
2A24
100
AcDbXrecord
280
     1
270
     1
271
     1
  0
XRECORD
  5
2C68
102
{ACAD_REACTORS
330
2A1C
102
}
330
2A1C
100
AcDbXrecord
280
     1
102
MATERIAL
148
0.0
149
0.0
149
0.0
 93
        0
 94
      127
282
     0
 72
     0
 77
     0
171
     0
175
     0
179
     0
273
     0
  0
XRECORD
  5
2A1E
102
{ACAD_REACTORS
330
2A1C
102
}
330
2A1C
100
AcDbXrecord
280
     1
270
     1
271
     1
  0
XRECORD
  5
2A1D
102
{ACAD_REACTORS
330
2A1C
102
}
330
2A1C
100
AcDbXrecord
280
     1
270
     1
271
     1
  0
XRECORD
  5
2A21
102
{ACAD_REACTORS
330
2A1C
102
}
330
2A1C
100
AcDbXrecord
280
     1
270
     1
271
     1
  0
XRECORD
  5
2A20
102
{ACAD_REACTORS
330
2A1C
102
}
330
2A1C
100
AcDbXrecord
280
     1
270
     1
271
     1
  0
XRECORD
  5
2A22
102
{ACAD_REACTORS
330
2A1C
102
}
330
2A1C
100
AcDbXrecord
280
     1
270
     1
271
     1
  0
XRECORD
  5
2A1F
102
{ACAD_REACTORS
330
2A1C
102
}
330
2A1C
100
AcDbXrecord
280
     1
270
     1
271
     1
  0
XRECORD
  5
2C6A
102
{ACAD_REACTORS
330
2A2C
102
}
330
2A2C
100
AcDbXrecord
280
     1
102
MATERIAL
148
0.0
149
0.0
149
0.0
 93
        0
 94
      127
282
     0
 72
     0
 77
     0
171
     0
175
     0
179
     0
273
     0
  0
XRECORD
  5
2A2E
102
{ACAD_REACTORS
330
2A2C
102
}
330
2A2C
100
AcDbXrecord
280
     1
270
     1
271
     1
  0
XRECORD
  5
2A2D
102
{ACAD_REACTORS
330
2A2C
102
}
330
2A2C
100
AcDbXrecord
280
     1
270
     1
271
     1
  0
XRECORD
  5
2A31
102
{ACAD_REACTORS
330
2A2C
102
}
330
2A2C
100
AcDbXrecord
280
     1
270
     1
271
     1
  0
XRECORD
  5
2A30
102
{ACAD_REACTORS
330
2A2C
102
}
330
2A2C
100
AcDbXrecord
280
     1
270
     1
271
     1
  0
XRECORD
  5
2A32
102
{ACAD_REACTORS
330
2A2C
102
}
330
2A2C
100
AcDbXrecord
280
     1
270
     1
271
     1
  0
XRECORD
  5
2A2F
102
{ACAD_REACTORS
330
2A2C
102
}
330
2A2C
100
AcDbXrecord
280
     1
270
     1
271
     1
  0
CELLSTYLEMAP
  5
36B0
102
{ACAD_REACTORS
330
2C5F
102
}
330
2C5F
100
AcDbCellStyleMap
 90
        3
300
CELLSTYLE
  1
TABLEFORMAT_BEGIN
 90
        5
170
     1
 91
        0
 92
    32768
 62
   257
 93
        1
300
CONTENTFORMAT
  1
CONTENTFORMAT_BEGIN
 90
        0
 91
        0
 92
      512
 93
        0
300

 40
0.0
140
1.0
 94
        5
 62
     0
340
2A67
144
0.25
309
CONTENTFORMAT_END
171
     1
301
MARGIN
  1
CELLMARGIN_BEGIN
 40
0.06
 40
0.06
 40
0.06
 40
0.06
 40
0.18
 40
0.18
309
CELLMARGIN_END
 94
        6
 95
        1
302
GRIDFORMAT
  1
GRIDFORMAT_BEGIN
 90
        0
 91
        1
 62
     0
 92
       -2
340
0
 93
        0
 40
0.045
309
GRIDFORMAT_END
 95
        2
302
GRIDFORMAT
  1
GRIDFORMAT_BEGIN
 90
        0
 91
        1
 62
     0
 92
       -2
340
0
 93
        0
 40
0.045
309
GRIDFORMAT_END
 95
        4
302
GRIDFORMAT
  1
GRIDFORMAT_BEGIN
 90
        0
 91
        1
 62
     0
 92
       -2
340
0
 93
        0
 40
0.045
309
GRIDFORMAT_END
 95
        8
302
GRIDFORMAT
  1
GRIDFORMAT_BEGIN
 90
        0
 91
        1
 62
     0
 92
       -2
340
0
 93
        0
 40
0.045
309
GRIDFORMAT_END
 95
       16
302
GRIDFORMAT
  1
GRIDFORMAT_BEGIN
 90
        0
 91
        1
 62
     0
 92
       -2
340
0
 93
        0
 40
0.045
309
GRIDFORMAT_END
 95
       32
302
GRIDFORMAT
  1
GRIDFORMAT_BEGIN
 90
        0
 91
        1
 62
     0
 92
       -2
340
0
 93
        0
 40
0.045
309
GRIDFORMAT_END
309
TABLEFORMAT_END
  1
CELLSTYLE_BEGIN
 90
        1
 91
        1
300
_TITLE
309
CELLSTYLE_END
300
CELLSTYLE
  1
TABLEFORMAT_BEGIN
 90
        5
170
     1
 91
        0
 92
        0
 62
   257
 93
        1
300
CONTENTFORMAT
  1
CONTENTFORMAT_BEGIN
 90
        0
 91
        0
 92
      512
 93
        0
300

 40
0.0
140
1.0
 94
        5
 62
     0
340
2A67
144
0.18
309
CONTENTFORMAT_END
171
     1
301
MARGIN
  1
CELLMARGIN_BEGIN
 40
0.06
 40
0.06
 40
0.06
 40
0.06
 40
0.18
 40
0.18
309
CELLMARGIN_END
 94
        6
 95
        1
302
GRIDFORMAT
  1
GRIDFORMAT_BEGIN
 90
        0
 91
        1
 62
     0
 92
       -2
340
0
 93
        0
 40
0.045
309
GRIDFORMAT_END
 95
        2
302
GRIDFORMAT
  1
GRIDFORMAT_BEGIN
 90
        0
 91
        1
 62
     0
 92
       -2
340
0
 93
        0
 40
0.045
309
GRIDFORMAT_END
 95
        4
302
GRIDFORMAT
  1
GRIDFORMAT_BEGIN
 90
        0
 91
        1
 62
     0
 92
       -2
340
0
 93
        0
 40
0.045
309
GRIDFORMAT_END
 95
        8
302
GRIDFORMAT
  1
GRIDFORMAT_BEGIN
 90
        0
 91
        1
 62
     0
 92
       -2
340
0
 93
        0
 40
0.045
309
GRIDFORMAT_END
 95
       16
302
GRIDFORMAT
  1
GRIDFORMAT_BEGIN
 90
        0
 91
        1
 62
     0
 92
       -2
340
0
 93
        0
 40
0.045
309
GRIDFORMAT_END
 95
       32
302
GRIDFORMAT
  1
GRIDFORMAT_BEGIN
 90
        0
 91
        1
 62
     0
 92
       -2
340
0
 93
        0
 40
0.045
309
GRIDFORMAT_END
309
TABLEFORMAT_END
  1
CELLSTYLE_BEGIN
 90
        2
 91
        1
300
_HEADER
309
CELLSTYLE_END
300
CELLSTYLE
  1
TABLEFORMAT_BEGIN
 90
        5
170
     1
 91
        0
 92
        0
 62
   257
 93
        1
300
CONTENTFORMAT
  1
CONTENTFORMAT_BEGIN
 90
        0
 91
        0
 92
      512
 93
        0
300

 40
0.0
140
1.0
 94
        2
 62
     0
340
2A67
144
0.18
309
CONTENTFORMAT_END
171
     1
301
MARGIN
  1
CELLMARGIN_BEGIN
 40
0.06
 40
0.06
 40
0.06
 40
0.06
 40
0.18
 40
0.18
309
CELLMARGIN_END
 94
        6
 95
        1
302
GRIDFORMAT
  1
GRIDFORMAT_BEGIN
 90
        0
 91
        1
 62
     0
 92
       -2
340
0
 93
        0
 40
0.045
309
GRIDFORMAT_END
 95
        2
302
GRIDFORMAT
  1
GRIDFORMAT_BEGIN
 90
        0
 91
        1
 62
     0
 92
       -2
340
0
 93
        0
 40
0.045
309
GRIDFORMAT_END
 95
        4
302
GRIDFORMAT
  1
GRIDFORMAT_BEGIN
 90
        0
 91
        1
 62
     0
 92
       -2
340
0
 93
        0
 40
0.045
309
GRIDFORMAT_END
 95
        8
302
GRIDFORMAT
  1
GRIDFORMAT_BEGIN
 90
        0
 91
        1
 62
     0
 92
       -2
340
0
 93
        0
 40
0.045
309
GRIDFORMAT_END
 95
       16
302
GRIDFORMAT
  1
GRIDFORMAT_BEGIN
 90
        0
 91
        1
 62
     0
 92
       -2
340
0
 93
        0
 40
0.045
309
GRIDFORMAT_END
 95
       32
302
GRIDFORMAT
  1
GRIDFORMAT_BEGIN
 90
        0
 91
        1
 62
     0
 92
       -2
340
0
 93
        0
 40
0.045
309
GRIDFORMAT_END
309
TABLEFORMAT_END
  1
CELLSTYLE_BEGIN
 90
        3
 91
        2
300
_DATA
309
CELLSTYLE_END
  0
XRECORD
  5
36B6
102
{ACAD_REACTORS
330
2C5F
102
}
330
2C5F
100
AcDbXrecord
280
     1
102
ACAD_ROUNDTRIP_PRE2007_TABLESTYLE
 90
      512
 91
        0
  1

 92
      512
 93
        0
  2

 94
      512
 95
        0
  3

  0
ENDSEC
  0
EOF
