  0
SECTION
  2
HEADER
  9
$ACADVER
  1
AC1015
  9
$ACADMAINTVER
 70
    20
  9
$DWGCODEPAGE
  3
ANSI_932
  9
$INSBASE
 10
0.0
 20
0.0
 30
0.0
  9
$EXTMIN
 10
-823.8921955855257
 20
-520.0652959990147
 30
-0.0015257624927045
  9
$EXTMAX
 10
792.1692007479359
 20
582.5500568404677
 30
50.00152599532333
  9
$LIMMIN
 10
-2970.0
 20
-2100.0
  9
$LIMMAX
 10
2970.0
 20
2100.0
  9
$ORTHOMODE
 70
     1
  9
$REGENMODE
 70
     0
  9
$FILLMODE
 70
     1
  9
$QTEXTMODE
 70
     0
  9
$MIRRTEXT
 70
     0
  9
$LTSCALE
 40
20.0
  9
$ATTMODE
 70
     1
  9
$TEXTSIZE
 40
64.0
  9
$TRACEWID
 40
0.05
  9
$TEXTSTYLE
  7
STANDARD
  9
$CLAYER
  8
0
  9
$CELTYPE
  6
ByLayer
  9
$CECOLOR
 62
   256
  9
$CELTSCALE
 40
1.0
  9
$DISPSILH
 70
     0
  9
$DIMSCALE
 40
1.0
  9
$DIMASZ
 40
0.12
  9
$DIMEXO
 40
0.05
  9
$DIMDLI
 40
0.5
  9
$DIMRND
 40
0.0
  9
$DIMDLE
 40
0.0
  9
$DIMEXE
 40
0.1
  9
$DIMTP
 40
0.1
  9
$DIMTM
 40
0.1
  9
$DIMTXT
 40
0.12
  9
$DIMCEN
 40
0.0
  9
$DIMTSZ
 40
0.0
  9
$DIMTOL
 70
     0
  9
$DIMLIM
 70
     0
  9
$DIMTIH
 70
     1
  9
$DIMTOH
 70
     1
  9
$DIMSE1
 70
     0
  9
$DIMSE2
 70
     0
  9
$DIMTAD
 70
     0
  9
$DIMZIN
 70
     7
  9
$DIMBLK
  1

  9
$DIMASO
 70
     1
  9
$DIMSHO
 70
     0
  9
$DIMPOST
  1

  9
$DIMAPOST
  1
mm
  9
$DIMALT
 70
     0
  9
$DIMALTD
 70
     2
  9
$DIMALTF
 40
25.4
  9
$DIMLFAC
 40
1.0
  9
$DIMTOFL
 70
     0
  9
$DIMTVP
 40
0.0
  9
$DIMTIX
 70
     0
  9
$DIMSOXD
 70
     0
  9
$DIMSAH
 70
     0
  9
$DIMBLK1
  1

  9
$DIMBLK2
  1

  9
$DIMSTYLE
  2
AM_ANSI
  9
$DIMCLRD
 70
   256
  9
$DIMCLRE
 70
   256
  9
$DIMCLRT
 70
     2
  9
$DIMTFAC
 40
0.71
  9
$DIMGAP
 40
0.06
  9
$DIMJUST
 70
     0
  9
$DIMSD1
 70
     0
  9
$DIMSD2
 70
     0
  9
$DIMTOLJ
 70
     1
  9
$DIMTZIN
 70
     7
  9
$DIMALTZ
 70
     0
  9
$DIMALTTZ
 70
     0
  9
$DIMUPT
 70
     0
  9
$DIMDEC
 70
     4
  9
$DIMTDEC
 70
     4
  9
$DIMALTU
 70
     2
  9
$DIMALTTD
 70
     4
  9
$DIMTXSTY
  7
STANDARD
  9
$DIMAUNIT
 70
     0
  9
$DIMADEC
 70
     0
  9
$DIMALTRND
 40
0.0
  9
$DIMAZIN
 70
     2
  9
$DIMDSEP
 70
    46
  9
$DIMATFIT
 70
     3
  9
$DIMFRAC
 70
     0
  9
$DIMLDRBLK
  1

  9
$DIMLUNIT
 70
     2
  9
$DIMLWD
 70
    -1
  9
$DIMLWE
 70
    -1
  9
$DIMTMOVE
 70
     0
  9
$LUNITS
 70
     2
  9
$LUPREC
 70
     4
  9
$SKETCHINC
 40
0.1
  9
$FILLETRAD
 40
4.0
  9
$AUNITS
 70
     1
  9
$AUPREC
 70
     3
  9
$MENU
  1
ACAD
  9
$ELEVATION
 40
0.0
  9
$PELEVATION
 40
0.0
  9
$THICKNESS
 40
50.0
  9
$LIMCHECK
 70
     0
  9
$CHAMFERA
 40
0.0
  9
$CHAMFERB
 40
0.0
  9
$CHAMFERC
 40
0.0
  9
$CHAMFERD
 40
0.0
  9
$SKPOLY
 70
     0
  9
$TDCREATE
 40
2452321.396199653
  9
$TDUCREATE
 40
2452321.021199653
  9
$TDUPDATE
 40
2456210.459650394
  9
$TDUUPDATE
 40
2456210.084650394
  9
$TDINDWG
 40
1.0427094676
  9
$TDUSRTIMER
 40
1.0427037037
  9
$USRTIMER
 70
     1
  9
$ANGBASE
 50
0.0
  9
$ANGDIR
 70
     0
  9
$PDMODE
 70
     3
  9
$PDSIZE
 40
-2.0
  9
$PLINEWID
 40
0.0
  9
$SPLFRAME
 70
     0
  9
$SPLINETYPE
 70
     6
  9
$SPLINESEGS
 70
     8
  9
$HANDSEED
  5
35EB
  9
$SURFTAB1
 70
     6
  9
$SURFTAB2
 70
     6
  9
$SURFTYPE
 70
     6
  9
$SURFU
 70
     6
  9
$SURFV
 70
     6
  9
$UCSBASE
  2

  9
$UCSNAME
  2

  9
$UCSORG
 10
0.0
 20
0.0
 30
0.0
  9
$UCSXDIR
 10
1.0
 20
0.0
 30
0.0
  9
$UCSYDIR
 10
0.0
 20
1.0
 30
0.0
  9
$UCSORTHOREF
  2

  9
$UCSORTHOVIEW
 70
     0
  9
$UCSORGTOP
 10
0.0
 20
0.0
 30
0.0
  9
$UCSORGBOTTOM
 10
0.0
 20
0.0
 30
0.0
  9
$UCSORGLEFT
 10
0.0
 20
0.0
 30
0.0
  9
$UCSORGRIGHT
 10
0.0
 20
0.0
 30
0.0
  9
$UCSORGFRONT
 10
0.0
 20
0.0
 30
0.0
  9
$UCSORGBACK
 10
0.0
 20
0.0
 30
0.0
  9
$PUCSBASE
  2

  9
$PUCSNAME
  2

  9
$PUCSORG
 10
0.0
 20
0.0
 30
0.0
  9
$PUCSXDIR
 10
1.0
 20
0.0
 30
0.0
  9
$PUCSYDIR
 10
0.0
 20
1.0
 30
0.0
  9
$PUCSORTHOREF
  2

  9
$PUCSORTHOVIEW
 70
     0
  9
$PUCSORGTOP
 10
0.0
 20
0.0
 30
0.0
  9
$PUCSORGBOTTOM
 10
0.0
 20
0.0
 30
0.0
  9
$PUCSORGLEFT
 10
0.0
 20
0.0
 30
0.0
  9
$PUCSORGRIGHT
 10
0.0
 20
0.0
 30
0.0
  9
$PUCSORGFRONT
 10
0.0
 20
0.0
 30
0.0
  9
$PUCSORGBACK
 10
0.0
 20
0.0
 30
0.0
  9
$USERI1
 70
     0
  9
$USERI2
 70
     0
  9
$USERI3
 70
     0
  9
$USERI4
 70
     0
  9
$USERI5
 70
     0
  9
$USERR1
 40
20.0
  9
$USERR2
 40
0.0
  9
$USERR3
 40
0.0
  9
$USERR4
 40
0.0
  9
$USERR5
 40
0.0
  9
$WORLDVIEW
 70
     1
  9
$SHADEDGE
 70
     3
  9
$SHADEDIF
 70
    70
  9
$TILEMODE
 70
     1
  9
$MAXACTVP
 70
    64
  9
$PINSBASE
 10
0.0
 20
0.0
 30
0.0
  9
$PLIMCHECK
 70
     0
  9
$PEXTMIN
 10
1.000000000000000E+20
 20
1.000000000000000E+20
 30
1.000000000000000E+20
  9
$PEXTMAX
 10
-1.000000000000000E+20
 20
-1.000000000000000E+20
 30
-1.000000000000000E+20
  9
$PLIMMIN
 10
0.0
 20
0.0
  9
$PLIMMAX
 10
12.0
 20
9.0
  9
$UNITMODE
 70
     0
  9
$VISRETAIN
 70
     1
  9
$PLINEGEN
 70
     0
  9
$PSLTSCALE
 70
     1
  9
$TREEDEPTH
 70
  3020
  9
$CMLSTYLE
  2
Standard
  9
$CMLJUST
 70
     0
  9
$CMLSCALE
 40
1.0
  9
$PROXYGRAPHICS
 70
     1
  9
$MEASUREMENT
 70
     0
  9
$CELWEIGHT
370
    -1
  9
$ENDCAPS
280
     0
  9
$JOINSTYLE
280
     0
  9
$LWDISPLAY
290
     0
  9
$INSUNITS
 70
     0
  9
$HYPERLINKBASE
  1

  9
$STYLESHEET
  1

  9
$XEDIT
290
     1
  9
$CEPSNTYPE
380
     0
  9
$PSTYLEMODE
290
     1
  9
$FINGERPRINTGUID
  2
{A06CEC22-4286-458D-8EC7-ABC51D54E73C}
  9
$VERSIONGUID
  2
{5C789F4A-34B7-4C0F-9A51-5ED34A27367F}
  9
$EXTNAMES
290
     1
  9
$PSVPSCALE
 40
0.0
  9
$OLESTARTUP
290
     0
  0
ENDSEC
  0
SECTION
  2
CLASSES
  0
CLASS
  1
ACDBDICTIONARYWDFLT
  2
AcDbDictionaryWithDefault
  3
ObjectDBX Classes
 90
        0
280
     0
281
     0
  0
CLASS
  1
MATERIAL
  2
AcDbMaterial
  3
ObjectDBX Classes
 90
     1153
280
     0
281
     0
  0
CLASS
  1
VISUALSTYLE
  2
AcDbVisualStyle
  3
ObjectDBX Classes
 90
     4095
280
     0
281
     0
  0
CLASS
  1
SCALE
  2
AcDbScale
  3
ObjectDBX Classes
 90
     1153
280
     0
281
     0
  0
CLASS
  1
TABLESTYLE
  2
AcDbTableStyle
  3
ObjectDBX Classes
 90
     4095
280
     0
281
     0
  0
CLASS
  1
MLEADERSTYLE
  2
AcDbMLeaderStyle
  3
ACDB_MLEADERSTYLE_CLASS
 90
     4095
280
     0
281
     0
  0
CLASS
  1
AMGSETTINGSOBJ
  2
AmgSettingsObj
  3
"AcadM|Product Description: AutoCAD Mechanical|Company: Autodesk, Inc."
 90
     1024
280
     0
281
     0
  0
CLASS
  1
ACME_DOCUMENT
  2
AcMeDbDoc
  3
AcMeServices
 90
     1024
280
     0
281
     0
  0
CLASS
  1
ACMESCOPE
  2
AcMeScope
  3
AcMeServices
 90
     1024
280
     0
281
     0
  0
CLASS
  1
ACMECOMMANDHISTORY
  2
AcMeCommandHistory
  3
AcMeServices
 90
     1024
280
     0
281
     0
  0
CLASS
  1
ACIMSYSVARMAN
  2
AcImSysVarManager
  3
AcMeServices
 90
     1024
280
     0
281
     0
  0
CLASS
  1
ACIMREALSYSVAR
  2
AcImRealSysVar
  3
AcMeServices
 90
     1024
280
     0
281
     0
  0
CLASS
  1
ACIMINTSYSVAR
  2
AcImIntSysVar
  3
AcMeServices
 90
     1024
280
     0
281
     0
  0
CLASS
  1
ACMEDRAWINGMAN
  2
AcMeDrawingMan
  3
AcMeServices
 90
     1024
280
     0
281
     0
  0
CLASS
  1
ACMEVIEW
  2
AcMeView
  3
AcMeServices
 90
     1024
280
     0
281
     0
  0
CLASS
  1
ACDBENTITYCACHE
  2
AcMeEntityCache
  3
AcMeServices
 90
     1024
280
     0
281
     0
  0
CLASS
  1
GSMANAGER
  2
AcMeGSManager
  3
AcMeServices
 90
     1024
280
     0
281
     0
  0
CLASS
  1
AMDTINTERNALREACTOR
  2
AmdtInternalReactor
  3
AcMeServices
 90
     1024
280
     0
281
     0
  0
CLASS
  1
ACMESTATEMGR
  2
AcMeStateMgr
  3
AcMeServices
 90
     1024
280
     0
281
     0
  0
CLASS
  1
ACGREFMASTER
  2
AcGrefMaster
  3
AcAttribServices
 90
     1024
280
     0
281
     0
  0
CLASS
  1
AM_DRAWING_MGR
  2
AcDmDwgMgr
  3
AcMechDwgViewMgmt
 90
     1024
280
     0
281
     0
  0
CLASS
  1
AM_DWG_DOCUMENT
  2
AcDmDwgDocument
  3
AcMechDwgViewMgmt
 90
     1024
280
     0
281
     0
  0
CLASS
  1
AM_DWG_SHEET
  2
AcDmSheet
  3
AcMechDwgViewMgmt
 90
     1024
280
     0
281
     0
  0
CLASS
  1
AM_VIEWDIMPARMAP
  2
AcDmViewDimParMap
  3
AcMechDwgViewMgmt
 90
     1024
280
     0
281
     0
  0
CLASS
  1
AM_DWGMGR_NAME
  2
AcDmDwgMgrName
  3
AcMechDwgViewMgmt
 90
     1024
280
     0
281
     0
  0
CLASS
  1
ACME_DATABASE
  2
AcMeDbDatabase
  3
AcMeServices
 90
     1024
280
     0
281
     0
  0
CLASS
  1
ACRFINSADJUSTERMGR
  2
AcRfInsAdjusterMgr
  3
AcMeServices
 90
     1024
280
     0
281
     0
  0
CLASS
  1
ACGREFACADMASTER
  2
AcGrefacadMaster
  3
AcGrefServices
 90
     1024
280
     0
281
     0
  0
CLASS
  1
AMDTMENUSTATEMGR
  2
AmdtMenuStateMgr
  3
McadcomServices
 90
     1024
280
     0
281
     0
  0
CLASS
  1
AMDTMCOMMENUSTATE
  2
AmdtMcomMenuState
  3
McadcomServices
 90
     1024
280
     0
281
     0
  0
CLASS
  1
AMIMASTER
  2
AmiMaster
  3
AmiServices
 90
     1024
280
     0
281
     0
  0
CLASS
  1
ASAPP
  2
AcAsAppObject
  3
AutoSurfServices
 90
     1024
280
     0
281
     0
  0
CLASS
  1
IM_STATIC_MAN
  2
AcImStaticVarManager
  3
AcMeServices
 90
     1024
280
     0
281
     0
  0
CLASS
  1
ACIMSTRSYSVAR
  2
AcImStrSysVar
  3
AcMeServices
 90
     1024
280
     0
281
     0
  0
CLASS
  1
ACIMDBLSTATICVAR
  2
AcImDblStaticVar
  3
AcMeServices
 90
     1024
280
     0
281
     0
  0
CLASS
  1
ACIMSTRSTATICVAR
  2
AcImStrStaticVar
  3
AcMeServices
 90
     1024
280
     0
281
     0
  0
CLASS
  1
ACIMINTSTATICVAR
  2
AcImIntStaticVar
  3
AcMeServices
 90
     1024
280
     0
281
     0
  0
CLASS
  1
ACASGREFMASTER
  2
AcAsGrefMaster
  3
AutoSurfResolverServices
 90
     1024
280
     0
281
     0
  0
CLASS
  1
ACADGREFMODULE
  2
AcAdGrefModule
  3
AdGrefServices
 90
     1024
280
     0
281
     0
  0
CLASS
  1
AMDTMAPISURFMOUDULE
  2
AmdtMApiSurfModule
  3
MApiSurfServices
 90
     1024
280
     0
281
     0
  0
CLASS
  1
MAPIAMMOUDLE
  2
MApiAmModule
  3
MApiAmServices
 90
     1024
280
     0
281
     0
  0
CLASS
  1
AMDTADMENUSTATE
  2
AmdtAdMenuState
  3
DesignerServices
 90
     1024
280
     0
281
     0
  0
CLASS
  1
ADAPPL
  2
AcAdAppl
  3
DesignerServices
 90
     1024
280
     0
281
     0
  0
CLASS
  1
DEPMGR
  2
AcAdDepMgr
  3
DesignerServices
 90
     1024
280
     0
281
     0
  0
CLASS
  1
PARAMMGR
  2
AcAdParamMgr
  3
DesignerServices
 90
     1024
280
     0
281
     0
  0
CLASS
  1
PARAMSCOPE
  2
AcAdParamScope
  3
DesignerServices
 90
     1024
280
     0
281
     0
  0
CLASS
  1
NAMEDAPPL
  2
AcAdNamedAppl
  3
DesignerServices
 90
     1024
280
     0
281
     0
  0
CLASS
  1
AMDTDMMENUSTATE
  2
AmdtDmMenuState
  3
AcMechDwgViewMgmt
 90
     1024
280
     0
281
     0
  0
CLASS
  1
MAPIADMODULE
  2
MApiAdModule
  3
MApiAdServices
 90
     1024
280
     0
281
     0
  0
CLASS
  1
AMDTAMMENUSTATE
  2
AmdtAmMenuState
  3
DesignerAssemblies
 90
     1024
280
     0
281
     0
  0
CLASS
  1
ACAMPROJECT
  2
AcAmProject
  3
DesignerAssemblies
 90
     1024
280
     0
281
     0
  0
CLASS
  1
ACAMGRCOMPDEF
  2
AcAmGrCompDef
  3
DesignerAssemblies
 90
     1024
280
     0
281
     0
  0
CLASS
  1
ACCMCONTEXT
  2
AcCmContext
  3
DesignerAssemblies
 90
     1024
280
     0
281
     0
  0
CLASS
  1
ACAMCOMPDEF
  2
AcAmCompDef
  3
DesignerAssemblies
 90
     1024
280
     0
281
     0
  0
CLASS
  1
ACAMCOMPDEFMGR
  2
AcAmCompDefMgr
  3
DesignerAssemblies
 90
     1024
280
     0
281
     0
  0
CLASS
  1
AMCONTEXTMGR
  2
AcAmContextMgr
  3
DesignerAssemblies
 90
     1024
280
     0
281
     0
  0
CLASS
  1
ACAMCONTEXTMODELER
  2
AcAmContextModeler
  3
DesignerAssemblies
 90
     1024
280
     0
281
     0
  0
CLASS
  1
ACMDATADICTIONARY
  2
AcmDataDictionary
  3
"AcmSymBB|Product Description: AutoCAD Mechanical|Company: Autodesk, Inc."
 90
     1024
280
     0
281
     0
  0
CLASS
  1
ACMDATAENTRYBLOCK
  2
AcmDataEntryBlock
  3
AcmSymBB|Product Description: AutoCAD Mechanical|Company: Autodesk, Inc.
 90
     1024
280
     0
281
     0
  0
CLASS
  1
ACRFATTGENMGR
  2
AcRfAttGeneralMgr
  3
AcAttribServices
 90
     1024
280
     0
281
     0
  0
CLASS
  1
ACRFOBJATTMGR
  2
AcRfObjAttGroupMgr
  3
AcAttribServices
 90
     1024
280
     0
281
     0
  0
CLASS
  1
ACRFMCADAPIATTHOLDER
  2
AcRfMCADAPIAttHolder
  3
AcAttribServices
 90
     1024
280
     0
281
     0
  0
CLASS
  1
AMDTSYSATTR
  2
AmdtSystemAttribute
  3
AcAttribServices
 90
     1024
280
     0
281
     0
  0
CLASS
  1
CATALOGSTATE
  2
AcAmCatalogState
  3
DesignerAssemblies
 90
     1024
280
     0
281
     0
  0
CLASS
  1
ACAMGRCOMPDEFSET
  2
AcAmGrCompDefSet
  3
DesignerAssemblies
 90
     1024
280
     0
281
     0
  0
CLASS
  1
AMDTBROWSERDBTAB
  2
AmdtBrowserDbTab
  3
McadcomServices
 90
     1024
280
     0
281
     0
  0
CLASS
  1
CBROWSERAPPOBJECT
  2
CBrowserAppObject
  3
McadcomServices
 90
     1024
280
     0
281
     0
  0
CLASS
  1
DM_PLACEHOLDER
  2
AcDmSelsetPlaceholder
  3
AcMechDwgViewMgmt
 90
     1024
280
     0
281
     0
  0
CLASS
  1
ACMSTANDARDANSI
  2
AcmStandardANSI
  3
"Amdt_StdImp|Product Description: AutoCAD Mechanical|Company: Autodesk, Inc."
 90
     1024
280
     0
281
     0
  0
CLASS
  1
ACMSURFSTANDARDANSI
  2
AcmSurfTextStdANSI
  3
"Amdt_StdImp|Product Description: AutoCAD Mechanical|Company: Autodesk, Inc."
 90
     1024
280
     0
281
     0
  0
CLASS
  1
ACMFCFSTANDARDANSI
  2
AcmFCFStdANSI
  3
"Amdt_StdImp|Product Description: AutoCAD Mechanical|Company: Autodesk, Inc."
 90
     1024
280
     0
281
     0
  0
CLASS
  1
ACMWELDSTANDARDANSI
  2
AcmWeldingStdANSI
  3
"Amdt_StdImp|Product Description: AutoCAD Mechanical|Company: Autodesk, Inc."
 90
     1024
280
     0
281
     0
  0
CLASS
  1
ACMIDSTANDARDANSI
  2
AcmIdStdANSI
  3
"Amdt_StdImp|Product Description: AutoCAD Mechanical|Company: Autodesk, Inc."
 90
     1024
280
     0
281
     0
  0
CLASS
  1
ACMDATUMSTANDARDANSI
  2
AcmDatumStdANSI
  3
"Amdt_StdImp|Product Description: AutoCAD Mechanical|Company: Autodesk, Inc."
 90
     1024
280
     0
281
     0
  0
CLASS
  1
ACMBOMSTANDARDANSI
  2
AcmBOMStdANSI
  3
"Amdt_StdImp|Product Description: AutoCAD Mechanical|Company: Autodesk, Inc."
 90
     1024
280
     0
281
     0
  0
CLASS
  1
ACMDETAILSTANDARDANSI
  2
AmdtDetailSymStdANSI
  3
"Amdt_StdImp|Product Description: AutoCAD Mechanical|Company: Autodesk, Inc."
 90
     1024
280
     0
281
     0
  0
CLASS
  1
ACMSECTIONSTANDARDANSI
  2
AmdtSectionSymStdANSI
  3
"Amdt_StdImp|Product Description: AutoCAD Mechanical|Company: Autodesk, Inc."
 90
     1024
280
     0
281
     0
  0
CLASS
  1
ACMCENTERLINESTANDARDANSI
  2
AmdtCenterLineStdANSI
  3
"Amdt_StdImp|Product Description: AutoCAD Mechanical|Company: Autodesk, Inc."
 90
     1024
280
     0
281
     0
  0
CLASS
  1
ACMTHREADLINESTANDARDANSI
  2
AmdtThreadLineStdANSI
  3
"Amdt_StdImp|Product Description: AutoCAD Mechanical|Company: Autodesk, Inc."
 90
     1024
280
     0
281
     0
  0
CLASS
  1
ACMNOTESTANDARDANSI
  2
AmdtNoteStdANSI
  3
"Amdt_StdImp|Product Description: AutoCAD Mechanical|Company: Autodesk, Inc."
 90
     1024
280
     0
281
     0
  0
CLASS
  1
ACMTAPERSTANDARDANSI
  2
AcmTaperStdANSI
  3
"Amdt_StdImp|Product Description: AutoCAD Mechanical|Company: Autodesk, Inc."
 90
     1024
280
     0
281
     0
  0
CLASS
  1
ACMANOOTATIONVIEWSTANDARDANSI
  2
AmdtAnViewStdANSI
  3
"Amdt_StdImp|Product Description: AutoCAD Mechanical|Company: Autodesk, Inc."
 90
     1024
280
     0
281
     0
  0
CLASS
  1
ACAMGLAYSTD
  2
AcAmgLayStd
  3
"AmgLay|Product Description: AutoCAD Mechanical|Company: Autodesk, Inc."
 90
     1024
280
     0
281
     0
  0
CLASS
  1
ACAMGDIMSTD
  2
AcAmgDimStd
  3
"AmgDim|Product Description: AutoCAD Mechanical|Company: Autodesk, Inc."
 90
     1024
280
     0
281
     0
  0
CLASS
  1
ACAMGHOLECHARTSTDANSI
  2
AcAmgHoleChartStdANSI
  3
AmgDim|Product Description: AutoCAD Mechanical|Company: Autodesk, Inc.
 90
     1024
280
     0
281
     0
  0
CLASS
  1
AMGOBJPROPCFG
  2
AmgObjPropCfg
  3
"AmgLay|Product Description: AutoCAD Mechanical|Company: Autodesk, Inc."
 90
     1025
280
     0
281
     0
  0
CLASS
  1
ACAMGTITLESTD
  2
AcAmgTitleStd
  3
"AmgTitle|Product Description: AutoCAD Mechanical|Company: Autodesk, Inc."
 90
     4095
280
     0
281
     0
  0
CLASS
  1
AMDTNOTETEMPLATEDB
  2
AmdtNoteTemplateDB
  3
AcmSymBB|Product Description: AutoCAD Mechanical|Company: Autodesk, Inc.
 90
     1024
280
     0
281
     0
  0
CLASS
  1
ACAMGFILTERDAT
  2
AcAmgFilterDat
  3
"AcadM|Product Description: AutoCAD Mechanical|Company: Autodesk, Inc."
 90
     1024
280
     0
281
     0
  0
CLASS
  1
LAYER_INDEX
  2
AcDbLayerIndex
  3
ObjectDBX Classes
 90
        0
280
     0
281
     0
  0
CLASS
  1
IDBUFFER
  2
AcDbIdBuffer
  3
ObjectDBX Classes
 90
        0
280
     0
281
     0
  0
CLASS
  1
DICTIONARYVAR
  2
AcDbDictionaryVar
  3
ObjectDBX Classes
 90
        0
280
     0
281
     0
  0
CLASS
  1
CELLSTYLEMAP
  2
AcDbCellStyleMap
  3
ObjectDBX Classes
 90
     1152
280
     0
281
     0
  0
CLASS
  1
ACDBPLACEHOLDER
  2
AcDbPlaceHolder
  3
ObjectDBX Classes
 90
        0
280
     0
281
     0
  0
CLASS
  1
LAYOUT
  2
AcDbLayout
  3
ObjectDBX Classes
 90
        0
280
     0
281
     0
  0
ENDSEC
  0
SECTION
  2
TABLES
  0
TABLE
  2
VPORT
  5
337B
330
0
100
AcDbSymbolTable
 70
     1
  0
VPORT
  5
33EB
330
337B
100
AcDbSymbolTableRecord
100
AcDbViewportTableRecord
  2
*ACTIVE
 70
     0
 10
0.0
 20
0.0
 11
1.0
 21
1.0
 12
-289.7147444762303
 22
-0.0251494192445989
 13
0.0
 23
0.0
 14
1.0
 24
1.0
 15
0.0
 25
0.0
 16
0.0
 26
0.0
 36
1.0
 17
273.8532470574354
 27
31.26752983997107
 37
0.0
 40
1109.893341967136
 41
1.712555066079295
 42
50.0
 43
0.0
 44
0.0
 50
0.0
 51
0.0
 71
     0
 72
   100
 73
     1
 74
     0
 75
     0
 76
     0
 77
     0
 78
     0
281
     0
 65
     0
110
0.0
120
0.0
130
0.0
111
1.0
121
0.0
131
0.0
112
0.0
122
1.0
132
0.0
 79
     0
146
0.0
  0
ENDTAB
  0
TABLE
  2
LTYPE
  5
3378
330
0
100
AcDbSymbolTable
 70
    19
  0
LTYPE
  5
33D5
330
3378
100
AcDbSymbolTableRecord
100
AcDbLinetypeTableRecord
  2
ByBlock
 70
     0
  3

 72
    65
 73
     0
 40
0.0
  0
LTYPE
  5
33D6
330
3378
100
AcDbSymbolTableRecord
100
AcDbLinetypeTableRecord
  2
ByLayer
 70
     0
  3

 72
    65
 73
     0
 40
0.0
  0
LTYPE
  5
33D7
330
3378
100
AcDbSymbolTableRecord
100
AcDbLinetypeTableRecord
  2
CONTINUOUS
 70
     0
  3
実線
 72
    65
 73
     0
 40
0.0
  0
LTYPE
  5
33EC
330
3378
100
AcDbSymbolTableRecord
100
AcDbLinetypeTableRecord
  2
DASHDOT
 70
     0
  3
____ _ ____ _ ____ _ ____ _ ____ _ ____ _ ____
 72
    65
 73
     4
 40
5.5
 49
4.0
 74
     0
 49
-0.6
 74
     0
 49
0.3
 74
     0
 49
-0.6
 74
     0
  0
LTYPE
  5
33ED
330
3378
100
AcDbSymbolTableRecord
100
AcDbLinetypeTableRecord
  2
HIDDEN
 70
     0
  3
Hidden __ __ __ __ __ __ __ __ __ __ __ __ __ _
 72
    65
 73
     2
 40
0.375
 49
0.25
 74
     0
 49
-0.125
 74
     0
  0
LTYPE
  5
33EE
330
3378
100
AcDbSymbolTableRecord
100
AcDbLinetypeTableRecord
  2
PHANTOM2
 70
     0
  3
Phantom (.5x) ___ _ _ ___ _ _ ___ _ _ ___ _ _
 72
    65
 73
     6
 40
1.25
 49
0.625
 74
     0
 49
-0.125
 74
     0
 49
0.125
 74
     0
 49
-0.125
 74
     0
 49
0.125
 74
     0
 49
-0.125
 74
     0
  0
LTYPE
  5
33EF
330
3378
100
AcDbSymbolTableRecord
100
AcDbLinetypeTableRecord
  2
CENTER
 70
     0
  3
Center ____ _ ____ _ ____ _ ____ _ ____ _ ____
 72
    65
 73
     4
 40
2.0
 49
1.25
 74
     0
 49
-0.25
 74
     0
 49
0.25
 74
     0
 49
-0.25
 74
     0
  0
LTYPE
  5
33F0
330
3378
100
AcDbSymbolTableRecord
100
AcDbLinetypeTableRecord
  2
ASULTYPE
 70
     0
  3
実線
 72
    65
 73
     2
 40
3.0
 49
2.5
 74
     0
 49
0.5
 74
     0
  0
LTYPE
  5
33F1
330
3378
100
AcDbSymbolTableRecord
100
AcDbLinetypeTableRecord
  2
ASVLTYPE
 70
     0
  3
__ __ __ __ __ __ __ __ __ __ __ __ __ __ __ __ __ __ __ __ __
 72
    65
 73
     2
 40
0.75
 49
0.5
 74
     0
 49
-0.25
 74
     0
  0
LTYPE
  5
33F2
330
3378
100
AcDbSymbolTableRecord
100
AcDbLinetypeTableRecord
  2
AM_ISO02W050
 70
     0
  3
__ __ __ __ __ __ __ __ __ __ __ __ __ __ __
 72
    65
 73
     2
 40
7.5
 49
6.0
 74
     0
 49
-1.5
 74
     0
  0
LTYPE
  5
33F3
330
3378
100
AcDbSymbolTableRecord
100
AcDbLinetypeTableRecord
  2
AM_ISO08W050
 70
     0
  3
____ . ____ . ____ . ____ . ____ . ____ . ____
 72
    65
 73
     4
 40
18.0
 49
12.0
 74
     0
 49
-1.5
 74
     0
 49
3.0
 74
     0
 49
-1.5
 74
     0
  0
LTYPE
  5
33F4
330
3378
100
AcDbSymbolTableRecord
100
AcDbLinetypeTableRecord
  2
AM_ISO09W050
 70
     0
  3
_____ . . _____ . . _____ . . ____ .. ____
 72
    65
 73
     6
 40
22.5
 49
12.0
 74
     0
 49
-1.5
 74
     0
 49
3.0
 74
     0
 49
-1.5
 74
     0
 49
3.0
 74
     0
 49
-1.5
 74
     0
  0
LTYPE
  5
33F5
330
3378
100
AcDbSymbolTableRecord
100
AcDbLinetypeTableRecord
  2
AMCONSTR
 70
     0
  3
_______________________
 72
    65
 73
     2
 40
9999.0
 49
9999.0
 74
     0
 49
0.0
 74
     0
  0
LTYPE
  5
33F6
330
3378
100
AcDbSymbolTableRecord
100
AcDbLinetypeTableRecord
  2
AM_ISO08W050X2
 70
     0
  3
__ . __ . __ . __ . __ . __
 72
    65
 73
     4
 40
9.0
 49
6.0
 74
     0
 49
-0.75
 74
     0
 49
1.5
 74
     0
 49
-0.75
 74
     0
  0
LTYPE
  5
33F7
330
3378
100
AcDbSymbolTableRecord
100
AcDbLinetypeTableRecord
  2
AM_ISO02W050X2
 70
     0
  3
 _ _ _ _ _ _ _ _ _ _ _ _
 72
    65
 73
     2
 40
3.75
 49
3.0
 74
     0
 49
-0.75
 74
     0
  0
LTYPE
  5
33F8
330
3378
100
AcDbSymbolTableRecord
100
AcDbLinetypeTableRecord
  2
AMZIGZAG
 70
     0
  3
/\/-/\/-/\/-/\/-/\/-/\/
 72
    65
 73
     2
 40
11.0001
 49
0.0001
 74
     0
 49
-11.0
 74
     0
  0
LTYPE
  5
33F9
330
3378
100
AcDbSymbolTableRecord
100
AcDbLinetypeTableRecord
  2
CENTER2
 70
     0
  3
Center (.5x) ___ _ ___ _ ___ _ ___ _ ___ _ ___
 72
    65
 73
     4
 40
1.125
 49
0.75
 74
     0
 49
-0.125
 74
     0
 49
0.125
 74
     0
 49
-0.125
 74
     0
  0
LTYPE
  5
33FA
330
3378
100
AcDbSymbolTableRecord
100
AcDbLinetypeTableRecord
  2
HIDDEN2
 70
     0
  3
Hidden (.5x) _ _ _ _ _ _ _ _ _ _ _ _ _ _ _ _ _
 72
    65
 73
     2
 40
0.1875
 49
0.125
 74
     0
 49
-0.0625
 74
     0
  0
LTYPE
  5
33FB
330
3378
100
AcDbSymbolTableRecord
100
AcDbLinetypeTableRecord
  2
AMZIGZAG2
 70
     0
  3
/\/-/\/-/\/-/\/-/\/-/\/
 72
    65
 73
     2
 40
0.4401
 49
0.0001
 74
     0
 49
-0.4400000000000003
 74
     0
  0
LTYPE
  5
33FC
330
3378
100
AcDbSymbolTableRecord
100
AcDbLinetypeTableRecord
  2
ACANSTGB
 70
     0
  3
__ . . __ . .
 72
    65
 73
     6
 40
0.35433070866
 49
0.15748031496
 74
     0
 49
-0.03937007874
 74
     0
 49
0.03937007874
 74
     0
 49
-0.03937007874
 74
     0
 49
0.03937007874
 74
     0
 49
-0.03937007874
 74
     0
  0
LTYPE
  5
33FD
330
3378
100
AcDbSymbolTableRecord
100
AcDbLinetypeTableRecord
  2
ACANSTGL
 70
     0
  3
_ _ _ _ _
 72
    65
 73
     2
 40
0.11811023622
 49
0.07874015748
 74
     0
 49
-0.03937007874
 74
     0
  0
ENDTAB
  0
TABLE
  2
LAYER
  5
3375
330
0
100
AcDbSymbolTable
 70
    12
  0
LAYER
  5
33CF
102
{ACAD_XDICTIONARY
360
35AA
102
}
330
3375
100
AcDbSymbolTableRecord
100
AcDbLayerTableRecord
  2
0
 70
     0
 62
     7
  6
CONTINUOUS
370
    -3
390
3382
  0
LAYER
  5
33FE
102
{ACAD_XDICTIONARY
360
35AC
102
}
330
3375
100
AcDbSymbolTableRecord
100
AcDbLayerTableRecord
  2
OUTLINE
 70
     0
 62
     3
  6
CONTINUOUS
370
    -3
390
3382
  0
LAYER
  5
33FF
102
{ACAD_XDICTIONARY
360
35AE
102
}
330
3375
100
AcDbSymbolTableRecord
100
AcDbLayerTableRecord
  2
SIZE
 70
     0
 62
    30
  6
CONTINUOUS
370
    -3
390
3382
  0
LAYER
  5
3400
102
{ACAD_XDICTIONARY
360
35B0
102
}
330
3375
100
AcDbSymbolTableRecord
100
AcDbLayerTableRecord
  2
BASIS
 70
     0
 62
     6
  6
DASHDOT
370
    -3
390
3382
  0
LAYER
  5
3401
102
{ACAD_XDICTIONARY
360
35B2
102
}
330
3375
100
AcDbSymbolTableRecord
100
AcDbLayerTableRecord
  2
DETAIL
 70
     0
 62
     5
  6
CONTINUOUS
370
    -3
390
3382
  0
LAYER
  5
3402
102
{ACAD_XDICTIONARY
360
35B4
102
}
330
3375
100
AcDbSymbolTableRecord
100
AcDbLayerTableRecord
  2
ARRANGE
 70
     0
 62
     1
  6
CONTINUOUS
370
    -3
390
3382
  0
LAYER
  5
3403
330
3375
100
AcDbSymbolTableRecord
100
AcDbLayerTableRecord
  2
DEFPOINTS
 70
     0
 62
     7
  6
CONTINUOUS
290
     0
370
    -3
390
3382
  0
LAYER
  5
3404
102
{ACAD_XDICTIONARY
360
35B6
102
}
330
3375
100
AcDbSymbolTableRecord
100
AcDbLayerTableRecord
  2
ETC
 70
     0
 62
    61
  6
CONTINUOUS
370
    -3
390
3382
  0
LAYER
  5
3405
102
{ACAD_XDICTIONARY
360
35B8
102
}
330
3375
100
AcDbSymbolTableRecord
100
AcDbLayerTableRecord
  2
FIX
 70
     0
 62
    11
  6
CONTINUOUS
370
    -3
390
3382
  0
LAYER
  5
3406
102
{ACAD_XDICTIONARY
360
35BA
102
}
330
3375
100
AcDbSymbolTableRecord
100
AcDbLayerTableRecord
  2
NOTE
 70
     0
 62
     4
  6
CONTINUOUS
370
    -3
390
3382
  0
LAYER
  5
3407
102
{ACAD_XDICTIONARY
360
35BC
102
}
330
3375
100
AcDbSymbolTableRecord
100
AcDbLayerTableRecord
  2
SERVICESPACE
 70
     0
 62
     2
  6
DASHDOT
370
    -3
390
3382
  0
LAYER
  5
3408
102
{ACAD_XDICTIONARY
360
35BE
102
}
330
3375
100
AcDbSymbolTableRecord
100
AcDbLayerTableRecord
  2
SYMBOLLINE
 70
     0
 62
    15
  6
CONTINUOUS
370
    -3
390
3382
  0
ENDTAB
  0
TABLE
  2
STYLE
  5
3376
330
0
100
AcDbSymbolTable
 70
     5
  0
STYLE
  5
33D0
330
3376
100
AcDbSymbolTableRecord
100
AcDbTextStyleTableRecord
  2
STANDARD
 70
     0
 40
64.0
 41
0.9
 50
0.0
 71
     0
 42
64.0
  3
SIMPLEX.shx
  4
BIGFONT.shx
  0
STYLE
  5
33D4
330
3376
100
AcDbSymbolTableRecord
100
AcDbTextStyleTableRecord
  2
ANNOTATIVE
 70
     0
 40
0.0
 41
1.0
 50
0.0
 71
     0
 42
0.2
  3
txt
  4

1001
ACADANNOTATIVE
1000
AnnotativeData
1002
{
1070
     1
1070
     1
1002
}
  0
STYLE
  5
3409
330
3376
100
AcDbSymbolTableRecord
100
AcDbTextStyleTableRecord
  2

 70
     1
 40
0.0
 41
1.0
 50
0.0
 71
     0
 42
64.0
  3
genltshp.shx
  4

  0
STYLE
  5
340A
330
3376
100
AcDbSymbolTableRecord
100
AcDbTextStyleTableRecord
  2
ACANSTS
 70
     0
 40
1.0
 41
1.0
 50
0.0
 71
     0
 42
64.0
  3
romans.shx
  4
extfont.shx
  0
STYLE
  5
340B
330
3376
100
AcDbSymbolTableRecord
100
AcDbTextStyleTableRecord
  2
ACANSGDT
 70
     0
 40
0.0
 41
1.0
 50
0.0
 71
     0
 42
64.0
  3
amgdt.shx
  4

  0
ENDTAB
  0
TABLE
  2
VIEW
  5
3379
330
0
100
AcDbSymbolTable
 70
     1
  0
VIEW
  5
340C
330
3379
100
AcDbSymbolTableRecord
100
AcDbViewTableRecord
  2
ALL
 70
     0
 40
4282.619807999997
 10
0.0
 20
41.30990399999999
 41
5940.0
 11
0.0
 21
0.0
 31
1.0
 12
0.0
 22
0.0
 32
0.0
 42
50.0
 43
0.0
 44
0.0
 50
0.0
 71
     0
281
     0
 72
     1
110
0.0
120
0.0
130
0.0
111
1.0
121
0.0
131
0.0
112
0.0
122
1.0
132
0.0
 79
     0
146
0.0
  0
ENDTAB
  0
TABLE
  2
UCS
  5
337A
330
0
100
AcDbSymbolTable
 70
     0
  0
ENDTAB
  0
TABLE
  2
APPID
  5
337C
330
0
100
AcDbSymbolTable
 70
    32
  0
APPID
  5
33D1
330
337C
100
AcDbSymbolTableRecord
100
AcDbRegAppTableRecord
  2
ACAD
 70
     0
  0
APPID
  5
33D8
330
337C
100
AcDbSymbolTableRecord
100
AcDbRegAppTableRecord
  2
ACADANNOTATIVE
 70
     0
  0
APPID
  5
33E2
330
337C
100
AcDbSymbolTableRecord
100
AcDbRegAppTableRecord
  2
ACAD_MLEADERVER
 70
     0
  0
APPID
  5
340D
330
337C
100
AcDbSymbolTableRecord
100
AcDbRegAppTableRecord
  2
GENIUS_GENDIM_13
 70
     0
  0
APPID
  5
340E
330
337C
100
AcDbSymbolTableRecord
100
AcDbRegAppTableRecord
  2
GENIUS_GENDTOL_13
 70
     0
  0
APPID
  5
340F
330
337C
100
AcDbSymbolTableRecord
100
AcDbRegAppTableRecord
  2
GENIUS_GE3DTOL_13
 70
     0
  0
APPID
  5
3410
330
337C
100
AcDbSymbolTableRecord
100
AcDbRegAppTableRecord
  2
MCAD_NO_VIS
 70
     0
  0
APPID
  5
3411
330
337C
100
AcDbSymbolTableRecord
100
AcDbRegAppTableRecord
  2
ACAD_TEMP_GRAPHIC
 70
     0
  0
APPID
  5
3412
330
337C
100
AcDbSymbolTableRecord
100
AcDbRegAppTableRecord
  2
AD_DRAW
 70
     0
  0
APPID
  5
3413
330
337C
100
AcDbSymbolTableRecord
100
AcDbRegAppTableRecord
  2
ACATTRIBSERVICES
 70
     0
  0
APPID
  5
3414
330
337C
100
AcDbSymbolTableRecord
100
AcDbRegAppTableRecord
  2
ASURF_PCURVE_APPNAME
 70
     0
  0
APPID
  5
3415
330
337C
100
AcDbSymbolTableRecord
100
AcDbRegAppTableRecord
  2
AMG_3D2D_5_0
 70
     0
  0
APPID
  5
3416
330
337C
100
AcDbSymbolTableRecord
100
AcDbRegAppTableRecord
  2
DESIGNERASSEMBLIES
 70
     0
  0
APPID
  5
3417
330
337C
100
AcDbSymbolTableRecord
100
AcDbRegAppTableRecord
  2
ACADM_DIM_EDIT
 70
     0
  0
APPID
  5
3418
330
337C
100
AcDbSymbolTableRecord
100
AcDbRegAppTableRecord
  2
AMDT_DM_ADJ
 70
     0
  0
APPID
  5
3419
330
337C
100
AcDbSymbolTableRecord
100
AcDbRegAppTableRecord
  2
ACAD_DSTYLE_DIMARC_LENGTH_
 70
     0
  0
APPID
  5
341A
330
337C
100
AcDbSymbolTableRecord
100
AcDbRegAppTableRecord
  2
ACAD_DSTYLE_DIMJOGGED_JOGA
 70
     0
  0
APPID
  5
341B
330
337C
100
AcDbSymbolTableRecord
100
AcDbRegAppTableRecord
  2
ACAD_PSEXT
 70
     0
  0
APPID
  5
341C
330
337C
100
AcDbSymbolTableRecord
100
AcDbRegAppTableRecord
  2
ACAD_EXEMPT_FROM_CAD_STANDARDS
 70
     0
  0
APPID
  5
341D
330
337C
100
AcDbSymbolTableRecord
100
AcDbRegAppTableRecord
  2
ACAD_DSTYLE_DIMJAG
 70
     0
  0
APPID
  5
341E
330
337C
100
AcDbSymbolTableRecord
100
AcDbRegAppTableRecord
  2
ACAD_DSTYLE_DIMTALN
 70
     0
  0
APPID
  5
341F
330
337C
100
AcDbSymbolTableRecord
100
AcDbRegAppTableRecord
  2
AMG_3D2D_5_00
 70
     0
  0
APPID
  5
3420
330
337C
100
AcDbSymbolTableRecord
100
AcDbRegAppTableRecord
  2
AMG_3D2D_5_01
 70
     0
  0
APPID
  5
3421
330
337C
100
AcDbSymbolTableRecord
100
AcDbRegAppTableRecord
  2
AMG_3D2D_5_02
 70
     0
  0
APPID
  5
3422
330
337C
100
AcDbSymbolTableRecord
100
AcDbRegAppTableRecord
  2
AMG_3D2D_5_03
 70
     0
  0
APPID
  5
3423
330
337C
100
AcDbSymbolTableRecord
100
AcDbRegAppTableRecord
  2
AMG_3D2D_5_04
 70
     0
  0
APPID
  5
3424
330
337C
100
AcDbSymbolTableRecord
100
AcDbRegAppTableRecord
  2
AMG_3D2D_5_05
 70
     0
  0
APPID
  5
354A
330
337C
100
AcDbSymbolTableRecord
100
AcDbRegAppTableRecord
  2
AMG_3D2D_5.0
 70
     0
  0
APPID
  5
35E7
330
337C
100
AcDbSymbolTableRecord
100
AcDbRegAppTableRecord
  2
ACAD_DSTYLE_DIMARC_LENGTH_SYMBOL
 70
     0
  0
APPID
  5
35E8
330
337C
100
AcDbSymbolTableRecord
100
AcDbRegAppTableRecord
  2
ACAD_DSTYLE_DIM_LINETYPE
 70
     0
  0
APPID
  5
35E9
330
337C
100
AcDbSymbolTableRecord
100
AcDbRegAppTableRecord
  2
ACAD_DSTYLE_DIM_EXT1_LINETYPE
 70
     0
  0
APPID
  5
35EA
330
337C
100
AcDbSymbolTableRecord
100
AcDbRegAppTableRecord
  2
ACAD_DSTYLE_DIM_EXT2_LINETYPE
 70
     0
  0
ENDTAB
  0
TABLE
  2
DIMSTYLE
  5
337D
330
0
100
AcDbSymbolTable
 70
    10
100
AcDbDimStyleTable
 71
     1
340
3425
  0
DIMSTYLE
105
33D2
330
337D
100
AcDbSymbolTableRecord
100
AcDbDimStyleTableRecord
  2
STANDARD
 70
     0
 41
12.0
 42
20.0
 44
20.0
 77
     1
 78
     8
140
64.0
141
0.0
147
10.0
275
     1
279
     2
284
     7
285
     7
286
     7
340
33D0
  0
DIMSTYLE
105
33D3
330
337D
100
AcDbSymbolTableRecord
100
AcDbDimStyleTableRecord
  2
ANNOTATIVE
 70
     0
275
     1
279
     2
284
     7
285
     7
286
     7
340
33D0
1001
ACADANNOTATIVE
1000
AnnotativeData
1002
{
1070
     1
1070
     1
1002
}
  0
DIMSTYLE
105
3425
330
337D
100
AcDbSymbolTableRecord
100
AcDbDimStyleTableRecord
  2
AM_ANSI
 70
     0
  4
mm
 41
0.12
 42
0.05
 43
0.5
 44
0.1
 47
0.1
 48
0.1
 78
     7
 79
     2
140
0.12
141
0.0
146
0.71
147
0.06
176
   256
177
   256
178
     2
274
     4
284
     7
340
33D0
371
    -1
372
    -1
1001
ACAD_DSTYLE_DIMARC_LENGTH_SYMBOL
1070
   379
1070
     1
1001
ACAD_DSTYLE_DIM_LINETYPE
1070
   380
1005
33D5
1001
ACAD_DSTYLE_DIM_EXT1_LINETYPE
1070
   381
1005
33D5
1001
ACAD_DSTYLE_DIM_EXT2_LINETYPE
1070
   382
1005
33D5
  0
DIMSTYLE
105
3426
330
337D
100
AcDbSymbolTableRecord
100
AcDbDimStyleTableRecord
  2
AM_ANSI$3
 70
     0
  4
mm
 41
0.12
 42
0.05
 43
0.5
 44
0.1
 47
0.1
 48
0.1
 78
     7
 79
     2
140
0.12
141
0.0
146
0.71
147
0.06
176
   256
177
   256
178
     2
274
     4
284
     7
288
     1
289
     0
340
33D0
371
    -1
372
    -1
1001
ACAD_DSTYLE_DIMARC_LENGTH_SYMBOL
1070
   379
1070
     1
1001
ACAD_DSTYLE_DIM_LINETYPE
1070
   380
1005
33D5
1001
ACAD_DSTYLE_DIM_EXT1_LINETYPE
1070
   381
1005
33D5
1001
ACAD_DSTYLE_DIM_EXT2_LINETYPE
1070
   382
1005
33D5
  0
DIMSTYLE
105
3427
330
337D
100
AcDbSymbolTableRecord
100
AcDbDimStyleTableRecord
  2
AM_ANSI$4
 70
     0
  4
mm
 41
0.12
 42
0.05
 43
0.5
 44
0.1
 47
0.1
 48
0.1
 78
     7
 79
     2
140
0.12
141
0.0
146
0.71
147
0.06
176
   256
177
   256
178
     2
274
     4
284
     7
340
33D0
371
    -1
372
    -1
1001
ACAD_DSTYLE_DIMARC_LENGTH_SYMBOL
1070
   379
1070
     1
1001
ACAD_DSTYLE_DIM_LINETYPE
1070
   380
1005
33D5
1001
ACAD_DSTYLE_DIM_EXT1_LINETYPE
1070
   381
1005
33D5
1001
ACAD_DSTYLE_DIM_EXT2_LINETYPE
1070
   382
1005
33D5
  0
DIMSTYLE
105
3428
330
337D
100
AcDbSymbolTableRecord
100
AcDbDimStyleTableRecord
  2
AM_ANSI$7
 70
     0
  4
mm
 41
0.12
 42
0.05
 43
0.5
 44
0.1
 47
0.1
 48
0.1
 78
     7
 79
     2
140
0.12
141
0.0
146
0.71
147
0.06
176
   256
177
   256
178
     2
274
     4
284
     7
340
33D0
371
    -1
372
    -1
1001
ACAD_DSTYLE_DIMARC_LENGTH_SYMBOL
1070
   379
1070
     1
1001
ACAD_DSTYLE_DIM_LINETYPE
1070
   380
1005
33D5
1001
ACAD_DSTYLE_DIM_EXT1_LINETYPE
1070
   381
1005
33D5
1001
ACAD_DSTYLE_DIM_EXT2_LINETYPE
1070
   382
1005
33D5
  0
DIMSTYLE
105
3429
330
337D
100
AcDbSymbolTableRecord
100
AcDbDimStyleTableRecord
  2
AM_ANSI$SF
 70
     0
  4
mm
 41
0.12
 42
0.05
 43
0.5
 44
0.1
 47
0.1
 48
0.1
 75
     1
 76
     1
 78
     7
 79
     2
140
0.12
141
0.0
146
0.71
147
0.06
176
   256
177
   256
178
     2
274
     4
284
     7
340
33D0
371
    -1
372
    -1
1001
ACAD_DSTYLE_DIMARC_LENGTH_SYMBOL
1070
   379
1070
     1
1001
ACAD_DSTYLE_DIM_LINETYPE
1070
   380
1005
33D5
1001
ACAD_DSTYLE_DIM_EXT1_LINETYPE
1070
   381
1005
33D5
1001
ACAD_DSTYLE_DIM_EXT2_LINETYPE
1070
   382
1005
33D5
  0
DIMSTYLE
105
342A
330
337D
100
AcDbSymbolTableRecord
100
AcDbDimStyleTableRecord
  2
AM_ANSI$SH
 70
     0
  4
mm
 41
0.12
 42
0.05
 43
0.5
 44
0.1
 47
0.1
 48
0.1
 75
     1
 76
     1
 78
     7
 79
     2
140
0.12
141
0.0
146
0.71
147
0.06
173
     1
176
   256
177
   256
178
     2
274
     4
284
     7
340
33D0
343
344A
371
    -1
372
    -1
1001
ACAD_DSTYLE_DIMARC_LENGTH_SYMBOL
1070
   379
1070
     1
1001
ACAD_DSTYLE_DIM_LINETYPE
1070
   380
1005
33D5
1001
ACAD_DSTYLE_DIM_EXT1_LINETYPE
1070
   381
1005
33D5
1001
ACAD_DSTYLE_DIM_EXT2_LINETYPE
1070
   382
1005
33D5
  0
DIMSTYLE
105
342B
330
337D
100
AcDbSymbolTableRecord
100
AcDbDimStyleTableRecord
  2
STANDARD1
 70
     0
 40
6.0
 41
2.5
 42
0.625
 43
6.0
 44
1.25
 47
1.0
 48
0.5
 77
     1
 78
     8
140
2.5
141
0.0
146
0.6
147
1.0
173
     1
275
     1
279
     2
284
     7
285
     7
286
     7
340
33D0
  0
DIMSTYLE
105
342C
330
337D
100
AcDbSymbolTableRecord
100
AcDbDimStyleTableRecord
  2
STANDARD$0
 70
     0
 41
12.0
 42
20.0
 44
20.0
 73
     0
 74
     0
 77
     1
 78
     8
140
64.0
141
0.0
147
10.0
275
     1
279
     2
284
     7
285
     7
286
     7
340
33D0
  0
ENDTAB
  0
TABLE
  2
BLOCK_RECORD
  5
3374
330
0
100
AcDbSymbolTable
 70
    75
  0
BLOCK_RECORD
  5
33E7
102
{ACAD_XDICTIONARY
360
35C0
102
}
330
3374
100
AcDbSymbolTableRecord
100
AcDbBlockTableRecord
  2
*Model_Space
340
33EA
  0
BLOCK_RECORD
  5
33E3
330
3374
100
AcDbSymbolTableRecord
100
AcDbBlockTableRecord
  2
*Paper_Space
340
33E6
  0
BLOCK_RECORD
  5
3434
330
3374
100
AcDbSymbolTableRecord
100
AcDbBlockTableRecord
  2
$MODEL_SPACE
340
0
  0
BLOCK_RECORD
  5
3436
330
3374
100
AcDbSymbolTableRecord
100
AcDbBlockTableRecord
  2
$PAPER_SPACE
340
0
  0
BLOCK_RECORD
  5
3438
330
3374
100
AcDbSymbolTableRecord
100
AcDbBlockTableRecord
  2
_ORIGIN
340
0
  0
BLOCK_RECORD
  5
343A
330
3374
100
AcDbSymbolTableRecord
100
AcDbBlockTableRecord
  2
_DOTBLANK
340
0
102
{BLKREFS
331
1299
331
129A
331
11AA
331
11AB
331
E80
331
E81
331
1123
331
1124
331
11C2
331
11C3
331
11EC
331
11ED
331
11F9
331
11FA
331
1287
331
1288
331
1417
331
1418
331
1423
331
1424
331
142F
331
1430
331
143B
331
143C
331
166E
331
166F
331
1677
331
1678
331
1680
331
1681
331
1689
331
168A
331
1696
331
1697
331
16A3
331
16A4
331
16AF
331
16B0
331
16BB
331
16BC
331
16C7
331
16C8
331
16D3
331
16D4
331
1D86
331
1D87
331
1D8F
331
1D90
331
1D98
331
1D99
331
1DA1
331
1DA2
331
1DAB
331
1DAC
331
1DB5
331
1DB6
331
3324
331
3325
331
3329
331
332A
331
332E
331
332F
331
3333
331
3334
102
}
  0
BLOCK_RECORD
  5
343C
330
3374
100
AcDbSymbolTableRecord
100
AcDbBlockTableRecord
  2
_OPEN30
340
0
102
{BLKREFS
331
2088
331
27FE
331
2D51
331
3042
102
}
  0
BLOCK_RECORD
  5
343E
330
3374
100
AcDbSymbolTableRecord
100
AcDbBlockTableRecord
  2
*D5
340
0
  0
BLOCK_RECORD
  5
3440
330
3374
100
AcDbSymbolTableRecord
100
AcDbBlockTableRecord
  2
*U6
340
0
102
{BLKREFS
331
129B
102
}
  0
BLOCK_RECORD
  5
3442
330
3374
100
AcDbSymbolTableRecord
100
AcDbBlockTableRecord
  2
*D7
340
0
  0
BLOCK_RECORD
  5
3444
330
3374
100
AcDbSymbolTableRecord
100
AcDbBlockTableRecord
  2
*U8
340
0
102
{BLKREFS
331
11AC
102
}
  0
BLOCK_RECORD
  5
3446
330
3374
100
AcDbSymbolTableRecord
100
AcDbBlockTableRecord
  2
*D9
340
0
  0
BLOCK_RECORD
  5
3448
330
3374
100
AcDbSymbolTableRecord
100
AcDbBlockTableRecord
  2
*U10
340
0
102
{BLKREFS
331
E82
102
}
  0
BLOCK_RECORD
  5
344A
330
3374
100
AcDbSymbolTableRecord
100
AcDbBlockTableRecord
  2
GENAXEH
340
0
  0
BLOCK_RECORD
  5
344C
330
3374
100
AcDbSymbolTableRecord
100
AcDbBlockTableRecord
  2
*D12
340
0
  0
BLOCK_RECORD
  5
344E
330
3374
100
AcDbSymbolTableRecord
100
AcDbBlockTableRecord
  2
*U13
340
0
102
{BLKREFS
331
1125
102
}
  0
BLOCK_RECORD
  5
3450
330
3374
100
AcDbSymbolTableRecord
100
AcDbBlockTableRecord
  2
*D14
340
0
  0
BLOCK_RECORD
  5
3452
330
3374
100
AcDbSymbolTableRecord
100
AcDbBlockTableRecord
  2
*U15
340
0
102
{BLKREFS
331
11C4
102
}
  0
BLOCK_RECORD
  5
3454
330
3374
100
AcDbSymbolTableRecord
100
AcDbBlockTableRecord
  2
*D16
340
0
  0
BLOCK_RECORD
  5
3456
330
3374
100
AcDbSymbolTableRecord
100
AcDbBlockTableRecord
  2
*U17
340
0
102
{BLKREFS
331
11EE
102
}
  0
BLOCK_RECORD
  5
3458
330
3374
100
AcDbSymbolTableRecord
100
AcDbBlockTableRecord
  2
*D18
340
0
  0
BLOCK_RECORD
  5
345A
330
3374
100
AcDbSymbolTableRecord
100
AcDbBlockTableRecord
  2
*U19
340
0
102
{BLKREFS
331
11FB
102
}
  0
BLOCK_RECORD
  5
345C
330
3374
100
AcDbSymbolTableRecord
100
AcDbBlockTableRecord
  2
*D20
340
0
  0
BLOCK_RECORD
  5
345E
330
3374
100
AcDbSymbolTableRecord
100
AcDbBlockTableRecord
  2
*U21
340
0
102
{BLKREFS
331
1289
102
}
  0
BLOCK_RECORD
  5
3460
330
3374
100
AcDbSymbolTableRecord
100
AcDbBlockTableRecord
  2
*D22
340
0
  0
BLOCK_RECORD
  5
3462
330
3374
100
AcDbSymbolTableRecord
100
AcDbBlockTableRecord
  2
*U23
340
0
102
{BLKREFS
331
1419
102
}
  0
BLOCK_RECORD
  5
3464
330
3374
100
AcDbSymbolTableRecord
100
AcDbBlockTableRecord
  2
*D24
340
0
  0
BLOCK_RECORD
  5
3466
330
3374
100
AcDbSymbolTableRecord
100
AcDbBlockTableRecord
  2
*U25
340
0
102
{BLKREFS
331
1425
102
}
  0
BLOCK_RECORD
  5
3468
330
3374
100
AcDbSymbolTableRecord
100
AcDbBlockTableRecord
  2
*D26
340
0
  0
BLOCK_RECORD
  5
346A
330
3374
100
AcDbSymbolTableRecord
100
AcDbBlockTableRecord
  2
*U27
340
0
102
{BLKREFS
331
1431
102
}
  0
BLOCK_RECORD
  5
346C
330
3374
100
AcDbSymbolTableRecord
100
AcDbBlockTableRecord
  2
*D28
340
0
  0
BLOCK_RECORD
  5
346E
330
3374
100
AcDbSymbolTableRecord
100
AcDbBlockTableRecord
  2
*U29
340
0
102
{BLKREFS
331
143D
102
}
  0
BLOCK_RECORD
  5
3470
330
3374
100
AcDbSymbolTableRecord
100
AcDbBlockTableRecord
  2
*D30
340
0
  0
BLOCK_RECORD
  5
3472
330
3374
100
AcDbSymbolTableRecord
100
AcDbBlockTableRecord
  2
*U31
340
0
102
{BLKREFS
331
1670
102
}
  0
BLOCK_RECORD
  5
3474
330
3374
100
AcDbSymbolTableRecord
100
AcDbBlockTableRecord
  2
*D32
340
0
  0
BLOCK_RECORD
  5
3476
330
3374
100
AcDbSymbolTableRecord
100
AcDbBlockTableRecord
  2
*U33
340
0
102
{BLKREFS
331
1679
102
}
  0
BLOCK_RECORD
  5
3478
330
3374
100
AcDbSymbolTableRecord
100
AcDbBlockTableRecord
  2
*D34
340
0
  0
BLOCK_RECORD
  5
347A
330
3374
100
AcDbSymbolTableRecord
100
AcDbBlockTableRecord
  2
*U35
340
0
102
{BLKREFS
331
1682
102
}
  0
BLOCK_RECORD
  5
347C
330
3374
100
AcDbSymbolTableRecord
100
AcDbBlockTableRecord
  2
*D36
340
0
  0
BLOCK_RECORD
  5
347E
330
3374
100
AcDbSymbolTableRecord
100
AcDbBlockTableRecord
  2
*U37
340
0
102
{BLKREFS
331
168B
102
}
  0
BLOCK_RECORD
  5
3480
330
3374
100
AcDbSymbolTableRecord
100
AcDbBlockTableRecord
  2
*U38
340
0
  0
BLOCK_RECORD
  5
3482
330
3374
100
AcDbSymbolTableRecord
100
AcDbBlockTableRecord
  2
*D39
340
0
  0
BLOCK_RECORD
  5
3484
330
3374
100
AcDbSymbolTableRecord
100
AcDbBlockTableRecord
  2
*U40
340
0
102
{BLKREFS
331
1698
102
}
  0
BLOCK_RECORD
  5
3486
330
3374
100
AcDbSymbolTableRecord
100
AcDbBlockTableRecord
  2
*D41
340
0
  0
BLOCK_RECORD
  5
3488
330
3374
100
AcDbSymbolTableRecord
100
AcDbBlockTableRecord
  2
*U42
340
0
102
{BLKREFS
331
16A5
102
}
  0
BLOCK_RECORD
  5
348A
330
3374
100
AcDbSymbolTableRecord
100
AcDbBlockTableRecord
  2
*D43
340
0
  0
BLOCK_RECORD
  5
348C
330
3374
100
AcDbSymbolTableRecord
100
AcDbBlockTableRecord
  2
*U44
340
0
102
{BLKREFS
331
16B1
102
}
  0
BLOCK_RECORD
  5
348E
330
3374
100
AcDbSymbolTableRecord
100
AcDbBlockTableRecord
  2
*D45
340
0
  0
BLOCK_RECORD
  5
3490
330
3374
100
AcDbSymbolTableRecord
100
AcDbBlockTableRecord
  2
*U46
340
0
102
{BLKREFS
331
16BD
102
}
  0
BLOCK_RECORD
  5
3492
330
3374
100
AcDbSymbolTableRecord
100
AcDbBlockTableRecord
  2
*D47
340
0
  0
BLOCK_RECORD
  5
3494
330
3374
100
AcDbSymbolTableRecord
100
AcDbBlockTableRecord
  2
*U48
340
0
102
{BLKREFS
331
16C9
102
}
  0
BLOCK_RECORD
  5
3496
330
3374
100
AcDbSymbolTableRecord
100
AcDbBlockTableRecord
  2
*D49
340
0
  0
BLOCK_RECORD
  5
3498
330
3374
100
AcDbSymbolTableRecord
100
AcDbBlockTableRecord
  2
*U50
340
0
102
{BLKREFS
331
16D5
102
}
  0
BLOCK_RECORD
  5
349A
330
3374
100
AcDbSymbolTableRecord
100
AcDbBlockTableRecord
  2
*D51
340
0
  0
BLOCK_RECORD
  5
349C
330
3374
100
AcDbSymbolTableRecord
100
AcDbBlockTableRecord
  2
*U52
340
0
102
{BLKREFS
331
1D88
102
}
  0
BLOCK_RECORD
  5
349E
330
3374
100
AcDbSymbolTableRecord
100
AcDbBlockTableRecord
  2
*D53
340
0
  0
BLOCK_RECORD
  5
34A0
330
3374
100
AcDbSymbolTableRecord
100
AcDbBlockTableRecord
  2
*U54
340
0
102
{BLKREFS
331
1D91
102
}
  0
BLOCK_RECORD
  5
34A2
330
3374
100
AcDbSymbolTableRecord
100
AcDbBlockTableRecord
  2
*D55
340
0
  0
BLOCK_RECORD
  5
34A4
330
3374
100
AcDbSymbolTableRecord
100
AcDbBlockTableRecord
  2
*U56
340
0
102
{BLKREFS
331
1D9A
102
}
  0
BLOCK_RECORD
  5
34A6
330
3374
100
AcDbSymbolTableRecord
100
AcDbBlockTableRecord
  2
*D57
340
0
  0
BLOCK_RECORD
  5
34A8
330
3374
100
AcDbSymbolTableRecord
100
AcDbBlockTableRecord
  2
*U58
340
0
102
{BLKREFS
331
1DA3
102
}
  0
BLOCK_RECORD
  5
34AA
330
3374
100
AcDbSymbolTableRecord
100
AcDbBlockTableRecord
  2
*D59
340
0
  0
BLOCK_RECORD
  5
34AC
330
3374
100
AcDbSymbolTableRecord
100
AcDbBlockTableRecord
  2
*U60
340
0
102
{BLKREFS
331
1DAD
102
}
  0
BLOCK_RECORD
  5
34AE
330
3374
100
AcDbSymbolTableRecord
100
AcDbBlockTableRecord
  2
*D61
340
0
  0
BLOCK_RECORD
  5
34B0
330
3374
100
AcDbSymbolTableRecord
100
AcDbBlockTableRecord
  2
*U62
340
0
102
{BLKREFS
331
1DB7
102
}
  0
BLOCK_RECORD
  5
34B2
330
3374
100
AcDbSymbolTableRecord
100
AcDbBlockTableRecord
  2
*U63
340
0
  0
BLOCK_RECORD
  5
34B4
330
3374
100
AcDbSymbolTableRecord
100
AcDbBlockTableRecord
  2
*U64
340
0
  0
BLOCK_RECORD
  5
34B6
330
3374
100
AcDbSymbolTableRecord
100
AcDbBlockTableRecord
  2
*U65
340
0
  0
BLOCK_RECORD
  5
34B8
330
3374
100
AcDbSymbolTableRecord
100
AcDbBlockTableRecord
  2
*U66
340
0
  0
BLOCK_RECORD
  5
34BA
330
3374
100
AcDbSymbolTableRecord
100
AcDbBlockTableRecord
  2
*U67
340
0
  0
BLOCK_RECORD
  5
34BC
330
3374
100
AcDbSymbolTableRecord
100
AcDbBlockTableRecord
  2
*U68
340
0
  0
BLOCK_RECORD
  5
34BE
330
3374
100
AcDbSymbolTableRecord
100
AcDbBlockTableRecord
  2
*U69
340
0
  0
BLOCK_RECORD
  5
34C0
330
3374
100
AcDbSymbolTableRecord
100
AcDbBlockTableRecord
  2
*U70
340
0
102
{BLKREFS
331
32FF
102
}
  0
BLOCK_RECORD
  5
34C2
330
3374
100
AcDbSymbolTableRecord
100
AcDbBlockTableRecord
  2
*U71
340
0
102
{BLKREFS
331
3300
102
}
  0
BLOCK_RECORD
  5
34C4
330
3374
100
AcDbSymbolTableRecord
100
AcDbBlockTableRecord
  2
*X72
340
0
102
{BLKREFS
331
3318
102
}
  0
BLOCK_RECORD
  5
34C6
330
3374
100
AcDbSymbolTableRecord
100
AcDbBlockTableRecord
  2
*X73
340
0
102
{BLKREFS
331
3319
102
}
  0
ENDTAB
  0
ENDSEC
  0
SECTION
  2
BLOCKS
  0
BLOCK
  5
33E8
330
33E7
100
AcDbEntity
  8
0
100
AcDbBlockBegin
  2
*Model_Space
 70
     0
 10
0.0
 20
0.0
 30
0.0
  3
*Model_Space
  1

  0
ENDBLK
  5
33E9
330
33E7
100
AcDbEntity
  8
0
100
AcDbBlockEnd
  0
BLOCK
  5
33E4
330
33E3
100
AcDbEntity
 67
     1
  8
0
100
AcDbBlockBegin
  2
*Paper_Space
 70
     0
 10
0.0
 20
0.0
 30
0.0
  3
*Paper_Space
  1

  0
ENDBLK
  5
33E5
330
33E3
100
AcDbEntity
 67
     1
  8
0
100
AcDbBlockEnd
  0
BLOCK
  5
3435
330
3434
100
AcDbEntity
  8
0
100
AcDbBlockBegin
  2
$MODEL_SPACE
 70
     0
 10
0.0
 20
0.0
 30
0.0
  3
$MODEL_SPACE
  1

  0
ENDBLK
  5
2E8E
330
3434
100
AcDbEntity
  8
0
100
AcDbBlockEnd
  0
BLOCK
  5
3437
330
3436
100
AcDbEntity
  8
0
100
AcDbBlockBegin
  2
$PAPER_SPACE
 70
     0
 10
0.0
 20
0.0
 30
0.0
  3
$PAPER_SPACE
  1

  0
ENDBLK
  5
2E8A
330
3436
100
AcDbEntity
  8
0
100
AcDbBlockEnd
  0
BLOCK
  5
3439
330
3438
100
AcDbEntity
  8
0
100
AcDbBlockBegin
  2
_ORIGIN
 70
     0
 10
0.0
 20
0.0
 30
0.0
  3
_ORIGIN
  1

  0
CIRCLE
  5
880
330
3438
100
AcDbEntity
  8
0
  6
Continuous
 62
     7
100
AcDbCircle
 10
0.0
 20
0.0
 30
0.0
 40
0.5
  0
LINE
  5
881
330
3438
100
AcDbEntity
  8
0
  6
Continuous
 62
     7
100
AcDbLine
 10
0.0
 20
0.0
 30
0.0
 11
-1.0
 21
0.0
 31
0.0
  0
ENDBLK
  5
882
330
3438
100
AcDbEntity
  8
0
100
AcDbBlockEnd
  0
BLOCK
  5
343B
330
343A
100
AcDbEntity
  8
0
 62
     1
100
AcDbBlockBegin
  2
_DOTBLANK
 70
     0
 10
0.0
 20
0.0
 30
0.0
  3
_DOTBLANK
  1

  0
CIRCLE
  5
AB3
330
343A
100
AcDbEntity
  8
0
  6
ByBlock
 62
     0
100
AcDbCircle
 10
0.0
 20
0.0
 30
0.0
 40
0.5
  0
LINE
  5
AB4
330
343A
100
AcDbEntity
  8
0
  6
ByBlock
 62
     0
100
AcDbLine
 10
-0.5
 20
0.0
 30
0.0
 11
-1.0
 21
0.0
 31
0.0
  0
ENDBLK
  5
AB6
330
343A
100
AcDbEntity
  8
0
 62
     1
100
AcDbBlockEnd
  0
BLOCK
  5
343D
330
343C
100
AcDbEntity
  8
0
 62
     1
100
AcDbBlockBegin
  2
_OPEN30
 70
     0
 10
0.0
 20
0.0
 30
0.0
  3
_OPEN30
  1

  0
LINE
  5
AB8
330
343C
100
AcDbEntity
  8
0
  6
ByBlock
 62
     0
100
AcDbLine
 10
-1.0
 20
0.26794919
 30
0.0
 11
0.0
 21
0.0
 31
0.0
  0
LINE
  5
AB9
330
343C
100
AcDbEntity
  8
0
  6
ByBlock
 62
     0
100
AcDbLine
 10
0.0
 20
0.0
 30
0.0
 11
-1.0
 21
-0.26794919
 31
0.0
  0
LINE
  5
ABA
330
343C
100
AcDbEntity
  8
0
  6
ByBlock
 62
     0
100
AcDbLine
 10
0.0
 20
0.0
 30
0.0
 11
-1.0
 21
0.0
 31
0.0
  0
ENDBLK
  5
ABC
330
343C
100
AcDbEntity
  8
0
 62
     1
100
AcDbBlockEnd
  0
BLOCK
  5
343F
330
343E
100
AcDbEntity
  8
0
100
AcDbBlockBegin
  2
*D5
 70
     1
 10
0.0
 20
0.0
 30
0.0
  3
*D5
  1

  0
LINE
  5
1296
330
343E
100
AcDbEntity
  8
SIZE
 62
     0
100
AcDbLine
 10
-134.5
 20
-320.0
 30
0.0
 11
-134.5
 21
-468.0173952306001
 31
0.0
  0
LINE
  5
1297
330
343E
100
AcDbEntity
  8
SIZE
 62
     0
100
AcDbLine
 10
134.5
 20
-320.0
 30
0.0
 11
134.5
 21
-468.0173952306001
 31
0.0
  0
LINE
  5
1298
330
343E
100
AcDbEntity
  8
SIZE
 62
     0
100
AcDbLine
 10
-122.5
 20
-448.0173952306
 30
0.0
 11
122.5
 21
-448.0173952306
 31
0.0
  0
INSERT
  5
1299
330
343E
100
AcDbEntity
  8
SIZE
 62
     0
100
AcDbBlockReference
  2
_DOTBLANK
 10
-134.5
 20
-448.0173952306
 30
0.0
 41
12.0
 42
12.0
 43
12.0
 50
180.0
  0
INSERT
  5
129A
330
343E
100
AcDbEntity
  8
SIZE
 62
     0
100
AcDbBlockReference
  2
_DOTBLANK
 10
134.5
 20
-448.0173952306
 30
0.0
 41
12.0
 42
12.0
 43
12.0
  0
INSERT
  5
129B
330
343E
100
AcDbEntity
  8
0
100
AcDbBlockReference
  2
*U6
 10
0.0
 20
0.0
 30
0.0
  0
POINT
  5
129C
330
343E
100
AcDbEntity
  8
DEFPOINTS
 62
     0
100
AcDbPoint
 10
-134.5
 20
-300.0
 30
0.0
  0
POINT
  5
129D
330
343E
100
AcDbEntity
  8
DEFPOINTS
 62
     0
100
AcDbPoint
 10
134.5
 20
-300.0
 30
0.0
  0
POINT
  5
129E
330
343E
100
AcDbEntity
  8
DEFPOINTS
 62
     0
100
AcDbPoint
 10
134.5
 20
-448.0173952306
 30
0.0
  0
ENDBLK
  5
D72
330
343E
100
AcDbEntity
  8
0
100
AcDbBlockEnd
  0
BLOCK
  5
3441
330
3440
100
AcDbEntity
  8
0
100
AcDbBlockBegin
  2
*U6
 70
     1
 10
0.0
 20
0.0
 30
0.0
  3
*U6
  1

  0
TEXT
  5
1EF5
330
3440
100
AcDbEntity
  8
SIZE
 62
     0
100
AcDbText
 10
-72.68571428571426
 20
-438.0173952305999
 30
0.0
 40
64.0
  1
269
 41
0.9
100
AcDbText
  0
ENDBLK
  5
1EF7
330
3440
100
AcDbEntity
  8
0
100
AcDbBlockEnd
  0
BLOCK
  5
3443
330
3442
100
AcDbEntity
  8
0
100
AcDbBlockBegin
  2
*D7
 70
     1
 10
0.0
 20
0.0
 30
0.0
  3
*D7
  1

  0
LINE
  5
11A7
330
3442
100
AcDbEntity
  8
SIZE
  6
Continuous
 62
     0
100
AcDbLine
 10
143.5
 20
-300.0
 30
0.0
 11
304.6432844803791
 21
-300.0
 31
0.0
  0
LINE
  5
11A8
330
3442
100
AcDbEntity
  8
SIZE
  6
Continuous
 62
     0
100
AcDbLine
 10
177.5
 20
-0.0000000000000057
 30
0.0
 11
304.6432844803792
 21
-0.0000000000000417
 31
0.0
  0
LINE
  5
11A9
330
3442
100
AcDbEntity
  8
SIZE
  6
Continuous
 62
     0
100
AcDbLine
 10
284.6432844803791
 20
-288.0000000000001
 30
0.0
 11
284.6432844803792
 21
-12.00000000000003
 31
0.0
  0
INSERT
  5
11AA
330
3442
100
AcDbEntity
  8
SIZE
  6
Continuous
 62
     0
100
AcDbBlockReference
  2
_DOTBLANK
 10
284.6432844803791
 20
-300.0
 30
0.0
 41
12.0
 42
12.0
 43
12.0
 50
270.0
  0
INSERT
  5
11AB
330
3442
100
AcDbEntity
  8
SIZE
  6
Continuous
 62
     0
100
AcDbBlockReference
  2
_DOTBLANK
 10
284.6432844803792
 20
-0.000000000000036
 30
0.0
 41
12.0
 42
12.0
 43
12.0
 50
90.0
  0
INSERT
  5
11AC
330
3442
100
AcDbEntity
  8
0
100
AcDbBlockReference
  2
*U8
 10
0.0
 20
0.0
 30
0.0
  0
POINT
  5
11AD
330
3442
100
AcDbEntity
  8
DEFPOINTS
  6
Continuous
 62
     0
100
AcDbPoint
 10
123.5
 20
-300.0
 30
0.0
  0
POINT
  5
11AE
330
3442
100
AcDbEntity
  8
DEFPOINTS
  6
Continuous
 62
     0
100
AcDbPoint
 10
157.5
 20
0.0
 30
0.0
  0
POINT
  5
11AF
330
3442
100
AcDbEntity
  8
DEFPOINTS
  6
Continuous
 62
     0
100
AcDbPoint
 10
284.6432844803792
 20
-0.000000000000036
 30
0.0
  0
ENDBLK
  5
E11
330
3442
100
AcDbEntity
  8
0
100
AcDbBlockEnd
  0
BLOCK
  5
3445
330
3444
100
AcDbEntity
  8
0
100
AcDbBlockBegin
  2
*U8
 70
     1
 10
0.0
 20
0.0
 30
0.0
  3
*U8
  1

  0
TEXT
  5
1EE1
330
3444
100
AcDbEntity
  8
SIZE
 62
     0
100
AcDbText
 10
274.6432844803792
 20
-224.0571428571429
 30
0.0
 40
64.0
  1
300
 50
90.0
 41
0.9
100
AcDbText
  0
ENDBLK
  5
1EE3
330
3444
100
AcDbEntity
  8
0
100
AcDbBlockEnd
  0
BLOCK
  5
3447
330
3446
100
AcDbEntity
  8
0
100
AcDbBlockBegin
  2
*D9
 70
     1
 10
0.0
 20
0.0
 30
0.0
  3
*D9
  1

  0
LINE
  5
E7D
330
3446
100
AcDbEntity
  8
SIZE
 62
     0
100
AcDbLine
 10
-139.9999999999998
 20
32.46448280219375
 30
0.0
 11
-139.9999999999998
 21
136.4516878685508
 31
0.0
  0
LINE
  5
E7E
330
3446
100
AcDbEntity
  8
SIZE
 62
     0
100
AcDbLine
 10
140.0
 20
32.46448280219375
 30
0.0
 11
140.0
 21
136.4516878685508
 31
0.0
  0
LINE
  5
E7F
330
3446
100
AcDbEntity
  8
SIZE
 62
     0
100
AcDbLine
 10
-128.0
 20
116.4516878685508
 30
0.0
 11
128.0
 21
116.4516878685508
 31
0.0
  0
INSERT
  5
E80
330
3446
100
AcDbEntity
  8
SIZE
 62
     0
100
AcDbBlockReference
  2
_DOTBLANK
 10
-139.9999999999998
 20
116.4516878685508
 30
0.0
 41
12.0
 42
12.0
 43
12.0
 50
180.0
  0
INSERT
  5
E81
330
3446
100
AcDbEntity
  8
SIZE
 62
     0
100
AcDbBlockReference
  2
_DOTBLANK
 10
140.0
 20
116.4516878685508
 30
0.0
 41
12.0
 42
12.0
 43
12.0
  0
INSERT
  5
E82
330
3446
100
AcDbEntity
  8
0
100
AcDbBlockReference
  2
*U10
 10
0.0
 20
0.0
 30
0.0
  0
POINT
  5
E83
330
3446
100
AcDbEntity
  8
DEFPOINTS
 62
     0
100
AcDbPoint
 10
-139.9999999999998
 20
12.46448280219374
 30
0.0
  0
POINT
  5
E84
330
3446
100
AcDbEntity
  8
DEFPOINTS
 62
     0
100
AcDbPoint
 10
140.0
 20
12.46448280219374
 30
0.0
  0
POINT
  5
E85
330
3446
100
AcDbEntity
  8
DEFPOINTS
 62
     0
100
AcDbPoint
 10
140.0
 20
116.4516878685508
 30
0.0
  0
ENDBLK
  5
E7C
330
3446
100
AcDbEntity
  8
0
100
AcDbBlockEnd
  0
BLOCK
  5
3449
330
3448
100
AcDbEntity
  8
0
100
AcDbBlockBegin
  2
*U10
 70
     1
 10
0.0
 20
0.0
 30
0.0
  3
*U10
  1

  0
TEXT
  5
1ED8
330
3448
100
AcDbEntity
  8
SIZE
 62
     0
100
AcDbText
 10
-74.05714285714281
 20
126.4516878685508
 30
0.0
 40
64.0
  1
280
 41
0.9
100
AcDbText
  0
ENDBLK
  5
1EDA
330
3448
100
AcDbEntity
  8
0
100
AcDbBlockEnd
  0
BLOCK
  5
344B
330
344A
100
AcDbEntity
  8
0
100
AcDbBlockBegin
  2
GENAXEH
 70
     0
 10
0.0
 20
0.0
 30
0.0
  3
GENAXEH
  1

  0
LINE
  5
FDB
330
344A
100
AcDbEntity
  8
0
100
AcDbLine
 10
-1.0
 20
0.0
 30
0.0
 11
1.0
 21
0.0
 31
0.0
  0
ENDBLK
  5
FDD
330
344A
100
AcDbEntity
  8
0
100
AcDbBlockEnd
  0
BLOCK
  5
344D
330
344C
100
AcDbEntity
  8
0
100
AcDbBlockBegin
  2
*D12
 70
     1
 10
0.0
 20
0.0
 30
0.0
  3
*D12
  1

  0
LINE
  5
1120
330
344C
100
AcDbEntity
  8
SIZE
 62
     0
100
AcDbLine
 10
-157.5
 20
20.0
 30
0.0
 11
-157.5
 21
245.5794621189598
 31
0.0
  0
LINE
  5
1121
330
344C
100
AcDbEntity
  8
SIZE
 62
     0
100
AcDbLine
 10
157.5
 20
20.0
 30
0.0
 11
157.5
 21
245.5794621189598
 31
0.0
  0
LINE
  5
1122
330
344C
100
AcDbEntity
  8
SIZE
 62
     0
100
AcDbLine
 10
-145.5
 20
225.5794621189598
 30
0.0
 11
145.5
 21
225.5794621189598
 31
0.0
  0
INSERT
  5
1123
330
344C
100
AcDbEntity
  8
SIZE
 62
     0
100
AcDbBlockReference
  2
_DOTBLANK
 10
-157.5
 20
225.5794621189598
 30
0.0
 41
12.0
 42
12.0
 43
12.0
 50
180.0
  0
INSERT
  5
1124
330
344C
100
AcDbEntity
  8
SIZE
 62
     0
100
AcDbBlockReference
  2
_DOTBLANK
 10
157.5
 20
225.5794621189598
 30
0.0
 41
12.0
 42
12.0
 43
12.0
  0
INSERT
  5
1125
330
344C
100
AcDbEntity
  8
0
100
AcDbBlockReference
  2
*U13
 10
0.0
 20
0.0
 30
0.0
  0
POINT
  5
1126
330
344C
100
AcDbEntity
  8
DEFPOINTS
 62
     0
100
AcDbPoint
 10
-157.5
 20
0.0
 30
0.0
  0
POINT
  5
1127
330
344C
100
AcDbEntity
  8
DEFPOINTS
 62
     0
100
AcDbPoint
 10
157.5
 20
0.0
 30
0.0
  0
POINT
  5
1128
330
344C
100
AcDbEntity
  8
DEFPOINTS
 62
     0
100
AcDbPoint
 10
157.5
 20
225.5794621189598
 30
0.0
  0
ENDBLK
  5
111F
330
344C
100
AcDbEntity
  8
0
100
AcDbBlockEnd
  0
BLOCK
  5
344F
330
344E
100
AcDbEntity
  8
0
100
AcDbBlockBegin
  2
*U13
 70
     1
 10
0.0
 20
0.0
 30
0.0
  3
*U13
  1

  0
TEXT
  5
1EDD
330
344E
100
AcDbEntity
  8
SIZE
 62
     0
100
AcDbText
 10
-68.57142857142857
 20
235.5794621189599
 30
0.0
 40
64.0
  1
315
 41
0.9
100
AcDbText
  0
ENDBLK
  5
1EDF
330
344E
100
AcDbEntity
  8
0
100
AcDbBlockEnd
  0
BLOCK
  5
3451
330
3450
100
AcDbEntity
  8
0
100
AcDbBlockBegin
  2
*D14
 70
     1
 10
0.0
 20
0.0
 30
0.0
  3
*D14
  1

  0
LINE
  5
11BD
330
3450
100
AcDbEntity
  8
NOTE
 62
     0
100
AcDbLine
 10
-123.4999999999999
 20
-320.0
 30
0.0
 11
-123.4999999999999
 21
-354.9529861856111
 31
0.0
  0
LINE
  5
11BE
330
3450
100
AcDbEntity
  8
NOTE
 62
     0
100
AcDbLine
 10
-133.4999999999998
 20
-331.2126909923287
 30
0.0
 11
-133.4999999999998
 21
-354.9529861856111
 31
0.0
  0
LINE
  5
11BF
330
3450
100
AcDbEntity
  8
NOTE
 62
     0
100
AcDbLine
 10
-111.4999999999999
 20
-334.9529861856112
 30
0.0
 11
-99.4999999999999
 21
-334.9529861856112
 31
0.0
  0
LINE
  5
11C0
330
3450
100
AcDbEntity
  8
NOTE
 62
     0
100
AcDbLine
 10
-145.4999999999998
 20
-334.9529861856112
 30
0.0
 11
-157.4999999999998
 21
-334.9529861856112
 31
0.0
  0
LINE
  5
11C1
330
3450
100
AcDbEntity
  8
NOTE
 62
     0
100
AcDbLine
 10
-123.4999999999999
 20
-334.9529861856112
 30
0.0
 11
-133.4999999999998
 21
-334.9529861856112
 31
0.0
  0
INSERT
  5
11C2
330
3450
100
AcDbEntity
  8
NOTE
 62
     0
100
AcDbBlockReference
  2
_DOTBLANK
 10
-123.4999999999999
 20
-334.9529861856112
 30
0.0
 41
12.0
 42
12.0
 43
12.0
 50
180.0
  0
INSERT
  5
11C3
330
3450
100
AcDbEntity
  8
NOTE
 62
     0
100
AcDbBlockReference
  2
_DOTBLANK
 10
-133.4999999999998
 20
-334.9529861856112
 30
0.0
 41
12.0
 42
12.0
 43
12.0
  0
INSERT
  5
11C4
330
3450
100
AcDbEntity
  8
0
100
AcDbBlockReference
  2
*U15
 10
0.0
 20
0.0
 30
0.0
  0
POINT
  5
11C5
330
3450
100
AcDbEntity
  8
DEFPOINTS
 62
     0
100
AcDbPoint
 10
-123.4999999999999
 20
-300.0
 30
0.0
  0
POINT
  5
11C6
330
3450
100
AcDbEntity
  8
DEFPOINTS
 62
     0
100
AcDbPoint
 10
-133.4999999999998
 20
-311.2126909923287
 30
0.0
  0
POINT
  5
11C7
330
3450
100
AcDbEntity
  8
DEFPOINTS
 62
     0
100
AcDbPoint
 10
-133.4999999999998
 20
-334.9529861856112
 30
0.0
  0
ENDBLK
  5
11BC
330
3450
100
AcDbEntity
  8
0
100
AcDbBlockEnd
  0
BLOCK
  5
3453
330
3452
100
AcDbEntity
  8
0
100
AcDbBlockBegin
  2
*U15
 70
     1
 10
0.0
 20
0.0
 30
0.0
  3
*U15
  1

  0
TEXT
  5
1EE5
330
3452
100
AcDbEntity
  8
NOTE
 62
     0
100
AcDbText
 10
-169.642857142857
 20
-324.9529861856112
 30
0.0
 40
64.0
  1
10
 41
0.9
100
AcDbText
  0
ENDBLK
  5
1EE7
330
3452
100
AcDbEntity
  8
0
100
AcDbBlockEnd
  0
BLOCK
  5
3455
330
3454
100
AcDbEntity
  8
0
100
AcDbBlockBegin
  2
*D16
 70
     1
 10
0.0
 20
0.0
 30
0.0
  3
*D16
  1

  0
LINE
  5
11E7
330
3454
100
AcDbEntity
  8
NOTE
 62
     0
100
AcDbLine
 10
-135.5
 20
-333.2126909923287
 30
0.0
 11
-135.5
 21
-386.2569421441843
 31
0.0
  0
LINE
  5
11E8
330
3454
100
AcDbEntity
  8
NOTE
 62
     0
100
AcDbLine
 10
-123.4999999999999
 20
-320.0
 30
0.0
 11
-123.4999999999999
 21
-386.2569421441843
 31
0.0
  0
LINE
  5
11E9
330
3454
100
AcDbEntity
  8
NOTE
 62
     0
100
AcDbLine
 10
-147.5
 20
-366.2569421441844
 30
0.0
 11
-159.5
 21
-366.2569421441844
 31
0.0
  0
LINE
  5
11EA
330
3454
100
AcDbEntity
  8
NOTE
 62
     0
100
AcDbLine
 10
-111.4999999999999
 20
-366.2569421441844
 30
0.0
 11
-99.4999999999999
 21
-366.2569421441844
 31
0.0
  0
LINE
  5
11EB
330
3454
100
AcDbEntity
  8
NOTE
 62
     0
100
AcDbLine
 10
-135.5
 20
-366.2569421441844
 30
0.0
 11
-123.4999999999999
 21
-366.2569421441844
 31
0.0
  0
INSERT
  5
11EC
330
3454
100
AcDbEntity
  8
NOTE
 62
     0
100
AcDbBlockReference
  2
_DOTBLANK
 10
-135.5
 20
-366.2569421441844
 30
0.0
 41
12.0
 42
12.0
 43
12.0
  0
INSERT
  5
11ED
330
3454
100
AcDbEntity
  8
NOTE
 62
     0
100
AcDbBlockReference
  2
_DOTBLANK
 10
-123.4999999999999
 20
-366.2569421441844
 30
0.0
 41
12.0
 42
12.0
 43
12.0
 50
180.0
  0
INSERT
  5
11EE
330
3454
100
AcDbEntity
  8
0
100
AcDbBlockReference
  2
*U17
 10
0.0
 20
0.0
 30
0.0
  0
POINT
  5
11EF
330
3454
100
AcDbEntity
  8
DEFPOINTS
 62
     0
100
AcDbPoint
 10
-135.5
 20
-313.2126909923287
 30
0.0
  0
POINT
  5
11F0
330
3454
100
AcDbEntity
  8
DEFPOINTS
 62
     0
100
AcDbPoint
 10
-123.4999999999999
 20
-300.0
 30
0.0
  0
POINT
  5
11F1
330
3454
100
AcDbEntity
  8
DEFPOINTS
 62
     0
100
AcDbPoint
 10
-123.4999999999999
 20
-366.2569421441844
 30
0.0
  0
ENDBLK
  5
11E6
330
3454
100
AcDbEntity
  8
0
100
AcDbBlockEnd
  0
BLOCK
  5
3457
330
3456
100
AcDbEntity
  8
0
100
AcDbBlockBegin
  2
*U17
 70
     1
 10
0.0
 20
0.0
 30
0.0
  3
*U17
  1

  0
TEXT
  5
1EE9
330
3456
100
AcDbEntity
  8
NOTE
 62
     0
100
AcDbText
 10
-170.642857142857
 20
-356.2569421441843
 30
0.0
 40
64.0
  1
12
 41
0.9
100
AcDbText
  0
ENDBLK
  5
1EEB
330
3456
100
AcDbEntity
  8
0
100
AcDbBlockEnd
  0
BLOCK
  5
3459
330
3458
100
AcDbEntity
  8
0
100
AcDbBlockBegin
  2
*D18
 70
     1
 10
0.0
 20
0.0
 30
0.0
  3
*D18
  1

  0
LINE
  5
11F6
330
3458
100
AcDbEntity
  8
NOTE
 62
     0
100
AcDbLine
 10
-123.4999999999999
 20
-320.0
 30
0.0
 11
-123.4999999999999
 21
-583.8286022818904
 31
0.0
  0
LINE
  5
11F7
330
3458
100
AcDbEntity
  8
NOTE
 62
     0
100
AcDbLine
 10
123.5
 20
-320.0
 30
0.0
 11
123.5
 21
-583.8286022818904
 31
0.0
  0
LINE
  5
11F8
330
3458
100
AcDbEntity
  8
NOTE
 62
     0
100
AcDbLine
 10
-111.4999999999999
 20
-563.8286022818904
 30
0.0
 11
111.5
 21
-563.8286022818904
 31
0.0
  0
INSERT
  5
11F9
330
3458
100
AcDbEntity
  8
NOTE
 62
     0
100
AcDbBlockReference
  2
_DOTBLANK
 10
-123.4999999999999
 20
-563.8286022818904
 30
0.0
 41
12.0
 42
12.0
 43
12.0
 50
180.0
  0
INSERT
  5
11FA
330
3458
100
AcDbEntity
  8
NOTE
 62
     0
100
AcDbBlockReference
  2
_DOTBLANK
 10
123.5
 20
-563.8286022818904
 30
0.0
 41
12.0
 42
12.0
 43
12.0
  0
INSERT
  5
11FB
330
3458
100
AcDbEntity
  8
0
100
AcDbBlockReference
  2
*U19
 10
0.0
 20
0.0
 30
0.0
  0
POINT
  5
11FC
330
3458
100
AcDbEntity
  8
DEFPOINTS
 62
     0
100
AcDbPoint
 10
-123.4999999999999
 20
-300.0
 30
0.0
  0
POINT
  5
11FD
330
3458
100
AcDbEntity
  8
DEFPOINTS
 62
     0
100
AcDbPoint
 10
123.5
 20
-300.0
 30
0.0
  0
POINT
  5
11FE
330
3458
100
AcDbEntity
  8
DEFPOINTS
 62
     0
100
AcDbPoint
 10
123.5
 20
-563.8286022818904
 30
0.0
  0
ENDBLK
  5
11F5
330
3458
100
AcDbEntity
  8
0
100
AcDbBlockEnd
  0
BLOCK
  5
345B
330
345A
100
AcDbEntity
  8
0
100
AcDbBlockBegin
  2
*U19
 70
     1
 10
0.0
 20
0.0
 30
0.0
  3
*U19
  1

  0
TEXT
  5
1EED
330
345A
100
AcDbEntity
  8
NOTE
 62
     0
100
AcDbText
 10
-74.05714285714281
 20
-553.8286022818904
 30
0.0
 40
64.0
  1
247
 41
0.9
100
AcDbText
  0
ENDBLK
  5
1EEF
330
345A
100
AcDbEntity
  8
0
100
AcDbBlockEnd
  0
BLOCK
  5
345D
330
345C
100
AcDbEntity
  8
0
100
AcDbBlockBegin
  2
*D20
 70
     1
 10
0.0
 20
0.0
 30
0.0
  3
*D20
  1

  0
LINE
  5
1284
330
345C
100
AcDbEntity
  8
NOTE
 62
     0
100
AcDbLine
 10
-123.5
 20
12.0
 30
0.0
 11
-123.5
 21
71.83630134534229
 31
0.0
  0
LINE
  5
1285
330
345C
100
AcDbEntity
  8
NOTE
 62
     0
100
AcDbLine
 10
123.5
 20
12.0
 30
0.0
 11
123.5
 21
71.83630134534229
 31
0.0
  0
LINE
  5
1286
330
345C
100
AcDbEntity
  8
NOTE
 62
     0
100
AcDbLine
 10
-111.5
 20
51.83630134534229
 30
0.0
 11
111.5
 21
51.83630134534229
 31
0.0
  0
INSERT
  5
1287
330
345C
100
AcDbEntity
  8
NOTE
 62
     0
100
AcDbBlockReference
  2
_DOTBLANK
 10
-123.5
 20
51.83630134534229
 30
0.0
 41
12.0
 42
12.0
 43
12.0
 50
180.0
  0
INSERT
  5
1288
330
345C
100
AcDbEntity
  8
NOTE
 62
     0
100
AcDbBlockReference
  2
_DOTBLANK
 10
123.5
 20
51.83630134534229
 30
0.0
 41
12.0
 42
12.0
 43
12.0
  0
INSERT
  5
1289
330
345C
100
AcDbEntity
  8
0
100
AcDbBlockReference
  2
*U21
 10
0.0
 20
0.0
 30
0.0
  0
POINT
  5
128A
330
345C
100
AcDbEntity
  8
DEFPOINTS
 62
     0
100
AcDbPoint
 10
-123.5
 20
-8.0
 30
0.0
  0
POINT
  5
128B
330
345C
100
AcDbEntity
  8
DEFPOINTS
 62
     0
100
AcDbPoint
 10
123.5
 20
-8.0
 30
0.0
  0
POINT
  5
128C
330
345C
100
AcDbEntity
  8
DEFPOINTS
 62
     0
100
AcDbPoint
 10
123.5
 20
51.83630134534229
 30
0.0
  0
ENDBLK
  5
1283
330
345C
100
AcDbEntity
  8
0
100
AcDbBlockEnd
  0
BLOCK
  5
345F
330
345E
100
AcDbEntity
  8
0
100
AcDbBlockBegin
  2
*U21
 70
     1
 10
0.0
 20
0.0
 30
0.0
  3
*U21
  1

  0
TEXT
  5
1EF1
330
345E
100
AcDbEntity
  8
NOTE
 62
     0
100
AcDbText
 10
-74.05714285714283
 20
61.83630134534229
 30
0.0
 40
64.0
  1
247
 41
0.9
100
AcDbText
  0
ENDBLK
  5
1EF3
330
345E
100
AcDbEntity
  8
0
100
AcDbBlockEnd
  0
BLOCK
  5
3461
330
3460
100
AcDbEntity
  8
0
100
AcDbBlockBegin
  2
*D22
 70
     1
 10
0.0
 20
0.0
 30
0.0
  3
*D22
  1

  0
LINE
  5
1414
330
3460
100
AcDbEntity
  8
SIZE
 62
     0
100
AcDbLine
 10
-22313.11521613997
 20
7365.702971374808
 30
0.0
 11
-22313.11521613997
 21
7217.685576144207
 31
0.0
  0
LINE
  5
1415
330
3460
100
AcDbEntity
  8
SIZE
 62
     0
100
AcDbLine
 10
-22044.11521613997
 20
7365.702971374808
 30
0.0
 11
-22044.11521613997
 21
7217.685576144207
 31
0.0
  0
LINE
  5
1416
330
3460
100
AcDbEntity
  8
SIZE
 62
     0
100
AcDbLine
 10
-22301.11521613997
 20
7237.685576144207
 30
0.0
 11
-22056.11521613997
 21
7237.685576144207
 31
0.0
  0
INSERT
  5
1417
330
3460
100
AcDbEntity
  8
SIZE
 62
     0
100
AcDbBlockReference
  2
_DOTBLANK
 10
-22313.11521613997
 20
7237.685576144207
 30
0.0
 41
12.0
 42
12.0
 43
12.0
 50
180.0
  0
INSERT
  5
1418
330
3460
100
AcDbEntity
  8
SIZE
 62
     0
100
AcDbBlockReference
  2
_DOTBLANK
 10
-22044.11521613997
 20
7237.685576144207
 30
0.0
 41
12.0
 42
12.0
 43
12.0
  0
INSERT
  5
1419
330
3460
100
AcDbEntity
  8
0
100
AcDbBlockReference
  2
*U23
 10
0.0
 20
0.0
 30
0.0
  0
POINT
  5
141A
330
3460
100
AcDbEntity
  8
DEFPOINTS
 62
     0
100
AcDbPoint
 10
-22313.11521613997
 20
7385.702971374808
 30
0.0
  0
POINT
  5
141B
330
3460
100
AcDbEntity
  8
DEFPOINTS
 62
     0
100
AcDbPoint
 10
-22044.11521613997
 20
7385.702971374808
 30
0.0
  0
POINT
  5
141C
330
3460
100
AcDbEntity
  8
DEFPOINTS
 62
     0
100
AcDbPoint
 10
-22044.11521613997
 20
7237.685576144207
 30
0.0
  0
ENDBLK
  5
141D
330
3460
100
AcDbEntity
  8
0
100
AcDbBlockEnd
  0
BLOCK
  5
3463
330
3462
100
AcDbEntity
  8
0
100
AcDbBlockBegin
  2
*U23
 70
     1
 10
0.0
 20
0.0
 30
0.0
  3
*U23
  1

  0
TEXT
  5
1EF9
330
3462
100
AcDbEntity
  8
SIZE
 62
     0
100
AcDbText
 10
-22251.30093042568
 20
7247.685576144205
 30
0.0
 40
64.0
  1
269
 41
0.9
100
AcDbText
  0
ENDBLK
  5
1EFB
330
3462
100
AcDbEntity
  8
0
100
AcDbBlockEnd
  0
BLOCK
  5
3465
330
3464
100
AcDbEntity
  8
0
100
AcDbBlockBegin
  2
*D24
 70
     1
 10
0.0
 20
0.0
 30
0.0
  3
*D24
  1

  0
LINE
  5
1420
330
3464
100
AcDbEntity
  8
SIZE
  6
Continuous
 62
     0
100
AcDbLine
 10
-22035.11521613997
 20
7385.702971374808
 30
0.0
 11
-21873.97193165959
 21
7385.702971374808
 31
0.0
  0
LINE
  5
1421
330
3464
100
AcDbEntity
  8
SIZE
  6
Continuous
 62
     0
100
AcDbLine
 10
-22001.11521613997
 20
7685.702971374808
 30
0.0
 11
-21873.97193165959
 21
7685.702971374808
 31
0.0
  0
LINE
  5
1422
330
3464
100
AcDbEntity
  8
SIZE
  6
Continuous
 62
     0
100
AcDbLine
 10
-21893.97193165959
 20
7397.702971374808
 30
0.0
 11
-21893.97193165959
 21
7673.702971374808
 31
0.0
  0
INSERT
  5
1423
330
3464
100
AcDbEntity
  8
SIZE
  6
Continuous
 62
     0
100
AcDbBlockReference
  2
_DOTBLANK
 10
-21893.97193165959
 20
7385.702971374808
 30
0.0
 41
12.0
 42
12.0
 43
12.0
 50
270.0
  0
INSERT
  5
1424
330
3464
100
AcDbEntity
  8
SIZE
  6
Continuous
 62
     0
100
AcDbBlockReference
  2
_DOTBLANK
 10
-21893.97193165959
 20
7685.702971374808
 30
0.0
 41
12.0
 42
12.0
 43
12.0
 50
90.0
  0
INSERT
  5
1425
330
3464
100
AcDbEntity
  8
0
100
AcDbBlockReference
  2
*U25
 10
0.0
 20
0.0
 30
0.0
  0
POINT
  5
1426
330
3464
100
AcDbEntity
  8
DEFPOINTS
  6
Continuous
 62
     0
100
AcDbPoint
 10
-22055.11521613997
 20
7385.702971374808
 30
0.0
  0
POINT
  5
1427
330
3464
100
AcDbEntity
  8
DEFPOINTS
  6
Continuous
 62
     0
100
AcDbPoint
 10
-22021.11521613997
 20
7685.702971374808
 30
0.0
  0
POINT
  5
1428
330
3464
100
AcDbEntity
  8
DEFPOINTS
  6
Continuous
 62
     0
100
AcDbPoint
 10
-21893.97193165959
 20
7685.702971374808
 30
0.0
  0
ENDBLK
  5
1429
330
3464
100
AcDbEntity
  8
0
100
AcDbBlockEnd
  0
BLOCK
  5
3467
330
3466
100
AcDbEntity
  8
0
100
AcDbBlockBegin
  2
*U25
 70
     1
 10
0.0
 20
0.0
 30
0.0
  3
*U25
  1

  0
TEXT
  5
1EFD
330
3466
100
AcDbEntity
  8
SIZE
 62
     0
100
AcDbText
 10
-21903.97193165959
 20
7461.645828517662
 30
0.0
 40
64.0
  1
300
 50
90.0
 41
0.9
100
AcDbText
  0
ENDBLK
  5
1EFF
330
3466
100
AcDbEntity
  8
0
100
AcDbBlockEnd
  0
BLOCK
  5
3469
330
3468
100
AcDbEntity
  8
0
100
AcDbBlockBegin
  2
*D26
 70
     1
 10
0.0
 20
0.0
 30
0.0
  3
*D26
  1

  0
LINE
  5
142C
330
3468
100
AcDbEntity
  8
SIZE
 62
     0
100
AcDbLine
 10
-22318.61521613997
 20
7718.167454177002
 30
0.0
 11
-22318.61521613997
 21
7822.154659243358
 31
0.0
  0
LINE
  5
142D
330
3468
100
AcDbEntity
  8
SIZE
 62
     0
100
AcDbLine
 10
-22038.61521613997
 20
7718.167454177002
 30
0.0
 11
-22038.61521613997
 21
7822.154659243358
 31
0.0
  0
LINE
  5
142E
330
3468
100
AcDbEntity
  8
SIZE
 62
     0
100
AcDbLine
 10
-22306.61521613997
 20
7802.154659243358
 30
0.0
 11
-22050.61521613997
 21
7802.154659243358
 31
0.0
  0
INSERT
  5
142F
330
3468
100
AcDbEntity
  8
SIZE
 62
     0
100
AcDbBlockReference
  2
_DOTBLANK
 10
-22318.61521613997
 20
7802.154659243358
 30
0.0
 41
12.0
 42
12.0
 43
12.0
 50
180.0
  0
INSERT
  5
1430
330
3468
100
AcDbEntity
  8
SIZE
 62
     0
100
AcDbBlockReference
  2
_DOTBLANK
 10
-22038.61521613997
 20
7802.154659243358
 30
0.0
 41
12.0
 42
12.0
 43
12.0
  0
INSERT
  5
1431
330
3468
100
AcDbEntity
  8
0
100
AcDbBlockReference
  2
*U27
 10
0.0
 20
0.0
 30
0.0
  0
POINT
  5
1432
330
3468
100
AcDbEntity
  8
DEFPOINTS
 62
     0
100
AcDbPoint
 10
-22318.61521613997
 20
7698.167454177002
 30
0.0
  0
POINT
  5
1433
330
3468
100
AcDbEntity
  8
DEFPOINTS
 62
     0
100
AcDbPoint
 10
-22038.61521613997
 20
7698.167454177002
 30
0.0
  0
POINT
  5
1434
330
3468
100
AcDbEntity
  8
DEFPOINTS
 62
     0
100
AcDbPoint
 10
-22038.61521613997
 20
7802.154659243358
 30
0.0
  0
ENDBLK
  5
1435
330
3468
100
AcDbEntity
  8
0
100
AcDbBlockEnd
  0
BLOCK
  5
346B
330
346A
100
AcDbEntity
  8
0
100
AcDbBlockBegin
  2
*U27
 70
     1
 10
0.0
 20
0.0
 30
0.0
  3
*U27
  1

  0
TEXT
  5
1F01
330
346A
100
AcDbEntity
  8
SIZE
 62
     0
100
AcDbText
 10
-22252.6723589971
 20
7812.154659243358
 30
0.0
 40
64.0
  1
280
 41
0.9
100
AcDbText
  0
ENDBLK
  5
1F03
330
346A
100
AcDbEntity
  8
0
100
AcDbBlockEnd
  0
BLOCK
  5
346D
330
346C
100
AcDbEntity
  8
0
100
AcDbBlockBegin
  2
*D28
 70
     1
 10
0.0
 20
0.0
 30
0.0
  3
*D28
  1

  0
LINE
  5
1438
330
346C
100
AcDbEntity
  8
SIZE
 62
     0
100
AcDbLine
 10
-22336.11521613997
 20
7705.702971374808
 30
0.0
 11
-22336.11521613997
 21
7931.282433493766
 31
0.0
  0
LINE
  5
1439
330
346C
100
AcDbEntity
  8
SIZE
 62
     0
100
AcDbLine
 10
-22021.11521613997
 20
7705.702971374808
 30
0.0
 11
-22021.11521613997
 21
7931.282433493766
 31
0.0
  0
LINE
  5
143A
330
346C
100
AcDbEntity
  8
SIZE
 62
     0
100
AcDbLine
 10
-22324.11521613997
 20
7911.282433493766
 30
0.0
 11
-22033.11521613997
 21
7911.282433493766
 31
0.0
  0
INSERT
  5
143B
330
346C
100
AcDbEntity
  8
SIZE
 62
     0
100
AcDbBlockReference
  2
_DOTBLANK
 10
-22336.11521613997
 20
7911.282433493766
 30
0.0
 41
12.0
 42
12.0
 43
12.0
 50
180.0
  0
INSERT
  5
143C
330
346C
100
AcDbEntity
  8
SIZE
 62
     0
100
AcDbBlockReference
  2
_DOTBLANK
 10
-22021.11521613997
 20
7911.282433493766
 30
0.0
 41
12.0
 42
12.0
 43
12.0
  0
INSERT
  5
143D
330
346C
100
AcDbEntity
  8
0
100
AcDbBlockReference
  2
*U29
 10
0.0
 20
0.0
 30
0.0
  0
POINT
  5
143E
330
346C
100
AcDbEntity
  8
DEFPOINTS
 62
     0
100
AcDbPoint
 10
-22336.11521613997
 20
7685.702971374808
 30
0.0
  0
POINT
  5
143F
330
346C
100
AcDbEntity
  8
DEFPOINTS
 62
     0
100
AcDbPoint
 10
-22021.11521613997
 20
7685.702971374808
 30
0.0
  0
POINT
  5
1440
330
346C
100
AcDbEntity
  8
DEFPOINTS
 62
     0
100
AcDbPoint
 10
-22021.11521613997
 20
7911.282433493766
 30
0.0
  0
ENDBLK
  5
1441
330
346C
100
AcDbEntity
  8
0
100
AcDbBlockEnd
  0
BLOCK
  5
346F
330
346E
100
AcDbEntity
  8
0
100
AcDbBlockBegin
  2
*U29
 70
     1
 10
0.0
 20
0.0
 30
0.0
  3
*U29
  1

  0
TEXT
  5
1F05
330
346E
100
AcDbEntity
  8
SIZE
 62
     0
100
AcDbText
 10
-22247.18664471139
 20
7921.282433493766
 30
0.0
 40
64.0
  1
315
 41
0.9
100
AcDbText
  0
ENDBLK
  5
1F07
330
346E
100
AcDbEntity
  8
0
100
AcDbBlockEnd
  0
BLOCK
  5
3471
330
3470
100
AcDbEntity
  8
0
100
AcDbBlockBegin
  2
*D30
 70
     1
 10
0.0
 20
0.0
 30
0.0
  3
*D30
  1

  0
LINE
  5
166B
330
3470
100
AcDbEntity
  8
SIZE
 62
     0
100
AcDbLine
 10
-134.5
 20
-320.0
 30
0.0
 11
-134.5
 21
-468.0173952306001
 31
0.0
  0
LINE
  5
166C
330
3470
100
AcDbEntity
  8
SIZE
 62
     0
100
AcDbLine
 10
134.5
 20
-320.0
 30
0.0
 11
134.5
 21
-468.0173952306001
 31
0.0
  0
LINE
  5
166D
330
3470
100
AcDbEntity
  8
SIZE
 62
     0
100
AcDbLine
 10
-122.5
 20
-448.0173952306
 30
0.0
 11
122.5
 21
-448.0173952306
 31
0.0
  0
INSERT
  5
166E
330
3470
100
AcDbEntity
  8
SIZE
 62
     0
100
AcDbBlockReference
  2
_DOTBLANK
 10
-134.5
 20
-448.0173952306
 30
0.0
 41
12.0
 42
12.0
 43
12.0
 50
180.0
  0
INSERT
  5
166F
330
3470
100
AcDbEntity
  8
SIZE
 62
     0
100
AcDbBlockReference
  2
_DOTBLANK
 10
134.5
 20
-448.0173952306
 30
0.0
 41
12.0
 42
12.0
 43
12.0
  0
INSERT
  5
1670
330
3470
100
AcDbEntity
  8
0
100
AcDbBlockReference
  2
*U31
 10
0.0
 20
0.0
 30
0.0
  0
POINT
  5
1671
330
3470
100
AcDbEntity
  8
DEFPOINTS
 62
     0
100
AcDbPoint
 10
-134.5
 20
-300.0
 30
0.0
  0
POINT
  5
1672
330
3470
100
AcDbEntity
  8
DEFPOINTS
 62
     0
100
AcDbPoint
 10
134.5
 20
-300.0
 30
0.0
  0
POINT
  5
1673
330
3470
100
AcDbEntity
  8
DEFPOINTS
 62
     0
100
AcDbPoint
 10
134.5
 20
-448.0173952306
 30
0.0
  0
ENDBLK
  5
14A7
330
3470
100
AcDbEntity
  8
0
100
AcDbBlockEnd
  0
BLOCK
  5
3473
330
3472
100
AcDbEntity
  8
0
100
AcDbBlockBegin
  2
*U31
 70
     1
 10
0.0
 20
0.0
 30
0.0
  3
*U31
  1

  0
TEXT
  5
1F09
330
3472
100
AcDbEntity
  8
SIZE
 62
     0
100
AcDbText
 10
-72.68571428571426
 20
-438.0173952306002
 30
0.0
 40
64.0
  1
269
 41
0.9
100
AcDbText
  0
ENDBLK
  5
1F0B
330
3472
100
AcDbEntity
  8
0
100
AcDbBlockEnd
  0
BLOCK
  5
3475
330
3474
100
AcDbEntity
  8
0
100
AcDbBlockBegin
  2
*D32
 70
     1
 10
0.0
 20
0.0
 30
0.0
  3
*D32
  1

  0
LINE
  5
1674
330
3474
100
AcDbEntity
  8
SIZE
  6
Continuous
 62
     0
100
AcDbLine
 10
143.5
 20
-300.0
 30
0.0
 11
304.6432844803784
 21
-300.0
 31
0.0
  0
LINE
  5
1675
330
3474
100
AcDbEntity
  8
SIZE
  6
Continuous
 62
     0
100
AcDbLine
 10
177.5
 20
-0.0000000000000057
 30
0.0
 11
304.6432844803785
 21
-0.0000000000000417
 31
0.0
  0
LINE
  5
1676
330
3474
100
AcDbEntity
  8
SIZE
  6
Continuous
 62
     0
100
AcDbLine
 10
284.6432844803784
 20
-288.0000000000001
 30
0.0
 11
284.6432844803785
 21
-12.00000000000003
 31
0.0
  0
INSERT
  5
1677
330
3474
100
AcDbEntity
  8
SIZE
  6
Continuous
 62
     0
100
AcDbBlockReference
  2
_DOTBLANK
 10
284.6432844803784
 20
-300.0
 30
0.0
 41
12.0
 42
12.0
 43
12.0
 50
270.0
  0
INSERT
  5
1678
330
3474
100
AcDbEntity
  8
SIZE
  6
Continuous
 62
     0
100
AcDbBlockReference
  2
_DOTBLANK
 10
284.6432844803785
 20
-0.000000000000036
 30
0.0
 41
12.0
 42
12.0
 43
12.0
 50
90.0
  0
INSERT
  5
1679
330
3474
100
AcDbEntity
  8
0
100
AcDbBlockReference
  2
*U33
 10
0.0
 20
0.0
 30
0.0
  0
POINT
  5
167A
330
3474
100
AcDbEntity
  8
DEFPOINTS
  6
Continuous
 62
     0
100
AcDbPoint
 10
123.5
 20
-300.0
 30
0.0
  0
POINT
  5
167B
330
3474
100
AcDbEntity
  8
DEFPOINTS
  6
Continuous
 62
     0
100
AcDbPoint
 10
157.5
 20
0.0
 30
0.0
  0
POINT
  5
167C
330
3474
100
AcDbEntity
  8
DEFPOINTS
  6
Continuous
 62
     0
100
AcDbPoint
 10
284.6432844803785
 20
-0.000000000000036
 30
0.0
  0
ENDBLK
  5
14B3
330
3474
100
AcDbEntity
  8
0
100
AcDbBlockEnd
  0
BLOCK
  5
3477
330
3476
100
AcDbEntity
  8
0
100
AcDbBlockBegin
  2
*U33
 70
     1
 10
0.0
 20
0.0
 30
0.0
  3
*U33
  1

  0
TEXT
  5
1F0D
330
3476
100
AcDbEntity
  8
SIZE
 62
     0
100
AcDbText
 10
274.6432844803785
 20
-224.0571428571429
 30
0.0
 40
64.0
  1
300
 50
90.0
 41
0.9
100
AcDbText
  0
ENDBLK
  5
1F0F
330
3476
100
AcDbEntity
  8
0
100
AcDbBlockEnd
  0
BLOCK
  5
3479
330
3478
100
AcDbEntity
  8
0
100
AcDbBlockBegin
  2
*D34
 70
     1
 10
0.0
 20
0.0
 30
0.0
  3
*D34
  1

  0
LINE
  5
167D
330
3478
100
AcDbEntity
  8
SIZE
 62
     0
100
AcDbLine
 10
-140.0
 20
32.46448280219375
 30
0.0
 11
-140.0
 21
136.4516878685507
 31
0.0
  0
LINE
  5
167E
330
3478
100
AcDbEntity
  8
SIZE
 62
     0
100
AcDbLine
 10
140.0
 20
32.46448280219375
 30
0.0
 11
140.0
 21
136.4516878685507
 31
0.0
  0
LINE
  5
167F
330
3478
100
AcDbEntity
  8
SIZE
 62
     0
100
AcDbLine
 10
-128.0
 20
116.4516878685508
 30
0.0
 11
128.0
 21
116.4516878685508
 31
0.0
  0
INSERT
  5
1680
330
3478
100
AcDbEntity
  8
SIZE
 62
     0
100
AcDbBlockReference
  2
_DOTBLANK
 10
-140.0
 20
116.4516878685508
 30
0.0
 41
12.0
 42
12.0
 43
12.0
 50
180.0
  0
INSERT
  5
1681
330
3478
100
AcDbEntity
  8
SIZE
 62
     0
100
AcDbBlockReference
  2
_DOTBLANK
 10
140.0
 20
116.4516878685508
 30
0.0
 41
12.0
 42
12.0
 43
12.0
  0
INSERT
  5
1682
330
3478
100
AcDbEntity
  8
0
100
AcDbBlockReference
  2
*U35
 10
0.0
 20
0.0
 30
0.0
  0
POINT
  5
1683
330
3478
100
AcDbEntity
  8
DEFPOINTS
 62
     0
100
AcDbPoint
 10
-140.0
 20
12.46448280219374
 30
0.0
  0
POINT
  5
1684
330
3478
100
AcDbEntity
  8
DEFPOINTS
 62
     0
100
AcDbPoint
 10
140.0
 20
12.46448280219374
 30
0.0
  0
POINT
  5
1685
330
3478
100
AcDbEntity
  8
DEFPOINTS
 62
     0
100
AcDbPoint
 10
140.0
 20
116.4516878685508
 30
0.0
  0
ENDBLK
  5
14BF
330
3478
100
AcDbEntity
  8
0
100
AcDbBlockEnd
  0
BLOCK
  5
347B
330
347A
100
AcDbEntity
  8
0
100
AcDbBlockBegin
  2
*U35
 70
     1
 10
0.0
 20
0.0
 30
0.0
  3
*U35
  1

  0
TEXT
  5
1F11
330
347A
100
AcDbEntity
  8
SIZE
 62
     0
100
AcDbText
 10
-74.05714285714283
 20
126.4516878685507
 30
0.0
 40
64.0
  1
280
 41
0.9
100
AcDbText
  0
ENDBLK
  5
1F13
330
347A
100
AcDbEntity
  8
0
100
AcDbBlockEnd
  0
BLOCK
  5
347D
330
347C
100
AcDbEntity
  8
0
100
AcDbBlockBegin
  2
*D36
 70
     1
 10
0.0
 20
0.0
 30
0.0
  3
*D36
  1

  0
LINE
  5
1686
330
347C
100
AcDbEntity
  8
SIZE
 62
     0
100
AcDbLine
 10
-157.5
 20
20.0
 30
0.0
 11
-157.5
 21
245.5794621189598
 31
0.0
  0
LINE
  5
1687
330
347C
100
AcDbEntity
  8
SIZE
 62
     0
100
AcDbLine
 10
157.5
 20
20.0
 30
0.0
 11
157.5
 21
245.5794621189598
 31
0.0
  0
LINE
  5
1688
330
347C
100
AcDbEntity
  8
SIZE
 62
     0
100
AcDbLine
 10
-145.5
 20
225.5794621189598
 30
0.0
 11
145.5
 21
225.5794621189598
 31
0.0
  0
INSERT
  5
1689
330
347C
100
AcDbEntity
  8
SIZE
 62
     0
100
AcDbBlockReference
  2
_DOTBLANK
 10
-157.5
 20
225.5794621189598
 30
0.0
 41
12.0
 42
12.0
 43
12.0
 50
180.0
  0
INSERT
  5
168A
330
347C
100
AcDbEntity
  8
SIZE
 62
     0
100
AcDbBlockReference
  2
_DOTBLANK
 10
157.5
 20
225.5794621189598
 30
0.0
 41
12.0
 42
12.0
 43
12.0
  0
INSERT
  5
168B
330
347C
100
AcDbEntity
  8
0
100
AcDbBlockReference
  2
*U37
 10
0.0
 20
0.0
 30
0.0
  0
POINT
  5
168C
330
347C
100
AcDbEntity
  8
DEFPOINTS
 62
     0
100
AcDbPoint
 10
-157.5
 20
0.0
 30
0.0
  0
POINT
  5
168D
330
347C
100
AcDbEntity
  8
DEFPOINTS
 62
     0
100
AcDbPoint
 10
157.5
 20
0.0
 30
0.0
  0
POINT
  5
168E
330
347C
100
AcDbEntity
  8
DEFPOINTS
 62
     0
100
AcDbPoint
 10
157.5
 20
225.5794621189598
 30
0.0
  0
ENDBLK
  5
14CB
330
347C
100
AcDbEntity
  8
0
100
AcDbBlockEnd
  0
BLOCK
  5
347F
330
347E
100
AcDbEntity
  8
0
100
AcDbBlockBegin
  2
*U37
 70
     1
 10
0.0
 20
0.0
 30
0.0
  3
*U37
  1

  0
TEXT
  5
1F15
330
347E
100
AcDbEntity
  8
SIZE
 62
     0
100
AcDbText
 10
-68.57142857142857
 20
235.5794621189598
 30
0.0
 40
64.0
  1
315
 41
0.9
100
AcDbText
  0
ENDBLK
  5
1F17
330
347E
100
AcDbEntity
  8
0
100
AcDbBlockEnd
  0
BLOCK
  5
3481
330
3480
100
AcDbEntity
  8
0
100
AcDbBlockBegin
  2
*U38
 70
     1
 10
0.0
 20
0.0
 30
0.0
  3
*U38
  1

  0
ENDBLK
  5
15CF
330
3480
100
AcDbEntity
  8
0
100
AcDbBlockEnd
  0
BLOCK
  5
3483
330
3482
100
AcDbEntity
  8
0
100
AcDbBlockBegin
  2
*D39
 70
     1
 10
0.0
 20
0.0
 30
0.0
  3
*D39
  1

  0
LINE
  5
1692
330
3482
100
AcDbEntity
  8
SIZE
 62
     0
100
AcDbLine
 10
-25844.51823276502
 20
7685.702971374808
 30
0.0
 11
-25981.04465488371
 21
7685.702971374808
 31
0.0
  0
LINE
  5
1693
330
3482
100
AcDbEntity
  8
SIZE
 62
     0
100
AcDbLine
 10
-25844.51823276502
 20
7677.702971374808
 30
0.0
 11
-25981.04465488371
 21
7677.702971374808
 31
0.0
  0
LINE
  5
1694
330
3482
100
AcDbEntity
  8
SIZE
 62
     0
100
AcDbLine
 10
-25961.04465488371
 20
7697.702971374808
 30
0.0
 11
-25961.04465488371
 21
7709.702971374809
 31
0.0
  0
LINE
  5
1695
330
3482
100
AcDbEntity
  8
SIZE
 62
     0
100
AcDbLine
 10
-25961.04465488371
 20
7665.70297137481
 30
0.0
 11
-25961.04465488371
 21
7595.302971374808
 31
0.0
  0
INSERT
  5
1696
330
3482
100
AcDbEntity
  8
SIZE
 62
     0
100
AcDbBlockReference
  2
_DOTBLANK
 10
-25961.04465488371
 20
7685.702971374808
 30
0.0
 41
12.0
 42
12.0
 43
12.0
 50
270.0
  0
INSERT
  5
1697
330
3482
100
AcDbEntity
  8
SIZE
 62
     0
100
AcDbBlockReference
  2
_DOTBLANK
 10
-25961.04465488371
 20
7677.702971374808
 30
0.0
 41
12.0
 42
12.0
 43
12.0
 50
90.0
  0
INSERT
  5
1698
330
3482
100
AcDbEntity
  8
0
100
AcDbBlockReference
  2
*U40
 10
0.0
 20
0.0
 30
0.0
  0
POINT
  5
1699
330
3482
100
AcDbEntity
  8
DEFPOINTS
 62
     0
100
AcDbPoint
 10
-25824.51823276501
 20
7685.702971374808
 30
0.0
  0
POINT
  5
169A
330
3482
100
AcDbEntity
  8
DEFPOINTS
 62
     0
100
AcDbPoint
 10
-25824.51823276501
 20
7677.702971374808
 30
0.0
  0
POINT
  5
169B
330
3482
100
AcDbEntity
  8
DEFPOINTS
 62
     0
100
AcDbPoint
 10
-25961.04465488371
 20
7677.702971374808
 30
0.0
  0
ENDBLK
  5
169C
330
3482
100
AcDbEntity
  8
0
100
AcDbBlockEnd
  0
BLOCK
  5
3485
330
3484
100
AcDbEntity
  8
0
100
AcDbBlockBegin
  2
*U40
 70
     1
 10
0.0
 20
0.0
 30
0.0
  3
*U40
  1

  0
TEXT
  5
1F19
330
3484
100
AcDbEntity
  8
SIZE
 62
     0
100
AcDbText
 10
-25971.04465488371
 20
7605.302971374804
 30
0.0
 40
64.0
  1
8
 50
90.0
 41
0.9
100
AcDbText
  0
ENDBLK
  5
1F1B
330
3484
100
AcDbEntity
  8
0
100
AcDbBlockEnd
  0
BLOCK
  5
3487
330
3486
100
AcDbEntity
  8
0
100
AcDbBlockBegin
  2
*D41
 70
     1
 10
0.0
 20
0.0
 30
0.0
  3
*D41
  1

  0
LINE
  5
169F
330
3486
100
AcDbEntity
  8
SIZE
 62
     0
100
AcDbLine
 10
-25512.51823276502
 20
7385.702971374808
 30
0.0
 11
-25362.37494828464
 21
7385.702971374808
 31
0.0
  0
LINE
  5
16A0
330
3486
100
AcDbEntity
  8
SIZE
 62
     0
100
AcDbLine
 10
-25523.51823276501
 20
7373.702971374808
 30
0.0
 11
-25362.37494828464
 21
7373.702971374808
 31
0.0
  0
LINE
  5
16A1
330
3486
100
AcDbEntity
  8
SIZE
 62
     0
100
AcDbLine
 10
-25382.37494828464
 20
7397.702971374808
 30
0.0
 11
-25382.37494828464
 21
7409.70297137481
 31
0.0
  0
LINE
  5
16A2
330
3486
100
AcDbEntity
  8
SIZE
 62
     0
100
AcDbLine
 10
-25382.37494828464
 20
7361.702971374808
 30
0.0
 11
-25382.37494828464
 21
7244.674399946237
 31
0.0
  0
INSERT
  5
16A3
330
3486
100
AcDbEntity
  8
SIZE
 62
     0
100
AcDbBlockReference
  2
_DOTBLANK
 10
-25382.37494828464
 20
7385.702971374808
 30
0.0
 41
12.0
 42
12.0
 43
12.0
 50
270.0
  0
INSERT
  5
16A4
330
3486
100
AcDbEntity
  8
SIZE
 62
     0
100
AcDbBlockReference
  2
_DOTBLANK
 10
-25382.37494828464
 20
7373.702971374808
 30
0.0
 41
12.0
 42
12.0
 43
12.0
 50
90.0
  0
INSERT
  5
16A5
330
3486
100
AcDbEntity
  8
0
100
AcDbBlockReference
  2
*U42
 10
0.0
 20
0.0
 30
0.0
  0
POINT
  5
16A6
330
3486
100
AcDbEntity
  8
DEFPOINTS
 62
     0
100
AcDbPoint
 10
-25532.51823276502
 20
7385.702971374808
 30
0.0
  0
POINT
  5
16A7
330
3486
100
AcDbEntity
  8
DEFPOINTS
 62
     0
100
AcDbPoint
 10
-25543.51823276502
 20
7373.702971374808
 30
0.0
  0
POINT
  5
16A8
330
3486
100
AcDbEntity
  8
DEFPOINTS
 62
     0
100
AcDbPoint
 10
-25382.37494828464
 20
7373.702971374808
 30
0.0
  0
ENDBLK
  5
16A9
330
3486
100
AcDbEntity
  8
0
100
AcDbBlockEnd
  0
BLOCK
  5
3489
330
3488
100
AcDbEntity
  8
0
100
AcDbBlockBegin
  2
*U42
 70
     1
 10
0.0
 20
0.0
 30
0.0
  3
*U42
  1

  0
TEXT
  5
1F1D
330
3488
100
AcDbEntity
  8
SIZE
 62
     0
100
AcDbText
 10
-25392.37494828464
 20
7256.045828517662
 30
0.0
 40
64.0
  1
12
 50
90.0
 41
0.9
100
AcDbText
  0
ENDBLK
  5
1F1F
330
3488
100
AcDbEntity
  8
0
100
AcDbBlockEnd
  0
BLOCK
  5
348B
330
348A
100
AcDbEntity
  8
0
100
AcDbBlockBegin
  2
*D43
 70
     1
 10
0.0
 20
0.0
 30
0.0
  3
*D43
  1

  0
LINE
  5
16AC
330
348A
100
AcDbEntity
  8
SIZE
 62
     0
100
AcDbLine
 10
-25801.51823276501
 20
7365.702971374808
 30
0.0
 11
-25801.51823276501
 21
7217.685576144207
 31
0.0
  0
LINE
  5
16AD
330
348A
100
AcDbEntity
  8
SIZE
 62
     0
100
AcDbLine
 10
-25532.51823276502
 20
7365.702971374808
 30
0.0
 11
-25532.51823276502
 21
7217.685576144207
 31
0.0
  0
LINE
  5
16AE
330
348A
100
AcDbEntity
  8
SIZE
 62
     0
100
AcDbLine
 10
-25789.51823276502
 20
7237.685576144207
 30
0.0
 11
-25544.51823276501
 21
7237.685576144207
 31
0.0
  0
INSERT
  5
16AF
330
348A
100
AcDbEntity
  8
SIZE
 62
     0
100
AcDbBlockReference
  2
_DOTBLANK
 10
-25801.51823276501
 20
7237.685576144207
 30
0.0
 41
12.0
 42
12.0
 43
12.0
 50
180.0
  0
INSERT
  5
16B0
330
348A
100
AcDbEntity
  8
SIZE
 62
     0
100
AcDbBlockReference
  2
_DOTBLANK
 10
-25532.51823276502
 20
7237.685576144207
 30
0.0
 41
12.0
 42
12.0
 43
12.0
  0
INSERT
  5
16B1
330
348A
100
AcDbEntity
  8
0
100
AcDbBlockReference
  2
*U44
 10
0.0
 20
0.0
 30
0.0
  0
POINT
  5
16B2
330
348A
100
AcDbEntity
  8
DEFPOINTS
 62
     0
100
AcDbPoint
 10
-25801.51823276501
 20
7385.702971374808
 30
0.0
  0
POINT
  5
16B3
330
348A
100
AcDbEntity
  8
DEFPOINTS
 62
     0
100
AcDbPoint
 10
-25532.51823276502
 20
7385.702971374808
 30
0.0
  0
POINT
  5
16B4
330
348A
100
AcDbEntity
  8
DEFPOINTS
 62
     0
100
AcDbPoint
 10
-25532.51823276502
 20
7237.685576144207
 30
0.0
  0
ENDBLK
  5
16B5
330
348A
100
AcDbEntity
  8
0
100
AcDbBlockEnd
  0
BLOCK
  5
348D
330
348C
100
AcDbEntity
  8
0
100
AcDbBlockBegin
  2
*U44
 70
     1
 10
0.0
 20
0.0
 30
0.0
  3
*U44
  1

  0
TEXT
  5
1F21
330
348C
100
AcDbEntity
  8
SIZE
 62
     0
100
AcDbText
 10
-25739.70394705074
 20
7247.685576144205
 30
0.0
 40
64.0
  1
269
 41
0.9
100
AcDbText
  0
ENDBLK
  5
1F23
330
348C
100
AcDbEntity
  8
0
100
AcDbBlockEnd
  0
BLOCK
  5
348F
330
348E
100
AcDbEntity
  8
0
100
AcDbBlockBegin
  2
*D45
 70
     1
 10
0.0
 20
0.0
 30
0.0
  3
*D45
  1

  0
LINE
  5
16B8
330
348E
100
AcDbEntity
  8
SIZE
 62
     0
100
AcDbLine
 10
-25512.51823276502
 20
7385.702971374808
 30
0.0
 11
-25362.37494828464
 21
7385.702971374808
 31
0.0
  0
LINE
  5
16B9
330
348E
100
AcDbEntity
  8
SIZE
 62
     0
100
AcDbLine
 10
-25489.51823276501
 20
7685.702971374808
 30
0.0
 11
-25362.37494828464
 21
7685.702971374808
 31
0.0
  0
LINE
  5
16BA
330
348E
100
AcDbEntity
  8
SIZE
 62
     0
100
AcDbLine
 10
-25382.37494828464
 20
7397.702971374808
 30
0.0
 11
-25382.37494828464
 21
7673.702971374808
 31
0.0
  0
INSERT
  5
16BB
330
348E
100
AcDbEntity
  8
SIZE
 62
     0
100
AcDbBlockReference
  2
_DOTBLANK
 10
-25382.37494828464
 20
7385.702971374808
 30
0.0
 41
12.0
 42
12.0
 43
12.0
 50
270.0
  0
INSERT
  5
16BC
330
348E
100
AcDbEntity
  8
SIZE
 62
     0
100
AcDbBlockReference
  2
_DOTBLANK
 10
-25382.37494828464
 20
7685.702971374808
 30
0.0
 41
12.0
 42
12.0
 43
12.0
 50
90.0
  0
INSERT
  5
16BD
330
348E
100
AcDbEntity
  8
0
100
AcDbBlockReference
  2
*U46
 10
0.0
 20
0.0
 30
0.0
  0
POINT
  5
16BE
330
348E
100
AcDbEntity
  8
DEFPOINTS
 62
     0
100
AcDbPoint
 10
-25532.51823276502
 20
7385.702971374808
 30
0.0
  0
POINT
  5
16BF
330
348E
100
AcDbEntity
  8
DEFPOINTS
 62
     0
100
AcDbPoint
 10
-25509.51823276502
 20
7685.702971374808
 30
0.0
  0
POINT
  5
16C0
330
348E
100
AcDbEntity
  8
DEFPOINTS
 62
     0
100
AcDbPoint
 10
-25382.37494828464
 20
7685.702971374808
 30
0.0
  0
ENDBLK
  5
16C1
330
348E
100
AcDbEntity
  8
0
100
AcDbBlockEnd
  0
BLOCK
  5
3491
330
3490
100
AcDbEntity
  8
0
100
AcDbBlockBegin
  2
*U46
 70
     1
 10
0.0
 20
0.0
 30
0.0
  3
*U46
  1

  0
TEXT
  5
1F25
330
3490
100
AcDbEntity
  8
SIZE
 62
     0
100
AcDbText
 10
-25392.37494828464
 20
7461.645828517662
 30
0.0
 40
64.0
  1
300
 50
90.0
 41
0.9
100
AcDbText
  0
ENDBLK
  5
1F27
330
3490
100
AcDbEntity
  8
0
100
AcDbBlockEnd
  0
BLOCK
  5
3493
330
3492
100
AcDbEntity
  8
0
100
AcDbBlockBegin
  2
*D47
 70
     1
 10
0.0
 20
0.0
 30
0.0
  3
*D47
  1

  0
LINE
  5
16C4
330
3492
100
AcDbEntity
  8
SIZE
 62
     0
100
AcDbLine
 10
-25807.01823276501
 20
7718.167454177002
 30
0.0
 11
-25807.01823276501
 21
7822.154659243358
 31
0.0
  0
LINE
  5
16C5
330
3492
100
AcDbEntity
  8
SIZE
 62
     0
100
AcDbLine
 10
-25527.01823276501
 20
7718.167454177002
 30
0.0
 11
-25527.01823276501
 21
7822.154659243358
 31
0.0
  0
LINE
  5
16C6
330
3492
100
AcDbEntity
  8
SIZE
 62
     0
100
AcDbLine
 10
-25795.01823276502
 20
7802.154659243358
 30
0.0
 11
-25539.01823276501
 21
7802.154659243358
 31
0.0
  0
INSERT
  5
16C7
330
3492
100
AcDbEntity
  8
SIZE
 62
     0
100
AcDbBlockReference
  2
_DOTBLANK
 10
-25807.01823276501
 20
7802.154659243358
 30
0.0
 41
12.0
 42
12.0
 43
12.0
 50
180.0
  0
INSERT
  5
16C8
330
3492
100
AcDbEntity
  8
SIZE
 62
     0
100
AcDbBlockReference
  2
_DOTBLANK
 10
-25527.01823276501
 20
7802.154659243358
 30
0.0
 41
12.0
 42
12.0
 43
12.0
  0
INSERT
  5
16C9
330
3492
100
AcDbEntity
  8
0
100
AcDbBlockReference
  2
*U48
 10
0.0
 20
0.0
 30
0.0
  0
POINT
  5
16CA
330
3492
100
AcDbEntity
  8
DEFPOINTS
 62
     0
100
AcDbPoint
 10
-25807.01823276501
 20
7698.167454177002
 30
0.0
  0
POINT
  5
16CB
330
3492
100
AcDbEntity
  8
DEFPOINTS
 62
     0
100
AcDbPoint
 10
-25527.01823276501
 20
7698.167454177002
 30
0.0
  0
POINT
  5
16CC
330
3492
100
AcDbEntity
  8
DEFPOINTS
 62
     0
100
AcDbPoint
 10
-25527.01823276501
 20
7802.154659243358
 30
0.0
  0
ENDBLK
  5
16CD
330
3492
100
AcDbEntity
  8
0
100
AcDbBlockEnd
  0
BLOCK
  5
3495
330
3494
100
AcDbEntity
  8
0
100
AcDbBlockBegin
  2
*U48
 70
     1
 10
0.0
 20
0.0
 30
0.0
  3
*U48
  1

  0
TEXT
  5
1F29
330
3494
100
AcDbEntity
  8
SIZE
 62
     0
100
AcDbText
 10
-25741.07537562216
 20
7812.154659243358
 30
0.0
 40
64.0
  1
280
 41
0.9
100
AcDbText
  0
ENDBLK
  5
1F2B
330
3494
100
AcDbEntity
  8
0
100
AcDbBlockEnd
  0
BLOCK
  5
3497
330
3496
100
AcDbEntity
  8
0
100
AcDbBlockBegin
  2
*D49
 70
     1
 10
0.0
 20
0.0
 30
0.0
  3
*D49
  1

  0
LINE
  5
16D0
330
3496
100
AcDbEntity
  8
SIZE
 62
     0
100
AcDbLine
 10
-25824.51823276501
 20
7705.702971374808
 30
0.0
 11
-25824.51823276501
 21
7931.282433493766
 31
0.0
  0
LINE
  5
16D1
330
3496
100
AcDbEntity
  8
SIZE
 62
     0
100
AcDbLine
 10
-25509.51823276502
 20
7705.702971374808
 30
0.0
 11
-25509.51823276502
 21
7931.282433493766
 31
0.0
  0
LINE
  5
16D2
330
3496
100
AcDbEntity
  8
SIZE
 62
     0
100
AcDbLine
 10
-25812.51823276502
 20
7911.282433493766
 30
0.0
 11
-25521.51823276501
 21
7911.282433493766
 31
0.0
  0
INSERT
  5
16D3
330
3496
100
AcDbEntity
  8
SIZE
 62
     0
100
AcDbBlockReference
  2
_DOTBLANK
 10
-25824.51823276501
 20
7911.282433493766
 30
0.0
 41
12.0
 42
12.0
 43
12.0
 50
180.0
  0
INSERT
  5
16D4
330
3496
100
AcDbEntity
  8
SIZE
 62
     0
100
AcDbBlockReference
  2
_DOTBLANK
 10
-25509.51823276502
 20
7911.282433493766
 30
0.0
 41
12.0
 42
12.0
 43
12.0
  0
INSERT
  5
16D5
330
3496
100
AcDbEntity
  8
0
100
AcDbBlockReference
  2
*U50
 10
0.0
 20
0.0
 30
0.0
  0
POINT
  5
16D6
330
3496
100
AcDbEntity
  8
DEFPOINTS
 62
     0
100
AcDbPoint
 10
-25824.51823276501
 20
7685.702971374808
 30
0.0
  0
POINT
  5
16D7
330
3496
100
AcDbEntity
  8
DEFPOINTS
 62
     0
100
AcDbPoint
 10
-25509.51823276502
 20
7685.702971374808
 30
0.0
  0
POINT
  5
16D8
330
3496
100
AcDbEntity
  8
DEFPOINTS
 62
     0
100
AcDbPoint
 10
-25509.51823276502
 20
7911.282433493766
 30
0.0
  0
ENDBLK
  5
16D9
330
3496
100
AcDbEntity
  8
0
100
AcDbBlockEnd
  0
BLOCK
  5
3499
330
3498
100
AcDbEntity
  8
0
100
AcDbBlockBegin
  2
*U50
 70
     1
 10
0.0
 20
0.0
 30
0.0
  3
*U50
  1

  0
TEXT
  5
1F2D
330
3498
100
AcDbEntity
  8
SIZE
 62
     0
100
AcDbText
 10
-25735.58966133645
 20
7921.282433493766
 30
0.0
 40
64.0
  1
315
 41
0.9
100
AcDbText
  0
ENDBLK
  5
1F2F
330
3498
100
AcDbEntity
  8
0
100
AcDbBlockEnd
  0
BLOCK
  5
349B
330
349A
100
AcDbEntity
  8
0
100
AcDbBlockBegin
  2
*D51
 70
     1
 10
0.0
 20
0.0
 30
0.0
  3
*D51
  1

  0
LINE
  5
1D83
330
349A
100
AcDbEntity
  8
SIZE
 62
     0
100
AcDbLine
 10
-134.5
 20
-320.0
 30
0.0
 11
-134.5
 21
-468.0173952306001
 31
0.0
  0
LINE
  5
1D84
330
349A
100
AcDbEntity
  8
SIZE
 62
     0
100
AcDbLine
 10
134.5
 20
-320.0
 30
0.0
 11
134.5
 21
-468.0173952306001
 31
0.0
  0
LINE
  5
1D85
330
349A
100
AcDbEntity
  8
SIZE
 62
     0
100
AcDbLine
 10
-122.5
 20
-448.0173952306
 30
0.0
 11
122.5
 21
-448.0173952306
 31
0.0
  0
INSERT
  5
1D86
330
349A
100
AcDbEntity
  8
SIZE
 62
     0
100
AcDbBlockReference
  2
_DOTBLANK
 10
-134.5
 20
-448.0173952306
 30
0.0
 41
12.0
 42
12.0
 43
12.0
 50
180.0
  0
INSERT
  5
1D87
330
349A
100
AcDbEntity
  8
SIZE
 62
     0
100
AcDbBlockReference
  2
_DOTBLANK
 10
134.5
 20
-448.0173952306
 30
0.0
 41
12.0
 42
12.0
 43
12.0
  0
INSERT
  5
1D88
330
349A
100
AcDbEntity
  8
0
100
AcDbBlockReference
  2
*U52
 10
0.0
 20
0.0
 30
0.0
  0
POINT
  5
1D89
330
349A
100
AcDbEntity
  8
DEFPOINTS
 62
     0
100
AcDbPoint
 10
-134.5
 20
-300.0
 30
0.0
  0
POINT
  5
1D8A
330
349A
100
AcDbEntity
  8
DEFPOINTS
 62
     0
100
AcDbPoint
 10
134.5
 20
-300.0
 30
0.0
  0
POINT
  5
1D8B
330
349A
100
AcDbEntity
  8
DEFPOINTS
 62
     0
100
AcDbPoint
 10
134.5
 20
-448.0173952306
 30
0.0
  0
ENDBLK
  5
173D
330
349A
100
AcDbEntity
  8
0
100
AcDbBlockEnd
  0
BLOCK
  5
349D
330
349C
100
AcDbEntity
  8
0
100
AcDbBlockBegin
  2
*U52
 70
     1
 10
0.0
 20
0.0
 30
0.0
  3
*U52
  1

  0
TEXT
  5
1F31
330
349C
100
AcDbEntity
  8
SIZE
 62
     0
100
AcDbText
 10
-72.68571428571426
 20
-438.0173952306003
 30
0.0
 40
64.0
  1
269
 41
0.9
100
AcDbText
  0
ENDBLK
  5
1F33
330
349C
100
AcDbEntity
  8
0
100
AcDbBlockEnd
  0
BLOCK
  5
349F
330
349E
100
AcDbEntity
  8
0
100
AcDbBlockBegin
  2
*D53
 70
     1
 10
0.0
 20
0.0
 30
0.0
  3
*D53
  1

  0
LINE
  5
1D8C
330
349E
100
AcDbEntity
  8
SIZE
 62
     0
100
AcDbLine
 10
154.5
 20
-300.0
 30
0.0
 11
304.6432844803784
 21
-300.0
 31
0.0
  0
LINE
  5
1D8D
330
349E
100
AcDbEntity
  8
SIZE
 62
     0
100
AcDbLine
 10
177.5
 20
-0.0000000000000057
 30
0.0
 11
304.6432844803785
 21
-0.0000000000000417
 31
0.0
  0
LINE
  5
1D8E
330
349E
100
AcDbEntity
  8
SIZE
 62
     0
100
AcDbLine
 10
284.6432844803784
 20
-288.0
 30
0.0
 11
284.6432844803785
 21
-12.00000000000003
 31
0.0
  0
INSERT
  5
1D8F
330
349E
100
AcDbEntity
  8
SIZE
 62
     0
100
AcDbBlockReference
  2
_DOTBLANK
 10
284.6432844803784
 20
-300.0
 30
0.0
 41
12.0
 42
12.0
 43
12.0
 50
270.0
  0
INSERT
  5
1D90
330
349E
100
AcDbEntity
  8
SIZE
 62
     0
100
AcDbBlockReference
  2
_DOTBLANK
 10
284.6432844803785
 20
-0.000000000000036
 30
0.0
 41
12.0
 42
12.0
 43
12.0
 50
90.0
  0
INSERT
  5
1D91
330
349E
100
AcDbEntity
  8
0
100
AcDbBlockReference
  2
*U54
 10
0.0
 20
0.0
 30
0.0
  0
POINT
  5
1D92
330
349E
100
AcDbEntity
  8
DEFPOINTS
 62
     0
100
AcDbPoint
 10
134.5
 20
-300.0
 30
0.0
  0
POINT
  5
1D93
330
349E
100
AcDbEntity
  8
DEFPOINTS
 62
     0
100
AcDbPoint
 10
157.5
 20
0.0
 30
0.0
  0
POINT
  5
1D94
330
349E
100
AcDbEntity
  8
DEFPOINTS
 62
     0
100
AcDbPoint
 10
284.6432844803785
 20
-0.000000000000036
 30
0.0
  0
ENDBLK
  5
1749
330
349E
100
AcDbEntity
  8
0
100
AcDbBlockEnd
  0
BLOCK
  5
34A1
330
34A0
100
AcDbEntity
  8
0
100
AcDbBlockBegin
  2
*U54
 70
     1
 10
0.0
 20
0.0
 30
0.0
  3
*U54
  1

  0
TEXT
  5
1F35
330
34A0
100
AcDbEntity
  8
SIZE
 62
     0
100
AcDbText
 10
274.6432844803785
 20
-224.0571428571429
 30
0.0
 40
64.0
  1
300
 50
90.0
 41
0.9
100
AcDbText
  0
ENDBLK
  5
1F37
330
34A0
100
AcDbEntity
  8
0
100
AcDbBlockEnd
  0
BLOCK
  5
34A3
330
34A2
100
AcDbEntity
  8
0
100
AcDbBlockBegin
  2
*D55
 70
     1
 10
0.0
 20
0.0
 30
0.0
  3
*D55
  1

  0
LINE
  5
1D95
330
34A2
100
AcDbEntity
  8
SIZE
 62
     0
100
AcDbLine
 10
-140.0
 20
32.46448280219375
 30
0.0
 11
-140.0
 21
136.4516878685508
 31
0.0
  0
LINE
  5
1D96
330
34A2
100
AcDbEntity
  8
SIZE
 62
     0
100
AcDbLine
 10
140.0
 20
32.46448280219375
 30
0.0
 11
140.0
 21
136.4516878685508
 31
0.0
  0
LINE
  5
1D97
330
34A2
100
AcDbEntity
  8
SIZE
 62
     0
100
AcDbLine
 10
-128.0
 20
116.4516878685508
 30
0.0
 11
128.0
 21
116.4516878685508
 31
0.0
  0
INSERT
  5
1D98
330
34A2
100
AcDbEntity
  8
SIZE
 62
     0
100
AcDbBlockReference
  2
_DOTBLANK
 10
-140.0
 20
116.4516878685508
 30
0.0
 41
12.0
 42
12.0
 43
12.0
 50
180.0
  0
INSERT
  5
1D99
330
34A2
100
AcDbEntity
  8
SIZE
 62
     0
100
AcDbBlockReference
  2
_DOTBLANK
 10
140.0
 20
116.4516878685508
 30
0.0
 41
12.0
 42
12.0
 43
12.0
  0
INSERT
  5
1D9A
330
34A2
100
AcDbEntity
  8
0
100
AcDbBlockReference
  2
*U56
 10
0.0
 20
0.0
 30
0.0
  0
POINT
  5
1D9B
330
34A2
100
AcDbEntity
  8
DEFPOINTS
 62
     0
100
AcDbPoint
 10
-140.0
 20
12.46448280219374
 30
0.0
  0
POINT
  5
1D9C
330
34A2
100
AcDbEntity
  8
DEFPOINTS
 62
     0
100
AcDbPoint
 10
140.0
 20
12.46448280219374
 30
0.0
  0
POINT
  5
1D9D
330
34A2
100
AcDbEntity
  8
DEFPOINTS
 62
     0
100
AcDbPoint
 10
140.0
 20
116.4516878685508
 30
0.0
  0
ENDBLK
  5
1755
330
34A2
100
AcDbEntity
  8
0
100
AcDbBlockEnd
  0
BLOCK
  5
34A5
330
34A4
100
AcDbEntity
  8
0
100
AcDbBlockBegin
  2
*U56
 70
     1
 10
0.0
 20
0.0
 30
0.0
  3
*U56
  1

  0
TEXT
  5
1F39
330
34A4
100
AcDbEntity
  8
SIZE
 62
     0
100
AcDbText
 10
-74.05714285714283
 20
126.4516878685508
 30
0.0
 40
64.0
  1
280
 41
0.9
100
AcDbText
  0
ENDBLK
  5
1F3B
330
34A4
100
AcDbEntity
  8
0
100
AcDbBlockEnd
  0
BLOCK
  5
34A7
330
34A6
100
AcDbEntity
  8
0
100
AcDbBlockBegin
  2
*D57
 70
     1
 10
0.0
 20
0.0
 30
0.0
  3
*D57
  1

  0
LINE
  5
1D9E
330
34A6
100
AcDbEntity
  8
SIZE
 62
     0
100
AcDbLine
 10
-157.5
 20
20.0
 30
0.0
 11
-157.5
 21
245.5794621189598
 31
0.0
  0
LINE
  5
1D9F
330
34A6
100
AcDbEntity
  8
SIZE
 62
     0
100
AcDbLine
 10
157.5
 20
20.0
 30
0.0
 11
157.5
 21
245.5794621189598
 31
0.0
  0
LINE
  5
1DA0
330
34A6
100
AcDbEntity
  8
SIZE
 62
     0
100
AcDbLine
 10
-145.5
 20
225.5794621189598
 30
0.0
 11
145.5
 21
225.5794621189598
 31
0.0
  0
INSERT
  5
1DA1
330
34A6
100
AcDbEntity
  8
SIZE
 62
     0
100
AcDbBlockReference
  2
_DOTBLANK
 10
-157.5
 20
225.5794621189598
 30
0.0
 41
12.0
 42
12.0
 43
12.0
 50
180.0
  0
INSERT
  5
1DA2
330
34A6
100
AcDbEntity
  8
SIZE
 62
     0
100
AcDbBlockReference
  2
_DOTBLANK
 10
157.5
 20
225.5794621189598
 30
0.0
 41
12.0
 42
12.0
 43
12.0
  0
INSERT
  5
1DA3
330
34A6
100
AcDbEntity
  8
0
100
AcDbBlockReference
  2
*U58
 10
0.0
 20
0.0
 30
0.0
  0
POINT
  5
1DA4
330
34A6
100
AcDbEntity
  8
DEFPOINTS
 62
     0
100
AcDbPoint
 10
-157.5
 20
0.0
 30
0.0
  0
POINT
  5
1DA5
330
34A6
100
AcDbEntity
  8
DEFPOINTS
 62
     0
100
AcDbPoint
 10
157.5
 20
0.0
 30
0.0
  0
POINT
  5
1DA6
330
34A6
100
AcDbEntity
  8
DEFPOINTS
 62
     0
100
AcDbPoint
 10
157.5
 20
225.5794621189598
 30
0.0
  0
ENDBLK
  5
1761
330
34A6
100
AcDbEntity
  8
0
100
AcDbBlockEnd
  0
BLOCK
  5
34A9
330
34A8
100
AcDbEntity
  8
0
100
AcDbBlockBegin
  2
*U58
 70
     1
 10
0.0
 20
0.0
 30
0.0
  3
*U58
  1

  0
TEXT
  5
1F3D
330
34A8
100
AcDbEntity
  8
SIZE
 62
     0
100
AcDbText
 10
-68.57142857142857
 20
235.5794621189599
 30
0.0
 40
64.0
  1
315
 41
0.9
100
AcDbText
  0
ENDBLK
  5
1F3F
330
34A8
100
AcDbEntity
  8
0
100
AcDbBlockEnd
  0
BLOCK
  5
34AB
330
34AA
100
AcDbEntity
  8
0
100
AcDbBlockBegin
  2
*D59
 70
     1
 10
0.0
 20
0.0
 30
0.0
  3
*D59
  1

  0
LINE
  5
1DA7
330
34AA
100
AcDbEntity
  8
SIZE
 62
     0
100
AcDbLine
 10
-177.5
 20
0.0000000000000057
 30
0.0
 11
-314.0264221186908
 21
0.0000000000000443
 31
0.0
  0
LINE
  5
1DA8
330
34AA
100
AcDbEntity
  8
SIZE
 62
     0
100
AcDbLine
 10
-177.5
 20
-7.999999999999993
 30
0.0
 11
-314.0264221186908
 21
-7.999999999999958
 31
0.0
  0
LINE
  5
1DA9
330
34AA
100
AcDbEntity
  8
SIZE
 62
     0
100
AcDbLine
 10
-294.0264221186908
 20
12.00000000000003
 30
0.0
 11
-294.0264221186908
 21
24.00000000000004
 31
0.0
  0
LINE
  5
1DAA
330
34AA
100
AcDbEntity
  8
SIZE
 62
     0
100
AcDbLine
 10
-294.0264221186908
 20
-19.99999999999996
 30
0.0
 11
-294.0264221186908
 21
-90.39999999999997
 31
0.0
  0
INSERT
  5
1DAB
330
34AA
100
AcDbEntity
  8
SIZE
 62
     0
100
AcDbBlockReference
  2
_DOTBLANK
 10
-294.0264221186908
 20
0.0000000000000387
 30
0.0
 41
12.0
 42
12.0
 43
12.0
 50
270.0
  0
INSERT
  5
1DAC
330
34AA
100
AcDbEntity
  8
SIZE
 62
     0
100
AcDbBlockReference
  2
_DOTBLANK
 10
-294.0264221186908
 20
-7.999999999999961
 30
0.0
 41
12.0
 42
12.0
 43
12.0
 50
90.0
  0
INSERT
  5
1DAD
330
34AA
100
AcDbEntity
  8
0
100
AcDbBlockReference
  2
*U60
 10
0.0
 20
0.0
 30
0.0
  0
POINT
  5
1DAE
330
34AA
100
AcDbEntity
  8
DEFPOINTS
 62
     0
100
AcDbPoint
 10
-157.5
 20
0.0
 30
0.0
  0
POINT
  5
1DAF
330
34AA
100
AcDbEntity
  8
DEFPOINTS
 62
     0
100
AcDbPoint
 10
-157.5
 20
-8.000000000000003
 30
0.0
  0
POINT
  5
1DB0
330
34AA
100
AcDbEntity
  8
DEFPOINTS
 62
     0
100
AcDbPoint
 10
-294.0264221186908
 20
-7.999999999999961
 30
0.0
  0
ENDBLK
  5
176D
330
34AA
100
AcDbEntity
  8
0
100
AcDbBlockEnd
  0
BLOCK
  5
34AD
330
34AC
100
AcDbEntity
  8
0
100
AcDbBlockBegin
  2
*U60
 70
     1
 10
0.0
 20
0.0
 30
0.0
  3
*U60
  1

  0
TEXT
  5
1F41
330
34AC
100
AcDbEntity
  8
SIZE
 62
     0
100
AcDbText
 10
-304.0264221186908
 20
-80.4
 30
0.0
 40
64.0
  1
8
 50
90.0
 41
0.9
100
AcDbText
  0
ENDBLK
  5
1F43
330
34AC
100
AcDbEntity
  8
0
100
AcDbBlockEnd
  0
BLOCK
  5
34AF
330
34AE
100
AcDbEntity
  8
0
100
AcDbBlockBegin
  2
*D61
 70
     1
 10
0.0
 20
0.0
 30
0.0
  3
*D61
  1

  0
LINE
  5
1DB1
330
34AE
100
AcDbEntity
  8
SIZE
 62
     0
100
AcDbLine
 10
154.5
 20
-300.0
 30
0.0
 11
304.6432844803785
 21
-300.0
 31
0.0
  0
LINE
  5
1DB2
330
34AE
100
AcDbEntity
  8
SIZE
 62
     0
100
AcDbLine
 10
143.5
 20
-312.0
 30
0.0
 11
304.6432844803785
 21
-312.0
 31
0.0
  0
LINE
  5
1DB3
330
34AE
100
AcDbEntity
  8
SIZE
 62
     0
100
AcDbLine
 10
284.6432844803785
 20
-288.0
 30
0.0
 11
284.6432844803785
 21
-276.0
 31
0.0
  0
LINE
  5
1DB4
330
34AE
100
AcDbEntity
  8
SIZE
 62
     0
100
AcDbLine
 10
284.6432844803785
 20
-324.0000000000001
 30
0.0
 11
284.6432844803784
 21
-438.2857142857143
 31
0.0
  0
INSERT
  5
1DB5
330
34AE
100
AcDbEntity
  8
SIZE
 62
     0
100
AcDbBlockReference
  2
_DOTBLANK
 10
284.6432844803785
 20
-300.0
 30
0.0
 41
12.0
 42
12.0
 43
12.0
 50
270.0
  0
INSERT
  5
1DB6
330
34AE
100
AcDbEntity
  8
SIZE
 62
     0
100
AcDbBlockReference
  2
_DOTBLANK
 10
284.6432844803785
 20
-312.0
 30
0.0
 41
12.0
 42
12.0
 43
12.0
 50
90.0
  0
INSERT
  5
1DB7
330
34AE
100
AcDbEntity
  8
0
100
AcDbBlockReference
  2
*U62
 10
0.0
 20
0.0
 30
0.0
  0
POINT
  5
1DB8
330
34AE
100
AcDbEntity
  8
DEFPOINTS
 62
     0
100
AcDbPoint
 10
134.5
 20
-300.0
 30
0.0
  0
POINT
  5
1DB9
330
34AE
100
AcDbEntity
  8
DEFPOINTS
 62
     0
100
AcDbPoint
 10
123.5
 20
-312.0
 30
0.0
  0
POINT
  5
1DBA
330
34AE
100
AcDbEntity
  8
DEFPOINTS
 62
     0
100
AcDbPoint
 10
284.6432844803785
 20
-312.0
 30
0.0
  0
ENDBLK
  5
177B
330
34AE
100
AcDbEntity
  8
0
100
AcDbBlockEnd
  0
BLOCK
  5
34B1
330
34B0
100
AcDbEntity
  8
0
100
AcDbBlockBegin
  2
*U62
 70
     1
 10
0.0
 20
0.0
 30
0.0
  3
*U62
  1

  0
TEXT
  5
1F45
330
34B0
100
AcDbEntity
  8
SIZE
 62
     0
100
AcDbText
 10
274.6432844803785
 20
-428.2857142857142
 30
0.0
 40
64.0
  1
12
 50
90.0
 41
0.9
100
AcDbText
  0
ENDBLK
  5
1F47
330
34B0
100
AcDbEntity
  8
0
100
AcDbBlockEnd
  0
BLOCK
  5
34B3
330
34B2
100
AcDbEntity
  8
0
100
AcDbBlockBegin
  2
*U63
 70
     1
 10
0.0
 20
0.0
 30
0.0
  3
*U63
  1

  0
ENDBLK
  5
1D57
330
34B2
100
AcDbEntity
  8
0
100
AcDbBlockEnd
  0
BLOCK
  5
34B5
330
34B4
100
AcDbEntity
  8
0
100
AcDbBlockBegin
  2
*U64
 70
     1
 10
0.0
 20
0.0
 30
0.0
  3
*U64
  1

  0
INSERT
  5
2088
330
34B4
100
AcDbEntity
  8
NOTE
100
AcDbBlockReference
  2
_OPEN30
 10
-140.0
 20
0.0
 30
0.0
 41
12.0
 42
12.0
 43
12.0
 50
312.6090116116894
  0
POLYLINE
  5
2089
330
34B4
100
AcDbEntity
  8
NOTE
100
AcDb2dPolyline
 66
     1
 10
0.0
 20
0.0
 30
0.0
  0
VERTEX
  5
2124
330
2089
100
AcDbEntity
  8
NOTE
100
AcDbVertex
100
AcDb2dVertex
 10
-148.1239008361894
 20
8.831887408915472
 30
0.0
  0
VERTEX
  5
2125
330
2089
100
AcDbEntity
  8
NOTE
100
AcDbVertex
100
AcDb2dVertex
 10
-227.8693999922543
 20
95.52709505801338
 30
0.0
  0
VERTEX
  5
2126
330
2089
100
AcDbEntity
  8
NOTE
100
AcDbVertex
100
AcDb2dVertex
 10
-773.7093999922541
 20
95.52709505801338
 30
0.0
  0
SEQEND
  5
2127
330
2089
100
AcDbEntity
  8
NOTE
  0
ENDBLK
  5
208A
330
34B4
100
AcDbEntity
  8
0
100
AcDbBlockEnd
  0
BLOCK
  5
34B7
330
34B6
100
AcDbEntity
  8
0
100
AcDbBlockBegin
  2
*U65
 70
     1
 10
0.0
 20
0.0
 30
0.0
  3
*U65
  1

  0
TEXT
  5
208D
330
34B6
100
AcDbEntity
  8
NOTE
100
AcDbText
 10
-773.7093999922541
 20
113.5270950580134
 30
0.0
 40
64.0
  1
4×φ10取付穴
 41
0.9
100
AcDbText
  0
ENDBLK
  5
208E
330
34B6
100
AcDbEntity
  8
0
100
AcDbBlockEnd
  0
BLOCK
  5
34B9
330
34B8
100
AcDbEntity
  8
0
100
AcDbBlockBegin
  2
*U66
 70
     1
 10
0.0
 20
0.0
 30
0.0
  3
*U66
  1

  0
INSERT
  5
27FE
330
34B8
100
AcDbEntity
  8
NOTE
100
AcDbBlockReference
  2
_OPEN30
 10
-165.0
 20
0.0
 30
0.0
 41
12.0
 42
12.0
 43
12.0
 50
312.6090116116894
  0
POLYLINE
  5
27FF
330
34B8
100
AcDbEntity
  8
NOTE
100
AcDb2dPolyline
 66
     1
 10
0.0
 20
0.0
 30
0.0
  0
VERTEX
  5
2800
330
27FF
100
AcDbEntity
  8
NOTE
100
AcDbVertex
100
AcDb2dVertex
 10
-173.1239008361894
 20
8.831887408915475
 30
0.0
  0
VERTEX
  5
2801
330
27FF
100
AcDbEntity
  8
NOTE
100
AcDbVertex
100
AcDb2dVertex
 10
-252.8693999922543
 20
95.52709505801338
 30
0.0
  0
VERTEX
  5
2802
330
27FF
100
AcDbEntity
  8
NOTE
100
AcDbVertex
100
AcDb2dVertex
 10
-798.7093999922541
 20
95.52709505801338
 30
0.0
  0
SEQEND
  5
2803
330
27FF
100
AcDbEntity
  8
NOTE
  0
ENDBLK
  5
2804
330
34B8
100
AcDbEntity
  8
0
100
AcDbBlockEnd
  0
BLOCK
  5
34BB
330
34BA
100
AcDbEntity
  8
0
100
AcDbBlockBegin
  2
*U67
 70
     1
 10
0.0
 20
0.0
 30
0.0
  3
*U67
  1

  0
TEXT
  5
2807
330
34BA
100
AcDbEntity
  8
NOTE
100
AcDbText
 10
-798.7093999922541
 20
113.5270950580134
 30
0.0
 40
64.0
  1
4×φ10取付穴
 41
0.9
100
AcDbText
  0
ENDBLK
  5
2808
330
34BA
100
AcDbEntity
  8
0
100
AcDbBlockEnd
  0
BLOCK
  5
34BD
330
34BC
100
AcDbEntity
  8
0
100
AcDbBlockBegin
  2
*U68
 70
     1
 10
0.0
 20
0.0
 30
0.0
  3
*U68
  1

  0
INSERT
  5
2D51
330
34BC
100
AcDbEntity
  8
NOTE
100
AcDbBlockReference
  2
_OPEN30
 10
-190.0
 20
0.0
 30
0.0
 41
12.0
 42
12.0
 43
12.0
 50
312.6090116116894
  0
POLYLINE
  5
2D52
330
34BC
100
AcDbEntity
  8
NOTE
100
AcDb2dPolyline
 66
     1
 10
0.0
 20
0.0
 30
0.0
  0
VERTEX
  5
2D53
330
2D52
100
AcDbEntity
  8
NOTE
100
AcDbVertex
100
AcDb2dVertex
 10
-198.1239008361895
 20
8.831887408915475
 30
0.0
  0
VERTEX
  5
2D54
330
2D52
100
AcDbEntity
  8
NOTE
100
AcDbVertex
100
AcDb2dVertex
 10
-277.8693999922543
 20
95.52709505801338
 30
0.0
  0
VERTEX
  5
2D55
330
2D52
100
AcDbEntity
  8
NOTE
100
AcDbVertex
100
AcDb2dVertex
 10
-823.709399992254
 20
95.52709505801338
 30
0.0
  0
SEQEND
  5
2D56
330
2D52
100
AcDbEntity
  8
NOTE
  0
ENDBLK
  5
2D57
330
34BC
100
AcDbEntity
  8
0
100
AcDbBlockEnd
  0
BLOCK
  5
34BF
330
34BE
100
AcDbEntity
  8
0
100
AcDbBlockBegin
  2
*U69
 70
     1
 10
0.0
 20
0.0
 30
0.0
  3
*U69
  1

  0
TEXT
  5
2D5A
330
34BE
100
AcDbEntity
  8
NOTE
100
AcDbText
 10
-823.709399992254
 20
113.5270950580134
 30
0.0
 40
64.0
  1
4×φ10取付穴
 41
0.9
100
AcDbText
  0
ENDBLK
  5
2D5B
330
34BE
100
AcDbEntity
  8
0
100
AcDbBlockEnd
  0
BLOCK
  5
34C1
330
34C0
100
AcDbEntity
  8
0
100
AcDbBlockBegin
  2
*U70
 70
     1
 10
0.0
 20
0.0
 30
0.0
  3
*U70
  1

  0
INSERT
  5
3042
330
34C0
100
AcDbEntity
  8
NOTE
100
AcDbBlockReference
  2
_OPEN30
 10
-190.0
 20
0.0
 30
0.0
 41
12.0
 42
12.0
 43
12.0
 50
312.6090116116894
  0
POLYLINE
  5
3043
330
34C0
100
AcDbEntity
  8
NOTE
100
AcDb2dPolyline
 66
     1
 10
0.0
 20
0.0
 30
0.0
  0
VERTEX
  5
3044
330
3043
100
AcDbEntity
  8
NOTE
100
AcDbVertex
100
AcDb2dVertex
 10
-198.1239008361895
 20
8.831887408915475
 30
0.0
  0
VERTEX
  5
3045
330
3043
100
AcDbEntity
  8
NOTE
100
AcDbVertex
100
AcDb2dVertex
 10
-277.8693999922543
 20
95.52709505801338
 30
0.0
  0
VERTEX
  5
3046
330
3043
100
AcDbEntity
  8
NOTE
100
AcDbVertex
100
AcDb2dVertex
 10
-823.709399992254
 20
95.52709505801338
 30
0.0
  0
SEQEND
  5
3047
330
3043
100
AcDbEntity
  8
NOTE
  0
ENDBLK
  5
3048
330
34C0
100
AcDbEntity
  8
0
100
AcDbBlockEnd
  0
BLOCK
  5
34C3
330
34C2
100
AcDbEntity
  8
0
100
AcDbBlockBegin
  2
*U71
 70
     1
 10
0.0
 20
0.0
 30
0.0
  3
*U71
  1

  0
TEXT
  5
304B
330
34C2
100
AcDbEntity
  8
NOTE
100
AcDbText
 10
-823.709399992254
 20
113.5270950580134
 30
0.0
 40
64.0
  1
4×φ10取付穴
 41
0.9
100
AcDbText
  0
ENDBLK
  5
304C
330
34C2
100
AcDbEntity
  8
0
100
AcDbBlockEnd
  0
BLOCK
  5
34C5
330
34C4
100
AcDbEntity
  8
0
100
AcDbBlockBegin
  2
*X72
 70
     1
 10
0.0
 20
0.0
 30
0.0
  3
*X72
  1

  0
LINE
  5
304F
330
34C4
100
AcDbEntity
  8
0
 62
     0
100
AcDbLine
 10
156.2447224440601
 20
-324.4000000000032
 30
0.0
 11
157.8999999999832
 21
-323.2964844472499
 31
0.0
  0
LINE
  5
3050
330
34C4
100
AcDbEntity
  8
0
 62
     0
100
AcDbLine
 10
151.7447611501793
 20
-324.4000000000014
 30
0.0
 11
157.8999999999851
 21
-320.2965179118328
 31
0.0
  0
LINE
  5
3051
330
34C4
100
AcDbEntity
  8
0
 62
     0
100
AcDbLine
 10
147.2447998562929
 20
-324.4000000000032
 30
0.0
 11
157.8999999999851
 21
-317.2965513764175
 31
0.0
  0
LINE
  5
3052
330
34C4
100
AcDbEntity
  8
0
 62
     0
100
AcDbLine
 10
142.7448385624066
 20
-324.4000000000032
 30
0.0
 11
157.8999999999851
 21
-314.2965848410004
 31
0.0
  0
LINE
  5
3053
330
34C4
100
AcDbEntity
  8
0
 62
     0
100
AcDbLine
 10
138.2448772685202
 20
-324.4000000000032
 30
0.0
 11
157.8999999999832
 21
-311.2966183055852
 31
0.0
  0
LINE
  5
3054
330
34C4
100
AcDbEntity
  8
0
 62
     0
100
AcDbLine
 10
133.7449159746375
 20
-324.4000000000014
 30
0.0
 11
157.8999999999851
 21
-308.296651770168
 31
0.0
  0
LINE
  5
3055
330
34C4
100
AcDbEntity
  8
0
 62
     0
100
AcDbLine
 10
129.2449546807493
 20
-324.4000000000014
 30
0.0
 11
157.8999999999832
 21
-305.2966852347527
 31
0.0
  0
LINE
  5
3056
330
34C4
100
AcDbEntity
  8
0
 62
     0
100
AcDbLine
 10
124.7449933868629
 20
-324.4000000000032
 30
0.0
 11
157.8999999999832
 21
-302.2967186993355
 31
0.0
  0
LINE
  5
3057
330
34C4
100
AcDbEntity
  8
0
 62
     0
100
AcDbLine
 10
120.2450320929802
 20
-324.4000000000014
 30
0.0
 11
157.8999999999832
 21
-299.2967521639203
 31
0.0
  0
LINE
  5
3058
330
34C4
100
AcDbEntity
  8
0
 62
     0
100
AcDbLine
 10
115.7450707990956
 20
-324.4000000000032
 30
0.0
 11
157.8999999999851
 21
-296.2967856285031
 31
0.0
  0
LINE
  5
3059
330
34C4
100
AcDbEntity
  8
0
 62
     0
100
AcDbLine
 10
111.245109505211
 20
-324.3999999999996
 30
0.0
 11
157.8999999999832
 21
-293.2968190930878
 31
0.0
  0
LINE
  5
305A
330
34C4
100
AcDbEntity
  8
0
 62
     0
100
AcDbLine
 10
106.745148211321
 20
-324.4000000000032
 30
0.0
 11
157.8999999999832
 21
-290.2968525576725
 31
0.0
  0
LINE
  5
305B
330
34C4
100
AcDbEntity
  8
0
 62
     0
100
AcDbLine
 10
102.2451869174383
 20
-324.4000000000014
 30
0.0
 11
157.8999999999869
 21
-287.2968860222536
 31
0.0
  0
LINE
  5
305C
330
34C4
100
AcDbEntity
  8
0
 62
     0
100
AcDbLine
 10
97.74522562355196
 20
-324.4000000000032
 30
0.0
 11
157.8999999999832
 21
-284.2969194868402
 31
0.0
  0
LINE
  5
305D
330
34C4
100
AcDbEntity
  8
0
 62
     0
100
AcDbLine
 10
93.24526432966377
 20
-324.4000000000032
 30
0.0
 11
157.8999999999851
 21
-281.2969529514212
 31
0.0
  0
LINE
  5
305E
330
34C4
100
AcDbEntity
  8
0
 62
     0
100
AcDbLine
 10
88.74530303577923
 20
-324.4000000000032
 30
0.0
 11
157.8999999999832
 21
-278.2969864160077
 31
0.0
  0
LINE
  5
305F
330
34C4
100
AcDbEntity
  8
0
 62
     0
100
AcDbLine
 10
84.24534174189648
 20
-324.4000000000014
 30
0.0
 11
157.8999999999869
 21
-275.2970198805906
 31
0.0
  0
LINE
  5
3060
330
34C4
100
AcDbEntity
  8
0
 62
     0
100
AcDbLine
 10
79.7453804480083
 20
-324.4000000000014
 30
0.0
 11
157.8999999999814
 21
-272.2970533451735
 31
0.0
  0
LINE
  5
3061
330
34C4
100
AcDbEntity
  8
0
 62
     0
100
AcDbLine
 10
75.24541915412374
 20
-324.4000000000032
 30
0.0
 11
157.8999999999851
 21
-269.2970868097581
 31
0.0
  0
LINE
  5
3062
330
34C4
100
AcDbEntity
  8
0
 62
     0
100
AcDbLine
 10
70.74545786024102
 20
-324.4000000000014
 30
0.0
 11
157.8999999999869
 21
-266.2971202743392
 31
0.0
  0
LINE
  5
3063
330
34C4
100
AcDbEntity
  8
0
 62
     0
100
AcDbLine
 10
66.24549656635281
 20
-324.4000000000014
 30
0.0
 11
157.8999999999851
 21
-263.2971537389257
 31
0.0
  0
LINE
  5
3064
330
34C4
100
AcDbEntity
  8
0
 62
     0
100
AcDbLine
 10
61.74553527246644
 20
-324.4000000000014
 30
0.0
 11
157.8999999999851
 21
-260.2971872035086
 31
0.0
  0
LINE
  5
3065
330
34C4
100
AcDbEntity
  8
0
 62
     0
100
AcDbLine
 10
57.24557397858188
 20
-324.4000000000032
 30
0.0
 11
157.8999999999851
 21
-257.2972206680935
 31
0.0
  0
LINE
  5
3066
330
34C4
100
AcDbEntity
  8
0
 62
     0
100
AcDbLine
 10
52.74561268469733
 20
-324.4000000000014
 30
0.0
 11
157.8999999999851
 21
-254.2972541326761
 31
0.0
  0
LINE
  5
3067
330
34C4
100
AcDbEntity
  8
0
 62
     0
100
AcDbLine
 10
48.24565139080914
 20
-324.4000000000032
 30
0.0
 11
157.8999999999832
 21
-251.2972875972609
 31
0.0
  0
LINE
  5
3068
330
34C4
100
AcDbEntity
  8
0
 62
     0
100
AcDbLine
 10
43.74569009692459
 20
-324.4000000000014
 30
0.0
 11
157.8999999999851
 21
-248.2973210618439
 31
0.0
  0
LINE
  5
3069
330
34C4
100
AcDbEntity
  8
0
 62
     0
100
AcDbLine
 10
39.24572880304004
 20
-324.4000000000032
 30
0.0
 11
157.8999999999869
 21
-245.2973545264284
 31
0.0
  0
LINE
  5
306A
330
34C4
100
AcDbEntity
  8
0
 62
     0
100
AcDbLine
 10
154.7460739328726
 20
-244.4000000000015
 30
0.0
 11
157.8999999999851
 21
-242.2973879910114
 31
0.0
  0
LINE
  5
306B
330
34C4
100
AcDbEntity
  8
0
 62
     0
100
AcDbLine
 10
34.74576750915549
 20
-324.4000000000014
 30
0.0
 11
154.7460739328726
 21
-244.4000000000015
 31
0.0
  0
LINE
  5
306C
330
34C4
100
AcDbEntity
  8
0
 62
     0
100
AcDbLine
 10
150.2461126389898
 20
-244.4000000000015
 30
0.0
 11
157.8999999999832
 21
-239.2974214555979
 31
0.0
  0
LINE
  5
306D
330
34C4
100
AcDbEntity
  8
0
 62
     0
100
AcDbLine
 10
30.24580621526729
 20
-324.4000000000032
 30
0.0
 11
150.2461126389898
 21
-244.4000000000015
 31
0.0
  0
LINE
  5
306E
330
34C4
100
AcDbEntity
  8
0
 62
     0
100
AcDbLine
 10
145.7461513451035
 20
-244.3999999999996
 30
0.0
 11
157.8999999999851
 21
-236.297454920179
 31
0.0
  0
LINE
  5
306F
330
34C4
100
AcDbEntity
  8
0
 62
     0
100
AcDbLine
 10
25.74584492138274
 20
-324.4000000000032
 30
0.0
 11
145.7461513451017
 21
-244.4000000000033
 31
0.0
  0
LINE
  5
3070
330
34C4
100
AcDbEntity
  8
0
 62
     0
100
AcDbLine
 10
141.2461900512207
 20
-244.3999999999978
 30
0.0
 11
157.8999999999851
 21
-233.2974883847619
 31
0.0
  0
LINE
  5
3071
330
34C4
100
AcDbEntity
  8
0
 62
     0
100
AcDbLine
 10
21.24588362749637
 20
-324.4000000000014
 30
0.0
 11
141.2461900512171
 21
-244.3999999999996
 31
0.0
  0
LINE
  5
3072
330
34C4
100
AcDbEntity
  8
0
 62
     0
100
AcDbLine
 10
136.7462287573307
 20
-244.4000000000015
 30
0.0
 11
157.8999999999832
 21
-230.2975218493484
 31
0.0
  0
LINE
  5
3073
330
34C4
100
AcDbEntity
  8
0
 62
     0
100
AcDbLine
 10
16.74592233361181
 20
-324.4000000000014
 30
0.0
 11
136.7462287573307
 21
-244.4000000000015
 31
0.0
  0
LINE
  5
3074
330
34C4
100
AcDbEntity
  8
0
 62
     0
100
AcDbLine
 10
132.246267463448
 20
-244.3999999999996
 30
0.0
 11
157.8999999999851
 21
-227.2975553139295
 31
0.0
  0
LINE
  5
3075
330
34C4
100
AcDbEntity
  8
0
 62
     0
100
AcDbLine
 10
12.24596103972726
 20
-324.4000000000014
 30
0.0
 11
132.246267463448
 21
-244.3999999999996
 31
0.0
  0
LINE
  5
3076
330
34C4
100
AcDbEntity
  8
0
 62
     0
100
AcDbLine
 10
127.7463061695616
 20
-244.4000000000015
 30
0.0
 11
157.8999999999851
 21
-224.297588778516
 31
0.0
  0
LINE
  5
3077
330
34C4
100
AcDbEntity
  8
0
 62
     0
100
AcDbLine
 10
7.745999745840889
 20
-324.4000000000032
 30
0.0
 11
127.7463061695598
 21
-244.4000000000033
 31
0.0
  0
LINE
  5
3078
330
34C4
100
AcDbEntity
  8
0
 62
     0
100
AcDbLine
 10
123.2463448756752
 20
-244.3999999999996
 30
0.0
 11
157.8999999999851
 21
-221.2976222430971
 31
0.0
  0
LINE
  5
3079
330
34C4
100
AcDbEntity
  8
0
 62
     0
100
AcDbLine
 10
3.246038451956335
 20
-324.4000000000014
 30
0.0
 11
123.2463448756752
 21
-244.3999999999996
 31
0.0
  0
LINE
  5
307A
330
34C4
100
AcDbEntity
  8
0
 62
     0
100
AcDbLine
 10
118.7463835817889
 20
-244.4000000000015
 30
0.0
 11
157.8999999999832
 21
-218.2976557076836
 31
0.0
  0
LINE
  5
307B
330
34C4
100
AcDbEntity
  8
0
 62
     0
100
AcDbLine
 10
-1.253922841930033
 20
-324.4000000000014
 30
0.0
 11
118.7463835817889
 21
-244.4000000000015
 31
0.0
  0
LINE
  5
307C
330
34C4
100
AcDbEntity
  8
0
 62
     0
100
AcDbLine
 10
114.2464222879062
 20
-244.3999999999996
 30
0.0
 11
157.8999999999851
 21
-215.2976891722665
 31
0.0
  0
LINE
  5
307D
330
34C4
100
AcDbEntity
  8
0
 62
     0
100
AcDbLine
 10
-5.753884135814587
 20
-324.4000000000014
 30
0.0
 11
114.2464222879025
 21
-244.4000000000015
 31
0.0
  0
LINE
  5
307E
330
34C4
100
AcDbEntity
  8
0
 62
     0
100
AcDbLine
 10
109.746460994018
 20
-244.4000000000015
 30
0.0
 11
157.8999999999869
 21
-212.2977226368493
 31
0.0
  0
LINE
  5
307F
330
34C4
100
AcDbEntity
  8
0
 62
     0
100
AcDbLine
 10
-10.25384542970278
 20
-324.4000000000032
 30
0.0
 11
109.746460994018
 21
-244.4000000000015
 31
0.0
  0
LINE
  5
3080
330
34C4
100
AcDbEntity
  8
0
 62
     0
100
AcDbLine
 10
105.2464997001316
 20
-244.4000000000015
 30
0.0
 11
157.8999999999832
 21
-209.2977561014341
 31
0.0
  0
LINE
  5
3081
330
34C4
100
AcDbEntity
  8
0
 62
     0
100
AcDbLine
 10
-14.75380672358733
 20
-324.4000000000014
 30
0.0
 11
105.2464997001316
 21
-244.4000000000015
 31
0.0
  0
LINE
  5
3082
330
34C4
100
AcDbEntity
  8
0
 62
     0
100
AcDbLine
 10
100.7465384062488
 20
-244.3999999999996
 30
0.0
 11
157.8999999999869
 21
-206.297789566017
 31
0.0
  0
LINE
  5
3083
330
34C4
100
AcDbEntity
  8
0
 62
     0
100
AcDbLine
 10
-19.25376801747187
 20
-324.4000000000032
 30
0.0
 11
100.7465384062488
 21
-244.3999999999996
 31
0.0
  0
LINE
  5
3084
330
34C4
100
AcDbEntity
  8
0
 62
     0
100
AcDbLine
 10
96.2465771123643
 20
-244.3999999999996
 30
0.0
 11
157.8999999999851
 21
-203.2978230306016
 31
0.0
  0
LINE
  5
3085
330
34C4
100
AcDbEntity
  8
0
 62
     0
100
AcDbLine
 10
-23.75372931135644
 20
-324.4000000000014
 30
0.0
 11
96.24657711236068
 21
-244.4000000000015
 31
0.0
  0
LINE
  5
3086
330
34C4
100
AcDbEntity
  8
0
 62
     0
100
AcDbLine
 10
91.74661581847795
 20
-244.3999999999996
 30
0.0
 11
157.8999999999832
 21
-200.2978564951864
 31
0.0
  0
LINE
  5
3087
330
34C4
100
AcDbEntity
  8
0
 62
     0
100
AcDbLine
 10
-28.25369060524645
 20
-324.4000000000032
 30
0.0
 11
91.74661581847431
 21
-244.4000000000015
 31
0.0
  0
LINE
  5
3088
330
34C4
100
AcDbEntity
  8
0
 62
     0
100
AcDbLine
 10
87.24665452458976
 20
-244.4000000000015
 30
0.0
 11
157.8999999999832
 21
-197.2978899597691
 31
0.0
  0
LINE
  5
3089
330
34C4
100
AcDbEntity
  8
0
 62
     0
100
AcDbLine
 10
-32.75365189912918
 20
-324.4000000000014
 30
0.0
 11
87.24665452458976
 21
-244.4000000000015
 31
0.0
  0
LINE
  5
308A
330
34C4
100
AcDbEntity
  8
0
 62
     0
100
AcDbLine
 10
82.74669323070702
 20
-244.3999999999996
 30
0.0
 11
157.8999999999851
 21
-194.2979234243521
 31
0.0
  0
LINE
  5
308B
330
34C4
100
AcDbEntity
  8
0
 62
     0
100
AcDbLine
 10
-37.25361319301374
 20
-324.4000000000014
 30
0.0
 11
82.74669323070702
 21
-244.3999999999996
 31
0.0
  0
LINE
  5
308C
330
34C4
100
AcDbEntity
  8
0
 62
     0
100
AcDbLine
 10
78.24673193682066
 20
-244.3999999999996
 30
0.0
 11
157.8999999999869
 21
-191.297956888935
 31
0.0
  0
LINE
  5
308D
330
34C4
100
AcDbEntity
  8
0
 62
     0
100
AcDbLine
 10
-41.7535744869001
 20
-324.4000000000032
 30
0.0
 11
78.24673193681701
 21
-244.4000000000033
 31
0.0
  0
LINE
  5
308E
330
34C4
100
AcDbEntity
  8
0
 62
     0
100
AcDbLine
 10
73.74677064293428
 20
-244.3999999999996
 30
0.0
 11
157.8999999999832
 21
-188.2979903535197
 31
0.0
  0
LINE
  5
308F
330
34C4
100
AcDbEntity
  8
0
 62
     0
100
AcDbLine
 10
-46.25353578078827
 20
-324.4000000000014
 30
0.0
 11
73.74677064293428
 21
-244.3999999999996
 31
0.0
  0
LINE
  5
3090
330
34C4
100
AcDbEntity
  8
0
 62
     0
100
AcDbLine
 10
69.24680934904791
 20
-244.4000000000015
 30
0.0
 11
157.8999999999869
 21
-185.2980238181024
 31
0.0
  0
LINE
  5
3091
330
34C4
100
AcDbEntity
  8
0
 62
     0
100
AcDbLine
 10
-50.75349707466919
 20
-324.4000000000014
 30
0.0
 11
69.24680934904791
 21
-244.4000000000015
 31
0.0
  0
LINE
  5
3092
330
34C4
100
AcDbEntity
  8
0
 62
     0
100
AcDbLine
 10
64.74684805516336
 20
-244.3999999999996
 30
0.0
 11
157.8999999999832
 21
-182.2980572826873
 31
0.0
  0
LINE
  5
3093
330
34C4
100
AcDbEntity
  8
0
 62
     0
100
AcDbLine
 10
-55.25345836855739
 20
-324.4000000000014
 30
0.0
 11
64.74684805516336
 21
-244.3999999999996
 31
0.0
  0
LINE
  5
3094
330
34C4
100
AcDbEntity
  8
0
 62
     0
100
AcDbLine
 10
60.24688676127698
 20
-244.4000000000015
 30
0.0
 11
157.8999999999851
 21
-179.298090747272
 31
0.0
  0
LINE
  5
3095
330
34C4
100
AcDbEntity
  8
0
 62
     0
100
AcDbLine
 10
-59.75341966244378
 20
-324.4000000000032
 30
0.0
 11
60.24688676127698
 21
-244.4000000000015
 31
0.0
  0
LINE
  5
3096
330
34C4
100
AcDbEntity
  8
0
 62
     0
100
AcDbLine
 10
55.74692546739242
 20
-244.3999999999996
 30
0.0
 11
157.8999999999832
 21
-176.2981242118549
 31
0.0
  0
LINE
  5
3097
330
34C4
100
AcDbEntity
  8
0
 62
     0
100
AcDbLine
 10
-64.25338095632651
 20
-324.4000000000014
 30
0.0
 11
55.74692546739242
 21
-244.3999999999996
 31
0.0
  0
LINE
  5
3098
330
34C4
100
AcDbEntity
  8
0
 62
     0
100
AcDbLine
 10
51.24696417350968
 20
-244.3999999999996
 30
0.0
 11
157.8999999999869
 21
-173.2981576764396
 31
0.0
  0
LINE
  5
3099
330
34C4
100
AcDbEntity
  8
0
 62
     0
100
AcDbLine
 10
-68.7533422502147
 20
-324.4000000000051
 30
0.0
 11
51.24696417350968
 21
-244.3999999999996
 31
0.0
  0
LINE
  5
309A
330
34C4
100
AcDbEntity
  8
0
 62
     0
100
AcDbLine
 10
46.74700287962149
 20
-244.3999999999996
 30
0.0
 11
157.8999999999869
 21
-170.2981911410206
 31
0.0
  0
LINE
  5
309B
330
34C4
100
AcDbEntity
  8
0
 62
     0
100
AcDbLine
 10
-73.25330354409925
 20
-324.4000000000014
 30
0.0
 11
46.74700287962149
 21
-244.3999999999996
 31
0.0
  0
LINE
  5
309C
330
34C4
100
AcDbEntity
  8
0
 62
     0
100
AcDbLine
 10
42.24704158573877
 20
-244.3999999999996
 30
0.0
 11
157.8999999999851
 21
-167.298224605607
 31
0.0
  0
LINE
  5
309D
330
34C4
100
AcDbEntity
  8
0
 62
     0
100
AcDbLine
 10
-77.75326483798562
 20
-324.4000000000032
 30
0.0
 11
42.24704158573513
 21
-244.4000000000015
 31
0.0
  0
LINE
  5
309E
330
34C4
100
AcDbEntity
  8
0
 62
     0
100
AcDbLine
 10
37.74708029185058
 20
-244.4000000000015
 30
0.0
 11
157.8999999999869
 21
-164.29825807019
 31
0.0
  0
LINE
  5
309F
330
34C4
100
AcDbEntity
  8
0
 62
     0
100
AcDbLine
 10
-82.25322613186836
 20
-324.4000000000014
 30
0.0
 11
37.74708029185058
 21
-244.4000000000015
 31
0.0
  0
LINE
  5
30A0
330
34C4
100
AcDbEntity
  8
0
 62
     0
100
AcDbLine
 10
33.24711899796604
 20
-244.3999999999996
 30
0.0
 11
157.8999999999851
 21
-161.2982915347747
 31
0.0
  0
LINE
  5
30A1
330
34C4
100
AcDbEntity
  8
0
 62
     0
100
AcDbLine
 10
-86.75318742575838
 20
-324.4000000000051
 30
0.0
 11
33.24711899796604
 21
-244.3999999999996
 31
0.0
  0
LINE
  5
30A2
330
34C4
100
AcDbEntity
  8
0
 62
     0
100
AcDbLine
 10
28.74715770407784
 20
-244.3999999999996
 30
0.0
 11
157.8999999999851
 21
-158.2983249993576
 31
0.0
  0
LINE
  5
30A3
330
34C4
100
AcDbEntity
  8
0
 62
     0
100
AcDbLine
 10
-91.25314871964292
 20
-324.4000000000014
 30
0.0
 11
28.74715770407602
 21
-244.4000000000015
 31
0.0
  0
LINE
  5
30A4
330
34C4
100
AcDbEntity
  8
0
 62
     0
100
AcDbLine
 10
24.24719641019328
 20
-244.3999999999996
 30
0.0
 11
157.8999999999851
 21
-155.2983584639405
 31
0.0
  0
LINE
  5
30A5
330
34C4
100
AcDbEntity
  8
0
 62
     0
100
AcDbLine
 10
-95.7531100135275
 20
-324.4000000000014
 30
0.0
 11
24.24719641019328
 21
-244.3999999999996
 31
0.0
  0
LINE
  5
30A6
330
34C4
100
AcDbEntity
  8
0
 62
     0
100
AcDbLine
 10
19.74723511630873
 20
-244.4000000000015
 30
0.0
 11
157.8999999999869
 21
-152.2983919285252
 31
0.0
  0
LINE
  5
30A7
330
34C4
100
AcDbEntity
  8
0
 62
     0
100
AcDbLine
 10
-100.2530713074102
 20
-324.4000000000014
 30
0.0
 11
19.74723511630873
 21
-244.4000000000015
 31
0.0
  0
LINE
  5
30A8
330
34C4
100
AcDbEntity
  8
0
 62
     0
100
AcDbLine
 10
15.24727382242236
 20
-244.3999999999996
 30
0.0
 11
157.8999999999832
 21
-149.2984253931099
 31
0.0
  0
LINE
  5
30A9
330
34C4
100
AcDbEntity
  8
0
 62
     0
100
AcDbLine
 10
-104.7530326012984
 20
-324.4000000000014
 30
0.0
 11
15.24727382242236
 21
-244.3999999999996
 31
0.0
  0
LINE
  5
30AA
330
34C4
100
AcDbEntity
  8
0
 62
     0
100
AcDbLine
 10
10.7473125285378
 20
-244.3999999999996
 30
0.0
 11
157.8999999999887
 21
-146.298458857691
 31
0.0
  0
LINE
  5
30AB
330
34C4
100
AcDbEntity
  8
0
 62
     0
100
AcDbLine
 10
-109.2529938951847
 20
-324.4000000000032
 30
0.0
 11
10.74731252853416
 21
-244.4000000000033
 31
0.0
  0
LINE
  5
30AC
330
34C4
100
AcDbEntity
  8
0
 62
     0
100
AcDbLine
 10
6.24735123465143
 20
-244.3999999999996
 30
0.0
 11
157.8999999999905
 21
-143.2984923222739
 31
0.0
  0
LINE
  5
30AD
330
34C4
100
AcDbEntity
  8
0
 62
     0
100
AcDbLine
 10
-113.7529551890657
 20
-324.3999999999996
 30
0.0
 11
6.24735123465143
 21
-244.3999999999996
 31
0.0
  0
LINE
  5
30AE
330
34C4
100
AcDbEntity
  8
0
 62
     0
100
AcDbLine
 10
1.747389940765059
 20
-244.4000000000015
 30
0.0
 11
157.8999999999887
 21
-140.2985257868586
 31
0.0
  0
LINE
  5
30AF
330
34C4
100
AcDbEntity
  8
0
 62
     0
100
AcDbLine
 10
-118.2529164829575
 20
-324.4000000000032
 30
0.0
 11
1.747389940765059
 21
-244.4000000000015
 31
0.0
  0
LINE
  5
30B0
330
34C4
100
AcDbEntity
  8
0
 62
     0
100
AcDbLine
 10
-2.752571353119491
 20
-244.3999999999996
 30
0.0
 11
157.8999999999887
 21
-137.2985592514414
 31
0.0
  0
LINE
  5
30B1
330
34C4
100
AcDbEntity
  8
0
 62
     0
100
AcDbLine
 10
-122.7528777768402
 20
-324.4000000000014
 30
0.0
 11
-2.752571353119491
 21
-244.3999999999996
 31
0.0
  0
LINE
  5
30B2
330
34C4
100
AcDbEntity
  8
0
 62
     0
100
AcDbLine
 10
-7.252532647004042
 20
-244.4000000000015
 30
0.0
 11
157.8999999999887
 21
-134.298592716028
 31
0.0
  0
LINE
  5
30B3
330
34C4
100
AcDbEntity
  8
0
 62
     0
100
AcDbLine
 10
-127.2528390707265
 20
-324.4000000000032
 30
0.0
 11
-7.252532647004042
 21
-244.4000000000015
 31
0.0
  0
LINE
  5
30B4
330
34C4
100
AcDbEntity
  8
0
 62
     0
100
AcDbLine
 10
-11.75249394089223
 20
-244.4000000000015
 30
0.0
 11
157.8999999999887
 21
-131.298626180609
 31
0.0
  0
LINE
  5
30B5
330
34C4
100
AcDbEntity
  8
0
 62
     0
100
AcDbLine
 10
-131.7528003646093
 20
-324.4000000000014
 30
0.0
 11
-11.75249394089223
 21
-244.4000000000015
 31
0.0
  0
LINE
  5
30B6
330
34C4
100
AcDbEntity
  8
0
 62
     0
100
AcDbLine
 10
-16.25245523477679
 20
-244.3999999999996
 30
0.0
 11
157.8999999999869
 21
-128.2986596451956
 31
0.0
  0
LINE
  5
30B7
330
34C4
100
AcDbEntity
  8
0
 62
     0
100
AcDbLine
 10
-136.2527616584993
 20
-324.4000000000051
 30
0.0
 11
-16.25245523477679
 21
-244.3999999999996
 31
0.0
  0
LINE
  5
30B8
330
34C4
100
AcDbEntity
  8
0
 62
     0
100
AcDbLine
 10
-20.75241652866134
 20
-244.3999999999996
 30
0.0
 11
157.8999999999887
 21
-125.2986931097766
 31
0.0
  0
LINE
  5
30B9
330
34C4
100
AcDbEntity
  8
0
 62
     0
100
AcDbLine
 10
-140.7527229523821
 20
-324.4000000000014
 30
0.0
 11
-20.75241652866134
 21
-244.3999999999996
 31
0.0
  0
LINE
  5
30BA
330
34C4
100
AcDbEntity
  8
0
 62
     0
100
AcDbLine
 10
-25.2523778225459
 20
-244.4000000000015
 30
0.0
 11
157.8999999999905
 21
-122.2987265743613
 31
0.0
  0
LINE
  5
30BB
330
34C4
100
AcDbEntity
  8
0
 62
     0
100
AcDbLine
 10
-145.2526842462684
 20
-324.4000000000032
 30
0.0
 11
-25.2523778225459
 21
-244.4000000000015
 31
0.0
  0
LINE
  5
30BC
330
34C4
100
AcDbEntity
  8
0
 62
     0
100
AcDbLine
 10
-29.75233911643409
 20
-244.4000000000015
 30
0.0
 11
157.8999999999887
 21
-119.2987600389442
 31
0.0
  0
LINE
  5
30BD
330
34C4
100
AcDbEntity
  8
0
 62
     0
100
AcDbLine
 10
-149.7526455401548
 20
-324.4000000000032
 30
0.0
 11
-29.75233911643409
 21
-244.4000000000015
 31
0.0
  0
LINE
  5
30BE
330
34C4
100
AcDbEntity
  8
0
 62
     0
100
AcDbLine
 10
-34.25230041031864
 20
-244.3999999999996
 30
0.0
 11
157.8999999999887
 21
-116.2987935035289
 31
0.0
  0
LINE
  5
30BF
330
34C4
100
AcDbEntity
  8
0
 62
     0
100
AcDbLine
 10
-154.2526068340412
 20
-324.4000000000051
 30
0.0
 11
-34.25230041031864
 21
-244.3999999999996
 31
0.0
  0
LINE
  5
30C0
330
34C4
100
AcDbEntity
  8
0
 62
     0
100
AcDbLine
 10
-38.75226170420319
 20
-244.3999999999996
 30
0.0
 11
157.8999999999887
 21
-113.2988269681136
 31
0.0
  0
LINE
  5
30C1
330
34C4
100
AcDbEntity
  8
0
 62
     0
100
AcDbLine
 10
-157.9000000000142
 20
-323.831622699432
 30
0.0
 11
-38.75226170420683
 21
-244.4000000000015
 31
0.0
  0
LINE
  5
30C2
330
34C4
100
AcDbEntity
  8
0
 62
     0
100
AcDbLine
 10
-43.25222299808956
 20
-244.3999999999996
 30
0.0
 11
157.8999999999887
 21
-110.2988604326947
 31
0.0
  0
LINE
  5
30C3
330
34C4
100
AcDbEntity
  8
0
 62
     0
100
AcDbLine
 10
-157.9000000000142
 20
-320.8316561640131
 30
0.0
 11
-43.25222299808956
 21
-244.3999999999996
 31
0.0
  0
LINE
  5
30C4
330
34C4
100
AcDbEntity
  8
0
 62
     0
100
AcDbLine
 10
-47.75218429197773
 20
-244.4000000000015
 30
0.0
 11
157.8999999999869
 21
-107.2988938972812
 31
0.0
  0
LINE
  5
30C5
330
34C4
100
AcDbEntity
  8
0
 62
     0
100
AcDbLine
 10
-157.900000000016
 20
-317.8316896285996
 30
0.0
 11
-47.75218429197773
 21
-244.4000000000015
 31
0.0
  0
LINE
  5
30C6
330
34C4
100
AcDbEntity
  8
0
 62
     0
100
AcDbLine
 10
-52.25214558585867
 20
-244.3999999999996
 30
0.0
 11
157.8999999999887
 21
-104.2989273618623
 31
0.0
  0
LINE
  5
30C7
330
34C4
100
AcDbEntity
  8
0
 62
     0
100
AcDbLine
 10
-157.9000000000142
 20
-314.8317230931807
 30
0.0
 11
-52.25214558585867
 21
-244.3999999999996
 31
0.0
  0
LINE
  5
30C8
330
34C4
100
AcDbEntity
  8
0
 62
     0
100
AcDbLine
 10
-56.75210687974503
 20
-244.4000000000015
 30
0.0
 11
157.8999999999923
 21
-101.298960826447
 31
0.0
  0
LINE
  5
30C9
330
34C4
100
AcDbEntity
  8
0
 62
     0
100
AcDbLine
 10
-157.9000000000142
 20
-311.8317565577672
 30
0.0
 11
-56.75210687974503
 21
-244.4000000000015
 31
0.0
  0
LINE
  5
30CA
330
34C4
100
AcDbEntity
  8
0
 62
     0
100
AcDbLine
 10
-57.90000000001055
 20
-242.1652935906441
 30
0.0
 11
157.8999999999887
 21
-98.29899429103171
 31
0.0
  0
LINE
  5
30CB
330
34C4
100
AcDbEntity
  8
0
 62
     0
100
AcDbLine
 10
-157.9000000000142
 20
-308.8317900223501
 30
0.0
 11
-57.90000000001055
 21
-242.1652935906441
 31
0.0
  0
LINE
  5
30CC
330
34C4
100
AcDbEntity
  8
0
 62
     0
100
AcDbLine
 10
-57.90000000001055
 20
-239.1653270552288
 30
0.0
 11
157.8999999999905
 21
-95.29902775561456
 31
0.0
  0
LINE
  5
30CD
330
34C4
100
AcDbEntity
  8
0
 62
     0
100
AcDbLine
 10
-157.900000000016
 20
-305.8318234869348
 30
0.0
 11
-57.90000000001055
 21
-239.1653270552288
 31
0.0
  0
LINE
  5
30CE
330
34C4
100
AcDbEntity
  8
0
 62
     0
100
AcDbLine
 10
-57.90000000001055
 20
-236.1653605198135
 30
0.0
 11
157.8999999999887
 21
-92.29906122019928
 31
0.0
  0
LINE
  5
30CF
330
34C4
100
AcDbEntity
  8
0
 62
     0
100
AcDbLine
 10
-157.9000000000142
 20
-302.8318569515177
 30
0.0
 11
-57.90000000001055
 21
-236.1653605198135
 31
0.0
  0
LINE
  5
30D0
330
34C4
100
AcDbEntity
  8
0
 62
     0
100
AcDbLine
 10
-57.90000000001055
 20
-233.1653939843964
 30
0.0
 11
157.8999999999905
 21
-89.29909468478218
 31
0.0
  0
LINE
  5
30D1
330
34C4
100
AcDbEntity
  8
0
 62
     0
100
AcDbLine
 10
-157.9000000000123
 20
-299.8318904161006
 30
0.0
 11
-57.90000000001055
 21
-233.1653939843964
 31
0.0
  0
LINE
  5
30D2
330
34C4
100
AcDbEntity
  8
0
 62
     0
100
AcDbLine
 10
-57.90000000001237
 20
-230.165427448981
 30
0.0
 11
157.8999999999869
 21
-86.29912814936686
 31
0.0
  0
LINE
  5
30D3
330
34C4
100
AcDbEntity
  8
0
 62
     0
100
AcDbLine
 10
-157.900000000016
 20
-296.8319238806852
 30
0.0
 11
-57.90000000001237
 21
-230.165427448981
 31
0.0
  0
LINE
  5
30D4
330
34C4
100
AcDbEntity
  8
0
 62
     0
100
AcDbLine
 10
-57.90000000001055
 20
-227.1654609135639
 30
0.0
 11
157.8999999999887
 21
-83.29916161395159
 31
0.0
  0
LINE
  5
30D5
330
34C4
100
AcDbEntity
  8
0
 62
     0
100
AcDbLine
 10
-157.9000000000123
 20
-293.83195734527
 30
0.0
 11
-57.90000000001055
 21
-227.1654609135639
 31
0.0
  0
LINE
  5
30D6
330
34C4
100
AcDbEntity
  8
0
 62
     0
100
AcDbLine
 10
-57.90000000000691
 20
-224.1654943781469
 30
0.0
 11
157.8999999999887
 21
-80.29919507853445
 31
0.0
  0
LINE
  5
30D7
330
34C4
100
AcDbEntity
  8
0
 62
     0
100
AcDbLine
 10
-157.9000000000142
 20
-290.8319908098529
 30
0.0
 11
-57.90000000000691
 21
-224.1654943781469
 31
0.0
  0
LINE
  5
30D8
330
34C4
100
AcDbEntity
  8
0
 62
     0
100
AcDbLine
 10
-57.90000000001237
 20
-221.1655278427334
 30
0.0
 11
157.8999999999869
 21
-77.29922854311917
 31
0.0
  0
LINE
  5
30D9
330
34C4
100
AcDbEntity
  8
0
 62
     0
100
AcDbLine
 10
-157.900000000016
 20
-287.8320242744376
 30
0.0
 11
-57.90000000001237
 21
-221.1655278427334
 31
0.0
  0
LINE
  5
30DA
330
34C4
100
AcDbEntity
  8
0
 62
     0
100
AcDbLine
 10
-57.90000000000873
 20
-218.1655613073144
 30
0.0
 11
157.8999999999905
 21
-74.29926200770022
 31
0.0
  0
LINE
  5
30DB
330
34C4
100
AcDbEntity
  8
0
 62
     0
100
AcDbLine
 10
-157.900000000016
 20
-284.8320577390205
 30
0.0
 11
-57.90000000000873
 21
-218.1655613073144
 31
0.0
  0
LINE
  5
30DC
330
34C4
100
AcDbEntity
  8
0
 62
     0
100
AcDbLine
 10
-57.90000000001055
 20
-215.1655947718991
 30
0.0
 11
157.8999999999887
 21
-71.29929547228494
 31
0.0
  0
LINE
  5
30DD
330
34C4
100
AcDbEntity
  8
0
 62
     0
100
AcDbLine
 10
-157.9000000000142
 20
-281.8320912036032
 30
0.0
 11
-57.90000000001055
 21
-215.1655947718991
 31
0.0
  0
LINE
  5
30DE
330
34C4
100
AcDbEntity
  8
0
 62
     0
100
AcDbLine
 10
-57.90000000000873
 20
-212.165628236482
 30
0.0
 11
157.8999999999905
 21
-68.29932893686964
 31
0.0
  0
LINE
  5
30DF
330
34C4
100
AcDbEntity
  8
0
 62
     0
100
AcDbLine
 10
-157.9000000000123
 20
-278.8321246681863
 30
0.0
 11
-57.90000000000873
 21
-212.165628236482
 31
0.0
  0
LINE
  5
30E0
330
34C4
100
AcDbEntity
  8
0
 62
     0
100
AcDbLine
 10
-57.90000000001237
 20
-209.1656617010667
 30
0.0
 11
157.8999999999869
 21
-65.29936240145253
 31
0.0
  0
LINE
  5
30E1
330
34C4
100
AcDbEntity
  8
0
 62
     0
100
AcDbLine
 10
-157.900000000016
 20
-275.8321581327709
 30
0.0
 11
-57.90000000001237
 21
-209.1656617010667
 31
0.0
  0
LINE
  5
30E2
330
34C4
100
AcDbEntity
  8
0
 62
     0
100
AcDbLine
 10
-57.90000000000873
 20
-206.1656951656496
 30
0.0
 11
157.8999999999905
 21
-62.29939586603721
 31
0.0
  0
LINE
  5
30E3
330
34C4
100
AcDbEntity
  8
0
 62
     0
100
AcDbLine
 10
-157.9000000000123
 20
-272.8321915973556
 30
0.0
 11
-57.90000000000873
 21
-206.1656951656496
 31
0.0
  0
LINE
  5
30E4
330
34C4
100
AcDbEntity
  8
0
 62
     0
100
AcDbLine
 10
-57.90000000000873
 20
-203.1657286302325
 30
0.0
 11
157.8999999999869
 21
-59.29942933062012
 31
0.0
  0
LINE
  5
30E5
330
34C4
100
AcDbEntity
  8
0
 62
     0
100
AcDbLine
 10
-157.900000000016
 20
-269.8322250619384
 30
0.0
 11
-57.90000000000873
 21
-203.1657286302325
 31
0.0
  0
LINE
  5
30E6
330
34C4
100
AcDbEntity
  8
0
 62
     0
100
AcDbLine
 10
-57.90000000001055
 20
-200.165762094819
 30
0.0
 11
157.8999999999887
 21
-56.29946279520481
 31
0.0
  0
LINE
  5
30E7
330
34C4
100
AcDbEntity
  8
0
 62
     0
100
AcDbLine
 10
-157.9000000000142
 20
-266.8322585265232
 30
0.0
 11
-57.90000000001055
 21
-200.165762094819
 31
0.0
  0
LINE
  5
30E8
330
34C4
100
AcDbEntity
  8
0
 62
     0
100
AcDbLine
 10
-57.90000000000873
 20
-197.1657955594
 30
0.0
 11
157.8999999999869
 21
-53.29949625978952
 31
0.0
  0
LINE
  5
30E9
330
34C4
100
AcDbEntity
  8
0
 62
     0
100
AcDbLine
 10
-157.900000000016
 20
-263.8322919911079
 30
0.0
 11
-57.90000000000873
 21
-197.1657955594
 31
0.0
  0
LINE
  5
30EA
330
34C4
100
AcDbEntity
  8
0
 62
     0
100
AcDbLine
 10
-57.90000000000873
 20
-194.1658290239865
 30
0.0
 11
157.4492934356567
 21
-50.60000000000218
 31
0.0
  0
LINE
  5
30EB
330
34C4
100
AcDbEntity
  8
0
 62
     0
100
AcDbLine
 10
-157.9000000000123
 20
-260.8323254556908
 30
0.0
 11
-57.90000000000873
 21
-194.1658290239865
 31
0.0
  0
LINE
  5
30EC
330
34C4
100
AcDbEntity
  8
0
 62
     0
100
AcDbLine
 10
-57.90000000000873
 20
-191.1658624885675
 30
0.0
 11
152.9493321417649
 21
-50.600000000004
 31
0.0
  0
LINE
  5
30ED
330
34C4
100
AcDbEntity
  8
0
 62
     0
100
AcDbLine
 10
-157.900000000016
 20
-257.8323589202755
 30
0.0
 11
-57.90000000000873
 21
-191.1658624885675
 31
0.0
  0
LINE
  5
30EE
330
34C4
100
AcDbEntity
  8
0
 62
     0
100
AcDbLine
 10
-57.90000000001055
 20
-188.1658959531542
 30
0.0
 11
148.4493708478821
 21
-50.600000000004
 31
0.0
  0
LINE
  5
30EF
330
34C4
100
AcDbEntity
  8
0
 62
     0
100
AcDbLine
 10
-157.9000000000142
 20
-254.8323923848584
 30
0.0
 11
-57.90000000001055
 21
-188.1658959531542
 31
0.0
  0
LINE
  5
30F0
330
34C4
100
AcDbEntity
  8
0
 62
     0
100
AcDbLine
 10
-57.90000000000873
 20
-185.165929417737
 30
0.0
 11
143.9494095539958
 21
-50.60000000000218
 31
0.0
  0
LINE
  5
30F1
330
34C4
100
AcDbEntity
  8
0
 62
     0
100
AcDbLine
 10
-157.900000000016
 20
-251.8324258494431
 30
0.0
 11
-57.90000000000873
 21
-185.165929417737
 31
0.0
  0
LINE
  5
30F2
330
34C4
100
AcDbEntity
  8
0
 62
     0
100
AcDbLine
 10
-57.90000000001237
 20
-182.1659628823217
 30
0.0
 11
139.449448260113
 21
-50.60000000000218
 31
0.0
  0
LINE
  5
30F3
330
34C4
100
AcDbEntity
  8
0
 62
     0
100
AcDbLine
 10
-157.9000000000142
 20
-248.8324593140278
 30
0.0
 11
-57.90000000001237
 21
-182.1659628823217
 31
0.0
  0
LINE
  5
30F4
330
34C4
100
AcDbEntity
  8
0
 62
     0
100
AcDbLine
 10
-57.90000000001055
 20
-179.1659963469046
 30
0.0
 11
134.949486966223
 21
-50.600000000004
 31
0.0
  0
LINE
  5
30F5
330
34C4
100
AcDbEntity
  8
0
 62
     0
100
AcDbLine
 10
-157.9000000000142
 20
-245.8324927786089
 30
0.0
 11
-57.90000000001055
 21
-179.1659963469046
 31
0.0
  0
LINE
  5
30F6
330
34C4
100
AcDbEntity
  8
0
 62
     0
100
AcDbLine
 10
-57.90000000001237
 20
-176.1660298114875
 30
0.0
 11
130.4495256723403
 21
-50.60000000000218
 31
0.0
  0
LINE
  5
30F7
330
34C4
100
AcDbEntity
  8
0
 62
     0
100
AcDbLine
 10
-157.9000000000142
 20
-242.8325262431936
 30
0.0
 11
-57.90000000001237
 21
-176.1660298114875
 31
0.0
  0
LINE
  5
30F8
330
34C4
100
AcDbEntity
  8
0
 62
     0
100
AcDbLine
 10
-57.90000000000873
 20
-173.1660632760722
 30
0.0
 11
125.9495643784539
 21
-50.600000000004
 31
0.0
  0
LINE
  5
30F9
330
34C4
100
AcDbEntity
  8
0
 62
     0
100
AcDbLine
 10
-157.9000000000123
 20
-239.8325597077764
 30
0.0
 11
-57.90000000000873
 21
-173.1660632760722
 31
0.0
  0
LINE
  5
30FA
330
34C4
100
AcDbEntity
  8
0
 62
     0
100
AcDbLine
 10
-57.90000000001055
 20
-170.1660967406551
 30
0.0
 11
121.4496030845657
 21
-50.60000000000218
 31
0.0
  0
LINE
  5
30FB
330
34C4
100
AcDbEntity
  8
0
 62
     0
100
AcDbLine
 10
-157.900000000016
 20
-236.8325931723612
 30
0.0
 11
-57.90000000001055
 21
-170.1660967406551
 31
0.0
  0
LINE
  5
30FC
330
34C4
100
AcDbEntity
  8
0
 62
     0
100
AcDbLine
 10
-57.90000000001055
 20
-167.1661302052398
 30
0.0
 11
116.949641790683
 21
-50.60000000000218
 31
0.0
  0
LINE
  5
30FD
330
34C4
100
AcDbEntity
  8
0
 62
     0
100
AcDbLine
 10
-157.9000000000142
 20
-233.8326266369441
 30
0.0
 11
-57.90000000001055
 21
-167.1661302052398
 31
0.0
  0
LINE
  5
30FE
330
34C4
100
AcDbEntity
  8
0
 62
     0
100
AcDbLine
 10
-57.90000000000873
 20
-164.1661636698227
 30
0.0
 11
112.4496804967984
 21
-50.60000000000218
 31
0.0
  0
LINE
  5
30FF
330
34C4
100
AcDbEntity
  8
0
 62
     0
100
AcDbLine
 10
-157.9000000000142
 20
-230.8326601015287
 30
0.0
 11
-57.90000000000873
 21
-164.1661636698227
 31
0.0
  0
LINE
  5
3100
330
34C4
100
AcDbEntity
  8
0
 62
     0
100
AcDbLine
 10
-57.90000000001055
 20
-161.1661971344074
 30
0.0
 11
107.9497192029139
 21
-50.60000000000218
 31
0.0
  0
LINE
  5
3101
330
34C4
100
AcDbEntity
  8
0
 62
     0
100
AcDbLine
 10
-157.9000000000142
 20
-227.8326935661135
 30
0.0
 11
-57.90000000001055
 21
-161.1661971344074
 31
0.0
  0
LINE
  5
3102
330
34C4
100
AcDbEntity
  8
0
 62
     0
100
AcDbLine
 10
-57.90000000001055
 20
-158.1662305989903
 30
0.0
 11
103.4497579090239
 21
-50.600000000004
 31
0.0
  0
LINE
  5
3103
330
34C4
100
AcDbEntity
  8
0
 62
     0
100
AcDbLine
 10
-157.9000000000142
 20
-224.8327270306945
 30
0.0
 11
-57.90000000001055
 21
-158.1662305989903
 31
0.0
  0
LINE
  5
3104
330
34C4
100
AcDbEntity
  8
0
 62
     0
100
AcDbLine
 10
-57.90000000001055
 20
-155.1662640635768
 30
0.0
 11
98.94979661514117
 21
-50.60000000000218
 31
0.0
  0
LINE
  5
3105
330
34C4
100
AcDbEntity
  8
0
 62
     0
100
AcDbLine
 10
-157.9000000000142
 20
-221.832760495281
 30
0.0
 11
-57.90000000001055
 21
-155.1662640635768
 31
0.0
  0
LINE
  5
3106
330
34C4
100
AcDbEntity
  8
0
 62
     0
100
AcDbLine
 10
-57.90000000001055
 20
-152.1662975281579
 30
0.0
 11
94.44983532125478
 21
-50.60000000000218
 31
0.0
  0
LINE
  5
3107
330
34C4
100
AcDbEntity
  8
0
 62
     0
100
AcDbLine
 10
-157.9000000000142
 20
-218.8327939598621
 30
0.0
 11
-57.90000000001055
 21
-152.1662975281579
 31
0.0
  0
LINE
  5
3108
330
34C4
100
AcDbEntity
  8
0
 62
     0
100
AcDbLine
 10
-57.90000000001055
 20
-149.1663309927426
 30
0.0
 11
89.94987402737024
 21
-50.60000000000218
 31
0.0
  0
LINE
  5
3109
330
34C4
100
AcDbEntity
  8
0
 62
     0
100
AcDbLine
 10
-157.900000000016
 20
-215.8328274244486
 30
0.0
 11
-57.90000000001055
 21
-149.1663309927426
 31
0.0
  0
LINE
  5
310A
330
34C4
100
AcDbEntity
  8
0
 62
     0
100
AcDbLine
 10
-57.90000000001055
 20
-146.1663644573254
 30
0.0
 11
85.44991273348205
 21
-50.600000000004
 31
0.0
  0
LINE
  5
310B
330
34C4
100
AcDbEntity
  8
0
 62
     0
100
AcDbLine
 10
-157.9000000000142
 20
-212.8328608890315
 30
0.0
 11
-57.90000000001055
 21
-146.1663644573254
 31
0.0
  0
LINE
  5
310C
330
34C4
100
AcDbEntity
  8
0
 62
     0
100
AcDbLine
 10
-57.90000000000873
 20
-143.1663979219101
 30
0.0
 11
80.94995143959932
 21
-50.600000000004
 31
0.0
  0
LINE
  5
310D
330
34C4
100
AcDbEntity
  8
0
 62
     0
100
AcDbLine
 10
-157.9000000000142
 20
-209.8328943536162
 30
0.0
 11
-57.90000000000873
 21
-143.1663979219101
 31
0.0
  0
LINE
  5
310E
330
34C4
100
AcDbEntity
  8
0
 62
     0
100
AcDbLine
 10
-57.90000000001055
 20
-140.1664313864948
 30
0.0
 11
76.44999014571294
 21
-50.60000000000218
 31
0.0
  0
LINE
  5
310F
330
34C4
100
AcDbEntity
  8
0
 62
     0
100
AcDbLine
 10
-157.9000000000142
 20
-206.8329278181991
 30
0.0
 11
-57.90000000001055
 21
-140.1664313864948
 31
0.0
  0
LINE
  5
3110
330
34C4
100
AcDbEntity
  8
0
 62
     0
100
AcDbLine
 10
-57.90000000001055
 20
-137.1664648510759
 30
0.0
 11
71.95002885182656
 21
-50.60000000000218
 31
0.0
  0
LINE
  5
3111
330
34C4
100
AcDbEntity
  8
0
 62
     0
100
AcDbLine
 10
-157.9000000000123
 20
-203.8329612827801
 30
0.0
 11
-57.90000000001055
 21
-137.1664648510759
 31
0.0
  0
LINE
  5
3112
330
34C4
100
AcDbEntity
  8
0
 62
     0
100
AcDbLine
 10
-57.90000000001055
 20
-134.1664983156624
 30
0.0
 11
67.4500675579402
 21
-50.600000000004
 31
0.0
  0
LINE
  5
3113
330
34C4
100
AcDbEntity
  8
0
 62
     0
100
AcDbLine
 10
-157.9000000000142
 20
-200.8329947473667
 30
0.0
 11
-57.90000000001055
 21
-134.1664983156624
 31
0.0
  0
LINE
  5
3114
330
34C4
100
AcDbEntity
  8
0
 62
     0
100
AcDbLine
 10
-57.90000000001055
 20
-131.1665317802435
 30
0.0
 11
62.95010626405566
 21
-50.60000000000218
 31
0.0
  0
LINE
  5
3115
330
34C4
100
AcDbEntity
  8
0
 62
     0
100
AcDbLine
 10
-157.9000000000123
 20
-197.8330282119495
 30
0.0
 11
-57.90000000001055
 21
-131.1665317802435
 31
0.0
  0
LINE
  5
3116
330
34C4
100
AcDbEntity
  8
0
 62
     0
100
AcDbLine
 10
-57.90000000001237
 20
-128.16656524483
 30
0.0
 11
58.45014497016927
 21
-50.600000000004
 31
0.0
  0
LINE
  5
3117
330
34C4
100
AcDbEntity
  8
0
 62
     0
100
AcDbLine
 10
-157.900000000016
 20
-194.8330616765341
 30
0.0
 11
-57.90000000001237
 21
-128.16656524483
 31
0.0
  0
LINE
  5
3118
330
34C4
100
AcDbEntity
  8
0
 62
     0
100
AcDbLine
 10
-57.90000000001055
 20
-125.1665987094129
 30
0.0
 11
53.95018367628472
 21
-50.60000000000218
 31
0.0
  0
LINE
  5
3119
330
34C4
100
AcDbEntity
  8
0
 62
     0
100
AcDbLine
 10
-157.9000000000123
 20
-191.8330951411171
 30
0.0
 11
-57.90000000001055
 21
-125.1665987094129
 31
0.0
  0
LINE
  5
311A
330
34C4
100
AcDbEntity
  8
0
 62
     0
100
AcDbLine
 10
-57.90000000000691
 20
-122.1666321739958
 30
0.0
 11
49.45022238240198
 21
-50.60000000000218
 31
0.0
  0
LINE
  5
311B
330
34C4
100
AcDbEntity
  8
0
 62
     0
100
AcDbLine
 10
-157.9000000000142
 20
-188.8331286057018
 30
0.0
 11
-57.90000000001055
 21
-122.1666321739976
 31
0.0
  0
LINE
  5
311C
330
34C4
100
AcDbEntity
  8
0
 62
     0
100
AcDbLine
 10
-57.90000000001055
 20
-119.1666656385805
 30
0.0
 11
44.95026108851377
 21
-50.60000000000218
 31
0.0
  0
LINE
  5
311D
330
34C4
100
AcDbEntity
  8
0
 62
     0
100
AcDbLine
 10
-157.9000000000104
 20
-185.8331620702829
 30
0.0
 11
-57.90000000001055
 21
-119.1666656385805
 31
0.0
  0
LINE
  5
311E
330
34C4
100
AcDbEntity
  8
0
 62
     0
100
AcDbLine
 10
-57.90000000000873
 20
-116.1666991031634
 30
0.0
 11
40.45029979463104
 21
-50.60000000000218
 31
0.0
  0
LINE
  5
311F
330
34C4
100
AcDbEntity
  8
0
 62
     0
100
AcDbLine
 10
-157.9000000000123
 20
-182.8331955348694
 30
0.0
 11
-57.90000000000873
 21
-116.1666991031634
 31
0.0
  0
LINE
  5
3120
330
34C4
100
AcDbEntity
  8
0
 62
     0
100
AcDbLine
 10
-57.90000000001055
 20
-113.1667325677481
 30
0.0
 11
35.95033850074287
 21
-50.600000000004
 31
0.0
  0
LINE
  5
3121
330
34C4
100
AcDbEntity
  8
0
 62
     0
100
AcDbLine
 10
-157.9000000000104
 20
-179.8332289994505
 30
0.0
 11
-57.90000000001055
 21
-113.1667325677481
 31
0.0
  0
LINE
  5
3122
330
34C4
100
AcDbEntity
  8
0
 62
     0
100
AcDbLine
 10
-57.90000000000873
 20
-110.166766032331
 30
0.0
 11
31.45037720685832
 21
-50.60000000000218
 31
0.0
  0
LINE
  5
3123
330
34C4
100
AcDbEntity
  8
0
 62
     0
100
AcDbLine
 10
-157.9000000000086
 20
-176.8332624640352
 30
0.0
 11
-57.90000000000873
 21
-110.166766032331
 31
0.0
  0
LINE
  5
3124
330
34C4
100
AcDbEntity
  8
0
 62
     0
100
AcDbLine
 10
-57.90000000001237
 20
-107.1667994969157
 30
0.0
 11
26.95041591297013
 21
-50.60000000000218
 31
0.0
  0
LINE
  5
3125
330
34C4
100
AcDbEntity
  8
0
 62
     0
100
AcDbLine
 10
-157.9000000000123
 20
-173.8332959286181
 30
0.0
 11
-57.90000000001237
 21
-107.1667994969157
 31
0.0
  0
LINE
  5
3126
330
34C4
100
AcDbEntity
  8
0
 62
     0
100
AcDbLine
 10
-57.90000000000873
 20
-104.1668329615004
 30
0.0
 11
22.45045461908558
 21
-50.600000000004
 31
0.0
  0
LINE
  5
3127
330
34C4
100
AcDbEntity
  8
0
 62
     0
100
AcDbLine
 10
-157.9000000000104
 20
-170.8333293932028
 30
0.0
 11
-57.90000000000873
 21
-104.1668329615004
 31
0.0
  0
LINE
  5
3128
330
34C4
100
AcDbEntity
  8
0
 62
     0
100
AcDbLine
 10
-57.90000000001055
 20
-101.1668664260833
 30
0.0
 11
17.95049332520102
 21
-50.600000000004
 31
0.0
  0
LINE
  5
3129
330
34C4
100
AcDbEntity
  8
0
 62
     0
100
AcDbLine
 10
-157.9000000000104
 20
-167.8333628577857
 30
0.0
 11
-57.90000000001055
 21
-101.1668664260833
 31
0.0
  0
LINE
  5
312A
330
34C4
100
AcDbEntity
  8
0
 62
     0
100
AcDbLine
 10
-57.90000000001055
 20
-98.16689989066617
 30
0.0
 11
13.45053203131465
 21
-50.60000000000218
 31
0.0
  0
LINE
  5
312B
330
34C4
100
AcDbEntity
  8
0
 62
     0
100
AcDbLine
 10
-157.9000000000123
 20
-164.8333963223684
 30
0.0
 11
-57.90000000001055
 21
-98.16689989066617
 31
0.0
  0
LINE
  5
312C
330
34C4
100
AcDbEntity
  8
0
 62
     0
100
AcDbLine
 10
-57.90000000000873
 20
-95.16693335524903
 30
0.0
 11
8.950570737430098
 21
-50.60000000000218
 31
0.0
  0
LINE
  5
312D
330
34C4
100
AcDbEntity
  8
0
 62
     0
100
AcDbLine
 10
-157.9000000000123
 20
-161.8334297869551
 30
0.0
 11
-57.90000000000873
 21
-95.16693335524903
 31
0.0
  0
LINE
  5
312E
330
34C4
100
AcDbEntity
  8
0
 62
     0
100
AcDbLine
 10
-57.90000000000873
 20
-92.16696681983377
 30
0.0
 11
4.450609443543726
 21
-50.60000000000218
 31
0.0
  0
LINE
  5
312F
330
34C4
100
AcDbEntity
  8
0
 62
     0
100
AcDbLine
 10
-157.9000000000104
 20
-158.8334632515361
 30
0.0
 11
-57.90000000000873
 21
-92.16696681983377
 31
0.0
  0
LINE
  5
3130
330
34C4
100
AcDbEntity
  8
0
 62
     0
100
AcDbLine
 10
-57.90000000000873
 20
-89.16700028441843
 30
0.0
 11
-0.0493518503408268
 21
-50.60000000000218
 31
0.0
  0
LINE
  5
3131
330
34C4
100
AcDbEntity
  8
0
 62
     0
100
AcDbLine
 10
-157.9000000000086
 20
-155.8334967161208
 30
0.0
 11
-57.90000000000873
 21
-89.16700028441843
 31
0.0
  0
LINE
  5
3132
330
34C4
100
AcDbEntity
  8
0
 62
     0
100
AcDbLine
 10
-57.90000000001055
 20
-86.16703374900135
 30
0.0
 11
-4.549313144227197
 21
-50.60000000000218
 31
0.0
  0
LINE
  5
3133
330
34C4
100
AcDbEntity
  8
0
 62
     0
100
AcDbLine
 10
-157.9000000000123
 20
-152.8335301807037
 30
0.0
 11
-57.90000000001055
 21
-86.16703374900135
 31
0.0
  0
LINE
  5
3134
330
34C4
100
AcDbEntity
  8
0
 62
     0
100
AcDbLine
 10
-57.90000000000873
 20
-83.16706721358604
 30
0.0
 11
-9.049274438109932
 21
-50.60000000000218
 31
0.0
  0
LINE
  5
3135
330
34C4
100
AcDbEntity
  8
0
 62
     0
100
AcDbLine
 10
-157.9000000000086
 20
-149.8335636452884
 30
0.0
 11
-57.90000000000873
 21
-83.16706721358604
 31
0.0
  0
LINE
  5
3136
330
34C4
100
AcDbEntity
  8
0
 62
     0
100
AcDbLine
 10
-57.90000000001055
 20
-80.16710067816893
 30
0.0
 11
-13.54923573199994
 21
-50.60000000000218
 31
0.0
  0
LINE
  5
3137
330
34C4
100
AcDbEntity
  8
0
 62
     0
100
AcDbLine
 10
-157.9000000000123
 20
-146.8335971098731
 30
0.0
 11
-57.90000000001055
 21
-80.16710067816893
 31
0.0
  0
LINE
  5
3138
330
34C4
100
AcDbEntity
  8
0
 62
     0
100
AcDbLine
 10
-57.90000000001055
 20
-77.16713414275365
 30
0.0
 11
-18.04919702588449
 21
-50.60000000000218
 31
0.0
  0
LINE
  5
3139
330
34C4
100
AcDbEntity
  8
0
 62
     0
100
AcDbLine
 10
-157.9000000000104
 20
-143.833630574456
 30
0.0
 11
-57.90000000001055
 21
-77.16713414275365
 31
0.0
  0
LINE
  5
313A
330
34C4
100
AcDbEntity
  8
0
 62
     0
100
AcDbLine
 10
-57.90000000000873
 20
-74.16716760733651
 30
0.0
 11
-22.54915831976905
 21
-50.60000000000218
 31
0.0
  0
LINE
  5
313B
330
34C4
100
AcDbEntity
  8
0
 62
     0
100
AcDbLine
 10
-157.9000000000123
 20
-140.8336640390407
 30
0.0
 11
-57.90000000001055
 21
-74.16716760733834
 31
0.0
  0
LINE
  5
313C
330
34C4
100
AcDbEntity
  8
0
 62
     0
100
AcDbLine
 10
-57.90000000000873
 20
-71.16720107192121
 30
0.0
 11
-27.0491196136536
 21
-50.600000000004
 31
0.0
  0
LINE
  5
313D
330
34C4
100
AcDbEntity
  8
0
 62
     0
100
AcDbLine
 10
-157.9000000000086
 20
-137.8336975036236
 30
0.0
 11
-57.90000000000873
 21
-71.16720107192121
 31
0.0
  0
LINE
  5
313E
330
34C4
100
AcDbEntity
  8
0
 62
     0
100
AcDbLine
 10
-57.90000000000873
 20
-68.16723453650411
 30
0.0
 11
-31.54908090754179
 21
-50.600000000004
 31
0.0
  0
LINE
  5
313F
330
34C4
100
AcDbEntity
  8
0
 62
     0
100
AcDbLine
 10
-157.9000000000123
 20
-134.8337309682083
 30
0.0
 11
-57.90000000000873
 21
-68.16723453650411
 31
0.0
  0
LINE
  5
3140
330
34C4
100
AcDbEntity
  8
0
 62
     0
100
AcDbLine
 10
-57.90000000001055
 20
-65.16726800108881
 30
0.0
 11
-36.04904220142636
 21
-50.60000000000218
 31
0.0
  0
LINE
  5
3141
330
34C4
100
AcDbEntity
  8
0
 62
     0
100
AcDbLine
 10
-157.9000000000104
 20
-131.833764432793
 30
0.0
 11
-57.90000000001055
 21
-65.16726800108881
 31
0.0
  0
LINE
  5
3142
330
34C4
100
AcDbEntity
  8
0
 62
     0
100
AcDbLine
 10
-57.90000000000873
 20
-62.1673014656717
 30
0.0
 11
-40.5490034953109
 21
-50.60000000000218
 31
0.0
  0
LINE
  5
3143
330
34C4
100
AcDbEntity
  8
0
 62
     0
100
AcDbLine
 10
-157.9000000000123
 20
-128.8337978973758
 30
0.0
 11
-57.90000000000873
 21
-62.1673014656717
 31
0.0
  0
LINE
  5
3144
330
34C4
100
AcDbEntity
  8
0
 62
     0
100
AcDbLine
 10
-57.90000000001055
 20
-59.16733493025639
 30
0.0
 11
-45.04896478919727
 21
-50.60000000000218
 31
0.0
  0
LINE
  5
3145
330
34C4
100
AcDbEntity
  8
0
 62
     0
100
AcDbLine
 10
-157.9000000000104
 20
-125.8338313619588
 30
0.0
 11
-57.90000000001055
 21
-59.16733493025639
 31
0.0
  0
LINE
  5
3146
330
34C4
100
AcDbEntity
  8
0
 62
     0
100
AcDbLine
 10
-57.90000000001055
 20
-56.16736839483928
 30
0.0
 11
-49.54892608308546
 21
-50.600000000004
 31
0.0
  0
LINE
  5
3147
330
34C4
100
AcDbEntity
  8
0
 62
     0
100
AcDbLine
 10
-157.9000000000104
 20
-122.8338648265417
 30
0.0
 11
-57.90000000001055
 21
-56.16736839483928
 31
0.0
  0
LINE
  5
3148
330
34C4
100
AcDbEntity
  8
0
 62
     0
100
AcDbLine
 10
-57.90000000001055
 20
-53.16740185942399
 30
0.0
 11
-54.04888737696637
 21
-50.60000000000218
 31
0.0
  0
LINE
  5
3149
330
34C4
100
AcDbEntity
  8
0
 62
     0
100
AcDbLine
 10
-157.9000000000104
 20
-119.8338982911264
 30
0.0
 11
-57.90000000001055
 21
-53.16740185942399
 31
0.0
  0
LINE
  5
314A
330
34C4
100
AcDbEntity
  8
0
 62
     0
100
AcDbLine
 10
-157.9000000000086
 20
-116.8339317557111
 30
0.0
 11
-58.54884867085274
 21
-50.60000000000218
 31
0.0
  0
LINE
  5
314B
330
34C4
100
AcDbEntity
  8
0
 62
     0
100
AcDbLine
 10
-157.9000000000123
 20
-113.833965220294
 30
0.0
 11
-63.04880996474093
 21
-50.60000000000218
 31
0.0
  0
LINE
  5
314C
330
34C4
100
AcDbEntity
  8
0
 62
     0
100
AcDbLine
 10
-157.9000000000104
 20
-110.8339986848787
 30
0.0
 11
-67.54877125862368
 21
-50.60000000000218
 31
0.0
  0
LINE
  5
314D
330
34C4
100
AcDbEntity
  8
0
 62
     0
100
AcDbLine
 10
-157.9000000000104
 20
-107.8340321494615
 30
0.0
 11
-72.04873255250823
 21
-50.60000000000218
 31
0.0
  0
LINE
  5
314E
330
34C4
100
AcDbEntity
  8
0
 62
     0
100
AcDbLine
 10
-157.9000000000104
 20
-104.8340656140462
 30
0.0
 11
-76.54869384639278
 21
-50.60000000000218
 31
0.0
  0
LINE
  5
314F
330
34C4
100
AcDbEntity
  8
0
 62
     0
100
AcDbLine
 10
-157.9000000000104
 20
-101.8340990786273
 30
0.0
 11
-81.04865514028279
 21
-50.60000000000218
 31
0.0
  0
LINE
  5
3150
330
34C4
100
AcDbEntity
  8
0
 62
     0
100
AcDbLine
 10
-157.9000000000104
 20
-98.83413254321384
 30
0.0
 11
-85.54861643416549
 21
-50.60000000000218
 31
0.0
  0
LINE
  5
3151
330
34C4
100
AcDbEntity
  8
0
 62
     0
100
AcDbLine
 10
-157.9000000000104
 20
-95.83416600779672
 30
0.0
 11
-90.04857772805189
 21
-50.60000000000218
 31
0.0
  0
LINE
  5
3152
330
34C4
100
AcDbEntity
  8
0
 62
     0
100
AcDbLine
 10
-157.9000000000123
 20
-92.83419947238144
 30
0.0
 11
-94.54853902193645
 21
-50.60000000000218
 31
0.0
  0
LINE
  5
3153
330
34C4
100
AcDbEntity
  8
0
 62
     0
100
AcDbLine
 10
-157.9000000000104
 20
-89.83423293696432
 30
0.0
 11
-99.04850031582464
 21
-50.600000000004
 31
0.0
  0
LINE
  5
3154
330
34C4
100
AcDbEntity
  8
0
 62
     0
100
AcDbLine
 10
-157.9000000000104
 20
-86.83426640154905
 30
0.0
 11
-103.5484616097073
 21
-50.60000000000036
 31
0.0
  0
LINE
  5
3155
330
34C4
100
AcDbEntity
  8
0
 62
     0
100
AcDbLine
 10
-157.9000000000104
 20
-83.8342998661319
 30
0.0
 11
-108.0484229035937
 21
-50.60000000000218
 31
0.0
  0
LINE
  5
3156
330
34C4
100
AcDbEntity
  8
0
 62
     0
100
AcDbLine
 10
-157.9000000000086
 20
-80.8343333307148
 30
0.0
 11
-112.5483841974783
 21
-50.60000000000036
 31
0.0
  0
LINE
  5
3157
330
34C4
100
AcDbEntity
  8
0
 62
     0
100
AcDbLine
 10
-157.9000000000104
 20
-77.8343667952995
 30
0.0
 11
-117.0483454913628
 21
-50.60000000000218
 31
0.0
  0
LINE
  5
3158
330
34C4
100
AcDbEntity
  8
0
 62
     0
100
AcDbLine
 10
-157.9000000000086
 20
-74.83440025988237
 30
0.0
 11
-121.548306785251
 21
-50.60000000000218
 31
0.0
  0
LINE
  5
3159
330
34C4
100
AcDbEntity
  8
0
 62
     0
100
AcDbLine
 10
-157.9000000000123
 20
-71.83443372446709
 30
0.0
 11
-126.0482680791356
 21
-50.60000000000036
 31
0.0
  0
LINE
  5
315A
330
34C4
100
AcDbEntity
  8
0
 62
     0
100
AcDbLine
 10
-157.9000000000086
 20
-68.83446718904997
 30
0.0
 11
-130.5482293730238
 21
-50.60000000000218
 31
0.0
  0
LINE
  5
315B
330
34C4
100
AcDbEntity
  8
0
 62
     0
100
AcDbLine
 10
-157.9000000000104
 20
-65.83450065363649
 30
0.0
 11
-135.0481906669047
 21
-50.60000000000218
 31
0.0
  0
LINE
  5
315C
330
34C4
100
AcDbEntity
  8
0
 62
     0
100
AcDbLine
 10
-157.9000000000086
 20
-62.83453411821756
 30
0.0
 11
-139.5481519607927
 21
-50.60000000000218
 31
0.0
  0
LINE
  5
315D
330
34C4
100
AcDbEntity
  8
0
 62
     0
100
AcDbLine
 10
-157.9000000000123
 20
-59.83456758280407
 30
0.0
 11
-144.0481132546774
 21
-50.60000000000218
 31
0.0
  0
LINE
  5
315E
330
34C4
100
AcDbEntity
  8
0
 62
     0
100
AcDbLine
 10
-157.9000000000086
 20
-56.83460104738514
 30
0.0
 11
-148.5480745485656
 21
-50.600000000004
 31
0.0
  0
LINE
  5
315F
330
34C4
100
AcDbEntity
  8
0
 62
     0
100
AcDbLine
 10
-157.9000000000086
 20
-53.83463451196985
 30
0.0
 11
-153.0480358424483
 21
-50.60000000000218
 31
0.0
  0
LINE
  5
3160
330
34C4
100
AcDbEntity
  8
0
 62
     0
100
AcDbLine
 10
-157.9000000000123
 20
-50.83466797655455
 30
0.0
 11
-157.5479971363365
 21
-50.60000000000218
 31
0.0
  0
ENDBLK
  5
3161
330
34C4
100
AcDbEntity
  8
0
100
AcDbBlockEnd
  0
BLOCK
  5
34C7
330
34C6
100
AcDbEntity
  8
0
100
AcDbBlockBegin
  2
*X73
 70
     1
 10
0.0
 20
0.0
 30
0.0
  3
*X73
  1

  0
LINE
  5
3164
330
34C6
100
AcDbEntity
  8
0
 62
     0
100
AcDbLine
 10
-157.9000000000051
 20
-322.9313771232062
 30
0.0
 11
-155.6970600595541
 21
-324.4000000000014
 31
0.0
  0
LINE
  5
3165
330
34C6
100
AcDbEntity
  8
0
 62
     0
100
AcDbLine
 10
-157.9000000000069
 20
-319.9314105877893
 30
0.0
 11
-151.1970987656676
 21
-324.4000000000014
 31
0.0
  0
LINE
  5
3166
330
34C6
100
AcDbEntity
  8
0
 62
     0
100
AcDbLine
 10
-157.9000000000069
 20
-316.9314440523758
 30
0.0
 11
-146.6971374717832
 21
-324.4000000000014
 31
0.0
  0
LINE
  5
3167
330
34C6
100
AcDbEntity
  8
0
 62
     0
100
AcDbLine
 10
-157.9000000000069
 20
-313.9314775169587
 30
0.0
 11
-142.1971761778986
 21
-324.3999999999996
 31
0.0
  0
LINE
  5
3168
330
34C6
100
AcDbEntity
  8
0
 62
     0
100
AcDbLine
 10
-157.9000000000051
 20
-310.9315109815416
 30
0.0
 11
-137.6972148840122
 21
-324.3999999999996
 31
0.0
  0
LINE
  5
3169
330
34C6
100
AcDbEntity
  8
0
 62
     0
100
AcDbLine
 10
-157.9000000000086
 20
-307.9315444461244
 30
0.0
 11
-133.1972535901259
 21
-324.4000000000014
 31
0.0
  0
LINE
  5
316A
330
34C6
100
AcDbEntity
  8
0
 62
     0
100
AcDbLine
 10
-157.9000000000069
 20
-304.9315779107072
 30
0.0
 11
-128.6972922962432
 21
-324.3999999999996
 31
0.0
  0
LINE
  5
316B
330
34C6
100
AcDbEntity
  8
0
 62
     0
100
AcDbLine
 10
-157.9000000000069
 20
-301.9316113752939
 30
0.0
 11
-124.197331002355
 21
-324.3999999999996
 31
0.0
  0
LINE
  5
316C
330
34C6
100
AcDbEntity
  8
0
 62
     0
100
AcDbLine
 10
-157.9000000000069
 20
-298.9316448398767
 30
0.0
 11
-119.6973697084704
 21
-324.3999999999996
 31
0.0
  0
LINE
  5
316D
330
34C6
100
AcDbEntity
  8
0
 62
     0
100
AcDbLine
 10
-157.9000000000086
 20
-295.9316783044615
 30
0.0
 11
-115.1974084145859
 21
-324.4000000000014
 31
0.0
  0
LINE
  5
316E
330
34C6
100
AcDbEntity
  8
0
 62
     0
100
AcDbLine
 10
-157.9000000000069
 20
-292.9317117690443
 30
0.0
 11
-110.6974471207013
 21
-324.3999999999996
 31
0.0
  0
LINE
  5
316F
330
34C6
100
AcDbEntity
  8
0
 62
     0
100
AcDbLine
 10
-157.9000000000069
 20
-289.9317452336291
 30
0.0
 11
-106.1974858268113
 21
-324.4000000000032
 31
0.0
  0
LINE
  5
3170
330
34C6
100
AcDbEntity
  8
0
 62
     0
100
AcDbLine
 10
-157.9000000000086
 20
-286.9317786982101
 30
0.0
 11
-101.6975245329285
 21
-324.3999999999996
 31
0.0
  0
LINE
  5
3171
330
34C6
100
AcDbEntity
  8
0
 62
     0
100
AcDbLine
 10
-157.9000000000069
 20
-283.9318121627966
 30
0.0
 11
-97.19756323904221
 21
-324.4000000000014
 31
0.0
  0
LINE
  5
3172
330
34C6
100
AcDbEntity
  8
0
 62
     0
100
AcDbLine
 10
-157.9000000000069
 20
-280.9318456273795
 30
0.0
 11
-92.69760194515765
 21
-324.3999999999996
 31
0.0
  0
LINE
  5
3173
330
34C6
100
AcDbEntity
  8
0
 62
     0
100
AcDbLine
 10
-157.9000000000069
 20
-277.9318790919643
 30
0.0
 11
-88.19764065127129
 21
-324.4000000000014
 31
0.0
  0
LINE
  5
3174
330
34C6
100
AcDbEntity
  8
0
 62
     0
100
AcDbLine
 10
-157.9000000000086
 20
-274.9319125565471
 30
0.0
 11
-83.69767935738673
 21
-324.4000000000014
 31
0.0
  0
LINE
  5
3175
330
34C6
100
AcDbEntity
  8
0
 62
     0
100
AcDbLine
 10
-157.9000000000051
 20
-271.93194602113
 30
0.0
 11
-79.19771806350034
 21
-324.3999999999978
 31
0.0
  0
LINE
  5
3176
330
34C6
100
AcDbEntity
  8
0
 62
     0
100
AcDbLine
 10
-157.9000000000069
 20
-268.9319794857147
 30
0.0
 11
-74.69775676961217
 21
-324.4000000000014
 31
0.0
  0
LINE
  5
3177
330
34C6
100
AcDbEntity
  8
0
 62
     0
100
AcDbLine
 10
-157.9000000000069
 20
-265.9320129502976
 30
0.0
 11
-70.19779547572944
 21
-324.3999999999996
 31
0.0
  0
LINE
  5
3178
330
34C6
100
AcDbEntity
  8
0
 62
     0
100
AcDbLine
 10
-157.9000000000069
 20
-262.9320464148823
 30
0.0
 11
-65.69783418184306
 21
-324.4000000000014
 31
0.0
  0
LINE
  5
3179
330
34C6
100
AcDbEntity
  8
0
 62
     0
100
AcDbLine
 10
-157.9000000000069
 20
-259.9320798794652
 30
0.0
 11
-61.19787288795851
 21
-324.3999999999996
 31
0.0
  0
LINE
  5
317A
330
34C6
100
AcDbEntity
  8
0
 62
     0
100
AcDbLine
 10
-157.9000000000069
 20
-256.9321133440499
 30
0.0
 11
-56.69791159407032
 21
-324.4000000000032
 31
0.0
  0
LINE
  5
317B
330
34C6
100
AcDbEntity
  8
0
 62
     0
100
AcDbLine
 10
-157.9000000000069
 20
-253.9321468086328
 30
0.0
 11
-52.19795030018758
 21
-324.3999999999996
 31
0.0
  0
LINE
  5
317C
330
34C6
100
AcDbEntity
  8
0
 62
     0
100
AcDbLine
 10
-157.9000000000069
 20
-250.9321802732174
 30
0.0
 11
-47.69798900629938
 21
-324.4000000000014
 31
0.0
  0
LINE
  5
317D
330
34C6
100
AcDbEntity
  8
0
 62
     0
100
AcDbLine
 10
-157.9000000000069
 20
-247.9322137378003
 30
0.0
 11
-43.19802771241666
 21
-324.3999999999996
 31
0.0
  0
LINE
  5
317E
330
34C6
100
AcDbEntity
  8
0
 62
     0
100
AcDbLine
 10
-157.9000000000086
 20
-244.9322472023851
 30
0.0
 11
-38.69806641852847
 21
-324.4000000000032
 31
0.0
  0
LINE
  5
317F
330
34C6
100
AcDbEntity
  8
0
 62
     0
100
AcDbLine
 10
-157.9000000000069
 20
-241.9322806669679
 30
0.0
 11
-34.19810512464575
 21
-324.3999999999996
 31
0.0
  0
LINE
  5
3180
330
34C6
100
AcDbEntity
  8
0
 62
     0
100
AcDbLine
 10
-157.9000000000069
 20
-238.9323141315545
 30
0.0
 11
-29.69814383075755
 21
-324.4000000000014
 31
0.0
  0
LINE
  5
3181
330
34C6
100
AcDbEntity
  8
0
 62
     0
100
AcDbLine
 10
-157.9000000000069
 20
-235.9323475961373
 30
0.0
 11
-25.19818253687299
 21
-324.4000000000014
 31
0.0
  0
LINE
  5
3182
330
34C6
100
AcDbEntity
  8
0
 62
     0
100
AcDbLine
 10
-157.9000000000086
 20
-232.9323810607201
 30
0.0
 11
-20.69822124298844
 21
-324.4000000000014
 31
0.0
  0
LINE
  5
3183
330
34C6
100
AcDbEntity
  8
0
 62
     0
100
AcDbLine
 10
-157.9000000000051
 20
-229.9324145253049
 30
0.0
 11
-16.19825994910207
 21
-324.4000000000014
 31
0.0
  0
LINE
  5
3184
330
34C6
100
AcDbEntity
  8
0
 62
     0
100
AcDbLine
 10
-157.9000000000086
 20
-226.932447989886
 30
0.0
 11
-11.69829865521933
 21
-324.3999999999978
 31
0.0
  0
LINE
  5
3185
330
34C6
100
AcDbEntity
  8
0
 62
     0
100
AcDbLine
 10
-157.9000000000086
 20
-223.9324814544707
 30
0.0
 11
-7.198337361331139
 21
-324.4000000000014
 31
0.0
  0
LINE
  5
3186
330
34C6
100
AcDbEntity
  8
0
 62
     0
100
AcDbLine
 10
-157.9000000000051
 20
-220.9325149190554
 30
0.0
 11
-2.698376067444768
 21
-324.3999999999996
 31
0.0
  0
LINE
  5
3187
330
34C6
100
AcDbEntity
  8
0
 62
     0
100
AcDbLine
 10
-157.9000000000069
 20
-217.9325483836401
 30
0.0
 11
1.801585226439781
 21
-324.4000000000014
 31
0.0
  0
LINE
  5
3188
330
34C6
100
AcDbEntity
  8
0
 62
     0
100
AcDbLine
 10
-157.9000000000069
 20
-214.932581848223
 30
0.0
 11
6.301546520326153
 21
-324.4000000000014
 31
0.0
  0
LINE
  5
3189
330
34C6
100
AcDbEntity
  8
0
 62
     0
100
AcDbLine
 10
-157.9000000000069
 20
-211.9326153128077
 30
0.0
 11
10.80150781421252
 21
-324.4000000000032
 31
0.0
  0
LINE
  5
318A
330
34C6
100
AcDbEntity
  8
0
 62
     0
100
AcDbLine
 10
-157.9000000000051
 20
-208.9326487773905
 30
0.0
 11
15.30146910809708
 21
-324.3999999999996
 31
0.0
  0
LINE
  5
318B
330
34C6
100
AcDbEntity
  8
0
 62
     0
100
AcDbLine
 10
-157.9000000000086
 20
-205.9326822419753
 30
0.0
 11
19.80143040198163
 21
-324.4000000000014
 31
0.0
  0
LINE
  5
318C
330
34C6
100
AcDbEntity
  8
0
 62
     0
100
AcDbLine
 10
-157.9000000000051
 20
-202.9327157065582
 30
0.0
 11
24.30139169586983
 21
-324.4000000000014
 31
0.0
  0
LINE
  5
318D
330
34C6
100
AcDbEntity
  8
0
 62
     0
100
AcDbLine
 10
-157.9000000000069
 20
-199.9327491711428
 30
0.0
 11
28.80135298975256
 21
-324.4000000000014
 31
0.0
  0
LINE
  5
318E
330
34C6
100
AcDbEntity
  8
0
 62
     0
100
AcDbLine
 10
-157.9000000000069
 20
-196.9327826357256
 30
0.0
 11
33.30131428363893
 21
-324.4000000000014
 31
0.0
  0
LINE
  5
318F
330
34C6
100
AcDbEntity
  8
0
 62
     0
100
AcDbLine
 10
-157.9000000000086
 20
-193.9328161003104
 30
0.0
 11
37.80127557752348
 21
-324.4000000000014
 31
0.0
  0
LINE
  5
3190
330
34C6
100
AcDbEntity
  8
0
 62
     0
100
AcDbLine
 10
-157.9000000000069
 20
-190.9328495648933
 30
0.0
 11
42.30123687141167
 21
-324.4000000000014
 31
0.0
  0
LINE
  5
3191
330
34C6
100
AcDbEntity
  8
0
 62
     0
100
AcDbLine
 10
-157.9000000000033
 20
-187.932883029478
 30
0.0
 11
46.80119816529439
 21
-324.3999999999996
 31
0.0
  0
LINE
  5
3192
330
34C6
100
AcDbEntity
  8
0
 62
     0
100
AcDbLine
 10
-157.9000000000051
 20
-184.9329164940627
 30
0.0
 11
51.30115945918078
 21
-324.4000000000014
 31
0.0
  0
LINE
  5
3193
330
34C6
100
AcDbEntity
  8
0
 62
     0
100
AcDbLine
 10
-157.9000000000033
 20
-181.9329499586456
 30
0.0
 11
55.80112075306715
 21
-324.4000000000014
 31
0.0
  0
LINE
  5
3194
330
34C6
100
AcDbEntity
  8
0
 62
     0
100
AcDbLine
 10
-157.9000000000033
 20
-178.9329834232303
 30
0.0
 11
60.30108204695534
 21
-324.4000000000014
 31
0.0
  0
LINE
  5
3195
330
34C6
100
AcDbEntity
  8
0
 62
     0
100
AcDbLine
 10
-57.90000000000327
 20
-242.5995133195174
 30
0.0
 11
-55.1992630828845
 21
-244.3999999999978
 31
0.0
  0
LINE
  5
3196
330
34C6
100
AcDbEntity
  8
0
 62
     0
100
AcDbLine
 10
-55.1992630828845
 20
-244.3999999999978
 30
0.0
 11
64.80104334083626
 21
-324.3999999999996
 31
0.0
  0
LINE
  5
3197
330
34C6
100
AcDbEntity
  8
0
 62
     0
100
AcDbLine
 10
-157.9000000000033
 20
-175.933016887815
 30
0.0
 11
-57.90000000000327
 21
-242.5995133195174
 31
0.0
  0
LINE
  5
3198
330
34C6
100
AcDbEntity
  8
0
 62
     0
100
AcDbLine
 10
-57.90000000000327
 20
-239.5995467841022
 30
0.0
 11
-50.69930178899994
 21
-244.3999999999996
 31
0.0
  0
LINE
  5
3199
330
34C6
100
AcDbEntity
  8
0
 62
     0
100
AcDbLine
 10
-50.69930178899994
 20
-244.3999999999996
 30
0.0
 11
69.30100463472445
 21
-324.4000000000032
 31
0.0
  0
LINE
  5
319A
330
34C6
100
AcDbEntity
  8
0
 62
     0
100
AcDbLine
 10
-157.9000000000051
 20
-172.9330503523979
 30
0.0
 11
-57.90000000000327
 21
-239.5995467841022
 31
0.0
  0
LINE
  5
319B
330
34C6
100
AcDbEntity
  8
0
 62
     0
100
AcDbLine
 10
-57.90000000000327
 20
-236.599580248685
 30
0.0
 11
-46.19934049511175
 21
-244.3999999999996
 31
0.0
  0
LINE
  5
319C
330
34C6
100
AcDbEntity
  8
0
 62
     0
100
AcDbLine
 10
-46.19934049511175
 20
-244.3999999999996
 30
0.0
 11
73.80096592860898
 21
-324.4000000000014
 31
0.0
  0
LINE
  5
319D
330
34C6
100
AcDbEntity
  8
0
 62
     0
100
AcDbLine
 10
-157.9000000000051
 20
-169.9330838169808
 30
0.0
 11
-57.90000000000327
 21
-236.599580248685
 31
0.0
  0
LINE
  5
319E
330
34C6
100
AcDbEntity
  8
0
 62
     0
100
AcDbLine
 10
-57.90000000000144
 20
-233.5996137132697
 30
0.0
 11
-41.6993792012272
 21
-244.3999999999978
 31
0.0
  0
LINE
  5
319F
330
34C6
100
AcDbEntity
  8
0
 62
     0
100
AcDbLine
 10
-41.6993792012272
 20
-244.3999999999978
 30
0.0
 11
78.3009272224972
 21
-324.4000000000032
 31
0.0
  0
LINE
  5
31A0
330
34C6
100
AcDbEntity
  8
0
 62
     0
100
AcDbLine
 10
-157.9000000000033
 20
-166.9331172815655
 30
0.0
 11
-57.90000000000327
 21
-233.5996137132697
 31
0.0
  0
LINE
  5
31A1
330
34C6
100
AcDbEntity
  8
0
 62
     0
100
AcDbLine
 10
-57.90000000000327
 20
-230.5996471778526
 30
0.0
 11
-37.19941790734265
 21
-244.3999999999978
 31
0.0
  0
LINE
  5
31A2
330
34C6
100
AcDbEntity
  8
0
 62
     0
100
AcDbLine
 10
-37.19941790734265
 20
-244.3999999999978
 30
0.0
 11
82.80088851637811
 21
-324.3999999999996
 31
0.0
  0
LINE
  5
31A3
330
34C6
100
AcDbEntity
  8
0
 62
     0
100
AcDbLine
 10
-157.9000000000051
 20
-163.9331507461502
 30
0.0
 11
-57.90000000000327
 21
-230.5996471778526
 31
0.0
  0
LINE
  5
31A4
330
34C6
100
AcDbEntity
  8
0
 62
     0
100
AcDbLine
 10
-57.90000000000327
 20
-227.5996806424373
 30
0.0
 11
-32.69945661345629
 21
-244.3999999999996
 31
0.0
  0
LINE
  5
31A5
330
34C6
100
AcDbEntity
  8
0
 62
     0
100
AcDbLine
 10
-32.69945661345629
 20
-244.3999999999996
 30
0.0
 11
87.3008498102663
 21
-324.4000000000014
 31
0.0
  0
LINE
  5
31A6
330
34C6
100
AcDbEntity
  8
0
 62
     0
100
AcDbLine
 10
-157.9000000000033
 20
-160.9331842107349
 30
0.0
 11
-57.90000000000327
 21
-227.5996806424373
 31
0.0
  0
LINE
  5
31A7
330
34C6
100
AcDbEntity
  8
0
 62
     0
100
AcDbLine
 10
-57.90000000000327
 20
-224.5997141070202
 30
0.0
 11
-28.19949531956808
 21
-244.3999999999996
 31
0.0
  0
LINE
  5
31A8
330
34C6
100
AcDbEntity
  8
0
 62
     0
100
AcDbLine
 10
-28.19949531956808
 20
-244.3999999999996
 30
0.0
 11
91.80081110415269
 21
-324.4000000000014
 31
0.0
  0
LINE
  5
31A9
330
34C6
100
AcDbEntity
  8
0
 62
     0
100
AcDbLine
 10
-157.9000000000033
 20
-157.9332176753178
 30
0.0
 11
-57.90000000000327
 21
-224.5997141070202
 31
0.0
  0
LINE
  5
31AA
330
34C6
100
AcDbEntity
  8
0
 62
     0
100
AcDbLine
 10
-57.90000000000327
 20
-221.5997475716049
 30
0.0
 11
-23.69953402568535
 21
-244.3999999999996
 31
0.0
  0
LINE
  5
31AB
330
34C6
100
AcDbEntity
  8
0
 62
     0
100
AcDbLine
 10
-23.69953402568535
 20
-244.3999999999996
 30
0.0
 11
96.3007723980354
 21
-324.4000000000014
 31
0.0
  0
LINE
  5
31AC
330
34C6
100
AcDbEntity
  8
0
 62
     0
100
AcDbLine
 10
-157.9000000000033
 20
-154.9332511399025
 30
0.0
 11
-57.90000000000327
 21
-221.5997475716049
 31
0.0
  0
LINE
  5
31AD
330
34C6
100
AcDbEntity
  8
0
 62
     0
100
AcDbLine
 10
-57.90000000000509
 20
-218.5997810361878
 30
0.0
 11
-19.1995727318008
 21
-244.3999999999978
 31
0.0
  0
LINE
  5
31AE
330
34C6
100
AcDbEntity
  8
0
 62
     0
100
AcDbLine
 10
-19.1995727318008
 20
-244.3999999999978
 30
0.0
 11
100.8007336919236
 21
-324.4000000000032
 31
0.0
  0
LINE
  5
31AF
330
34C6
100
AcDbEntity
  8
0
 62
     0
100
AcDbLine
 10
-157.9000000000069
 20
-151.9332846044835
 30
0.0
 11
-57.90000000000509
 21
-218.5997810361878
 31
0.0
  0
LINE
  5
31B0
330
34C6
100
AcDbEntity
  8
0
 62
     0
100
AcDbLine
 10
-57.90000000000144
 20
-215.5998145007707
 30
0.0
 11
-14.69961143791261
 21
-244.3999999999978
 31
0.0
  0
LINE
  5
31B1
330
34C6
100
AcDbEntity
  8
0
 62
     0
100
AcDbLine
 10
-14.69961143791261
 20
-244.3999999999978
 30
0.0
 11
105.3006949858099
 21
-324.3999999999996
 31
0.0
  0
LINE
  5
31B2
330
34C6
100
AcDbEntity
  8
0
 62
     0
100
AcDbLine
 10
-157.9000000000033
 20
-148.9333180690664
 30
0.0
 11
-57.90000000000144
 21
-215.5998145007707
 31
0.0
  0
LINE
  5
31B3
330
34C6
100
AcDbEntity
  8
0
 62
     0
100
AcDbLine
 10
-57.90000000000327
 20
-212.5998479653554
 30
0.0
 11
-10.19965014402623
 21
-244.3999999999996
 31
0.0
  0
LINE
  5
31B4
330
34C6
100
AcDbEntity
  8
0
 62
     0
100
AcDbLine
 10
-10.19965014402623
 20
-244.3999999999996
 30
0.0
 11
109.8006562796945
 21
-324.4000000000014
 31
0.0
  0
LINE
  5
31B5
330
34C6
100
AcDbEntity
  8
0
 62
     0
100
AcDbLine
 10
-157.9000000000051
 20
-145.9333515336529
 30
0.0
 11
-57.90000000000327
 21
-212.5998479653554
 31
0.0
  0
LINE
  5
31B6
330
34C6
100
AcDbEntity
  8
0
 62
     0
100
AcDbLine
 10
-57.90000000000327
 20
-209.5998814299381
 30
0.0
 11
-5.699688850143502
 21
-244.3999999999978
 31
0.0
  0
LINE
  5
31B7
330
34C6
100
AcDbEntity
  8
0
 62
     0
100
AcDbLine
 10
-5.699688850143502
 20
-244.3999999999978
 30
0.0
 11
114.3006175735772
 21
-324.3999999999996
 31
0.0
  0
LINE
  5
31B8
330
34C6
100
AcDbEntity
  8
0
 62
     0
100
AcDbLine
 10
-157.9000000000051
 20
-142.9333849982358
 30
0.0
 11
-57.90000000000327
 21
-209.5998814299381
 31
0.0
  0
LINE
  5
31B9
330
34C6
100
AcDbEntity
  8
0
 62
     0
100
AcDbLine
 10
-57.90000000000327
 20
-206.599914894523
 30
0.0
 11
-1.199727556257129
 21
-244.3999999999996
 31
0.0
  0
LINE
  5
31BA
330
34C6
100
AcDbEntity
  8
0
 62
     0
100
AcDbLine
 10
-1.199727556257129
 20
-244.3999999999996
 30
0.0
 11
118.8005788674672
 21
-324.4000000000032
 31
0.0
  0
LINE
  5
31BB
330
34C6
100
AcDbEntity
  8
0
 62
     0
100
AcDbLine
 10
-157.9000000000051
 20
-139.9334184628205
 30
0.0
 11
-57.90000000000327
 21
-206.599914894523
 31
0.0
  0
LINE
  5
31BC
330
34C6
100
AcDbEntity
  8
0
 62
     0
100
AcDbLine
 10
-57.90000000000144
 20
-203.5999483591076
 30
0.0
 11
3.300233737629239
 21
-244.3999999999978
 31
0.0
  0
LINE
  5
31BD
330
34C6
100
AcDbEntity
  8
0
 62
     0
100
AcDbLine
 10
3.30023373763106
 20
-244.3999999999996
 30
0.0
 11
123.3005401613518
 21
-324.4000000000014
 31
0.0
  0
LINE
  5
31BE
330
34C6
100
AcDbEntity
  8
0
 62
     0
100
AcDbLine
 10
-157.9000000000033
 20
-136.9334519274034
 30
0.0
 11
-57.90000000000144
 21
-203.5999483591076
 31
0.0
  0
LINE
  5
31BF
330
34C6
100
AcDbEntity
  8
0
 62
     0
100
AcDbLine
 10
-57.90000000000327
 20
-200.5999818236904
 30
0.0
 11
7.800195031511974
 21
-244.3999999999978
 31
0.0
  0
LINE
  5
31C0
330
34C6
100
AcDbEntity
  8
0
 62
     0
100
AcDbLine
 10
7.800195031513793
 20
-244.3999999999996
 30
0.0
 11
127.8005014552364
 21
-324.4000000000014
 31
0.0
  0
LINE
  5
31C1
330
34C6
100
AcDbEntity
  8
0
 62
     0
100
AcDbLine
 10
-157.9000000000051
 20
-133.9334853919881
 30
0.0
 11
-57.90000000000327
 21
-200.5999818236904
 31
0.0
  0
LINE
  5
31C2
330
34C6
100
AcDbEntity
  8
0
 62
     0
100
AcDbLine
 10
-57.90000000000327
 20
-197.6000152882734
 30
0.0
 11
12.30015632539835
 21
-244.3999999999978
 31
0.0
  0
LINE
  5
31C3
330
34C6
100
AcDbEntity
  8
0
 62
     0
100
AcDbLine
 10
12.30015632540016
 20
-244.3999999999996
 30
0.0
 11
132.3004627491227
 21
-324.4000000000014
 31
0.0
  0
LINE
  5
31C4
330
34C6
100
AcDbEntity
  8
0
 62
     0
100
AcDbLine
 10
-157.9000000000033
 20
-130.933518856571
 30
0.0
 11
-57.90000000000327
 21
-197.6000152882734
 31
0.0
  0
LINE
  5
31C5
330
34C6
100
AcDbEntity
  8
0
 62
     0
100
AcDbLine
 10
-57.90000000000144
 20
-194.600048752858
 30
0.0
 11
16.80011761928654
 21
-244.3999999999996
 31
0.0
  0
LINE
  5
31C6
330
34C6
100
AcDbEntity
  8
0
 62
     0
100
AcDbLine
 10
16.80011761928836
 20
-244.3999999999996
 30
0.0
 11
136.8004240430073
 21
-324.4000000000014
 31
0.0
  0
LINE
  5
31C7
330
34C6
100
AcDbEntity
  8
0
 62
     0
100
AcDbLine
 10
-157.9000000000033
 20
-127.9335523211557
 30
0.0
 11
-57.90000000000144
 21
-194.600048752858
 31
0.0
  0
LINE
  5
31C8
330
34C6
100
AcDbEntity
  8
0
 62
     0
100
AcDbLine
 10
-57.90000000000327
 20
-191.6000822174409
 30
0.0
 11
21.30007891317108
 21
-244.3999999999996
 31
0.0
  0
LINE
  5
31C9
330
34C6
100
AcDbEntity
  8
0
 62
     0
100
AcDbLine
 10
21.30007891317291
 20
-244.3999999999996
 30
0.0
 11
141.3003853368936
 21
-324.4000000000014
 31
0.0
  0
LINE
  5
31CA
330
34C6
100
AcDbEntity
  8
0
 62
     0
100
AcDbLine
 10
-157.9000000000051
 20
-124.9335857857386
 30
0.0
 11
-57.90000000000327
 21
-191.6000822174409
 31
0.0
  0
LINE
  5
31CB
330
34C6
100
AcDbEntity
  8
0
 62
     0
100
AcDbLine
 10
-57.90000000000327
 20
-188.6001156820256
 30
0.0
 11
25.80004020705383
 21
-244.3999999999978
 31
0.0
  0
LINE
  5
31CC
330
34C6
100
AcDbEntity
  8
0
 62
     0
100
AcDbLine
 10
25.80004020705565
 20
-244.3999999999996
 30
0.0
 11
145.8003466307746
 21
-324.4000000000014
 31
0.0
  0
LINE
  5
31CD
330
34C6
100
AcDbEntity
  8
0
 62
     0
100
AcDbLine
 10
-157.9000000000051
 20
-121.9336192503233
 30
0.0
 11
-57.90000000000327
 21
-188.6001156820256
 31
0.0
  0
LINE
  5
31CE
330
34C6
100
AcDbEntity
  8
0
 62
     0
100
AcDbLine
 10
-57.90000000000327
 20
-185.6001491466104
 30
0.0
 11
30.30000150094384
 21
-244.3999999999996
 31
0.0
  0
LINE
  5
31CF
330
34C6
100
AcDbEntity
  8
0
 62
     0
100
AcDbLine
 10
30.30000150094565
 20
-244.4000000000015
 30
0.0
 11
150.3003079246646
 21
-324.4000000000014
 31
0.0
  0
LINE
  5
31D0
330
34C6
100
AcDbEntity
  8
0
 62
     0
100
AcDbLine
 10
-157.9000000000051
 20
-118.9336527149062
 30
0.0
 11
-57.90000000000327
 21
-185.6001491466104
 31
0.0
  0
LINE
  5
31D1
330
34C6
100
AcDbEntity
  8
0
 62
     0
100
AcDbLine
 10
-57.90000000000144
 20
-182.6001826111951
 30
0.0
 11
34.79996279482839
 21
-244.3999999999996
 31
0.0
  0
LINE
  5
31D2
330
34C6
100
AcDbEntity
  8
0
 62
     0
100
AcDbLine
 10
34.79996279483021
 20
-244.4000000000015
 30
0.0
 11
154.8002692185491
 21
-324.4000000000014
 31
0.0
  0
LINE
  5
31D3
330
34C6
100
AcDbEntity
  8
0
 62
     0
100
AcDbLine
 10
-157.9000000000033
 20
-115.9336861794909
 30
0.0
 11
-57.90000000000144
 21
-182.6001826111951
 31
0.0
  0
LINE
  5
31D4
330
34C6
100
AcDbEntity
  8
0
 62
     0
100
AcDbLine
 10
-57.90000000000509
 20
-179.6002160757762
 30
0.0
 11
39.29992408871294
 21
-244.3999999999996
 31
0.0
  0
LINE
  5
31D5
330
34C6
100
AcDbEntity
  8
0
 62
     0
100
AcDbLine
 10
39.29992408871476
 20
-244.3999999999996
 30
0.0
 11
157.8999999999905
 21
-323.4665153753867
 31
0.0
  0
LINE
  5
31D6
330
34C6
100
AcDbEntity
  8
0
 62
     0
100
AcDbLine
 10
-157.9000000000051
 20
-112.9337196440738
 30
0.0
 11
-57.90000000000509
 21
-179.6002160757762
 31
0.0
  0
LINE
  5
31D7
330
34C6
100
AcDbEntity
  8
0
 62
     0
100
AcDbLine
 10
-57.90000000000144
 20
-176.6002495403608
 30
0.0
 11
43.79988538259749
 21
-244.3999999999978
 31
0.0
  0
LINE
  5
31D8
330
34C6
100
AcDbEntity
  8
0
 62
     0
100
AcDbLine
 10
43.79988538259929
 20
-244.3999999999978
 30
0.0
 11
157.8999999999905
 21
-320.4665488399696
 31
0.0
  0
LINE
  5
31D9
330
34C6
100
AcDbEntity
  8
0
 62
     0
100
AcDbLine
 10
-157.9000000000033
 20
-109.9337531086566
 30
0.0
 11
-57.90000000000144
 21
-176.6002495403608
 31
0.0
  0
LINE
  5
31DA
330
34C6
100
AcDbEntity
  8
0
 62
     0
100
AcDbLine
 10
-57.90000000000327
 20
-173.6002830049438
 30
0.0
 11
48.29984667648385
 21
-244.3999999999978
 31
0.0
  0
LINE
  5
31DB
330
34C6
100
AcDbEntity
  8
0
 62
     0
100
AcDbLine
 10
48.29984667648568
 20
-244.3999999999996
 30
0.0
 11
157.8999999999923
 21
-317.466582304556
 31
0.0
  0
LINE
  5
31DC
330
34C6
100
AcDbEntity
  8
0
 62
     0
100
AcDbLine
 10
-157.9000000000033
 20
-106.9337865732413
 30
0.0
 11
-57.90000000000327
 21
-173.6002830049438
 31
0.0
  0
LINE
  5
31DD
330
34C6
100
AcDbEntity
  8
0
 62
     0
100
AcDbLine
 10
-57.90000000000327
 20
-170.6003164695285
 30
0.0
 11
52.79980797037024
 21
-244.3999999999978
 31
0.0
  0
LINE
  5
31DE
330
34C6
100
AcDbEntity
  8
0
 62
     0
100
AcDbLine
 10
52.79980797037207
 20
-244.3999999999996
 30
0.0
 11
157.8999999999905
 21
-314.4666157691391
 31
0.0
  0
LINE
  5
31DF
330
34C6
100
AcDbEntity
  8
0
 62
     0
100
AcDbLine
 10
-157.9000000000033
 20
-103.9338200378242
 30
0.0
 11
-57.90000000000327
 21
-170.6003164695285
 31
0.0
  0
LINE
  5
31E0
330
34C6
100
AcDbEntity
  8
0
 62
     0
100
AcDbLine
 10
-57.90000000000509
 20
-167.6003499341132
 30
0.0
 11
57.29976926425297
 21
-244.3999999999978
 31
0.0
  0
LINE
  5
31E1
330
34C6
100
AcDbEntity
  8
0
 62
     0
100
AcDbLine
 10
57.29976926425297
 20
-244.3999999999978
 30
0.0
 11
157.8999999999905
 21
-311.4666492337237
 31
0.0
  0
LINE
  5
31E2
330
34C6
100
AcDbEntity
  8
0
 62
     0
100
AcDbLine
 10
-157.9000000000051
 20
-100.9338535024107
 30
0.0
 11
-57.90000000000509
 21
-167.6003499341132
 31
0.0
  0
LINE
  5
31E3
330
34C6
100
AcDbEntity
  8
0
 62
     0
100
AcDbLine
 10
-57.90000000000144
 20
-164.600383398696
 30
0.0
 11
61.79973055814116
 21
-244.3999999999978
 31
0.0
  0
LINE
  5
31E4
330
34C6
100
AcDbEntity
  8
0
 62
     0
100
AcDbLine
 10
61.79973055814297
 20
-244.3999999999978
 30
0.0
 11
157.8999999999923
 21
-308.4666826983066
 31
0.0
  0
LINE
  5
31E5
330
34C6
100
AcDbEntity
  8
0
 62
     0
100
AcDbLine
 10
-157.9000000000014
 20
-97.93388696699365
 30
0.0
 11
-57.90000000000144
 21
-164.600383398696
 31
0.0
  0
LINE
  5
31E6
330
34C6
100
AcDbEntity
  8
0
 62
     0
100
AcDbLine
 10
-57.90000000000327
 20
-161.6004168632807
 30
0.0
 11
66.29969185202572
 21
-244.3999999999996
 31
0.0
  0
LINE
  5
31E7
330
34C6
100
AcDbEntity
  8
0
 62
     0
100
AcDbLine
 10
66.29969185202753
 20
-244.3999999999996
 30
0.0
 11
157.8999999999905
 21
-305.4667161628895
 31
0.0
  0
LINE
  5
31E8
330
34C6
100
AcDbEntity
  8
0
 62
     0
100
AcDbLine
 10
-157.9000000000033
 20
-94.93392043157838
 30
0.0
 11
-57.90000000000327
 21
-161.6004168632807
 31
0.0
  0
LINE
  5
31E9
330
34C6
100
AcDbEntity
  8
0
 62
     0
100
AcDbLine
 10
-57.90000000000327
 20
-158.6004503278636
 30
0.0
 11
70.79965314591209
 21
-244.3999999999978
 31
0.0
  0
LINE
  5
31EA
330
34C6
100
AcDbEntity
  8
0
 62
     0
100
AcDbLine
 10
70.79965314591389
 20
-244.3999999999996
 30
0.0
 11
157.8999999999905
 21
-302.4667496274742
 31
0.0
  0
LINE
  5
31EB
330
34C6
100
AcDbEntity
  8
0
 62
     0
100
AcDbLine
 10
-157.9000000000051
 20
-91.9339538961594
 30
0.0
 11
-57.90000000000327
 21
-158.6004503278636
 31
0.0
  0
LINE
  5
31EC
330
34C6
100
AcDbEntity
  8
0
 62
     0
100
AcDbLine
 10
-57.90000000000327
 20
-155.6004837924483
 30
0.0
 11
75.29961443979482
 21
-244.3999999999978
 31
0.0
  0
LINE
  5
31ED
330
34C6
100
AcDbEntity
  8
0
 62
     0
100
AcDbLine
 10
75.29961443979664
 20
-244.3999999999996
 30
0.0
 11
157.8999999999905
 21
-299.4667830920588
 31
0.0
  0
LINE
  5
31EE
330
34C6
100
AcDbEntity
  8
0
 62
     0
100
AcDbLine
 10
-157.9000000000051
 20
-88.93398736074413
 30
0.0
 11
-57.90000000000327
 21
-155.6004837924483
 31
0.0
  0
LINE
  5
31EF
330
34C6
100
AcDbEntity
  8
0
 62
     0
100
AcDbLine
 10
-57.90000000000327
 20
-152.6005172570312
 30
0.0
 11
79.79957573368665
 21
-244.3999999999996
 31
0.0
  0
LINE
  5
31F0
330
34C6
100
AcDbEntity
  8
0
 62
     0
100
AcDbLine
 10
79.79957573368665
 20
-244.4000000000015
 30
0.0
 11
157.8999999999923
 21
-296.4668165566417
 31
0.0
  0
LINE
  5
31F1
330
34C6
100
AcDbEntity
  8
0
 62
     0
100
AcDbLine
 10
-157.9000000000033
 20
-85.93402082532701
 30
0.0
 11
-57.90000000000327
 21
-152.6005172570312
 31
0.0
  0
LINE
  5
31F2
330
34C6
100
AcDbEntity
  8
0
 62
     0
100
AcDbLine
 10
-57.90000000000509
 20
-149.6005507216158
 30
0.0
 11
84.29953702756755
 21
-244.3999999999996
 31
0.0
  0
LINE
  5
31F3
330
34C6
100
AcDbEntity
  8
0
 62
     0
100
AcDbLine
 10
84.29953702756938
 20
-244.3999999999996
 30
0.0
 11
157.8999999999905
 21
-293.4668500212265
 31
0.0
  0
LINE
  5
31F4
330
34C6
100
AcDbEntity
  8
0
 62
     0
100
AcDbLine
 10
-157.9000000000051
 20
-82.93405428991354
 30
0.0
 11
-57.90000000000509
 21
-149.6005507216158
 31
0.0
  0
LINE
  5
31F5
330
34C6
100
AcDbEntity
  8
0
 62
     0
100
AcDbLine
 10
-57.90000000000327
 20
-146.6005841861988
 30
0.0
 11
88.79949832145573
 21
-244.3999999999996
 31
0.0
  0
LINE
  5
31F6
330
34C6
100
AcDbEntity
  8
0
 62
     0
100
AcDbLine
 10
88.79949832145756
 20
-244.3999999999996
 30
0.0
 11
157.8999999999923
 21
-290.4668834858094
 31
0.0
  0
LINE
  5
31F7
330
34C6
100
AcDbEntity
  8
0
 62
     0
100
AcDbLine
 10
-157.9000000000033
 20
-79.93408775449644
 30
0.0
 11
-57.90000000000327
 21
-146.6005841861988
 31
0.0
  0
LINE
  5
31F8
330
34C6
100
AcDbEntity
  8
0
 62
     0
100
AcDbLine
 10
-57.90000000000144
 20
-143.6006176507835
 30
0.0
 11
93.2994596153385
 21
-244.3999999999978
 31
0.0
  0
LINE
  5
31F9
330
34C6
100
AcDbEntity
  8
0
 62
     0
100
AcDbLine
 10
93.29945961534031
 20
-244.3999999999996
 30
0.0
 11
157.8999999999923
 21
-287.4669169503941
 31
0.0
  0
LINE
  5
31FA
330
34C6
100
AcDbEntity
  8
0
 62
     0
100
AcDbLine
 10
-157.9000000000033
 20
-76.93412121908115
 30
0.0
 11
-57.90000000000144
 21
-143.6006176507835
 31
0.0
  0
LINE
  5
31FB
330
34C6
100
AcDbEntity
  8
0
 62
     0
100
AcDbLine
 10
-57.90000000000327
 20
-140.6006511153664
 30
0.0
 11
97.79942090922483
 21
-244.3999999999978
 31
0.0
  0
LINE
  5
31FC
330
34C6
100
AcDbEntity
  8
0
 62
     0
100
AcDbLine
 10
97.79942090922668
 20
-244.3999999999996
 30
0.0
 11
157.8999999999923
 21
-284.4669504149771
 31
0.0
  0
LINE
  5
31FD
330
34C6
100
AcDbEntity
  8
0
 62
     0
100
AcDbLine
 10
-157.9000000000033
 20
-73.93415468366403
 30
0.0
 11
-57.90000000000327
 21
-140.6006511153664
 31
0.0
  0
LINE
  5
31FE
330
34C6
100
AcDbEntity
  8
0
 62
     0
100
AcDbLine
 10
-57.90000000000327
 20
-137.6006845799493
 30
0.0
 11
102.2993822031094
 21
-244.3999999999978
 31
0.0
  0
LINE
  5
31FF
330
34C6
100
AcDbEntity
  8
0
 62
     0
100
AcDbLine
 10
102.2993822031112
 20
-244.3999999999996
 30
0.0
 11
157.8999999999905
 21
-281.4669838795597
 31
0.0
  0
LINE
  5
3200
330
34C6
100
AcDbEntity
  8
0
 62
     0
100
AcDbLine
 10
-157.9000000000051
 20
-70.93418814824691
 30
0.0
 11
-57.90000000000327
 21
-137.6006845799493
 31
0.0
  0
LINE
  5
3201
330
34C6
100
AcDbEntity
  8
0
 62
     0
100
AcDbLine
 10
-57.90000000000327
 20
-134.600718044534
 30
0.0
 11
106.7993434969976
 21
-244.3999999999996
 31
0.0
  0
LINE
  5
3202
330
34C6
100
AcDbEntity
  8
0
 62
     0
100
AcDbLine
 10
106.7993434969976
 20
-244.3999999999996
 30
0.0
 11
157.8999999999923
 21
-278.4670173441445
 31
0.0
  0
LINE
  5
3203
330
34C6
100
AcDbEntity
  8
0
 62
     0
100
AcDbLine
 10
-157.9000000000033
 20
-67.9342216128316
 30
0.0
 11
-57.90000000000327
 21
-134.600718044534
 31
0.0
  0
LINE
  5
3204
330
34C6
100
AcDbEntity
  8
0
 62
     0
100
AcDbLine
 10
-57.90000000000144
 20
-131.6007515091169
 30
0.0
 11
111.2993047908803
 21
-244.3999999999978
 31
0.0
  0
LINE
  5
3205
330
34C6
100
AcDbEntity
  8
0
 62
     0
100
AcDbLine
 10
111.2993047908821
 20
-244.3999999999978
 30
0.0
 11
157.8999999999923
 21
-275.4670508087274
 31
0.0
  0
LINE
  5
3206
330
34C6
100
AcDbEntity
  8
0
 62
     0
100
AcDbLine
 10
-157.9000000000033
 20
-64.93425507741449
 30
0.0
 11
-57.90000000000327
 21
-131.6007515091169
 31
0.0
  0
LINE
  5
3207
330
34C6
100
AcDbEntity
  8
0
 62
     0
100
AcDbLine
 10
-57.90000000000327
 20
-128.6007849737016
 30
0.0
 11
115.7992660847667
 21
-244.3999999999978
 31
0.0
  0
LINE
  5
3208
330
34C6
100
AcDbEntity
  8
0
 62
     0
100
AcDbLine
 10
115.7992660847685
 20
-244.3999999999996
 30
0.0
 11
157.8999999999905
 21
-272.4670842733122
 31
0.0
  0
LINE
  5
3209
330
34C6
100
AcDbEntity
  8
0
 62
     0
100
AcDbLine
 10
-157.9000000000051
 20
-61.93428854199918
 30
0.0
 11
-57.90000000000509
 21
-128.6007849737016
 31
0.0
  0
LINE
  5
320A
330
34C6
100
AcDbEntity
  8
0
 62
     0
100
AcDbLine
 10
-57.90000000000327
 20
-125.6008184382845
 30
0.0
 11
120.2992273786531
 21
-244.3999999999978
 31
0.0
  0
LINE
  5
320B
330
34C6
100
AcDbEntity
  8
0
 62
     0
100
AcDbLine
 10
120.2992273786549
 20
-244.3999999999996
 30
0.0
 11
157.8999999999923
 21
-269.4671177378968
 31
0.0
  0
LINE
  5
320C
330
34C6
100
AcDbEntity
  8
0
 62
     0
100
AcDbLine
 10
-157.9000000000033
 20
-58.93432200658208
 30
0.0
 11
-57.90000000000327
 21
-125.6008184382845
 31
0.0
  0
LINE
  5
320D
330
34C6
100
AcDbEntity
  8
0
 62
     0
100
AcDbLine
 10
-57.90000000000327
 20
-122.6008519028692
 30
0.0
 11
124.7991886725376
 21
-244.3999999999978
 31
0.0
  0
LINE
  5
320E
330
34C6
100
AcDbEntity
  8
0
 62
     0
100
AcDbLine
 10
124.7991886725394
 20
-244.3999999999996
 30
0.0
 11
157.8999999999923
 21
-266.4671512024797
 31
0.0
  0
LINE
  5
320F
330
34C6
100
AcDbEntity
  8
0
 62
     0
100
AcDbLine
 10
-157.9000000000033
 20
-55.93435547116678
 30
0.0
 11
-57.90000000000327
 21
-122.6008519028692
 31
0.0
  0
LINE
  5
3210
330
34C6
100
AcDbEntity
  8
0
 62
     0
100
AcDbLine
 10
-57.90000000000327
 20
-119.600885367452
 30
0.0
 11
129.2991499664258
 21
-244.3999999999996
 31
0.0
  0
LINE
  5
3211
330
34C6
100
AcDbEntity
  8
0
 62
     0
100
AcDbLine
 10
129.2991499664276
 20
-244.3999999999996
 30
0.0
 11
157.8999999999905
 21
-263.4671846670626
 31
0.0
  0
LINE
  5
3212
330
34C6
100
AcDbEntity
  8
0
 62
     0
100
AcDbLine
 10
-157.9000000000033
 20
-52.93438893574965
 30
0.0
 11
-57.90000000000327
 21
-119.600885367452
 31
0.0
  0
LINE
  5
3213
330
34C6
100
AcDbEntity
  8
0
 62
     0
100
AcDbLine
 10
-57.90000000000509
 20
-116.6009188320368
 30
0.0
 11
133.7991112603085
 21
-244.3999999999996
 31
0.0
  0
LINE
  5
3214
330
34C6
100
AcDbEntity
  8
0
 62
     0
100
AcDbLine
 10
133.7991112603104
 20
-244.3999999999996
 30
0.0
 11
157.8999999999905
 21
-260.4672181316473
 31
0.0
  0
LINE
  5
3215
330
34C6
100
AcDbEntity
  8
0
 62
     0
100
AcDbLine
 10
-156.901631051147
 20
-50.60000000000036
 30
0.0
 11
-57.90000000000509
 21
-116.6009188320368
 31
0.0
  0
LINE
  5
3216
330
34C6
100
AcDbEntity
  8
0
 62
     0
100
AcDbLine
 10
-57.90000000000327
 20
-113.6009522966196
 30
0.0
 11
138.2990725541949
 21
-244.3999999999978
 31
0.0
  0
LINE
  5
3217
330
34C6
100
AcDbEntity
  8
0
 62
     0
100
AcDbLine
 10
138.2990725541967
 20
-244.3999999999996
 30
0.0
 11
157.8999999999905
 21
-257.4672515962302
 31
0.0
  0
LINE
  5
3218
330
34C6
100
AcDbEntity
  8
0
 62
     0
100
AcDbLine
 10
-152.4016697572569
 20
-50.60000000000218
 30
0.0
 11
-57.90000000000327
 21
-113.6009522966196
 31
0.0
  0
LINE
  5
3219
330
34C6
100
AcDbEntity
  8
0
 62
     0
100
AcDbLine
 10
-57.90000000000327
 20
-110.6009857612043
 30
0.0
 11
142.7990338480794
 21
-244.3999999999978
 31
0.0
  0
LINE
  5
321A
330
34C6
100
AcDbEntity
  8
0
 62
     0
100
AcDbLine
 10
142.7990338480813
 20
-244.3999999999996
 30
0.0
 11
157.8999999999923
 21
-254.4672850608167
 31
0.0
  0
LINE
  5
321B
330
34C6
100
AcDbEntity
  8
0
 62
     0
100
AcDbLine
 10
-147.9017084633724
 20
-50.60000000000036
 30
0.0
 11
-57.90000000000327
 21
-110.6009857612043
 31
0.0
  0
LINE
  5
321C
330
34C6
100
AcDbEntity
  8
0
 62
     0
100
AcDbLine
 10
-57.90000000000327
 20
-107.601019225789
 30
0.0
 11
147.2989951419677
 21
-244.3999999999996
 31
0.0
  0
LINE
  5
321D
330
34C6
100
AcDbEntity
  8
0
 62
     0
100
AcDbLine
 10
147.2989951419695
 20
-244.4000000000015
 30
0.0
 11
157.8999999999905
 21
-251.4673185253996
 31
0.0
  0
LINE
  5
321E
330
34C6
100
AcDbEntity
  8
0
 62
     0
100
AcDbLine
 10
-143.4017471694878
 20
-50.60000000000036
 30
0.0
 11
-57.90000000000327
 21
-107.601019225789
 31
0.0
  0
LINE
  5
321F
330
34C6
100
AcDbEntity
  8
0
 62
     0
100
AcDbLine
 10
-57.90000000000327
 20
-104.6010526903737
 30
0.0
 11
151.7989564358521
 21
-244.3999999999996
 31
0.0
  0
LINE
  5
3220
330
34C6
100
AcDbEntity
  8
0
 62
     0
100
AcDbLine
 10
151.798956435854
 20
-244.3999999999996
 30
0.0
 11
157.8999999999923
 21
-248.4673519899843
 31
0.0
  0
LINE
  5
3221
330
34C6
100
AcDbEntity
  8
0
 62
     0
100
AcDbLine
 10
-138.9017858756033
 20
-50.60000000000036
 30
0.0
 11
-57.90000000000509
 21
-104.6010526903719
 31
0.0
  0
LINE
  5
3222
330
34C6
100
AcDbEntity
  8
0
 62
     0
100
AcDbLine
 10
-57.90000000000144
 20
-101.6010861549566
 30
0.0
 11
156.2989177297386
 21
-244.3999999999996
 31
0.0
  0
LINE
  5
3223
330
34C6
100
AcDbEntity
  8
0
 62
     0
100
AcDbLine
 10
156.2989177297404
 20
-244.3999999999996
 30
0.0
 11
157.8999999999923
 21
-245.4673854545672
 31
0.0
  0
LINE
  5
3224
330
34C6
100
AcDbEntity
  8
0
 62
     0
100
AcDbLine
 10
-134.4018245817169
 20
-50.60000000000036
 30
0.0
 11
-57.90000000000327
 21
-101.6010861549548
 31
0.0
  0
LINE
  5
3225
330
34C6
100
AcDbEntity
  8
0
 62
     0
100
AcDbLine
 10
-57.90000000000509
 20
-98.60111961953954
 30
0.0
 11
157.8999999999923
 21
-242.4674189191519
 31
0.0
  0
LINE
  5
3226
330
34C6
100
AcDbEntity
  8
0
 62
     0
100
AcDbLine
 10
-129.9018632878305
 20
-50.60000000000218
 30
0.0
 11
-57.90000000000509
 21
-98.60111961953954
 31
0.0
  0
LINE
  5
3227
330
34C6
100
AcDbEntity
  8
0
 62
     0
100
AcDbLine
 10
-57.90000000000509
 20
-95.60115308412241
 30
0.0
 11
157.8999999999905
 21
-239.467452383733
 31
0.0
  0
LINE
  5
3228
330
34C6
100
AcDbEntity
  8
0
 62
     0
100
AcDbLine
 10
-125.4019019939496
 20
-50.59999999999853
 30
0.0
 11
-57.90000000000509
 21
-95.60115308412241
 31
0.0
  0
LINE
  5
3229
330
34C6
100
AcDbEntity
  8
0
 62
     0
100
AcDbLine
 10
-57.90000000000327
 20
-92.60118654870527
 30
0.0
 11
157.8999999999923
 21
-236.4674858483176
 31
0.0
  0
LINE
  5
322A
330
34C6
100
AcDbEntity
  8
0
 62
     0
100
AcDbLine
 10
-120.9019407000596
 20
-50.59999999999853
 30
0.0
 11
-57.90000000000327
 21
-92.60118654870527
 31
0.0
  0
LINE
  5
322B
330
34C6
100
AcDbEntity
  8
0
 62
     0
100
AcDbLine
 10
-57.90000000000327
 20
-89.60122001329182
 30
0.0
 11
157.8999999999923
 21
-233.4675193129024
 31
0.0
  0
LINE
  5
322C
330
34C6
100
AcDbEntity
  8
0
 62
     0
100
AcDbLine
 10
-116.4019794061751
 20
-50.60000000000036
 30
0.0
 11
-57.90000000000327
 21
-89.60122001329182
 31
0.0
  0
LINE
  5
322D
330
34C6
100
AcDbEntity
  8
0
 62
     0
100
AcDbLine
 10
-57.90000000000327
 20
-86.60125347787468
 30
0.0
 11
157.8999999999905
 21
-230.4675527774853
 31
0.0
  0
LINE
  5
322E
330
34C6
100
AcDbEntity
  8
0
 62
     0
100
AcDbLine
 10
-111.9020181122887
 20
-50.60000000000036
 30
0.0
 11
-57.90000000000327
 21
-86.60125347787468
 31
0.0
  0
LINE
  5
322F
330
34C6
100
AcDbEntity
  8
0
 62
     0
100
AcDbLine
 10
-57.90000000000327
 20
-83.60128694245942
 30
0.0
 11
157.8999999999923
 21
-227.4675862420699
 31
0.0
  0
LINE
  5
3230
330
34C6
100
AcDbEntity
  8
0
 62
     0
100
AcDbLine
 10
-107.4020568184059
 20
-50.60000000000036
 30
0.0
 11
-57.90000000000327
 21
-83.60128694245942
 31
0.0
  0
LINE
  5
3231
330
34C6
100
AcDbEntity
  8
0
 62
     0
100
AcDbLine
 10
-57.90000000000144
 20
-80.6013204070423
 30
0.0
 11
157.8999999999923
 21
-224.4676197066528
 31
0.0
  0
LINE
  5
3232
330
34C6
100
AcDbEntity
  8
0
 62
     0
100
AcDbLine
 10
-102.9020955245178
 20
-50.59999999999853
 30
0.0
 11
-57.90000000000144
 21
-80.6013204070423
 31
0.0
  0
LINE
  5
3233
330
34C6
100
AcDbEntity
  8
0
 62
     0
100
AcDbLine
 10
-57.90000000000509
 20
-77.60135387162518
 30
0.0
 11
157.8999999999923
 21
-221.4676531712375
 31
0.0
  0
LINE
  5
3234
330
34C6
100
AcDbEntity
  8
0
 62
     0
100
AcDbLine
 10
-98.40213423063325
 20
-50.60000000000036
 30
0.0
 11
-57.90000000000509
 21
-77.60135387162518
 31
0.0
  0
LINE
  5
3235
330
34C6
100
AcDbEntity
  8
0
 62
     0
100
AcDbLine
 10
-57.90000000000327
 20
-74.60138733620988
 30
0.0
 11
157.8999999999923
 21
-218.4676866358204
 31
0.0
  0
LINE
  5
3236
330
34C6
100
AcDbEntity
  8
0
 62
     0
100
AcDbLine
 10
-93.90217293674504
 20
-50.60000000000036
 30
0.0
 11
-57.90000000000327
 21
-74.60138733620988
 31
0.0
  0
LINE
  5
3237
330
34C6
100
AcDbEntity
  8
0
 62
     0
100
AcDbLine
 10
-57.90000000000327
 20
-71.60142080079459
 30
0.0
 11
157.8999999999942
 21
-215.4677201004052
 31
0.0
  0
LINE
  5
3238
330
34C6
100
AcDbEntity
  8
0
 62
     0
100
AcDbLine
 10
-89.4022116428623
 20
-50.60000000000036
 30
0.0
 11
-57.90000000000327
 21
-71.60142080079459
 31
0.0
  0
LINE
  5
3239
330
34C6
100
AcDbEntity
  8
0
 62
     0
100
AcDbLine
 10
-57.90000000000327
 20
-68.60145426537747
 30
0.0
 11
157.8999999999905
 21
-212.467753564988
 31
0.0
  0
LINE
  5
323A
330
34C6
100
AcDbEntity
  8
0
 62
     0
100
AcDbLine
 10
-84.90225034897594
 20
-50.60000000000036
 30
0.0
 11
-57.90000000000327
 21
-68.60145426537747
 31
0.0
  0
LINE
  5
323B
330
34C6
100
AcDbEntity
  8
0
 62
     0
100
AcDbLine
 10
-57.90000000000509
 20
-65.60148772996218
 30
0.0
 11
157.8999999999905
 21
-209.4677870295727
 31
0.0
  0
LINE
  5
323C
330
34C6
100
AcDbEntity
  8
0
 62
     0
100
AcDbLine
 10
-80.40228905509136
 20
-50.60000000000218
 30
0.0
 11
-57.90000000000509
 21
-65.60148772996218
 31
0.0
  0
LINE
  5
323D
330
34C6
100
AcDbEntity
  8
0
 62
     0
100
AcDbLine
 10
-57.90000000000327
 20
-62.60152119454506
 30
0.0
 11
157.8999999999905
 21
-206.4678204941556
 31
0.0
  0
LINE
  5
323E
330
34C6
100
AcDbEntity
  8
0
 62
     0
100
AcDbLine
 10
-75.90232776120683
 20
-50.59999999999853
 30
0.0
 11
-57.90000000000327
 21
-62.60152119454506
 31
0.0
  0
LINE
  5
323F
330
34C6
100
AcDbEntity
  8
0
 62
     0
100
AcDbLine
 10
-57.90000000000327
 20
-59.60155465912976
 30
0.0
 11
157.8999999999923
 21
-203.4678539587403
 31
0.0
  0
LINE
  5
3240
330
34C6
100
AcDbEntity
  8
0
 62
     0
100
AcDbLine
 10
-71.40236646732045
 20
-50.60000000000036
 30
0.0
 11
-57.90000000000327
 21
-59.60155465912976
 31
0.0
  0
LINE
  5
3241
330
34C6
100
AcDbEntity
  8
0
 62
     0
100
AcDbLine
 10
-57.90000000000327
 20
-56.60158812371264
 30
0.0
 11
157.8999999999905
 21
-200.4678874233232
 31
0.0
  0
LINE
  5
3242
330
34C6
100
AcDbEntity
  8
0
 62
     0
100
AcDbLine
 10
-66.90240517343773
 20
-50.59999999999853
 30
0.0
 11
-57.90000000000327
 21
-56.60158812371264
 31
0.0
  0
LINE
  5
3243
330
34C6
100
AcDbEntity
  8
0
 62
     0
100
AcDbLine
 10
-57.90000000000327
 20
-53.60162158829552
 30
0.0
 11
157.8999999999923
 21
-197.467920887906
 31
0.0
  0
LINE
  5
3244
330
34C6
100
AcDbEntity
  8
0
 62
     0
100
AcDbLine
 10
-62.40244387954771
 20
-50.60000000000036
 30
0.0
 11
-57.90000000000327
 21
-53.60162158829552
 31
0.0
  0
LINE
  5
3245
330
34C6
100
AcDbEntity
  8
0
 62
     0
100
AcDbLine
 10
-57.90000000000327
 20
-50.60165505288023
 30
0.0
 11
157.8999999999923
 21
-194.4679543524907
 31
0.0
  0
LINE
  5
3246
330
34C6
100
AcDbEntity
  8
0
 62
     0
100
AcDbLine
 10
-57.90248258566315
 20
-50.59999999999853
 30
0.0
 11
-57.90000000000327
 21
-50.60165505288023
 31
0.0
  0
LINE
  5
3247
330
34C6
100
AcDbEntity
  8
0
 62
     0
100
AcDbLine
 10
-53.40252129177861
 20
-50.59999999999853
 30
0.0
 11
157.8999999999923
 21
-191.4679878170755
 31
0.0
  0
LINE
  5
3248
330
34C6
100
AcDbEntity
  8
0
 62
     0
100
AcDbLine
 10
-48.90255999789587
 20
-50.59999999999853
 30
0.0
 11
157.8999999999905
 21
-188.4680212816602
 31
0.0
  0
LINE
  5
3249
330
34C6
100
AcDbEntity
  8
0
 62
     0
100
AcDbLine
 10
-44.40259870400405
 20
-50.60000000000036
 30
0.0
 11
157.8999999999923
 21
-185.4680547462412
 31
0.0
  0
LINE
  5
324A
330
34C6
100
AcDbEntity
  8
0
 62
     0
100
AcDbLine
 10
-39.90263741012132
 20
-50.60000000000036
 30
0.0
 11
157.8999999999923
 21
-182.4680882108278
 31
0.0
  0
LINE
  5
324B
330
34C6
100
AcDbEntity
  8
0
 62
     0
100
AcDbLine
 10
-35.40267611623676
 20
-50.60000000000036
 30
0.0
 11
157.8999999999905
 21
-179.4681216754088
 31
0.0
  0
LINE
  5
324C
330
34C6
100
AcDbEntity
  8
0
 62
     0
100
AcDbLine
 10
-30.90271482234857
 20
-50.60000000000036
 30
0.0
 11
157.8999999999923
 21
-176.4681551399935
 31
0.0
  0
LINE
  5
324D
330
34C6
100
AcDbEntity
  8
0
 62
     0
100
AcDbLine
 10
-26.4027535284622
 20
-50.60000000000036
 30
0.0
 11
157.8999999999923
 21
-173.4681886045781
 31
0.0
  0
LINE
  5
324E
330
34C6
100
AcDbEntity
  8
0
 62
     0
100
AcDbLine
 10
-21.90279223457947
 20
-50.60000000000036
 30
0.0
 11
157.8999999999923
 21
-170.4682220691629
 31
0.0
  0
LINE
  5
324F
330
34C6
100
AcDbEntity
  8
0
 62
     0
100
AcDbLine
 10
-17.40283094069308
 20
-50.60000000000036
 30
0.0
 11
157.8999999999923
 21
-167.4682555337458
 31
0.0
  0
LINE
  5
3250
330
34C6
100
AcDbEntity
  8
0
 62
     0
100
AcDbLine
 10
-12.9028696468049
 20
-50.60000000000218
 30
0.0
 11
157.8999999999942
 21
-164.4682889983305
 31
0.0
  0
LINE
  5
3251
330
34C6
100
AcDbEntity
  8
0
 62
     0
100
AcDbLine
 10
-8.402908352923985
 20
-50.59999999999853
 30
0.0
 11
157.8999999999923
 21
-161.4683224629134
 31
0.0
  0
LINE
  5
3252
330
34C6
100
AcDbEntity
  8
0
 62
     0
100
AcDbLine
 10
-3.902947059037614
 20
-50.59999999999853
 30
0.0
 11
157.8999999999905
 21
-158.4683559274963
 31
0.0
  0
LINE
  5
3253
330
34C6
100
AcDbEntity
  8
0
 62
     0
100
AcDbLine
 10
0.5970142348451191
 20
-50.59999999999853
 30
0.0
 11
157.8999999999923
 21
-155.468389392081
 31
0.0
  0
LINE
  5
3254
330
34C6
100
AcDbEntity
  8
0
 62
     0
100
AcDbLine
 10
5.096975528736948
 20
-50.60000000000036
 30
0.0
 11
157.8999999999923
 21
-152.4684228566638
 31
0.0
  0
LINE
  5
3255
330
34C6
100
AcDbEntity
  8
0
 62
     0
100
AcDbLine
 10
9.596936822617864
 20
-50.59999999999853
 30
0.0
 11
157.8999999999905
 21
-149.4684563212486
 31
0.0
  0
LINE
  5
3256
330
34C6
100
AcDbEntity
  8
0
 62
     0
100
AcDbLine
 10
14.09689811650605
 20
-50.59999999999853
 30
0.0
 11
157.899999999996
 21
-146.4684897858333
 31
0.0
  0
LINE
  5
3257
330
34C6
100
AcDbEntity
  8
0
 62
     0
100
AcDbLine
 10
18.5968594103924
 20
-50.60000000000036
 30
0.0
 11
157.899999999996
 21
-143.468523250418
 31
0.0
  0
LINE
  5
3258
330
34C6
100
AcDbEntity
  8
0
 62
     0
100
AcDbLine
 10
23.09682070427697
 20
-50.60000000000036
 30
0.0
 11
157.899999999996
 21
-140.4685567150009
 31
0.0
  0
LINE
  5
3259
330
34C6
100
AcDbEntity
  8
0
 62
     0
100
AcDbLine
 10
27.59678199815971
 20
-50.60000000000036
 30
0.0
 11
157.8999999999942
 21
-137.4685901795856
 31
0.0
  0
LINE
  5
325A
330
34C6
100
AcDbEntity
  8
0
 62
     0
100
AcDbLine
 10
32.09674329204791
 20
-50.60000000000036
 30
0.0
 11
157.899999999996
 21
-134.4686236441684
 31
0.0
  0
LINE
  5
325B
330
34C6
100
AcDbEntity
  8
0
 62
     0
100
AcDbLine
 10
36.59670458593428
 20
-50.60000000000036
 30
0.0
 11
157.899999999996
 21
-131.468657108755
 31
0.0
  0
LINE
  5
325C
330
34C6
100
AcDbEntity
  8
0
 62
     0
100
AcDbLine
 10
41.09666587981701
 20
-50.59999999999853
 30
0.0
 11
157.899999999996
 21
-128.4686905733378
 31
0.0
  0
LINE
  5
325D
330
34C6
100
AcDbEntity
  8
0
 62
     0
100
AcDbLine
 10
45.59662717370338
 20
-50.60000000000036
 30
0.0
 11
157.8999999999942
 21
-125.4687240379207
 31
0.0
  0
LINE
  5
325E
330
34C6
100
AcDbEntity
  8
0
 62
     0
100
AcDbLine
 10
50.09658846759157
 20
-50.60000000000036
 30
0.0
 11
157.8999999999978
 21
-122.4687575025054
 31
0.0
  0
LINE
  5
325F
330
34C6
100
AcDbEntity
  8
0
 62
     0
100
AcDbLine
 10
54.59654976147612
 20
-50.60000000000036
 30
0.0
 11
157.8999999999942
 21
-119.4687909670865
 31
0.0
  0
LINE
  5
3260
330
34C6
100
AcDbEntity
  8
0
 62
     0
100
AcDbLine
 10
59.09651105535886
 20
-50.59999999999853
 30
0.0
 11
157.8999999999942
 21
-116.468824431673
 31
0.0
  0
LINE
  5
3261
330
34C6
100
AcDbEntity
  8
0
 62
     0
100
AcDbLine
 10
63.59647234924704
 20
-50.59999999999853
 30
0.0
 11
157.899999999996
 21
-113.4688578962559
 31
0.0
  0
LINE
  5
3262
330
34C6
100
AcDbEntity
  8
0
 62
     0
100
AcDbLine
 10
68.09643364313342
 20
-50.60000000000036
 30
0.0
 11
157.899999999996
 21
-110.4688913608406
 31
0.0
  0
LINE
  5
3263
330
34C6
100
AcDbEntity
  8
0
 62
     0
100
AcDbLine
 10
72.59639493701796
 20
-50.60000000000036
 30
0.0
 11
157.8999999999942
 21
-107.4689248254235
 31
0.0
  0
LINE
  5
3264
330
34C6
100
AcDbEntity
  8
0
 62
     0
100
AcDbLine
 10
77.09635623090254
 20
-50.60000000000036
 30
0.0
 11
157.899999999996
 21
-104.4689582900082
 31
0.0
  0
LINE
  5
3265
330
34C6
100
AcDbEntity
  8
0
 62
     0
100
AcDbLine
 10
81.5963175247889
 20
-50.59999999999853
 30
0.0
 11
157.899999999996
 21
-101.4689917545911
 31
0.0
  0
LINE
  5
3266
330
34C6
100
AcDbEntity
  8
0
 62
     0
100
AcDbLine
 10
86.09627881867345
 20
-50.60000000000036
 30
0.0
 11
157.8999999999942
 21
-98.46902521917582
 31
0.0
  0
LINE
  5
3267
330
34C6
100
AcDbEntity
  8
0
 62
     0
100
AcDbLine
 10
90.59624011256165
 20
-50.60000000000036
 30
0.0
 11
157.899999999996
 21
-95.46905868375871
 31
0.0
  0
LINE
  5
3268
330
34C6
100
AcDbEntity
  8
0
 62
     0
100
AcDbLine
 10
95.09620140644619
 20
-50.60000000000036
 30
0.0
 11
157.899999999996
 21
-92.46909214834341
 31
0.0
  0
LINE
  5
3269
330
34C6
100
AcDbEntity
  8
0
 62
     0
100
AcDbLine
 10
99.59616270033077
 20
-50.60000000000036
 30
0.0
 11
157.899999999996
 21
-89.46912561292629
 31
0.0
  0
LINE
  5
326A
330
34C6
100
AcDbEntity
  8
0
 62
     0
100
AcDbLine
 10
104.0961239942153
 20
-50.60000000000036
 30
0.0
 11
157.8999999999942
 21
-86.46915907751099
 31
0.0
  0
LINE
  5
326B
330
34C6
100
AcDbEntity
  8
0
 62
     0
100
AcDbLine
 10
108.5960852880998
 20
-50.59999999999853
 30
0.0
 11
157.899999999996
 21
-83.46919254209387
 31
0.0
  0
LINE
  5
326C
330
34C6
100
AcDbEntity
  8
0
 62
     0
100
AcDbLine
 10
113.096046581988
 20
-50.59999999999853
 30
0.0
 11
157.899999999996
 21
-80.46922600667675
 31
0.0
  0
LINE
  5
326D
330
34C6
100
AcDbEntity
  8
0
 62
     0
100
AcDbLine
 10
117.5960078758726
 20
-50.60000000000036
 30
0.0
 11
157.899999999996
 21
-77.46925947126145
 31
0.0
  0
LINE
  5
326E
330
34C6
100
AcDbEntity
  8
0
 62
     0
100
AcDbLine
 10
122.0959691697589
 20
-50.60000000000036
 30
0.0
 11
157.899999999996
 21
-74.46929293584435
 31
0.0
  0
LINE
  5
326F
330
34C6
100
AcDbEntity
  8
0
 62
     0
100
AcDbLine
 10
126.5959304636435
 20
-50.59999999999853
 30
0.0
 11
157.8999999999978
 21
-71.46932640042905
 31
0.0
  0
LINE
  5
3270
330
34C6
100
AcDbEntity
  8
0
 62
     0
100
AcDbLine
 10
131.0958917575299
 20
-50.59999999999853
 30
0.0
 11
157.899999999996
 21
-68.46935986501375
 31
0.0
  0
LINE
  5
3271
330
34C6
100
AcDbEntity
  8
0
 62
     0
100
AcDbLine
 10
135.5958530514144
 20
-50.60000000000036
 30
0.0
 11
157.8999999999942
 21
-65.46939332959664
 31
0.0
  0
LINE
  5
3272
330
34C6
100
AcDbEntity
  8
0
 62
     0
100
AcDbLine
 10
140.0958143453026
 20
-50.60000000000036
 30
0.0
 11
157.899999999996
 21
-62.46942679417952
 31
0.0
  0
LINE
  5
3273
330
34C6
100
AcDbEntity
  8
0
 62
     0
100
AcDbLine
 10
144.5957756391852
 20
-50.60000000000036
 30
0.0
 11
157.899999999996
 21
-59.46946025876423
 31
0.0
  0
LINE
  5
3274
330
34C6
100
AcDbEntity
  8
0
 62
     0
100
AcDbLine
 10
149.0957369330699
 20
-50.59999999999853
 30
0.0
 11
157.8999999999942
 21
-56.46949372334711
 31
0.0
  0
LINE
  5
3275
330
34C6
100
AcDbEntity
  8
0
 62
     0
100
AcDbLine
 10
153.5956982269581
 20
-50.60000000000036
 30
0.0
 11
157.899999999996
 21
-53.46952718793364
 31
0.0
  0
ENDBLK
  5
3276
330
34C6
100
AcDbEntity
  8
0
100
AcDbBlockEnd
  0
ENDSEC
  0
SECTION
  2
ENTITIES
  0
TEXT
  5
953
330
33E7
100
AcDbEntity
  8
OUTLINE
  6
Continuous
 62
     3
100
AcDbText
 10
-418.231467
 20
13.715189
 30
0.0
 40
64.0
  1
 
 41
0.9
100
AcDbText
  0
TEXT
  5
954
330
33E7
100
AcDbEntity
  8
OUTLINE
  6
Continuous
 62
     3
100
AcDbText
 10
-418.231467
 20
13.715189
 30
0.0
 40
64.0
  1
 
 41
0.9
100
AcDbText
  0
TEXT
  5
955
330
33E7
100
AcDbEntity
  8
OUTLINE
  6
Continuous
 62
     3
100
AcDbText
 10
1341.41903
 20
-706.0588199999997
 30
0.0
 40
64.0
  1
 
 41
0.9
100
AcDbText
  0
TEXT
  5
956
330
33E7
100
AcDbEntity
  8
OUTLINE
  6
Continuous
 62
     3
100
AcDbText
 10
1341.41903
 20
-706.0588199999997
 30
0.0
 40
64.0
  1
 
 41
0.9
100
AcDbText
  0
TEXT
  5
957
330
33E7
100
AcDbEntity
  8
OUTLINE
  6
Continuous
 62
     3
100
AcDbText
 10
1341.41903
 20
-706.0588199999997
 30
0.0
 40
64.0
  1
 
 41
0.9
100
AcDbText
  0
TEXT
  5
958
330
33E7
100
AcDbEntity
  8
OUTLINE
  6
Continuous
 62
     3
100
AcDbText
 10
1341.41903
 20
-706.0588199999997
 30
0.0
 40
64.0
  1
 
 41
0.9
100
AcDbText
  0
TEXT
  5
32DE
330
33E7
100
AcDbEntity
  8
ETC
100
AcDbText
 10
256.2468308916468
 20
417.5302363732356
 30
0.0
 40
64.0
  1
システム部材
 41
0.9
100
AcDbText
  0
TEXT
  5
32DF
330
33E7
100
AcDbEntity
  8
ETC
100
AcDbText
 10
262.4548288916449
 20
518.4135623732356
 30
0.0
 40
64.0
  1
W-30SAM_6
 41
0.9
100
AcDbText
  0
TEXT
  5
32E0
330
33E7
100
AcDbEntity
  8
ETC
100
AcDbText
 10
256.2468308916468
 20
317.5302363732359
 30
0.0
 40
64.0
  1
W-30SAM
 41
0.9
100
AcDbText
  0
LINE
  5
32E1
330
33E7
100
AcDbEntity
  8
DETAIL
100
AcDbLine
 10
-173.5
 20
-0.5999999999999126
 30
0.0
 11
-173.5
 21
-340.0
 31
0.0
  0
LINE
  5
32E2
330
33E7
100
AcDbEntity
  8
OUTLINE
100
AcDbLine
 10
173.5
 20
-0.5999999999999126
 30
0.0
 11
173.5
 21
-340.0
 31
0.0
  0
LINE
  5
32E3
330
33E7
100
AcDbEntity
  8
DETAIL
100
AcDbLine
 10
173.5
 20
-0.5999999999999126
 30
0.0
 11
173.5
 21
-340.0
 31
0.0
  0
POLYLINE
  5
32E4
330
33E7
100
AcDbEntity
  8
DETAIL
100
AcDb2dPolyline
 66
     1
 10
0.0
 20
0.0
 30
0.0
  0
VERTEX
  5
32E5
330
32E4
100
AcDbEntity
  8
DETAIL
100
AcDbVertex
100
AcDb2dVertex
 10
-173.5
 20
-35.0
 30
0.0
  0
VERTEX
  5
32E6
330
32E4
100
AcDbEntity
  8
DETAIL
100
AcDbVertex
100
AcDb2dVertex
 10
173.4999999999963
 20
-35.0
 30
0.0
  0
SEQEND
  5
32E7
330
32E4
100
AcDbEntity
  8
DETAIL
  0
POLYLINE
  5
32E8
330
33E7
100
AcDbEntity
  8
DETAIL
100
AcDb2dPolyline
 66
     1
 10
0.0
 20
0.0
 30
0.0
  0
VERTEX
  5
32E9
330
32E8
100
AcDbEntity
  8
DETAIL
100
AcDbVertex
100
AcDb2dVertex
 10
-207.5
 20
-0.5999999999999126
 30
0.0
  0
VERTEX
  5
32EA
330
32E8
100
AcDbEntity
  8
DETAIL
100
AcDbVertex
100
AcDb2dVertex
 10
207.5
 20
-0.5999999999999126
 30
0.0
  0
SEQEND
  5
32EB
330
32E8
100
AcDbEntity
  8
DETAIL
  0
POLYLINE
  5
32EC
330
33E7
100
AcDbEntity
  8
DETAIL
100
AcDb2dPolyline
 66
     1
 10
0.0
 20
0.0
 30
0.0
  0
VERTEX
  5
32ED
330
32EC
100
AcDbEntity
  8
DETAIL
100
AcDbVertex
100
AcDb2dVertex
 10
-207.5
 20
-0.0000000000000036
 30
0.0
  0
VERTEX
  5
32EE
330
32EC
100
AcDbEntity
  8
DETAIL
100
AcDbVertex
100
AcDb2dVertex
 10
207.5
 20
-0.0000000000000036
 30
0.0
  0
SEQEND
  5
32EF
330
32EC
100
AcDbEntity
  8
DETAIL
  0
LINE
  5
32F0
330
33E7
100
AcDbEntity
  8
DETAIL
100
AcDbLine
 10
-207.5
 20
-0.5999999999999126
 30
0.0
 11
-207.5
 21
-0.0000000000000036
 31
0.0
  0
LINE
  5
32F1
330
33E7
100
AcDbEntity
  8
NOTE
100
AcDbLine
 10
-190.0
 20
12.5
 30
0.0
 11
-190.0
 21
-12.5
 31
0.0
  0
LINE
  5
32F2
330
33E7
100
AcDbEntity
  8
NOTE
100
AcDbLine
 10
190.0
 20
-12.5
 30
0.0
 11
190.0
 21
12.5
 31
0.0
  0
LINE
  5
32F3
330
33E7
100
AcDbEntity
  8
DETAIL
100
AcDbLine
 10
207.5
 20
-0.5999999999999126
 30
0.0
 11
207.5
 21
-0.0000000000000036
 31
0.0
  0
LINE
  5
32F4
330
33E7
100
AcDbEntity
  8
DETAIL
100
AcDbLine
 10
-173.5
 20
-340.0
 30
0.0
 11
173.5
 21
-340.0
 31
0.0
  0
CIRCLE
  5
32F5
330
33E7
100
AcDbEntity
  8
ARRANGE
100
AcDbCircle
 10
0.0
 20
-0.0000000000000036
 30
0.0
 40
40.0
  0
POINT
  5
32F6
330
33E7
100
AcDbEntity
  8
ARRANGE
100
AcDbPoint
 10
0.0
 20
-0.0000000000000036
 30
0.0
 39
50.0
  0
LINE
  5
32F7
330
33E7
100
AcDbEntity
  8
BASIS
100
AcDbLine
 10
0.0
 20
25.0
 30
0.0
 11
0.0
 21
-365.0
 31
0.0
  0
LINE
  5
32F8
330
33E7
100
AcDbEntity
  8
DETAIL
100
AcDbLine
 10
-157.9000000000014
 20
-50.5999999999999
 30
0.0
 11
-157.9000000000014
 21
-324.3999999999996
 31
0.0
  0
LINE
  5
32F9
330
33E7
100
AcDbEntity
  8
DETAIL
100
AcDbLine
 10
157.8999999999978
 20
-50.5999999999999
 30
0.0
 11
157.8999999999978
 21
-324.3999999999996
 31
0.0
  0
POLYLINE
  5
32FA
330
33E7
100
AcDbEntity
  8
DETAIL
100
AcDb2dPolyline
 66
     1
 10
0.0
 20
0.0
 30
0.0
  0
VERTEX
  5
32FB
330
32FA
100
AcDbEntity
  8
DETAIL
100
AcDbVertex
100
AcDb2dVertex
 10
-157.9000000000014
 20
-50.5999999999999
 30
0.0
  0
VERTEX
  5
32FC
330
32FA
100
AcDbEntity
  8
DETAIL
100
AcDbVertex
100
AcDb2dVertex
 10
157.8999999999978
 20
-50.5999999999999
 30
0.0
  0
SEQEND
  5
32FD
330
32FA
100
AcDbEntity
  8
DETAIL
  0
LINE
  5
32FE
330
33E7
100
AcDbEntity
  8
DETAIL
100
AcDbLine
 10
-157.9000000000014
 20
-324.3999999999996
 30
0.0
 11
157.8999999999978
 21
-324.3999999999996
 31
0.0
  0
INSERT
  5
32FF
330
33E7
100
AcDbEntity
  8
0
100
AcDbBlockReference
  2
*U70
 10
0.0
 20
-0.0000000000000036
 30
0.0
1001
ACAD
1000
DSTYLE
1002
{
1070
    41
1040
12.0
1070
    42
1040
20.0
1070
    43
1040
200.0
1070
    44
1040
20.0
1070
    73
1070
     0
1070
    74
1070
     0
1070
    77
1070
     1
1070
    78
1070
     8
1070
   140
1040
64.0
1070
   147
1040
50.0
1070
   172
1070
     1
1070
   174
1070
     1
1070
   275
1070
     0
1070
   284
1070
     0
1070
   285
1070
     0
1070
   286
1070
     0
1070
   341
1005
0
1070
   342
1005
0
1002
}
  0
INSERT
  5
3300
330
33E7
100
AcDbEntity
  8
0
100
AcDbBlockReference
  2
*U71
 10
0.0
 20
-0.0000000000000036
 30
0.0
  0
LINE
  5
3301
330
33E7
100
AcDbEntity
  8
NOTE
100
AcDbLine
 39
50.0
 10
177.5
 20
-0.0000000000000036
 30
0.0
 11
202.5
 21
-0.0000000000000036
 31
0.0
  0
LINE
  5
3302
330
33E7
100
AcDbEntity
  8
NOTE
100
AcDbLine
 39
50.0
 10
-202.5
 20
-0.0000000000000036
 30
0.0
 11
-177.5
 21
-0.0000000000000036
 31
0.0
  0
LINE
  5
3303
330
33E7
100
AcDbEntity
  8
OUTLINE
100
AcDbLine
 39
50.0
 10
-207.5
 20
-0.0000000000000036
 30
0.0
 11
207.5
 21
-0.0000000000000036
 31
0.0
  0
LINE
  5
3304
330
33E7
100
AcDbEntity
  8
OUTLINE
100
AcDbLine
 10
-173.5
 20
-0.5999999999999126
 30
0.0
 11
-173.5
 21
-340.0
 31
0.0
  0
LINE
  5
3305
330
33E7
100
AcDbEntity
  8
OUTLINE
100
AcDbLine
 10
173.5
 20
-0.5999999999999126
 30
0.0
 11
173.5
 21
-340.0
 31
0.0
  0
POLYLINE
  5
3306
330
33E7
100
AcDbEntity
  8
OUTLINE
100
AcDb2dPolyline
 66
     1
 10
0.0
 20
0.0
 30
0.0
  0
VERTEX
  5
3307
330
3306
100
AcDbEntity
  8
OUTLINE
100
AcDbVertex
100
AcDb2dVertex
 10
-173.5
 20
-35.0
 30
0.0
  0
VERTEX
  5
3308
330
3306
100
AcDbEntity
  8
OUTLINE
100
AcDbVertex
100
AcDb2dVertex
 10
173.4999999999963
 20
-35.0
 30
0.0
  0
SEQEND
  5
3309
330
3306
100
AcDbEntity
  8
OUTLINE
  0
POLYLINE
  5
330A
330
33E7
100
AcDbEntity
  8
OUTLINE
100
AcDb2dPolyline
 66
     1
 10
0.0
 20
0.0
 30
0.0
  0
VERTEX
  5
330B
330
330A
100
AcDbEntity
  8
OUTLINE
100
AcDbVertex
100
AcDb2dVertex
 10
-207.5
 20
-0.5999999999999126
 30
0.0
  0
VERTEX
  5
330C
330
330A
100
AcDbEntity
  8
OUTLINE
100
AcDbVertex
100
AcDb2dVertex
 10
207.5
 20
-0.5999999999999126
 30
0.0
  0
SEQEND
  5
330D
330
330A
100
AcDbEntity
  8
OUTLINE
  0
LINE
  5
330E
330
33E7
100
AcDbEntity
  8
OUTLINE
100
AcDbLine
 10
-207.5
 20
-0.5999999999999126
 30
0.0
 11
-207.5
 21
-0.0000000000000036
 31
0.0
  0
LINE
  5
330F
330
33E7
100
AcDbEntity
  8
OUTLINE
100
AcDbLine
 10
207.5
 20
-0.5999999999999126
 30
0.0
 11
207.5
 21
-0.0000000000000036
 31
0.0
  0
LINE
  5
3310
330
33E7
100
AcDbEntity
  8
OUTLINE
100
AcDbLine
 10
-173.5
 20
-340.0
 30
0.0
 11
173.5
 21
-340.0
 31
0.0
  0
LINE
  5
3311
330
33E7
100
AcDbEntity
  8
DETAIL
100
AcDbLine
 10
157.8999999999978
 20
-50.5999999999999
 30
0.0
 11
157.8999999999978
 21
-324.4000000000005
 31
0.0
  0
LINE
  5
3312
330
33E7
100
AcDbEntity
  8
DETAIL
100
AcDbLine
 10
-157.9000000000051
 20
-50.5999999999999
 30
0.0
 11
-157.9000000000051
 21
-324.4000000000005
 31
0.0
  0
POLYLINE
  5
3313
330
33E7
100
AcDbEntity
  8
DETAIL
100
AcDb2dPolyline
 66
     1
 10
0.0
 20
0.0
 30
0.0
  0
VERTEX
  5
3314
330
3313
100
AcDbEntity
  8
DETAIL
100
AcDbVertex
100
AcDb2dVertex
 10
-157.9000000000051
 20
-50.5999999999999
 30
0.0
  0
VERTEX
  5
3315
330
3313
100
AcDbEntity
  8
DETAIL
100
AcDbVertex
100
AcDb2dVertex
 10
157.8999999999978
 20
-50.5999999999999
 30
0.0
  0
SEQEND
  5
3316
330
3313
100
AcDbEntity
  8
DETAIL
  0
LINE
  5
3317
330
33E7
100
AcDbEntity
  8
DETAIL
100
AcDbLine
 10
-157.9000000000051
 20
-324.4000000000005
 30
0.0
 11
157.8999999999978
 21
-324.4000000000005
 31
0.0
  0
INSERT
  5
3318
330
33E7
100
AcDbEntity
  8
DETAIL
100
AcDbBlockReference
  2
*X72
 10
0.0
 20
-0.0000000000000036
 30
0.0
1001
ACADANNOTATIVE
1000
AnnotativeData
1002
{
1070
     1
1070
     0
1002
}
1001
ACAD
1000
HATCH
1002
{
1070
    19
1000
LINE
1040
19.969
1040
0.5880014249968896
1000
R14_HATCH_DATA
1000
7FB8
1011
1.0
1021
-0.0000000000000036
1031
0.0
1011
0.0
1021
0.9999999999999964
1031
0.0
1011
0.0
1021
-0.0000000000000036
1031
1.0
1040
0.0
1010
0.0
1020
0.0
1030
1.0
1000
LINE
1070
     0
1070
     0
1071
        2
1071
        7
1070
     0
1070
     1
1071
        6
1040
-57.90000000000144
1040
-50.59999999999989
1040
-157.9000000000014
1040
-50.59999999999989
1040
-157.9000000000051
1040
-324.4000000000005
1040
157.8999999999942
1040
-324.4000000000005
1040
157.8999999999942
1040
-244.4000000000006
1040
-57.90000000000144
1040
-244.3999999999996
1071
        0
1071
        7
1070
     0
1070
     1
1071
        4
1040
157.8999999999978
1040
-50.60000000000036
1040
-57.90000000000144
1040
-50.60000000000036
1040
-57.90000000000144
1040
-244.3999999999996
1040
157.8999999999942
1040
-244.3999999999996
1071
        0
1070
     0
1070
     1
1040
0.5880014249968896
1040
19.969
1070
     0
1070
     1
1040
0.5880014249968896
1040
20569.59690554311
1040
3537.575431169336
1040
-1.384598579568018
1040
2.076903172775084
1070
     0
1040
0.6036262587467213
1071
        2
1040
-102.5825242502542
1040
-146.2502574516665
1040
0.0
1040
88.48330888504642
1040
-169.3214214842228
1040
0.0
1002
}
  0
INSERT
  5
3319
330
33E7
100
AcDbEntity
  8
DETAIL
100
AcDbBlockReference
  2
*X73
 10
0.0
 20
-0.0000000000000036
 30
0.0
1001
ACADANNOTATIVE
1000
AnnotativeData
1002
{
1070
     1
1070
     0
1002
}
1001
ACAD
1000
HATCH
1002
{
1070
    19
1000
LINE
1040
19.969
1040
5.695183882182695
1000
R14_HATCH_DATA
1000
7FBE
1011
1.0
1021
-0.0000000000000036
1031
0.0
1011
0.0
1021
0.9999999999999964
1031
0.0
1011
0.0
1021
-0.0000000000000036
1031
1.0
1040
0.0
1010
0.0
1020
0.0
1030
1.0
1000
LINE
1070
     0
1070
     0
1071
        2
1071
        7
1070
     0
1070
     1
1071
        6
1040
-57.90000000000144
1040
-50.59999999999989
1040
-157.9000000000014
1040
-50.59999999999989
1040
-157.9000000000051
1040
-324.4000000000005
1040
157.8999999999942
1040
-324.4000000000005
1040
157.8999999999942
1040
-244.4000000000006
1040
-57.90000000000144
1040
-244.3999999999996
1071
        0
1071
        7
1070
     0
1070
     1
1071
        4
1040
-57.90000000000144
1040
-50.59999999999945
1040
-57.90000000000144
1040
-244.3999999999996
1040
157.8999999999942
1040
-244.3999999999996
1040
157.8999999999978
1040
-50.60000000000036
1071
        0
1070
     0
1070
     1
1040
5.695183882182695
1040
19.969
1070
     0
1070
     1
1040
5.695183882182695
1040
20569.59690554311
1040
3537.575431169336
1040
1.384598579568018
1040
2.076903172775084
1070
     0
1040
1.072193615192194
1071
        2
1040
-98.95749621026334
1040
-87.69360275908319
1040
0.0
1040
53.47801823268309
1040
-95.9693230282428
1040
0.0
1002
}
  0
LINE
  5
331A
330
33E7
100
AcDbEntity
  8
DETAIL
100
AcDbLine
 10
157.8999999999978
 20
-50.5999999999999
 30
0.0
 11
157.8999999999978
 21
-324.4000000000005
 31
0.0
  0
LINE
  5
331B
330
33E7
100
AcDbEntity
  8
DETAIL
100
AcDbLine
 10
-157.9000000000051
 20
-50.5999999999999
 30
0.0
 11
-157.9000000000051
 21
-324.4000000000005
 31
0.0
  0
POLYLINE
  5
331C
330
33E7
100
AcDbEntity
  8
DETAIL
100
AcDb2dPolyline
 66
     1
 10
0.0
 20
0.0
 30
0.0
  0
VERTEX
  5
331D
330
331C
100
AcDbEntity
  8
DETAIL
100
AcDbVertex
100
AcDb2dVertex
 10
-157.9000000000051
 20
-50.5999999999999
 30
0.0
  0
VERTEX
  5
331E
330
331C
100
AcDbEntity
  8
DETAIL
100
AcDbVertex
100
AcDb2dVertex
 10
157.8999999999978
 20
-50.5999999999999
 30
0.0
  0
SEQEND
  5
331F
330
331C
100
AcDbEntity
  8
DETAIL
  0
LINE
  5
3320
330
33E7
100
AcDbEntity
  8
DETAIL
100
AcDbLine
 10
-157.9000000000051
 20
-324.4000000000005
 30
0.0
 11
157.8999999999978
 21
-324.4000000000005
 31
0.0
  0
LINE
  5
3321
330
33E7
100
AcDbEntity
  8
SIZE
100
AcDbLine
 10
190.0
 20
32.5
 30
0.0
 11
190.0
 21
180.9320910096174
 31
0.0
  0
LINE
  5
3322
330
33E7
100
AcDbEntity
  8
SIZE
100
AcDbLine
 10
-190.0
 20
32.5
 30
0.0
 11
-190.0
 21
180.9320910096174
 31
0.0
  0
LINE
  5
3323
330
33E7
100
AcDbEntity
  8
SIZE
100
AcDbLine
 10
178.0
 20
160.9320910096176
 30
0.0
 11
-178.0
 21
160.9320910096176
 31
0.0
  0
INSERT
  5
3324
330
33E7
100
AcDbEntity
  8
SIZE
100
AcDbBlockReference
  2
_DOTBLANK
 10
190.0
 20
160.9320910096176
 30
0.0
 41
12.0
 42
12.0
 43
12.0
  0
INSERT
  5
3325
330
33E7
100
AcDbEntity
  8
SIZE
100
AcDbBlockReference
  2
_DOTBLANK
 10
-190.0
 20
160.9320910096176
 30
0.0
 41
12.0
 42
12.0
 43
12.0
 50
180.0
  0
LINE
  5
3326
330
33E7
100
AcDbEntity
  8
SIZE
100
AcDbLine
 10
207.5
 20
20.0
 30
0.0
 11
207.5
 21
299.4865929365169
 31
0.0
  0
LINE
  5
3327
330
33E7
100
AcDbEntity
  8
SIZE
100
AcDbLine
 10
-207.5
 20
20.0
 30
0.0
 11
-207.5
 21
299.4865929365169
 31
0.0
  0
LINE
  5
3328
330
33E7
100
AcDbEntity
  8
SIZE
100
AcDbLine
 10
195.5
 20
279.4865929365169
 30
0.0
 11
-195.5
 21
279.4865929365169
 31
0.0
  0
INSERT
  5
3329
330
33E7
100
AcDbEntity
  8
SIZE
100
AcDbBlockReference
  2
_DOTBLANK
 10
207.5
 20
279.4865929365169
 30
0.0
 41
12.0
 42
12.0
 43
12.0
  0
INSERT
  5
332A
330
33E7
100
AcDbEntity
  8
SIZE
100
AcDbBlockReference
  2
_DOTBLANK
 10
-207.5
 20
279.4865929365169
 30
0.0
 41
12.0
 42
12.0
 43
12.0
 50
180.0
  0
LINE
  5
332B
330
33E7
100
AcDbEntity
  8
SIZE
100
AcDbLine
 10
-193.5
 20
-340.0
 30
0.0
 11
-345.3170819897096
 21
-340.0
 31
0.0
  0
LINE
  5
332C
330
33E7
100
AcDbEntity
  8
SIZE
100
AcDbLine
 10
-227.5
 20
-0.0000000000000036
 30
0.0
 11
-345.3170819897096
 21
-0.0000000000000036
 31
0.0
  0
LINE
  5
332D
330
33E7
100
AcDbEntity
  8
SIZE
100
AcDbLine
 10
-325.3170819897095
 20
-328.0
 30
0.0
 11
-325.3170819897095
 21
-11.99999999999994
 31
0.0
  0
INSERT
  5
332E
330
33E7
100
AcDbEntity
  8
SIZE
100
AcDbBlockReference
  2
_DOTBLANK
 10
-325.3170819897095
 20
-340.0
 30
0.0
 41
11.99999999999999
 42
12.0
 43
12.0
 50
270.0
  0
INSERT
  5
332F
330
33E7
100
AcDbEntity
  8
SIZE
100
AcDbBlockReference
  2
_DOTBLANK
 10
-325.3170819897095
 20
-0.0000000000000036
 30
0.0
 41
12.0
 42
12.0
 43
12.0
 50
90.0
  0
LINE
  5
3330
330
33E7
100
AcDbEntity
  8
SIZE
100
AcDbLine
 10
173.5
 20
-360.0
 30
0.0
 11
173.5
 21
-519.8785026932937
 31
0.0
  0
LINE
  5
3331
330
33E7
100
AcDbEntity
  8
SIZE
100
AcDbLine
 10
-173.5
 20
-360.0
 30
0.0
 11
-173.5
 21
-519.8785026932937
 31
0.0
  0
LINE
  5
3332
330
33E7
100
AcDbEntity
  8
SIZE
100
AcDbLine
 10
161.5
 20
-499.8785026932936
 30
0.0
 11
-161.5
 21
-499.8785026932936
 31
0.0
  0
INSERT
  5
3333
330
33E7
100
AcDbEntity
  8
SIZE
100
AcDbBlockReference
  2
_DOTBLANK
 10
173.5
 20
-499.8785026932936
 30
0.0
 41
12.0
 42
12.0
 43
12.0
  0
INSERT
  5
3334
330
33E7
100
AcDbEntity
  8
SIZE
100
AcDbBlockReference
  2
_DOTBLANK
 10
-173.5
 20
-499.8785026932936
 30
0.0
 41
12.0
 42
12.0
 43
12.0
 50
180.0
  0
TEXT
  5
3335
330
33E7
100
AcDbEntity
  8
SIZE
100
AcDbText
 10
-74.05714285714293
 20
-489.8785026932936
 30
0.0
 40
64.0
  1
347
 41
0.9
100
AcDbText
  0
TEXT
  5
3336
330
33E7
100
AcDbEntity
  8
SIZE
100
AcDbText
 10
-335.3170819897095
 20
-236.9832365731448
 30
0.0
 40
64.0
  1
340
 50
90.0
 41
0.9
100
AcDbText
  0
TEXT
  5
3337
330
33E7
100
AcDbEntity
  8
SIZE
100
AcDbText
 10
-74.61302049113601
 20
170.9320910096176
 30
0.0
 40
64.0
  1
380
 41
0.9
100
AcDbText
  0
TEXT
  5
3338
330
33E7
100
AcDbEntity
  8
SIZE
100
AcDbText
 10
-68.57142857142844
 20
289.4865929365169
 30
0.0
 40
64.0
  1
415
 41
0.9
100
AcDbText
  0
ENDSEC
  0
SECTION
  2
OBJECTS
  0
DICTIONARY
  5
337F
330
0
100
AcDbDictionary
281
     1
  3
ACAD_2007HEADERVARS_RT
350
35DA
  3
ACAD_COLOR
350
33DD
  3
ACAD_GROUP
350
3380
  3
ACAD_LAYOUT
350
33DC
  3
ACAD_MATERIAL
350
3383
  3
ACAD_MLEADERSTYLE
350
33E0
  3
ACAD_MLINESTYLE
350
33D9
  3
ACAD_PLOTSETTINGS
350
33DB
  3
ACAD_PLOTSTYLENAME
350
3381
  3
ACAD_SCALELIST
350
33AD
  3
ACAD_TABLESTYLE
350
33DE
  3
ACAD_VISUALSTYLE
350
339C
  3
ACDB_RECOMPOSE_DATA
350
35D8
  3
AcDbVariableDictionary
350
35CF
  3
AcmDictionary
350
357B
  3
AMG
350
34C8
  3
AMGSNAPSETTINGS
350
35A3
  3
DWGPROPS
350
35D9
  3
MAPISURF_MODULE
350
3548
  0
DICTIONARY
  5
35AA
330
33CF
100
AcDbDictionary
280
     1
281
     1
  3
ADSK_XREC_LAYER_RECONCILED
360
35AB
  0
DICTIONARY
  5
35AC
330
33FE
100
AcDbDictionary
280
     1
281
     1
  3
ADSK_XREC_LAYER_RECONCILED
360
35AD
  0
DICTIONARY
  5
35AE
330
33FF
100
AcDbDictionary
280
     1
281
     1
  3
ADSK_XREC_LAYER_RECONCILED
360
35AF
  0
DICTIONARY
  5
35B0
330
3400
100
AcDbDictionary
280
     1
281
     1
  3
ADSK_XREC_LAYER_RECONCILED
360
35B1
  0
DICTIONARY
  5
35B2
330
3401
100
AcDbDictionary
280
     1
281
     1
  3
ADSK_XREC_LAYER_RECONCILED
360
35B3
  0
DICTIONARY
  5
35B4
330
3402
100
AcDbDictionary
280
     1
281
     1
  3
ADSK_XREC_LAYER_RECONCILED
360
35B5
  0
DICTIONARY
  5
35B6
330
3404
100
AcDbDictionary
280
     1
281
     1
  3
ADSK_XREC_LAYER_RECONCILED
360
35B7
  0
DICTIONARY
  5
35B8
330
3405
100
AcDbDictionary
280
     1
281
     1
  3
ADSK_XREC_LAYER_RECONCILED
360
35B9
  0
DICTIONARY
  5
35BA
330
3406
100
AcDbDictionary
280
     1
281
     1
  3
ADSK_XREC_LAYER_RECONCILED
360
35BB
  0
DICTIONARY
  5
35BC
330
3407
100
AcDbDictionary
280
     1
281
     1
  3
ADSK_XREC_LAYER_RECONCILED
360
35BD
  0
DICTIONARY
  5
35BE
330
3408
100
AcDbDictionary
280
     1
281
     1
  3
ADSK_XREC_LAYER_RECONCILED
360
35BF
  0
DICTIONARY
  5
35C0
330
33E7
100
AcDbDictionary
280
     1
281
     1
  3
ACAD_INDEX
360
35C1
  0
DICTIONARY
  5
35DA
102
{ACAD_REACTORS
330
337F
102
}
330
337F
100
AcDbDictionary
281
     1
  3
DIMARCSYM
350
35DB
  3
DIMLTEX1
350
35DD
  3
DIMLTEX2
350
35DE
  3
DIMLTYPE
350
35DC
  0
DICTIONARY
  5
33DD
102
{ACAD_REACTORS
330
337F
102
}
330
337F
100
AcDbDictionary
281
     1
  0
DICTIONARY
  5
3380
102
{ACAD_REACTORS
330
337F
102
}
330
337F
100
AcDbDictionary
281
     1
  0
DICTIONARY
  5
33DC
102
{ACAD_REACTORS
330
337F
102
}
330
337F
100
AcDbDictionary
281
     1
  3
Model
350
33EA
  3
レイアウト1
350
33E6
  0
DICTIONARY
  5
3383
102
{ACAD_REACTORS
330
337F
102
}
330
337F
100
AcDbDictionary
281
     1
  3
ByBlock
350
338C
  3
ByLayer
350
3384
  3
Global
350
3394
  0
DICTIONARY
  5
33E0
102
{ACAD_REACTORS
330
337F
102
}
330
337F
100
AcDbDictionary
281
     1
  3
Standard
350
33E1
  0
DICTIONARY
  5
33D9
102
{ACAD_REACTORS
330
337F
102
}
330
337F
100
AcDbDictionary
281
     1
  3
Standard
350
33DA
  0
DICTIONARY
  5
33DB
102
{ACAD_REACTORS
330
337F
102
}
330
337F
100
AcDbDictionary
281
     1
  0
ACDBDICTIONARYWDFLT
  5
3381
102
{ACAD_REACTORS
330
337F
102
}
330
337F
100
AcDbDictionary
281
     1
  3
Normal
350
3382
100
AcDbDictionaryWithDefault
340
3382
  0
DICTIONARY
  5
33AD
102
{ACAD_REACTORS
330
337F
102
}
330
337F
100
AcDbDictionary
281
     1
  3
A0
350
33AE
  3
A1
350
33AF
  3
A2
350
33B0
  3
A3
350
33B1
  3
A4
350
33B2
  3
A5
350
33B3
  3
A6
350
33B4
  3
A7
350
33B5
  3
A8
350
33B6
  3
A9
350
33B7
  3
B0
350
33B8
  3
B1
350
33B9
  3
B2
350
33BA
  3
B3
350
33BB
  3
B4
350
33BC
  3
B5
350
33BD
  3
B6
350
33BE
  3
B7
350
33BF
  3
B8
350
33C0
  3
B9
350
33C1
  3
C0
350
33C2
  3
C1
350
33C3
  3
C2
350
33C4
  3
C3
350
33C5
  3
C4
350
33C6
  3
C5
350
33C7
  3
C6
350
33C8
  3
C7
350
33C9
  3
C8
350
33CA
  3
C9
350
33CB
  3
D0
350
33CC
  3
D1
350
33CD
  3
D2
350
33CE
  0
DICTIONARY
  5
33DE
102
{ACAD_REACTORS
330
337F
102
}
330
337F
100
AcDbDictionary
281
     1
  3
Standard
350
33DF
  0
DICTIONARY
  5
339C
102
{ACAD_REACTORS
330
337F
102
}
330
337F
100
AcDbDictionary
281
     1
  3
2dWireframe
350
33A2
  3
3D Hidden
350
33A4
  3
3dWireframe
350
33A3
  3
Basic
350
33A1
  3
Brighten
350
33A8
  3
ColorChange
350
33AC
  3
Conceptual
350
33A5
  3
Dim
350
33A7
  3
Facepattern
350
33AB
  3
Flat
350
339D
  3
FlatWithEdges
350
339E
  3
Gouraud
350
339F
  3
GouraudWithEdges
350
33A0
  3
Linepattern
350
33AA
  3
Realistic
350
33A6
  3
Thicken
350
33A9
  0
XRECORD
  5
35D8
102
{ACAD_REACTORS
330
337F
102
}
330
337F
100
AcDbXrecord
280
     1
 90
        1
330
33DF
  0
DICTIONARY
  5
35CF
102
{ACAD_REACTORS
330
337F
102
}
330
337F
100
AcDbDictionary
281
     1
  3
CANNOSCALE
350
35D2
  3
CMLEADERSTYLE
350
35D1
  3
CTABLESTYLE
350
35D0
  3
DIMASSOC
350
35D5
  3
INDEXCTL
350
35D4
  3
SORTENTS
350
35D3
  0
DICTIONARY
  5
357B
102
{ACAD_REACTORS
330
337F
102
}
330
337F
100
AcDbDictionary
281
     1
  3
AcmStdDictionary
350
3589
  0
DICTIONARY
  5
34C8
102
{ACAD_REACTORS
330
337F
102
}
330
337F
100
AcDbDictionary
281
     1
  3
AcMgSettings
350
34C9
  0
DICTIONARY
  5
35A3
102
{ACAD_REACTORS
330
337F
102
}
330
337F
100
AcDbDictionary
281
     1
  3
DIMENSION
350
35A8
  3
FEA
350
35A7
  3
HATCH (1)
350
35A4
  3
HATCH (2)
350
35A5
  3
SIMPLE WELD
350
35A9
  3
SYMBOLS
350
35A6
  0
XRECORD
  5
35D9
102
{ACAD_REACTORS
330
337F
102
}
330
337F
100
AcDbXrecord
280
     1
  1
DWGPROPS COOKIE
  2

  3

  4

  6

  7

  8
A090053
  9

300
AmdtFileType=84
301
=
302
=
303
=
304
=
305
=
306
=
307
=
308
=
309
=
 40
1.042709467592592
 41
2452321.396199653
 42
2456210.459650394
  1

 90
        1
  0
XRECORD
  5
35AB
102
{ACAD_REACTORS
330
35AA
102
}
330
35AA
100
AcDbXrecord
280
     1
290
     1
  0
XRECORD
  5
35AD
102
{ACAD_REACTORS
330
35AC
102
}
330
35AC
100
AcDbXrecord
280
     1
290
     1
  0
XRECORD
  5
35AF
102
{ACAD_REACTORS
330
35AE
102
}
330
35AE
100
AcDbXrecord
280
     1
290
     1
  0
XRECORD
  5
35B1
102
{ACAD_REACTORS
330
35B0
102
}
330
35B0
100
AcDbXrecord
280
     1
290
     1
  0
XRECORD
  5
35B3
102
{ACAD_REACTORS
330
35B2
102
}
330
35B2
100
AcDbXrecord
280
     1
290
     1
  0
XRECORD
  5
35B5
102
{ACAD_REACTORS
330
35B4
102
}
330
35B4
100
AcDbXrecord
280
     1
290
     1
  0
XRECORD
  5
35B7
102
{ACAD_REACTORS
330
35B6
102
}
330
35B6
100
AcDbXrecord
280
     1
290
     1
  0
XRECORD
  5
35B9
102
{ACAD_REACTORS
330
35B8
102
}
330
35B8
100
AcDbXrecord
280
     1
290
     1
  0
XRECORD
  5
35BB
102
{ACAD_REACTORS
330
35BA
102
}
330
35BA
100
AcDbXrecord
280
     1
290
     1
  0
XRECORD
  5
35BD
102
{ACAD_REACTORS
330
35BC
102
}
330
35BC
100
AcDbXrecord
280
     1
290
     1
  0
XRECORD
  5
35BF
102
{ACAD_REACTORS
330
35BE
102
}
330
35BE
100
AcDbXrecord
280
     1
290
     1
  0
DICTIONARY
  5
35C1
102
{ACAD_REACTORS
330
35C0
102
}
330
35C0
100
AcDbDictionary
281
     1
  3
*A1
350
35C2
  0
XRECORD
  5
35DB
102
{ACAD_REACTORS
330
35DA
102
}
330
35DA
100
AcDbXrecord
280
     1
 70
     1
  0
XRECORD
  5
35DD
102
{ACAD_REACTORS
330
35DA
102
}
330
35DA
100
AcDbXrecord
280
     1
340
33D5
  0
XRECORD
  5
35DE
102
{ACAD_REACTORS
330
35DA
102
}
330
35DA
100
AcDbXrecord
280
     1
340
33D5
  0
XRECORD
  5
35DC
102
{ACAD_REACTORS
330
35DA
102
}
330
35DA
100
AcDbXrecord
280
     1
340
33D5
  0
LAYOUT
  5
33EA
102
{ACAD_XDICTIONARY
360
35E5
102
}
102
{ACAD_REACTORS
330
33DC
102
}
330
33DC
100
AcDbPlotSettings
  1

  2
自動 EPSON LP-9600S (W2450527 上)
  4

  6

 40
0.0
 41
0.0
 42
0.0
 43
0.0
 44
0.0
 45
0.0
 46
0.0
 47
0.0
 48
0.0
 49
0.0
140
0.0
141
0.0
142
1.0
143
1.0
 70
  1712
 72
     0
 73
     0
 74
     0
  7

 75
     0
147
1.0
148
0.0
149
0.0
100
AcDbLayout
  1
Model
 70
     1
 71
     0
 10
0.0
 20
0.0
 11
12.0
 21
9.0
 12
0.0
 22
0.0
 32
0.0
 14
0.0
 24
0.0
 34
0.0
 15
0.0
 25
0.0
 35
0.0
146
0.0
 13
0.0
 23
0.0
 33
0.0
 16
1.0
 26
0.0
 36
0.0
 17
0.0
 27
1.0
 37
0.0
 76
     0
330
33E7
331
33EB
  0
LAYOUT
  5
33E6
102
{ACAD_XDICTIONARY
360
35E3
102
}
102
{ACAD_REACTORS
330
33DC
102
}
330
33DC
100
AcDbPlotSettings
  1

  2
自動 EPSON LP-9600S (W2450527 上)
  4

  6

 40
0.0
 41
0.0
 42
0.0
 43
0.0
 44
0.0
 45
0.0
 46
0.0
 47
0.0
 48
0.0
 49
0.0
140
0.0
141
0.0
142
1.0
143
1.0
 70
   688
 72
     0
 73
     0
 74
     5
  7

 75
    16
147
1.0
148
0.0
149
0.0
100
AcDbLayout
  1
レイアウト1
 70
     1
 71
     1
 10
0.0
 20
0.0
 11
12.0
 21
9.0
 12
0.0
 22
0.0
 32
0.0
 14
1.000000000000000E+20
 24
1.000000000000000E+20
 34
1.000000000000000E+20
 15
-1.000000000000000E+20
 25
-1.000000000000000E+20
 35
-1.000000000000000E+20
146
0.0
 13
0.0
 23
0.0
 33
0.0
 16
1.0
 26
0.0
 36
0.0
 17
0.0
 27
1.0
 37
0.0
 76
     0
330
33E3
  0
MATERIAL
  5
338C
102
{ACAD_XDICTIONARY
360
338D
102
}
102
{ACAD_REACTORS
330
3383
102
}
330
3383
100
AcDbMaterial
  1
ByBlock
 72
     0
 43
0.0208333333333333
 43
0.0
 43
0.0
 43
0.0
 43
0.0
 43
0.0208333333333333
 43
0.0
 43
0.0
 43
0.0
 43
0.0
 43
1.0
 43
0.0
 43
0.0
 43
0.0
 43
0.0
 43
1.0
 77
     0
 47
0.0208333333333333
 47
0.0
 47
0.0
 47
0.0
 47
0.0
 47
0.0208333333333333
 47
0.0
 47
0.0
 47
0.0
 47
0.0
 47
1.0
 47
0.0
 47
0.0
 47
0.0
 47
0.0
 47
1.0
171
     0
 49
0.0208333333333333
 49
0.0
 49
0.0
 49
0.0
 49
0.0
 49
0.0208333333333333
 49
0.0
 49
0.0
 49
0.0
 49
0.0
 49
1.0
 49
0.0
 49
0.0
 49
0.0
 49
0.0
 49
1.0
175
     0
142
0.0208333333333333
142
0.0
142
0.0
142
0.0
142
0.0
142
0.0208333333333333
142
0.0
142
0.0
142
0.0
142
0.0
142
1.0
142
0.0
142
0.0
142
0.0
142
0.0
142
1.0
179
     0
144
0.0208333333333333
144
0.0
144
0.0
144
0.0
144
0.0
144
0.0208333333333333
144
0.0
144
0.0
144
0.0
144
0.0
144
1.0
144
0.0
144
0.0
144
0.0
144
0.0
144
1.0
147
0.0208333333333333
147
0.0
147
0.0
147
0.0
147
0.0
147
0.0208333333333333
147
0.0
147
0.0
147
0.0
147
0.0
147
1.0
147
0.0
147
0.0
147
0.0
147
0.0
147
1.0
  0
MATERIAL
  5
3384
102
{ACAD_XDICTIONARY
360
3385
102
}
102
{ACAD_REACTORS
330
3383
102
}
330
3383
100
AcDbMaterial
  1
ByLayer
 72
     0
 43
0.0208333333333333
 43
0.0
 43
0.0
 43
0.0
 43
0.0
 43
0.0208333333333333
 43
0.0
 43
0.0
 43
0.0
 43
0.0
 43
1.0
 43
0.0
 43
0.0
 43
0.0
 43
0.0
 43
1.0
 77
     0
 47
0.0208333333333333
 47
0.0
 47
0.0
 47
0.0
 47
0.0
 47
0.0208333333333333
 47
0.0
 47
0.0
 47
0.0
 47
0.0
 47
1.0
 47
0.0
 47
0.0
 47
0.0
 47
0.0
 47
1.0
171
     0
 49
0.0208333333333333
 49
0.0
 49
0.0
 49
0.0
 49
0.0
 49
0.0208333333333333
 49
0.0
 49
0.0
 49
0.0
 49
0.0
 49
1.0
 49
0.0
 49
0.0
 49
0.0
 49
0.0
 49
1.0
175
     0
142
0.0208333333333333
142
0.0
142
0.0
142
0.0
142
0.0
142
0.0208333333333333
142
0.0
142
0.0
142
0.0
142
0.0
142
1.0
142
0.0
142
0.0
142
0.0
142
0.0
142
1.0
179
     0
144
0.0208333333333333
144
0.0
144
0.0
144
0.0
144
0.0
144
0.0208333333333333
144
0.0
144
0.0
144
0.0
144
0.0
144
1.0
144
0.0
144
0.0
144
0.0
144
0.0
144
1.0
147
0.0208333333333333
147
0.0
147
0.0
147
0.0
147
0.0
147
0.0208333333333333
147
0.0
147
0.0
147
0.0
147
0.0
147
1.0
147
0.0
147
0.0
147
0.0
147
0.0
147
1.0
  0
MATERIAL
  5
3394
102
{ACAD_XDICTIONARY
360
3395
102
}
102
{ACAD_REACTORS
330
3383
102
}
330
3383
100
AcDbMaterial
  1
Global
 72
     0
 43
0.0208333333333333
 43
0.0
 43
0.0
 43
0.0
 43
0.0
 43
0.0208333333333333
 43
0.0
 43
0.0
 43
0.0
 43
0.0
 43
1.0
 43
0.0
 43
0.0
 43
0.0
 43
0.0
 43
1.0
 77
     0
 47
0.0208333333333333
 47
0.0
 47
0.0
 47
0.0
 47
0.0
 47
0.0208333333333333
 47
0.0
 47
0.0
 47
0.0
 47
0.0
 47
1.0
 47
0.0
 47
0.0
 47
0.0
 47
0.0
 47
1.0
171
     0
 49
0.0208333333333333
 49
0.0
 49
0.0
 49
0.0
 49
0.0
 49
0.0208333333333333
 49
0.0
 49
0.0
 49
0.0
 49
0.0
 49
1.0
 49
0.0
 49
0.0
 49
0.0
 49
0.0
 49
1.0
175
     0
142
0.0208333333333333
142
0.0
142
0.0
142
0.0
142
0.0
142
0.0208333333333333
142
0.0
142
0.0
142
0.0
142
0.0
142
1.0
142
0.0
142
0.0
142
0.0
142
0.0
142
1.0
179
     0
144
0.0208333333333333
144
0.0
144
0.0
144
0.0
144
0.0
144
0.0208333333333333
144
0.0
144
0.0
144
0.0
144
0.0
144
1.0
144
0.0
144
0.0
144
0.0
144
0.0
144
1.0
147
0.0208333333333333
147
0.0
147
0.0
147
0.0
147
0.0
147
0.0208333333333333
147
0.0
147
0.0
147
0.0
147
0.0
147
1.0
147
0.0
147
0.0
147
0.0
147
0.0
147
1.0
  0
MLEADERSTYLE
  5
33E1
102
{ACAD_REACTORS
330
33E0
102
}
330
33E0
100
AcDbMLeaderStyle
170
     2
171
     1
172
     0
 90
        2
 40
0.0
 41
0.0
173
     1
 91
-1056964608
340
33D5
 92
       -2
290
     1
 42
0.09
291
     1
 43
0.36
  3
Standard
 44
0.18
300

342
33D0
174
     1
178
     6
175
     1
176
     0
 93
-1056964608
 45
0.18
292
     0
297
     0
 46
0.18
 94
-1056964608
 47
1.0
 49
1.0
140
1.0
293
     1
141
0.0
294
     1
177
     0
142
1.0
295
     0
296
     0
143
0.125
1001
ACAD_MLEADERVER
1070
     2
  0
MLINESTYLE
  5
33DA
102
{ACAD_REACTORS
330
33D9
102
}
330
33D9
100
AcDbMlineStyle
  2
STANDARD
 70
     0
  3

 62
   256
 51
90.0
 52
90.0
 71
     2
 49
0.5
 62
   256
  6
BYLAYER
 49
-0.5
 62
   256
  6
BYLAYER
  0
ACDBPLACEHOLDER
  5
3382
102
{ACAD_REACTORS
330
3381
102
}
330
3381
  0
SCALE
  5
33AE
102
{ACAD_REACTORS
330
33AD
102
}
330
33AD
100
AcDbScale
 70
     0
300
1:1
140
1.0
141
1.0
290
     1
  0
SCALE
  5
33AF
102
{ACAD_REACTORS
330
33AD
102
}
330
33AD
100
AcDbScale
 70
     0
300
1:2
140
1.0
141
2.0
290
     0
  0
SCALE
  5
33B0
102
{ACAD_REACTORS
330
33AD
102
}
330
33AD
100
AcDbScale
 70
     0
300
1:4
140
1.0
141
4.0
290
     0
  0
SCALE
  5
33B1
102
{ACAD_REACTORS
330
33AD
102
}
330
33AD
100
AcDbScale
 70
     0
300
1:5
140
1.0
141
5.0
290
     0
  0
SCALE
  5
33B2
102
{ACAD_REACTORS
330
33AD
102
}
330
33AD
100
AcDbScale
 70
     0
300
1:8
140
1.0
141
8.0
290
     0
  0
SCALE
  5
33B3
102
{ACAD_REACTORS
330
33AD
102
}
330
33AD
100
AcDbScale
 70
     0
300
1:10
140
1.0
141
10.0
290
     0
  0
SCALE
  5
33B4
102
{ACAD_REACTORS
330
33AD
102
}
330
33AD
100
AcDbScale
 70
     0
300
1:16
140
1.0
141
16.0
290
     0
  0
SCALE
  5
33B5
102
{ACAD_REACTORS
330
33AD
102
}
330
33AD
100
AcDbScale
 70
     0
300
1:20
140
1.0
141
20.0
290
     0
  0
SCALE
  5
33B6
102
{ACAD_REACTORS
330
33AD
102
}
330
33AD
100
AcDbScale
 70
     0
300
1:30
140
1.0
141
30.0
290
     0
  0
SCALE
  5
33B7
102
{ACAD_REACTORS
330
33AD
102
}
330
33AD
100
AcDbScale
 70
     0
300
1:40
140
1.0
141
40.0
290
     0
  0
SCALE
  5
33B8
102
{ACAD_REACTORS
330
33AD
102
}
330
33AD
100
AcDbScale
 70
     0
300
1:50
140
1.0
141
50.0
290
     0
  0
SCALE
  5
33B9
102
{ACAD_REACTORS
330
33AD
102
}
330
33AD
100
AcDbScale
 70
     0
300
1:100
140
1.0
141
100.0
290
     0
  0
SCALE
  5
33BA
102
{ACAD_REACTORS
330
33AD
102
}
330
33AD
100
AcDbScale
 70
     0
300
2:1
140
2.0
141
1.0
290
     0
  0
SCALE
  5
33BB
102
{ACAD_REACTORS
330
33AD
102
}
330
33AD
100
AcDbScale
 70
     0
300
4:1
140
4.0
141
1.0
290
     0
  0
SCALE
  5
33BC
102
{ACAD_REACTORS
330
33AD
102
}
330
33AD
100
AcDbScale
 70
     0
300
8:1
140
8.0
141
1.0
290
     0
  0
SCALE
  5
33BD
102
{ACAD_REACTORS
330
33AD
102
}
330
33AD
100
AcDbScale
 70
     0
300
10:1
140
10.0
141
1.0
290
     0
  0
SCALE
  5
33BE
102
{ACAD_REACTORS
330
33AD
102
}
330
33AD
100
AcDbScale
 70
     0
300
100:1
140
100.0
141
1.0
290
     0
  0
SCALE
  5
33BF
102
{ACAD_REACTORS
330
33AD
102
}
330
33AD
100
AcDbScale
 70
     0
300
1/128" = 1'-0"
140
0.0078125
141
12.0
290
     0
  0
SCALE
  5
33C0
102
{ACAD_REACTORS
330
33AD
102
}
330
33AD
100
AcDbScale
 70
     0
300
1/64" = 1'-0"
140
0.015625
141
12.0
290
     0
  0
SCALE
  5
33C1
102
{ACAD_REACTORS
330
33AD
102
}
330
33AD
100
AcDbScale
 70
     0
300
1/32" = 1'-0"
140
0.03125
141
12.0
290
     0
  0
SCALE
  5
33C2
102
{ACAD_REACTORS
330
33AD
102
}
330
33AD
100
AcDbScale
 70
     0
300
1/16" = 1'-0"
140
0.0625
141
12.0
290
     0
  0
SCALE
  5
33C3
102
{ACAD_REACTORS
330
33AD
102
}
330
33AD
100
AcDbScale
 70
     0
300
3/32" = 1'-0"
140
0.09375
141
12.0
290
     0
  0
SCALE
  5
33C4
102
{ACAD_REACTORS
330
33AD
102
}
330
33AD
100
AcDbScale
 70
     0
300
1/8" = 1'-0"
140
0.125
141
12.0
290
     0
  0
SCALE
  5
33C5
102
{ACAD_REACTORS
330
33AD
102
}
330
33AD
100
AcDbScale
 70
     0
300
3/16" = 1'-0"
140
0.1875
141
12.0
290
     0
  0
SCALE
  5
33C6
102
{ACAD_REACTORS
330
33AD
102
}
330
33AD
100
AcDbScale
 70
     0
300
1/4" = 1'-0"
140
0.25
141
12.0
290
     0
  0
SCALE
  5
33C7
102
{ACAD_REACTORS
330
33AD
102
}
330
33AD
100
AcDbScale
 70
     0
300
3/8" = 1'-0"
140
0.375
141
12.0
290
     0
  0
SCALE
  5
33C8
102
{ACAD_REACTORS
330
33AD
102
}
330
33AD
100
AcDbScale
 70
     0
300
1/2" = 1'-0"
140
0.5
141
12.0
290
     0
  0
SCALE
  5
33C9
102
{ACAD_REACTORS
330
33AD
102
}
330
33AD
100
AcDbScale
 70
     0
300
3/4" = 1'-0"
140
0.75
141
12.0
290
     0
  0
SCALE
  5
33CA
102
{ACAD_REACTORS
330
33AD
102
}
330
33AD
100
AcDbScale
 70
     0
300
1" = 1'-0"
140
1.0
141
12.0
290
     0
  0
SCALE
  5
33CB
102
{ACAD_REACTORS
330
33AD
102
}
330
33AD
100
AcDbScale
 70
     0
300
1-1/2" = 1'-0"
140
1.5
141
12.0
290
     0
  0
SCALE
  5
33CC
102
{ACAD_REACTORS
330
33AD
102
}
330
33AD
100
AcDbScale
 70
     0
300
3" = 1'-0"
140
3.0
141
12.0
290
     0
  0
SCALE
  5
33CD
102
{ACAD_REACTORS
330
33AD
102
}
330
33AD
100
AcDbScale
 70
     0
300
6" = 1'-0"
140
6.0
141
12.0
290
     0
  0
SCALE
  5
33CE
102
{ACAD_REACTORS
330
33AD
102
}
330
33AD
100
AcDbScale
 70
     0
300
1'-0" = 1'-0"
140
12.0
141
12.0
290
     0
  0
TABLESTYLE
  5
33DF
102
{ACAD_XDICTIONARY
360
35D6
102
}
102
{ACAD_REACTORS
330
33DE
102
}
330
33DE
100
AcDbTableStyle
  3
Standard
 70
     0
 71
     0
 40
0.06
 41
0.06
280
     0
281
     0
  7
STANDARD
140
0.18
170
     2
 62
     0
 63
     7
283
     0
274
    -2
284
     1
 64
     0
275
    -2
285
     1
 65
     0
276
    -2
286
     1
 66
     0
277
    -2
287
     1
 67
     0
278
    -2
288
     1
 68
     0
279
    -2
289
     1
 69
     0
  7
STANDARD
140
0.25
170
     5
 62
     0
 63
     7
283
     0
274
    -2
284
     1
 64
     0
275
    -2
285
     1
 65
     0
276
    -2
286
     1
 66
     0
277
    -2
287
     1
 67
     0
278
    -2
288
     1
 68
     0
279
    -2
289
     1
 69
     0
  7
STANDARD
140
0.18
170
     5
 62
     0
 63
     7
283
     0
274
    -2
284
     1
 64
     0
275
    -2
285
     1
 65
     0
276
    -2
286
     1
 66
     0
277
    -2
287
     1
 67
     0
278
    -2
288
     1
 68
     0
279
    -2
289
     1
 69
     0
  0
VISUALSTYLE
  5
33A2
102
{ACAD_REACTORS
330
339C
102
}
330
339C
100
AcDbVisualStyle
  2
2dWireframe
 70
     4
 71
     0
 72
     2
 73
     0
 90
        0
 40
-0.6
 41
-30.0
 62
     5
 63
     7
 74
     1
 91
        4
 64
     7
 65
   257
 75
     1
175
     1
 42
1.0
 92
        0
 66
   257
 43
1.0
 76
     1
 77
     6
 78
     2
 67
     7
 79
     5
170
     0
171
     0
290
     0
174
     0
 93
        1
 44
0.0
173
     0
291
     0
 45
0.0
1001
ACAD
1000
AcDbSavedByObjectVersion
1070
     0
  0
VISUALSTYLE
  5
33A4
102
{ACAD_REACTORS
330
339C
102
}
330
339C
100
AcDbVisualStyle
  2
3D Hidden
 70
     6
 71
     1
 72
     2
 73
     2
 90
        0
 40
-0.6
 41
-30.0
 62
     5
 63
     7
 74
     2
 91
        2
 64
     7
 65
   257
 75
     2
175
     1
 42
40.0
 92
        0
 66
   257
 43
1.0
 76
     1
 77
     6
 78
     2
 67
     7
 79
     3
170
     0
171
     0
290
     0
174
     0
 93
        1
 44
0.0
173
     0
291
     0
 45
0.0
1001
ACAD
1000
AcDbSavedByObjectVersion
1070
     0
  0
VISUALSTYLE
  5
33A3
102
{ACAD_REACTORS
330
339C
102
}
330
339C
100
AcDbVisualStyle
  2
3dWireframe
 70
     5
 71
     0
 72
     2
 73
     0
 90
        0
 40
-0.6
 41
-30.0
 62
     5
 63
     7
 74
     1
 91
        4
 64
     7
 65
   257
 75
     1
175
     1
 42
1.0
 92
        0
 66
   257
 43
1.0
 76
     1
 77
     6
 78
     2
 67
     7
 79
     5
170
     0
171
     0
290
     0
174
     0
 93
        1
 44
0.0
173
     0
291
     0
 45
0.0
1001
ACAD
1000
AcDbSavedByObjectVersion
1070
     0
  0
VISUALSTYLE
  5
33A1
102
{ACAD_REACTORS
330
339C
102
}
330
339C
100
AcDbVisualStyle
  2
Basic
 70
     7
 71
     1
 72
     0
 73
     1
 90
        0
 40
-0.6
 41
-30.0
 62
     5
 63
     7
 74
     0
 91
        4
 64
     7
 65
   257
 75
     1
175
     1
 42
1.0
 92
        8
 66
     7
 43
1.0
 76
     1
 77
     6
 78
     2
 67
     7
 79
     5
170
     0
171
     0
290
     0
174
     0
 93
        1
 44
0.0
173
     0
291
     1
 45
0.0
1001
ACAD
1000
AcDbSavedByObjectVersion
1070
     0
  0
VISUALSTYLE
  5
33A8
102
{ACAD_REACTORS
330
339C
102
}
330
339C
100
AcDbVisualStyle
  2
Brighten
 70
    12
 71
     2
 72
     2
 73
     0
 90
        0
 40
-0.6
 41
-30.0
 62
     5
 63
     7
 74
     1
 91
        4
 64
     7
 65
   257
 75
     1
175
     1
 42
1.0
 92
        8
 66
     7
 43
1.0
 76
     1
 77
     6
 78
     2
 67
     7
 79
     5
170
     0
171
     0
290
     0
174
     0
 93
        1
 44
50.0
173
     0
291
     1
 45
0.0
1001
ACAD
1000
AcDbSavedByObjectVersion
1070
     0
  0
VISUALSTYLE
  5
33AC
102
{ACAD_REACTORS
330
339C
102
}
330
339C
100
AcDbVisualStyle
  2
ColorChange
 70
    16
 71
     2
 72
     2
 73
     3
 90
        0
 40
-0.6
 41
-30.0
 62
     5
 63
     8
 74
     1
 91
        4
 64
     7
 65
   257
 75
     1
175
     1
 42
1.0
 92
        8
 66
     8
 43
1.0
 76
     1
 77
     6
 78
     2
 67
     7
 79
     5
170
     0
171
     0
290
     0
174
     0
 93
        1
 44
0.0
173
     0
291
     1
 45
0.0
1001
ACAD
1000
AcDbSavedByObjectVersion
1070
     0
  0
VISUALSTYLE
  5
33A5
102
{ACAD_REACTORS
330
339C
102
}
330
339C
100
AcDbVisualStyle
  2
Conceptual
 70
     9
 71
     3
 72
     2
 73
     0
 90
        0
 40
-0.6
 41
-30.0
 62
     5
 63
     7
 74
     2
 91
        2
 64
     7
 65
   257
 75
     1
175
     1
 42
40.0
 92
        8
 66
     7
 43
1.0
 76
     1
 77
     6
 78
     2
 67
     7
 79
     3
170
     0
171
     0
290
     0
174
     0
 93
        1
 44
0.0
173
     0
291
     0
 45
0.0
1001
ACAD
1000
AcDbSavedByObjectVersion
1070
     0
  0
VISUALSTYLE
  5
33A7
102
{ACAD_REACTORS
330
339C
102
}
330
339C
100
AcDbVisualStyle
  2
Dim
 70
    11
 71
     2
 72
     2
 73
     0
 90
        0
 40
-0.6
 41
-30.0
 62
     5
 63
     7
 74
     1
 91
        4
 64
     7
 65
   257
 75
     1
175
     1
 42
1.0
 92
        8
 66
     7
 43
1.0
 76
     1
 77
     6
 78
     2
 67
     7
 79
     5
170
     0
171
     0
290
     0
174
     0
 93
        1
 44
-50.0
173
     0
291
     1
 45
0.0
1001
ACAD
1000
AcDbSavedByObjectVersion
1070
     0
  0
VISUALSTYLE
  5
33AB
102
{ACAD_REACTORS
330
339C
102
}
330
339C
100
AcDbVisualStyle
  2
Facepattern
 70
    15
 71
     2
 72
     2
 73
     0
 90
        0
 40
-0.6
 41
-30.0
 62
     5
 63
     7
 74
     1
 91
        4
 64
     7
 65
   257
 75
     1
175
     1
 42
1.0
 92
        8
 66
     7
 43
1.0
 76
     1
 77
     6
 78
     2
 67
     7
 79
     5
170
     0
171
     0
290
     0
174
     0
 93
        1
 44
0.0
173
     0
291
     1
 45
0.0
1001
ACAD
1000
AcDbSavedByObjectVersion
1070
     0
  0
VISUALSTYLE
  5
339D
102
{ACAD_REACTORS
330
339C
102
}
330
339C
100
AcDbVisualStyle
  2
Flat
 70
     0
 71
     2
 72
     1
 73
     1
 90
        2
 40
-0.6
 41
30.0
 62
     5
 63
     7
 74
     0
 91
        4
 64
     7
 65
   257
 75
     1
175
     1
 42
1.0
 92
        8
 66
     7
 43
1.0
 76
     1
 77
     6
 78
     2
 67
     7
 79
     5
170
     0
171
     0
290
     0
174
     0
 93
       13
 44
0.0
173
     0
291
     1
 45
0.0
1001
ACAD
1000
AcDbSavedByObjectVersion
1070
     0
  0
VISUALSTYLE
  5
339E
102
{ACAD_REACTORS
330
339C
102
}
330
339C
100
AcDbVisualStyle
  2
FlatWithEdges
 70
     1
 71
     2
 72
     1
 73
     1
 90
        2
 40
-0.6
 41
30.0
 62
     5
 63
     7
 74
     1
 91
        4
 64
     7
 65
   257
 75
     1
175
     1
 42
1.0
 92
        0
 66
   257
 43
1.0
 76
     1
 77
     6
 78
     2
 67
     7
 79
     5
170
     0
171
     0
290
     0
174
     0
 93
       13
 44
0.0
173
     0
291
     1
 45
0.0
1001
ACAD
1000
AcDbSavedByObjectVersion
1070
     0
  0
VISUALSTYLE
  5
339F
102
{ACAD_REACTORS
330
339C
102
}
330
339C
100
AcDbVisualStyle
  2
Gouraud
 70
     2
 71
     2
 72
     2
 73
     1
 90
        2
 40
-0.6
 41
30.0
 62
     5
 63
     7
 74
     0
 91
        4
 64
     7
 65
   257
 75
     1
175
     1
 42
1.0
 92
        0
 66
     7
 43
1.0
 76
     1
 77
     6
 78
     2
 67
     7
 79
     5
170
     0
171
     0
290
     0
174
     0
 93
       13
 44
0.0
173
     0
291
     1
 45
0.0
1001
ACAD
1000
AcDbSavedByObjectVersion
1070
     0
  0
VISUALSTYLE
  5
33A0
102
{ACAD_REACTORS
330
339C
102
}
330
339C
100
AcDbVisualStyle
  2
GouraudWithEdges
 70
     3
 71
     2
 72
     2
 73
     1
 90
        2
 40
-0.6
 41
30.0
 62
     5
 63
     7
 74
     1
 91
        4
 64
     7
 65
   257
 75
     1
175
     1
 42
1.0
 92
        0
 66
   257
 43
1.0
 76
     1
 77
     6
 78
     2
 67
     7
 79
     5
170
     0
171
     0
290
     0
174
     0
 93
       13
 44
0.0
173
     0
291
     1
 45
0.0
1001
ACAD
1000
AcDbSavedByObjectVersion
1070
     0
  0
VISUALSTYLE
  5
33AA
102
{ACAD_REACTORS
330
339C
102
}
330
339C
100
AcDbVisualStyle
  2
Linepattern
 70
    14
 71
     2
 72
     2
 73
     0
 90
        0
 40
-0.6
 41
-30.0
 62
     5
 63
     7
 74
     1
 91
        4
 64
     7
 65
   257
 75
     7
175
     7
 42
1.0
 92
        8
 66
     7
 43
1.0
 76
     1
 77
     6
 78
     2
 67
     7
 79
     5
170
     0
171
     0
290
     0
174
     0
 93
        1
 44
0.0
173
     0
291
     1
 45
0.0
1001
ACAD
1000
AcDbSavedByObjectVersion
1070
     0
  0
VISUALSTYLE
  5
33A6
102
{ACAD_REACTORS
330
339C
102
}
330
339C
100
AcDbVisualStyle
  2
Realistic
 70
     8
 71
     2
 72
     2
 73
     0
 90
        0
 40
-0.6
 41
-30.0
 62
     5
 63
     7
 74
     1
 91
        0
 64
     7
 65
   257
 75
     1
175
     1
 42
1.0
 92
        8
 66
     8
 43
1.0
 76
     1
 77
     6
 78
     2
 67
     7
 79
     5
170
     0
171
     0
290
     0
174
     0
 93
       13
 44
0.0
173
     0
291
     0
 45
0.0
1001
ACAD
1000
AcDbSavedByObjectVersion
1070
     0
  0
VISUALSTYLE
  5
33A9
102
{ACAD_REACTORS
330
339C
102
}
330
339C
100
AcDbVisualStyle
  2
Thicken
 70
    13
 71
     2
 72
     2
 73
     0
 90
        0
 40
-0.6
 41
-30.0
 62
     5
 63
     7
 74
     1
 91
        4
 64
     7
 65
   257
 75
     1
175
     1
 42
1.0
 92
       12
 66
     7
 43
1.0
 76
     1
 77
     6
 78
     2
 67
     7
 79
     5
170
     0
171
     0
290
     0
174
     0
 93
        1
 44
0.0
173
     0
291
     1
 45
0.0
1001
ACAD
1000
AcDbSavedByObjectVersion
1070
     0
  0
DICTIONARYVAR
  5
35D2
102
{ACAD_REACTORS
330
35CF
102
}
330
35CF
100
DictionaryVariables
280
     0
  1
1:1
  0
DICTIONARYVAR
  5
35D1
102
{ACAD_REACTORS
330
35CF
102
}
330
35CF
100
DictionaryVariables
280
     0
  1
STANDARD
  0
DICTIONARYVAR
  5
35D0
102
{ACAD_REACTORS
330
35CF
102
}
330
35CF
100
DictionaryVariables
280
     0
  1
STANDARD
  0
DICTIONARYVAR
  5
35D5
102
{ACAD_REACTORS
330
35CF
102
}
330
35CF
100
DictionaryVariables
280
     0
  1
1
  0
DICTIONARYVAR
  5
35D4
102
{ACAD_REACTORS
330
35CF
102
}
330
35CF
100
DictionaryVariables
280
     0
  1
1
  0
DICTIONARYVAR
  5
35D3
102
{ACAD_REACTORS
330
35CF
102
}
330
35CF
100
DictionaryVariables
280
     0
  1
127
  0
DICTIONARY
  5
3589
102
{ACAD_REACTORS
330
357B
102
}
330
357B
100
AcDbDictionary
281
     1
  0
DICTIONARY
  5
34C9
102
{ACAD_REACTORS
330
34C8
102
}
330
34C8
100
AcDbDictionary
281
     1
  3
DWGSETTINGS
350
34CA
  3
TRANSSETTINGS
350
34CB
  0
ACAMGFILTERDAT
  5
35A8
102
{ACAD_REACTORS
330
35A3
102
}
330
35A3
100
AcAmgFilterDat
 70
    15
  1
DIMENSION,AMDT_*_DIM
  2
*
  3
*
  4
*
  5
*
290
     1
  0
ACAMGFILTERDAT
  5
35A7
102
{ACAD_REACTORS
330
35A3
102
}
330
35A3
100
AcAmgFilterDat
 70
    15
  1
*
  2
AM_FEA-AM_*
  3
*
  4
*
  5
*
290
     1
  0
ACAMGFILTERDAT
  5
35A4
102
{ACAD_REACTORS
330
35A3
102
}
330
35A3
100
AcAmgFilterDat
 70
    15
  1
HATCH
  2
*
  3
*
  4
*
  5
*
290
     1
  0
ACAMGFILTERDAT
  5
35A5
102
{ACAD_REACTORS
330
35A3
102
}
330
35A3
100
AcAmgFilterDat
 70
    15
  1
LINE
  2
8,8N,*-8,*-8N,AM_8,AM_8N,*-AM_8,*-AM_8N
  3
*
  4
*
  5
INSERT,STDPART2D
290
     1
  0
ACAMGFILTERDAT
  5
35A9
102
{ACAD_REACTORS
330
35A3
102
}
330
35A3
100
AcAmgFilterDat
 70
    15
  1
ARC
  2
AM_5
  3
*
  4
2
  5
INSERT
290
     0
  0
ACAMGFILTERDAT
  5
35A6
102
{ACAD_REACTORS
330
35A3
102
}
330
35A3
100
AcAmgFilterDat
 70
    15
  1
ACMFCFRAME,ACMDATUMTARGET,ACMDATUMID,ACMWELDSYM,ACMSURFSYM,ACMFEATID,ACMPARTREF,ACMBALLOON,AMDTEDGESYM,AMGSCREWCALCTABLE,ACMMARKSTAMP
  2
*
  3
*
  4
*
  5
*
290
     1
  0
LAYER_INDEX
  5
35C2
102
{ACAD_REACTORS
330
35C1
102
}
330
35C1
100
AcDbIndex
 40
2456210.459650394
100
AcDbLayerIndex
  8
0
360
35C3
 90
        2
  8
OUTLINE
360
35C4
 90
       15
  8
SIZE
360
35C5
 90
       24
  8
BASIS
360
35C6
 90
        1
  8
DETAIL
360
35C7
 90
       22
  8
ARRANGE
360
35C8
 90
        2
  8
DEFPOINTS
360
35C9
 90
        0
  8
ETC
360
35CA
 90
        3
  8
FIX
360
35CB
 90
        0
  8
NOTE
360
35CC
 90
        4
  8
SERVICESPACE
360
35CD
 90
        0
  8
SYMBOLLINE
360
35CE
 90
        0
  0
DICTIONARY
  5
35E5
330
33EA
100
AcDbDictionary
280
     1
281
     1
  3
ACAD_XREC_ROUNDTRIP
360
35E6
  0
DICTIONARY
  5
35E3
330
33E6
100
AcDbDictionary
280
     1
281
     1
  3
ACAD_XREC_ROUNDTRIP
360
35E4
  0
DICTIONARY
  5
338D
330
338C
100
AcDbDictionary
280
     1
281
     1
  3
ACAD_XREC_ROUNDTRIP
360
35E0
  3
BUMPTILE
360
338F
  3
DIFFUSETILE
360
338E
  3
OPACITYTILE
360
3392
  3
REFLECTIONTILE
360
3391
  3
REFRACTIONTILE
360
3393
  3
SPECULARTILE
360
3390
  0
DICTIONARY
  5
3385
330
3384
100
AcDbDictionary
280
     1
281
     1
  3
ACAD_XREC_ROUNDTRIP
360
35DF
  3
BUMPTILE
360
3387
  3
DIFFUSETILE
360
3386
  3
OPACITYTILE
360
338A
  3
REFLECTIONTILE
360
3389
  3
REFRACTIONTILE
360
338B
  3
SPECULARTILE
360
3388
  0
DICTIONARY
  5
3395
330
3394
100
AcDbDictionary
280
     1
281
     1
  3
ACAD_XREC_ROUNDTRIP
360
35E1
  3
BUMPTILE
360
3397
  3
DIFFUSETILE
360
3396
  3
OPACITYTILE
360
339A
  3
REFLECTIONTILE
360
3399
  3
REFRACTIONTILE
360
339B
  3
SPECULARTILE
360
3398
  0
DICTIONARY
  5
35D6
330
33DF
100
AcDbDictionary
280
     1
281
     1
  3
ACAD_ROUNDTRIP_2008_TABLESTYLE_CELLSTYLEMAP
360
35D7
  3
ACAD_XREC_ROUNDTRIP
360
35E2
  0
IDBUFFER
  5
35C3
330
0
100
AcDbIdBuffer
330
32FF
330
3300
  0
IDBUFFER
  5
35C4
330
0
100
AcDbIdBuffer
330
953
330
954
330
955
330
956
330
957
330
958
330
32E2
330
3303
330
3304
330
3305
330
3306
330
330A
330
330E
330
330F
330
3310
  0
IDBUFFER
  5
35C5
330
0
100
AcDbIdBuffer
330
3331
330
3332
330
3333
330
3334
330
3335
330
3336
330
3337
330
3338
330
3321
330
3322
330
3323
330
3324
330
3325
330
3326
330
3327
330
3328
330
3329
330
332A
330
332B
330
332C
330
332D
330
332E
330
332F
330
3330
  0
IDBUFFER
  5
35C6
330
0
100
AcDbIdBuffer
330
32F7
  0
IDBUFFER
  5
35C7
330
0
100
AcDbIdBuffer
330
3318
330
3319
330
331A
330
331B
330
331C
330
3320
330
32E1
330
32E3
330
32E4
330
32E8
330
32EC
330
32F0
330
32F3
330
32F4
330
32F8
330
32F9
330
32FA
330
32FE
330
3311
330
3312
330
3313
330
3317
  0
IDBUFFER
  5
35C8
330
0
100
AcDbIdBuffer
330
32F5
330
32F6
  0
IDBUFFER
  5
35C9
330
0
100
AcDbIdBuffer
  0
IDBUFFER
  5
35CA
330
0
100
AcDbIdBuffer
330
32DE
330
32DF
330
32E0
  0
IDBUFFER
  5
35CB
330
0
100
AcDbIdBuffer
  0
IDBUFFER
  5
35CC
330
0
100
AcDbIdBuffer
330
32F1
330
32F2
330
3301
330
3302
  0
IDBUFFER
  5
35CD
330
0
100
AcDbIdBuffer
  0
IDBUFFER
  5
35CE
330
0
100
AcDbIdBuffer
  0
XRECORD
  5
35E6
102
{ACAD_REACTORS
330
35E5
102
}
330
35E5
100
AcDbXrecord
280
     1
102
SHADEPLOT
 70
     0
102
SHADEPLOTRESLEVEL
 70
     2
102
SHADEPLOTCUSTOMDPI
 70
   300
  0
XRECORD
  5
35E4
102
{ACAD_REACTORS
330
35E3
102
}
330
35E3
100
AcDbXrecord
280
     1
102
SHADEPLOT
 70
     0
102
SHADEPLOTRESLEVEL
 70
     2
102
SHADEPLOTCUSTOMDPI
 70
   300
  0
XRECORD
  5
35E0
102
{ACAD_REACTORS
330
338D
102
}
330
338D
100
AcDbXrecord
280
     1
102
MATERIAL
148
0.0
149
0.0
149
0.0
 93
        0
 94
      127
282
     0
 72
     0
 77
     0
171
     0
175
     0
179
     0
273
     0
  0
XRECORD
  5
338F
102
{ACAD_REACTORS
330
338D
102
}
330
338D
100
AcDbXrecord
280
     1
270
     1
271
     1
  0
XRECORD
  5
338E
102
{ACAD_REACTORS
330
338D
102
}
330
338D
100
AcDbXrecord
280
     1
270
     1
271
     1
  0
XRECORD
  5
3392
102
{ACAD_REACTORS
330
338D
102
}
330
338D
100
AcDbXrecord
280
     1
270
     1
271
     1
  0
XRECORD
  5
3391
102
{ACAD_REACTORS
330
338D
102
}
330
338D
100
AcDbXrecord
280
     1
270
     1
271
     1
  0
XRECORD
  5
3393
102
{ACAD_REACTORS
330
338D
102
}
330
338D
100
AcDbXrecord
280
     1
270
     1
271
     1
  0
XRECORD
  5
3390
102
{ACAD_REACTORS
330
338D
102
}
330
338D
100
AcDbXrecord
280
     1
270
     1
271
     1
  0
XRECORD
  5
35DF
102
{ACAD_REACTORS
330
3385
102
}
330
3385
100
AcDbXrecord
280
     1
102
MATERIAL
148
0.0
149
0.0
149
0.0
 93
        0
 94
      127
282
     0
 72
     0
 77
     0
171
     0
175
     0
179
     0
273
     0
  0
XRECORD
  5
3387
102
{ACAD_REACTORS
330
3385
102
}
330
3385
100
AcDbXrecord
280
     1
270
     1
271
     1
  0
XRECORD
  5
3386
102
{ACAD_REACTORS
330
3385
102
}
330
3385
100
AcDbXrecord
280
     1
270
     1
271
     1
  0
XRECORD
  5
338A
102
{ACAD_REACTORS
330
3385
102
}
330
3385
100
AcDbXrecord
280
     1
270
     1
271
     1
  0
XRECORD
  5
3389
102
{ACAD_REACTORS
330
3385
102
}
330
3385
100
AcDbXrecord
280
     1
270
     1
271
     1
  0
XRECORD
  5
338B
102
{ACAD_REACTORS
330
3385
102
}
330
3385
100
AcDbXrecord
280
     1
270
     1
271
     1
  0
XRECORD
  5
3388
102
{ACAD_REACTORS
330
3385
102
}
330
3385
100
AcDbXrecord
280
     1
270
     1
271
     1
  0
XRECORD
  5
35E1
102
{ACAD_REACTORS
330
3395
102
}
330
3395
100
AcDbXrecord
280
     1
102
MATERIAL
148
0.0
149
0.0
149
0.0
 93
        0
 94
      127
282
     0
 72
     0
 77
     0
171
     0
175
     0
179
     0
273
     0
  0
XRECORD
  5
3397
102
{ACAD_REACTORS
330
3395
102
}
330
3395
100
AcDbXrecord
280
     1
270
     1
271
     1
  0
XRECORD
  5
3396
102
{ACAD_REACTORS
330
3395
102
}
330
3395
100
AcDbXrecord
280
     1
270
     1
271
     1
  0
XRECORD
  5
339A
102
{ACAD_REACTORS
330
3395
102
}
330
3395
100
AcDbXrecord
280
     1
270
     1
271
     1
  0
XRECORD
  5
3399
102
{ACAD_REACTORS
330
3395
102
}
330
3395
100
AcDbXrecord
280
     1
270
     1
271
     1
  0
XRECORD
  5
339B
102
{ACAD_REACTORS
330
3395
102
}
330
3395
100
AcDbXrecord
280
     1
270
     1
271
     1
  0
XRECORD
  5
3398
102
{ACAD_REACTORS
330
3395
102
}
330
3395
100
AcDbXrecord
280
     1
270
     1
271
     1
  0
CELLSTYLEMAP
  5
35D7
102
{ACAD_REACTORS
330
35D6
102
}
330
35D6
100
AcDbCellStyleMap
 90
        3
300
CELLSTYLE
  1
TABLEFORMAT_BEGIN
 90
        5
170
     1
 91
        0
 92
    32768
 62
   257
 93
        1
300
CONTENTFORMAT
  1
CONTENTFORMAT_BEGIN
 90
        0
 91
        0
 92
      512
 93
        0
300

 40
0.0
140
1.0
 94
        5
 62
     0
340
33D0
144
0.25
309
CONTENTFORMAT_END
171
     0
 94
        0
309
TABLEFORMAT_END
  1
CELLSTYLE_BEGIN
 90
        1
 91
        1
300
_TITLE
309
CELLSTYLE_END
300
CELLSTYLE
  1
TABLEFORMAT_BEGIN
 90
        5
170
     1
 91
        0
 92
        0
 62
   257
 93
        1
300
CONTENTFORMAT
  1
CONTENTFORMAT_BEGIN
 90
        0
 91
        0
 92
      512
 93
        0
300

 40
0.0
140
1.0
 94
        5
 62
     0
340
33D0
144
0.18
309
CONTENTFORMAT_END
171
     0
 94
        0
309
TABLEFORMAT_END
  1
CELLSTYLE_BEGIN
 90
        2
 91
        1
300
_HEADER
309
CELLSTYLE_END
300
CELLSTYLE
  1
TABLEFORMAT_BEGIN
 90
        5
170
     1
 91
        0
 92
        0
 62
   257
 93
        1
300
CONTENTFORMAT
  1
CONTENTFORMAT_BEGIN
 90
        0
 91
        0
 92
      512
 93
        0
300

 40
0.0
140
1.0
 94
        2
 62
     0
340
33D0
144
0.18
309
CONTENTFORMAT_END
171
     0
 94
        0
309
TABLEFORMAT_END
  1
CELLSTYLE_BEGIN
 90
        3
 91
        2
300
_DATA
309
CELLSTYLE_END
  0
XRECORD
  5
35E2
102
{ACAD_REACTORS
330
35D6
102
}
330
35D6
100
AcDbXrecord
280
     1
102
ACAD_ROUNDTRIP_PRE2007_TABLESTYLE
 90
      512
 91
        0
  1

 92
      512
 93
        0
  2

 94
      512
 95
        0
  3

  0
ENDSEC
  0
EOF
