  0
SECTION
  2
HEADER
  9
$ACADVER
  1
AC1015
  9
$ACADMAINTVER
 70
    20
  9
$DWGCODEPAGE
  3
ANSI_932
  9
$INSBASE
 10
0.0
 20
0.0
 30
0.0
  9
$EXTMIN
 10
-823.709399992254
 20
-521.8785026932937
 30
0.0
  9
$EXTMAX
 10
907.0262574630739
 20
580.4135623732361
 30
50.0
  9
$LIMMIN
 10
-2970.0
 20
-2100.0
  9
$LIMMAX
 10
2970.0
 20
2100.0
  9
$ORTHOMODE
 70
     1
  9
$REGENMODE
 70
     0
  9
$FILLMODE
 70
     1
  9
$QTEXTMODE
 70
     0
  9
$MIRRTEXT
 70
     0
  9
$LTSCALE
 40
20.0
  9
$ATTMODE
 70
     1
  9
$TEXTSIZE
 40
64.0
  9
$TRACEWID
 40
0.05
  9
$TEXTSTYLE
  7
STANDARD
  9
$CLAYER
  8
0
  9
$CELTYPE
  6
ByLayer
  9
$CECOLOR
 62
   256
  9
$CELTSCALE
 40
1.0
  9
$DISPSILH
 70
     0
  9
$DIMSCALE
 40
1.0
  9
$DIMASZ
 40
0.12
  9
$DIMEXO
 40
0.05
  9
$DIMDLI
 40
0.5
  9
$DIMRND
 40
0.0
  9
$DIMDLE
 40
0.0
  9
$DIMEXE
 40
0.1
  9
$DIMTP
 40
0.1
  9
$DIMTM
 40
0.1
  9
$DIMTXT
 40
0.12
  9
$DIMCEN
 40
0.0
  9
$DIMTSZ
 40
0.0
  9
$DIMTOL
 70
     0
  9
$DIMLIM
 70
     0
  9
$DIMTIH
 70
     1
  9
$DIMTOH
 70
     1
  9
$DIMSE1
 70
     0
  9
$DIMSE2
 70
     0
  9
$DIMTAD
 70
     0
  9
$DIMZIN
 70
     7
  9
$DIMBLK
  1

  9
$DIMASO
 70
     1
  9
$DIMSHO
 70
     0
  9
$DIMPOST
  1

  9
$DIMAPOST
  1
mm
  9
$DIMALT
 70
     0
  9
$DIMALTD
 70
     2
  9
$DIMALTF
 40
25.4
  9
$DIMLFAC
 40
1.0
  9
$DIMTOFL
 70
     0
  9
$DIMTVP
 40
0.0
  9
$DIMTIX
 70
     0
  9
$DIMSOXD
 70
     0
  9
$DIMSAH
 70
     0
  9
$DIMBLK1
  1

  9
$DIMBLK2
  1

  9
$DIMSTYLE
  2
AM_ANSI
  9
$DIMCLRD
 70
   256
  9
$DIMCLRE
 70
   256
  9
$DIMCLRT
 70
     2
  9
$DIMTFAC
 40
0.71
  9
$DIMGAP
 40
0.06
  9
$DIMJUST
 70
     0
  9
$DIMSD1
 70
     0
  9
$DIMSD2
 70
     0
  9
$DIMTOLJ
 70
     1
  9
$DIMTZIN
 70
     7
  9
$DIMALTZ
 70
     0
  9
$DIMALTTZ
 70
     0
  9
$DIMUPT
 70
     0
  9
$DIMDEC
 70
     4
  9
$DIMTDEC
 70
     4
  9
$DIMALTU
 70
     2
  9
$DIMALTTD
 70
     4
  9
$DIMTXSTY
  7
STANDARD
  9
$DIMAUNIT
 70
     0
  9
$DIMADEC
 70
     0
  9
$DIMALTRND
 40
0.0
  9
$DIMAZIN
 70
     2
  9
$DIMDSEP
 70
    46
  9
$DIMATFIT
 70
     3
  9
$DIMFRAC
 70
     0
  9
$DIMLDRBLK
  1

  9
$DIMLUNIT
 70
     2
  9
$DIMLWD
 70
    -1
  9
$DIMLWE
 70
    -1
  9
$DIMTMOVE
 70
     0
  9
$LUNITS
 70
     2
  9
$LUPREC
 70
     4
  9
$SKETCHINC
 40
0.1
  9
$FILLETRAD
 40
4.0
  9
$AUNITS
 70
     1
  9
$AUPREC
 70
     3
  9
$MENU
  1
ACAD
  9
$ELEVATION
 40
0.0
  9
$PELEVATION
 40
0.0
  9
$THICKNESS
 40
50.0
  9
$LIMCHECK
 70
     0
  9
$CHAMFERA
 40
0.0
  9
$CHAMFERB
 40
0.0
  9
$CHAMFERC
 40
0.0
  9
$CHAMFERD
 40
0.0
  9
$SKPOLY
 70
     0
  9
$TDCREATE
 40
2452321.396199653
  9
$TDUCREATE
 40
2452321.021199653
  9
$TDUPDATE
 40
2456210.611681424
  9
$TDUUPDATE
 40
2456210.236681424
  9
$TDINDWG
 40
1.0408437153
  9
$TDUSRTIMER
 40
1.0408379514
  9
$USRTIMER
 70
     1
  9
$ANGBASE
 50
0.0
  9
$ANGDIR
 70
     0
  9
$PDMODE
 70
     3
  9
$PDSIZE
 40
-2.0
  9
$PLINEWID
 40
0.0
  9
$SPLFRAME
 70
     0
  9
$SPLINETYPE
 70
     6
  9
$SPLINESEGS
 70
     8
  9
$HANDSEED
  5
2B44
  9
$SURFTAB1
 70
     6
  9
$SURFTAB2
 70
     6
  9
$SURFTYPE
 70
     6
  9
$SURFU
 70
     6
  9
$SURFV
 70
     6
  9
$UCSBASE
  2

  9
$UCSNAME
  2

  9
$UCSORG
 10
0.0
 20
0.0
 30
0.0
  9
$UCSXDIR
 10
1.0
 20
0.0
 30
0.0
  9
$UCSYDIR
 10
0.0
 20
1.0
 30
0.0
  9
$UCSORTHOREF
  2

  9
$UCSORTHOVIEW
 70
     0
  9
$UCSORGTOP
 10
0.0
 20
0.0
 30
0.0
  9
$UCSORGBOTTOM
 10
0.0
 20
0.0
 30
0.0
  9
$UCSORGLEFT
 10
0.0
 20
0.0
 30
0.0
  9
$UCSORGRIGHT
 10
0.0
 20
0.0
 30
0.0
  9
$UCSORGFRONT
 10
0.0
 20
0.0
 30
0.0
  9
$UCSORGBACK
 10
0.0
 20
0.0
 30
0.0
  9
$PUCSBASE
  2

  9
$PUCSNAME
  2

  9
$PUCSORG
 10
0.0
 20
0.0
 30
0.0
  9
$PUCSXDIR
 10
1.0
 20
0.0
 30
0.0
  9
$PUCSYDIR
 10
0.0
 20
1.0
 30
0.0
  9
$PUCSORTHOREF
  2

  9
$PUCSORTHOVIEW
 70
     0
  9
$PUCSORGTOP
 10
0.0
 20
0.0
 30
0.0
  9
$PUCSORGBOTTOM
 10
0.0
 20
0.0
 30
0.0
  9
$PUCSORGLEFT
 10
0.0
 20
0.0
 30
0.0
  9
$PUCSORGRIGHT
 10
0.0
 20
0.0
 30
0.0
  9
$PUCSORGFRONT
 10
0.0
 20
0.0
 30
0.0
  9
$PUCSORGBACK
 10
0.0
 20
0.0
 30
0.0
  9
$USERI1
 70
     0
  9
$USERI2
 70
     0
  9
$USERI3
 70
     0
  9
$USERI4
 70
     0
  9
$USERI5
 70
     0
  9
$USERR1
 40
20.0
  9
$USERR2
 40
0.0
  9
$USERR3
 40
0.0
  9
$USERR4
 40
0.0
  9
$USERR5
 40
0.0
  9
$WORLDVIEW
 70
     1
  9
$SHADEDGE
 70
     3
  9
$SHADEDIF
 70
    70
  9
$TILEMODE
 70
     1
  9
$MAXACTVP
 70
    64
  9
$PINSBASE
 10
0.0
 20
0.0
 30
0.0
  9
$PLIMCHECK
 70
     0
  9
$PEXTMIN
 10
1.000000000000000E+20
 20
1.000000000000000E+20
 30
1.000000000000000E+20
  9
$PEXTMAX
 10
-1.000000000000000E+20
 20
-1.000000000000000E+20
 30
-1.000000000000000E+20
  9
$PLIMMIN
 10
0.0
 20
0.0
  9
$PLIMMAX
 10
12.0
 20
9.0
  9
$UNITMODE
 70
     0
  9
$VISRETAIN
 70
     1
  9
$PLINEGEN
 70
     0
  9
$PSLTSCALE
 70
     1
  9
$TREEDEPTH
 70
  3020
  9
$CMLSTYLE
  2
Standard
  9
$CMLJUST
 70
     0
  9
$CMLSCALE
 40
1.0
  9
$PROXYGRAPHICS
 70
     1
  9
$MEASUREMENT
 70
     0
  9
$CELWEIGHT
370
    -1
  9
$ENDCAPS
280
     0
  9
$JOINSTYLE
280
     0
  9
$LWDISPLAY
290
     0
  9
$INSUNITS
 70
     0
  9
$HYPERLINKBASE
  1

  9
$STYLESHEET
  1

  9
$XEDIT
290
     1
  9
$CEPSNTYPE
380
     0
  9
$PSTYLEMODE
290
     1
  9
$FINGERPRINTGUID
  2
{810A07EE-EC3A-4576-864F-66FEE7061563}
  9
$VERSIONGUID
  2
{FA5AEFCB-60DD-4905-BF7B-6655C7D1EFB3}
  9
$EXTNAMES
290
     1
  9
$PSVPSCALE
 40
0.0
  9
$OLESTARTUP
290
     0
  0
ENDSEC
  0
SECTION
  2
CLASSES
  0
CLASS
  1
ACDBDICTIONARYWDFLT
  2
AcDbDictionaryWithDefault
  3
ObjectDBX Classes
 90
        0
280
     0
281
     0
  0
CLASS
  1
MATERIAL
  2
AcDbMaterial
  3
ObjectDBX Classes
 90
     1153
280
     0
281
     0
  0
CLASS
  1
VISUALSTYLE
  2
AcDbVisualStyle
  3
ObjectDBX Classes
 90
     4095
280
     0
281
     0
  0
CLASS
  1
SCALE
  2
AcDbScale
  3
ObjectDBX Classes
 90
     1153
280
     0
281
     0
  0
CLASS
  1
TABLESTYLE
  2
AcDbTableStyle
  3
ObjectDBX Classes
 90
     4095
280
     0
281
     0
  0
CLASS
  1
MLEADERSTYLE
  2
AcDbMLeaderStyle
  3
ACDB_MLEADERSTYLE_CLASS
 90
     4095
280
     0
281
     0
  0
CLASS
  1
AMGSETTINGSOBJ
  2
AmgSettingsObj
  3
"AcadM|Product Description: AutoCAD Mechanical|Company: Autodesk, Inc."
 90
     1024
280
     0
281
     0
  0
CLASS
  1
ACME_DOCUMENT
  2
AcMeDbDoc
  3
AcMeServices
 90
     1024
280
     0
281
     0
  0
CLASS
  1
ACMESCOPE
  2
AcMeScope
  3
AcMeServices
 90
     1024
280
     0
281
     0
  0
CLASS
  1
ACMECOMMANDHISTORY
  2
AcMeCommandHistory
  3
AcMeServices
 90
     1024
280
     0
281
     0
  0
CLASS
  1
ACIMSYSVARMAN
  2
AcImSysVarManager
  3
AcMeServices
 90
     1024
280
     0
281
     0
  0
CLASS
  1
ACIMREALSYSVAR
  2
AcImRealSysVar
  3
AcMeServices
 90
     1024
280
     0
281
     0
  0
CLASS
  1
ACIMINTSYSVAR
  2
AcImIntSysVar
  3
AcMeServices
 90
     1024
280
     0
281
     0
  0
CLASS
  1
ACMEDRAWINGMAN
  2
AcMeDrawingMan
  3
AcMeServices
 90
     1024
280
     0
281
     0
  0
CLASS
  1
ACMEVIEW
  2
AcMeView
  3
AcMeServices
 90
     1024
280
     0
281
     0
  0
CLASS
  1
ACDBENTITYCACHE
  2
AcMeEntityCache
  3
AcMeServices
 90
     1024
280
     0
281
     0
  0
CLASS
  1
GSMANAGER
  2
AcMeGSManager
  3
AcMeServices
 90
     1024
280
     0
281
     0
  0
CLASS
  1
AMDTINTERNALREACTOR
  2
AmdtInternalReactor
  3
AcMeServices
 90
     1024
280
     0
281
     0
  0
CLASS
  1
ACMESTATEMGR
  2
AcMeStateMgr
  3
AcMeServices
 90
     1024
280
     0
281
     0
  0
CLASS
  1
ACGREFMASTER
  2
AcGrefMaster
  3
AcAttribServices
 90
     1024
280
     0
281
     0
  0
CLASS
  1
AM_DRAWING_MGR
  2
AcDmDwgMgr
  3
AcMechDwgViewMgmt
 90
     1024
280
     0
281
     0
  0
CLASS
  1
AM_DWG_DOCUMENT
  2
AcDmDwgDocument
  3
AcMechDwgViewMgmt
 90
     1024
280
     0
281
     0
  0
CLASS
  1
AM_DWG_SHEET
  2
AcDmSheet
  3
AcMechDwgViewMgmt
 90
     1024
280
     0
281
     0
  0
CLASS
  1
AM_VIEWDIMPARMAP
  2
AcDmViewDimParMap
  3
AcMechDwgViewMgmt
 90
     1024
280
     0
281
     0
  0
CLASS
  1
AM_DWGMGR_NAME
  2
AcDmDwgMgrName
  3
AcMechDwgViewMgmt
 90
     1024
280
     0
281
     0
  0
CLASS
  1
ACME_DATABASE
  2
AcMeDbDatabase
  3
AcMeServices
 90
     1024
280
     0
281
     0
  0
CLASS
  1
ACRFINSADJUSTERMGR
  2
AcRfInsAdjusterMgr
  3
AcMeServices
 90
     1024
280
     0
281
     0
  0
CLASS
  1
ACGREFACADMASTER
  2
AcGrefacadMaster
  3
AcGrefServices
 90
     1024
280
     0
281
     0
  0
CLASS
  1
AMDTMENUSTATEMGR
  2
AmdtMenuStateMgr
  3
McadcomServices
 90
     1024
280
     0
281
     0
  0
CLASS
  1
AMDTMCOMMENUSTATE
  2
AmdtMcomMenuState
  3
McadcomServices
 90
     1024
280
     0
281
     0
  0
CLASS
  1
AMIMASTER
  2
AmiMaster
  3
AmiServices
 90
     1024
280
     0
281
     0
  0
CLASS
  1
ASAPP
  2
AcAsAppObject
  3
AutoSurfServices
 90
     1024
280
     0
281
     0
  0
CLASS
  1
IM_STATIC_MAN
  2
AcImStaticVarManager
  3
AcMeServices
 90
     1024
280
     0
281
     0
  0
CLASS
  1
ACIMSTRSYSVAR
  2
AcImStrSysVar
  3
AcMeServices
 90
     1024
280
     0
281
     0
  0
CLASS
  1
ACIMDBLSTATICVAR
  2
AcImDblStaticVar
  3
AcMeServices
 90
     1024
280
     0
281
     0
  0
CLASS
  1
ACIMSTRSTATICVAR
  2
AcImStrStaticVar
  3
AcMeServices
 90
     1024
280
     0
281
     0
  0
CLASS
  1
ACIMINTSTATICVAR
  2
AcImIntStaticVar
  3
AcMeServices
 90
     1024
280
     0
281
     0
  0
CLASS
  1
ACASGREFMASTER
  2
AcAsGrefMaster
  3
AutoSurfResolverServices
 90
     1024
280
     0
281
     0
  0
CLASS
  1
ACADGREFMODULE
  2
AcAdGrefModule
  3
AdGrefServices
 90
     1024
280
     0
281
     0
  0
CLASS
  1
AMDTMAPISURFMOUDULE
  2
AmdtMApiSurfModule
  3
MApiSurfServices
 90
     1024
280
     0
281
     0
  0
CLASS
  1
MAPIAMMOUDLE
  2
MApiAmModule
  3
MApiAmServices
 90
     1024
280
     0
281
     0
  0
CLASS
  1
AMDTADMENUSTATE
  2
AmdtAdMenuState
  3
DesignerServices
 90
     1024
280
     0
281
     0
  0
CLASS
  1
ADAPPL
  2
AcAdAppl
  3
DesignerServices
 90
     1024
280
     0
281
     0
  0
CLASS
  1
DEPMGR
  2
AcAdDepMgr
  3
DesignerServices
 90
     1024
280
     0
281
     0
  0
CLASS
  1
PARAMMGR
  2
AcAdParamMgr
  3
DesignerServices
 90
     1024
280
     0
281
     0
  0
CLASS
  1
PARAMSCOPE
  2
AcAdParamScope
  3
DesignerServices
 90
     1024
280
     0
281
     0
  0
CLASS
  1
NAMEDAPPL
  2
AcAdNamedAppl
  3
DesignerServices
 90
     1024
280
     0
281
     0
  0
CLASS
  1
AMDTDMMENUSTATE
  2
AmdtDmMenuState
  3
AcMechDwgViewMgmt
 90
     1024
280
     0
281
     0
  0
CLASS
  1
MAPIADMODULE
  2
MApiAdModule
  3
MApiAdServices
 90
     1024
280
     0
281
     0
  0
CLASS
  1
AMDTAMMENUSTATE
  2
AmdtAmMenuState
  3
DesignerAssemblies
 90
     1024
280
     0
281
     0
  0
CLASS
  1
ACAMPROJECT
  2
AcAmProject
  3
DesignerAssemblies
 90
     1024
280
     0
281
     0
  0
CLASS
  1
ACAMGRCOMPDEF
  2
AcAmGrCompDef
  3
DesignerAssemblies
 90
     1024
280
     0
281
     0
  0
CLASS
  1
ACCMCONTEXT
  2
AcCmContext
  3
DesignerAssemblies
 90
     1024
280
     0
281
     0
  0
CLASS
  1
ACAMCOMPDEF
  2
AcAmCompDef
  3
DesignerAssemblies
 90
     1024
280
     0
281
     0
  0
CLASS
  1
ACAMCOMPDEFMGR
  2
AcAmCompDefMgr
  3
DesignerAssemblies
 90
     1024
280
     0
281
     0
  0
CLASS
  1
AMCONTEXTMGR
  2
AcAmContextMgr
  3
DesignerAssemblies
 90
     1024
280
     0
281
     0
  0
CLASS
  1
ACAMCONTEXTMODELER
  2
AcAmContextModeler
  3
DesignerAssemblies
 90
     1024
280
     0
281
     0
  0
CLASS
  1
ACMDATADICTIONARY
  2
AcmDataDictionary
  3
"AcmSymBB|Product Description: AutoCAD Mechanical|Company: Autodesk, Inc."
 90
     1024
280
     0
281
     0
  0
CLASS
  1
ACMDATAENTRYBLOCK
  2
AcmDataEntryBlock
  3
AcmSymBB|Product Description: AutoCAD Mechanical|Company: Autodesk, Inc.
 90
     1024
280
     0
281
     0
  0
CLASS
  1
ACRFATTGENMGR
  2
AcRfAttGeneralMgr
  3
AcAttribServices
 90
     1024
280
     0
281
     0
  0
CLASS
  1
ACRFOBJATTMGR
  2
AcRfObjAttGroupMgr
  3
AcAttribServices
 90
     1024
280
     0
281
     0
  0
CLASS
  1
ACRFMCADAPIATTHOLDER
  2
AcRfMCADAPIAttHolder
  3
AcAttribServices
 90
     1024
280
     0
281
     0
  0
CLASS
  1
AMDTSYSATTR
  2
AmdtSystemAttribute
  3
AcAttribServices
 90
     1024
280
     0
281
     0
  0
CLASS
  1
CATALOGSTATE
  2
AcAmCatalogState
  3
DesignerAssemblies
 90
     1024
280
     0
281
     0
  0
CLASS
  1
ACAMGRCOMPDEFSET
  2
AcAmGrCompDefSet
  3
DesignerAssemblies
 90
     1024
280
     0
281
     0
  0
CLASS
  1
AMDTBROWSERDBTAB
  2
AmdtBrowserDbTab
  3
McadcomServices
 90
     1024
280
     0
281
     0
  0
CLASS
  1
CBROWSERAPPOBJECT
  2
CBrowserAppObject
  3
McadcomServices
 90
     1024
280
     0
281
     0
  0
CLASS
  1
DM_PLACEHOLDER
  2
AcDmSelsetPlaceholder
  3
AcMechDwgViewMgmt
 90
     1024
280
     0
281
     0
  0
CLASS
  1
ACMSTANDARDANSI
  2
AcmStandardANSI
  3
"Amdt_StdImp|Product Description: AutoCAD Mechanical|Company: Autodesk, Inc."
 90
     1024
280
     0
281
     0
  0
CLASS
  1
ACMSURFSTANDARDANSI
  2
AcmSurfTextStdANSI
  3
"Amdt_StdImp|Product Description: AutoCAD Mechanical|Company: Autodesk, Inc."
 90
     1024
280
     0
281
     0
  0
CLASS
  1
ACMFCFSTANDARDANSI
  2
AcmFCFStdANSI
  3
"Amdt_StdImp|Product Description: AutoCAD Mechanical|Company: Autodesk, Inc."
 90
     1024
280
     0
281
     0
  0
CLASS
  1
ACMWELDSTANDARDANSI
  2
AcmWeldingStdANSI
  3
"Amdt_StdImp|Product Description: AutoCAD Mechanical|Company: Autodesk, Inc."
 90
     1024
280
     0
281
     0
  0
CLASS
  1
ACMIDSTANDARDANSI
  2
AcmIdStdANSI
  3
"Amdt_StdImp|Product Description: AutoCAD Mechanical|Company: Autodesk, Inc."
 90
     1024
280
     0
281
     0
  0
CLASS
  1
ACMDATUMSTANDARDANSI
  2
AcmDatumStdANSI
  3
"Amdt_StdImp|Product Description: AutoCAD Mechanical|Company: Autodesk, Inc."
 90
     1024
280
     0
281
     0
  0
CLASS
  1
ACMBOMSTANDARDANSI
  2
AcmBOMStdANSI
  3
"Amdt_StdImp|Product Description: AutoCAD Mechanical|Company: Autodesk, Inc."
 90
     1024
280
     0
281
     0
  0
CLASS
  1
ACMDETAILSTANDARDANSI
  2
AmdtDetailSymStdANSI
  3
"Amdt_StdImp|Product Description: AutoCAD Mechanical|Company: Autodesk, Inc."
 90
     1024
280
     0
281
     0
  0
CLASS
  1
ACMSECTIONSTANDARDANSI
  2
AmdtSectionSymStdANSI
  3
"Amdt_StdImp|Product Description: AutoCAD Mechanical|Company: Autodesk, Inc."
 90
     1024
280
     0
281
     0
  0
CLASS
  1
ACMCENTERLINESTANDARDANSI
  2
AmdtCenterLineStdANSI
  3
"Amdt_StdImp|Product Description: AutoCAD Mechanical|Company: Autodesk, Inc."
 90
     1024
280
     0
281
     0
  0
CLASS
  1
ACMTHREADLINESTANDARDANSI
  2
AmdtThreadLineStdANSI
  3
"Amdt_StdImp|Product Description: AutoCAD Mechanical|Company: Autodesk, Inc."
 90
     1024
280
     0
281
     0
  0
CLASS
  1
ACMNOTESTANDARDANSI
  2
AmdtNoteStdANSI
  3
"Amdt_StdImp|Product Description: AutoCAD Mechanical|Company: Autodesk, Inc."
 90
     1024
280
     0
281
     0
  0
CLASS
  1
ACMTAPERSTANDARDANSI
  2
AcmTaperStdANSI
  3
"Amdt_StdImp|Product Description: AutoCAD Mechanical|Company: Autodesk, Inc."
 90
     1024
280
     0
281
     0
  0
CLASS
  1
ACMANOOTATIONVIEWSTANDARDANSI
  2
AmdtAnViewStdANSI
  3
"Amdt_StdImp|Product Description: AutoCAD Mechanical|Company: Autodesk, Inc."
 90
     1024
280
     0
281
     0
  0
CLASS
  1
ACAMGLAYSTD
  2
AcAmgLayStd
  3
"AmgLay|Product Description: AutoCAD Mechanical|Company: Autodesk, Inc."
 90
     1024
280
     0
281
     0
  0
CLASS
  1
ACAMGDIMSTD
  2
AcAmgDimStd
  3
"AmgDim|Product Description: AutoCAD Mechanical|Company: Autodesk, Inc."
 90
     1024
280
     0
281
     0
  0
CLASS
  1
ACAMGHOLECHARTSTDANSI
  2
AcAmgHoleChartStdANSI
  3
AmgDim|Product Description: AutoCAD Mechanical|Company: Autodesk, Inc.
 90
     1024
280
     0
281
     0
  0
CLASS
  1
AMGOBJPROPCFG
  2
AmgObjPropCfg
  3
"AmgLay|Product Description: AutoCAD Mechanical|Company: Autodesk, Inc."
 90
     1025
280
     0
281
     0
  0
CLASS
  1
ACAMGTITLESTD
  2
AcAmgTitleStd
  3
"AmgTitle|Product Description: AutoCAD Mechanical|Company: Autodesk, Inc."
 90
     4095
280
     0
281
     0
  0
CLASS
  1
AMDTNOTETEMPLATEDB
  2
AmdtNoteTemplateDB
  3
AcmSymBB|Product Description: AutoCAD Mechanical|Company: Autodesk, Inc.
 90
     1024
280
     0
281
     0
  0
CLASS
  1
LAYER_INDEX
  2
AcDbLayerIndex
  3
ObjectDBX Classes
 90
        0
280
     0
281
     0
  0
CLASS
  1
IDBUFFER
  2
AcDbIdBuffer
  3
ObjectDBX Classes
 90
        0
280
     0
281
     0
  0
CLASS
  1
DICTIONARYVAR
  2
AcDbDictionaryVar
  3
ObjectDBX Classes
 90
        0
280
     0
281
     0
  0
CLASS
  1
CELLSTYLEMAP
  2
AcDbCellStyleMap
  3
ObjectDBX Classes
 90
     1152
280
     0
281
     0
  0
CLASS
  1
ACDBPLACEHOLDER
  2
AcDbPlaceHolder
  3
ObjectDBX Classes
 90
        0
280
     0
281
     0
  0
CLASS
  1
LAYOUT
  2
AcDbLayout
  3
ObjectDBX Classes
 90
        0
280
     0
281
     0
  0
ENDSEC
  0
SECTION
  2
TABLES
  0
TABLE
  2
VPORT
  5
28E7
330
0
100
AcDbSymbolTable
 70
     1
  0
VPORT
  5
2957
330
28E7
100
AcDbSymbolTableRecord
100
AcDbViewportTableRecord
  2
*ACTIVE
 70
     0
 10
0.0
 20
0.0
 11
1.0
 21
1.0
 12
0.0
 22
0.0
 13
0.0
 23
0.0
 14
1.0
 24
1.0
 15
0.0
 25
0.0
 16
0.0
 26
0.0
 36
1.0
 17
41.69312911305161
 27
29.31977299661321
 37
0.0
 40
1109.893341967134
 41
1.712555066079295
 42
50.0
 43
0.0
 44
0.0
 50
0.0
 51
0.0
 71
     0
 72
   100
 73
     1
 74
     0
 75
     0
 76
     0
 77
     0
 78
     0
281
     0
 65
     0
110
0.0
120
0.0
130
0.0
111
1.0
121
0.0
131
0.0
112
0.0
122
1.0
132
0.0
 79
     0
146
0.0
  0
ENDTAB
  0
TABLE
  2
LTYPE
  5
28E4
330
0
100
AcDbSymbolTable
 70
    19
  0
LTYPE
  5
2941
330
28E4
100
AcDbSymbolTableRecord
100
AcDbLinetypeTableRecord
  2
ByBlock
 70
     0
  3

 72
    65
 73
     0
 40
0.0
  0
LTYPE
  5
2942
330
28E4
100
AcDbSymbolTableRecord
100
AcDbLinetypeTableRecord
  2
ByLayer
 70
     0
  3

 72
    65
 73
     0
 40
0.0
  0
LTYPE
  5
2943
330
28E4
100
AcDbSymbolTableRecord
100
AcDbLinetypeTableRecord
  2
CONTINUOUS
 70
     0
  3
実線
 72
    65
 73
     0
 40
0.0
  0
LTYPE
  5
2958
330
28E4
100
AcDbSymbolTableRecord
100
AcDbLinetypeTableRecord
  2
DASHDOT
 70
     0
  3
____ _ ____ _ ____ _ ____ _ ____ _ ____ _ ____
 72
    65
 73
     4
 40
5.5
 49
4.0
 74
     0
 49
-0.6
 74
     0
 49
0.3
 74
     0
 49
-0.6
 74
     0
  0
LTYPE
  5
2959
330
28E4
100
AcDbSymbolTableRecord
100
AcDbLinetypeTableRecord
  2
HIDDEN
 70
     0
  3
Hidden __ __ __ __ __ __ __ __ __ __ __ __ __ _
 72
    65
 73
     2
 40
0.375
 49
0.25
 74
     0
 49
-0.125
 74
     0
  0
LTYPE
  5
295A
330
28E4
100
AcDbSymbolTableRecord
100
AcDbLinetypeTableRecord
  2
PHANTOM2
 70
     0
  3
Phantom (.5x) ___ _ _ ___ _ _ ___ _ _ ___ _ _
 72
    65
 73
     6
 40
1.25
 49
0.625
 74
     0
 49
-0.125
 74
     0
 49
0.125
 74
     0
 49
-0.125
 74
     0
 49
0.125
 74
     0
 49
-0.125
 74
     0
  0
LTYPE
  5
295B
330
28E4
100
AcDbSymbolTableRecord
100
AcDbLinetypeTableRecord
  2
CENTER
 70
     0
  3
Center ____ _ ____ _ ____ _ ____ _ ____ _ ____
 72
    65
 73
     4
 40
2.0
 49
1.25
 74
     0
 49
-0.25
 74
     0
 49
0.25
 74
     0
 49
-0.25
 74
     0
  0
LTYPE
  5
295C
330
28E4
100
AcDbSymbolTableRecord
100
AcDbLinetypeTableRecord
  2
ASULTYPE
 70
     0
  3
実線
 72
    65
 73
     2
 40
3.0
 49
2.5
 74
     0
 49
0.5
 74
     0
  0
LTYPE
  5
295D
330
28E4
100
AcDbSymbolTableRecord
100
AcDbLinetypeTableRecord
  2
ASVLTYPE
 70
     0
  3
__ __ __ __ __ __ __ __ __ __ __ __ __ __ __ __ __ __ __ __ __
 72
    65
 73
     2
 40
0.75
 49
0.5
 74
     0
 49
-0.25
 74
     0
  0
LTYPE
  5
295E
330
28E4
100
AcDbSymbolTableRecord
100
AcDbLinetypeTableRecord
  2
AM_ISO02W050
 70
     0
  3
__ __ __ __ __ __ __ __ __ __ __ __ __ __ __
 72
    65
 73
     2
 40
7.5
 49
6.0
 74
     0
 49
-1.5
 74
     0
  0
LTYPE
  5
295F
330
28E4
100
AcDbSymbolTableRecord
100
AcDbLinetypeTableRecord
  2
AM_ISO08W050
 70
     0
  3
____ . ____ . ____ . ____ . ____ . ____ . ____
 72
    65
 73
     4
 40
18.0
 49
12.0
 74
     0
 49
-1.5
 74
     0
 49
3.0
 74
     0
 49
-1.5
 74
     0
  0
LTYPE
  5
2960
330
28E4
100
AcDbSymbolTableRecord
100
AcDbLinetypeTableRecord
  2
AM_ISO09W050
 70
     0
  3
_____ . . _____ . . _____ . . ____ .. ____
 72
    65
 73
     6
 40
22.5
 49
12.0
 74
     0
 49
-1.5
 74
     0
 49
3.0
 74
     0
 49
-1.5
 74
     0
 49
3.0
 74
     0
 49
-1.5
 74
     0
  0
LTYPE
  5
2961
330
28E4
100
AcDbSymbolTableRecord
100
AcDbLinetypeTableRecord
  2
AMCONSTR
 70
     0
  3
_______________________
 72
    65
 73
     2
 40
9999.0
 49
9999.0
 74
     0
 49
0.0
 74
     0
  0
LTYPE
  5
2962
330
28E4
100
AcDbSymbolTableRecord
100
AcDbLinetypeTableRecord
  2
AM_ISO08W050X2
 70
     0
  3
__ . __ . __ . __ . __ . __
 72
    65
 73
     4
 40
9.0
 49
6.0
 74
     0
 49
-0.75
 74
     0
 49
1.5
 74
     0
 49
-0.75
 74
     0
  0
LTYPE
  5
2963
330
28E4
100
AcDbSymbolTableRecord
100
AcDbLinetypeTableRecord
  2
AM_ISO02W050X2
 70
     0
  3
 _ _ _ _ _ _ _ _ _ _ _ _
 72
    65
 73
     2
 40
3.75
 49
3.0
 74
     0
 49
-0.75
 74
     0
  0
LTYPE
  5
2964
330
28E4
100
AcDbSymbolTableRecord
100
AcDbLinetypeTableRecord
  2
AMZIGZAG
 70
     0
  3
/\/-/\/-/\/-/\/-/\/-/\/
 72
    65
 73
     2
 40
11.0001
 49
0.0001
 74
     0
 49
-11.0
 74
     0
  0
LTYPE
  5
2965
330
28E4
100
AcDbSymbolTableRecord
100
AcDbLinetypeTableRecord
  2
CENTER2
 70
     0
  3
Center (.5x) ___ _ ___ _ ___ _ ___ _ ___ _ ___
 72
    65
 73
     4
 40
1.125
 49
0.75
 74
     0
 49
-0.125
 74
     0
 49
0.125
 74
     0
 49
-0.125
 74
     0
  0
LTYPE
  5
2966
330
28E4
100
AcDbSymbolTableRecord
100
AcDbLinetypeTableRecord
  2
HIDDEN2
 70
     0
  3
Hidden (.5x) _ _ _ _ _ _ _ _ _ _ _ _ _ _ _ _ _
 72
    65
 73
     2
 40
0.1875
 49
0.125
 74
     0
 49
-0.0625
 74
     0
  0
LTYPE
  5
2967
330
28E4
100
AcDbSymbolTableRecord
100
AcDbLinetypeTableRecord
  2
AMZIGZAG2
 70
     0
  3
/\/-/\/-/\/-/\/-/\/-/\/
 72
    65
 73
     2
 40
0.4401
 49
0.0001
 74
     0
 49
-0.4400000000000003
 74
     0
  0
LTYPE
  5
2968
330
28E4
100
AcDbSymbolTableRecord
100
AcDbLinetypeTableRecord
  2
ACANSTGB
 70
     0
  3
__ . . __ . .
 72
    65
 73
     6
 40
0.35433070866
 49
0.15748031496
 74
     0
 49
-0.03937007874
 74
     0
 49
0.03937007874
 74
     0
 49
-0.03937007874
 74
     0
 49
0.03937007874
 74
     0
 49
-0.03937007874
 74
     0
  0
LTYPE
  5
2969
330
28E4
100
AcDbSymbolTableRecord
100
AcDbLinetypeTableRecord
  2
ACANSTGL
 70
     0
  3
_ _ _ _ _
 72
    65
 73
     2
 40
0.11811023622
 49
0.07874015748
 74
     0
 49
-0.03937007874
 74
     0
  0
ENDTAB
  0
TABLE
  2
LAYER
  5
28E1
330
0
100
AcDbSymbolTable
 70
    12
  0
LAYER
  5
293B
102
{ACAD_XDICTIONARY
360
2B03
102
}
330
28E1
100
AcDbSymbolTableRecord
100
AcDbLayerTableRecord
  2
0
 70
     0
 62
     7
  6
CONTINUOUS
370
    -3
390
28EE
  0
LAYER
  5
296A
102
{ACAD_XDICTIONARY
360
2B05
102
}
330
28E1
100
AcDbSymbolTableRecord
100
AcDbLayerTableRecord
  2
OUTLINE
 70
     0
 62
     3
  6
CONTINUOUS
370
    -3
390
28EE
  0
LAYER
  5
296B
102
{ACAD_XDICTIONARY
360
2B07
102
}
330
28E1
100
AcDbSymbolTableRecord
100
AcDbLayerTableRecord
  2
SIZE
 70
     0
 62
    30
  6
CONTINUOUS
370
    -3
390
28EE
  0
LAYER
  5
296C
102
{ACAD_XDICTIONARY
360
2B09
102
}
330
28E1
100
AcDbSymbolTableRecord
100
AcDbLayerTableRecord
  2
BASIS
 70
     0
 62
     6
  6
DASHDOT
370
    -3
390
28EE
  0
LAYER
  5
296D
102
{ACAD_XDICTIONARY
360
2B0B
102
}
330
28E1
100
AcDbSymbolTableRecord
100
AcDbLayerTableRecord
  2
DETAIL
 70
     0
 62
     5
  6
CONTINUOUS
370
    -3
390
28EE
  0
LAYER
  5
296E
102
{ACAD_XDICTIONARY
360
2B0D
102
}
330
28E1
100
AcDbSymbolTableRecord
100
AcDbLayerTableRecord
  2
ARRANGE
 70
     0
 62
     1
  6
CONTINUOUS
370
    -3
390
28EE
  0
LAYER
  5
296F
330
28E1
100
AcDbSymbolTableRecord
100
AcDbLayerTableRecord
  2
DEFPOINTS
 70
     0
 62
     7
  6
CONTINUOUS
290
     0
370
    -3
390
28EE
  0
LAYER
  5
2970
102
{ACAD_XDICTIONARY
360
2B0F
102
}
330
28E1
100
AcDbSymbolTableRecord
100
AcDbLayerTableRecord
  2
ETC
 70
     0
 62
    61
  6
CONTINUOUS
370
    -3
390
28EE
  0
LAYER
  5
2971
102
{ACAD_XDICTIONARY
360
2B11
102
}
330
28E1
100
AcDbSymbolTableRecord
100
AcDbLayerTableRecord
  2
FIX
 70
     0
 62
    11
  6
CONTINUOUS
370
    -3
390
28EE
  0
LAYER
  5
2972
102
{ACAD_XDICTIONARY
360
2B13
102
}
330
28E1
100
AcDbSymbolTableRecord
100
AcDbLayerTableRecord
  2
NOTE
 70
     0
 62
     4
  6
CONTINUOUS
370
    -3
390
28EE
  0
LAYER
  5
2973
102
{ACAD_XDICTIONARY
360
2B15
102
}
330
28E1
100
AcDbSymbolTableRecord
100
AcDbLayerTableRecord
  2
SERVICESPACE
 70
     0
 62
     2
  6
DASHDOT
370
    -3
390
28EE
  0
LAYER
  5
2974
102
{ACAD_XDICTIONARY
360
2B17
102
}
330
28E1
100
AcDbSymbolTableRecord
100
AcDbLayerTableRecord
  2
SYMBOLLINE
 70
     0
 62
    15
  6
CONTINUOUS
370
    -3
390
28EE
  0
ENDTAB
  0
TABLE
  2
STYLE
  5
28E2
330
0
100
AcDbSymbolTable
 70
     5
  0
STYLE
  5
293C
330
28E2
100
AcDbSymbolTableRecord
100
AcDbTextStyleTableRecord
  2
STANDARD
 70
     0
 40
64.0
 41
0.9
 50
0.0
 71
     0
 42
64.0
  3
SIMPLEX.shx
  4
BIGFONT.shx
  0
STYLE
  5
2940
330
28E2
100
AcDbSymbolTableRecord
100
AcDbTextStyleTableRecord
  2
ANNOTATIVE
 70
     0
 40
0.0
 41
1.0
 50
0.0
 71
     0
 42
0.2
  3
txt
  4

1001
ACADANNOTATIVE
1000
AnnotativeData
1002
{
1070
     1
1070
     1
1002
}
  0
STYLE
  5
2975
330
28E2
100
AcDbSymbolTableRecord
100
AcDbTextStyleTableRecord
  2

 70
     1
 40
0.0
 41
1.0
 50
0.0
 71
     0
 42
64.0
  3
genltshp.shx
  4

  0
STYLE
  5
2976
330
28E2
100
AcDbSymbolTableRecord
100
AcDbTextStyleTableRecord
  2
ACANSTS
 70
     0
 40
1.0
 41
1.0
 50
0.0
 71
     0
 42
64.0
  3
romans.shx
  4
extfont.shx
  0
STYLE
  5
2977
330
28E2
100
AcDbSymbolTableRecord
100
AcDbTextStyleTableRecord
  2
ACANSGDT
 70
     0
 40
0.0
 41
1.0
 50
0.0
 71
     0
 42
64.0
  3
amgdt.shx
  4

  0
ENDTAB
  0
TABLE
  2
VIEW
  5
28E5
330
0
100
AcDbSymbolTable
 70
     1
  0
VIEW
  5
2978
330
28E5
100
AcDbSymbolTableRecord
100
AcDbViewTableRecord
  2
ALL
 70
     0
 40
4282.619807999997
 10
0.0
 20
41.30990399999999
 41
5940.0
 11
0.0
 21
0.0
 31
1.0
 12
0.0
 22
0.0
 32
0.0
 42
50.0
 43
0.0
 44
0.0
 50
0.0
 71
     0
281
     0
 72
     1
110
0.0
120
0.0
130
0.0
111
1.0
121
0.0
131
0.0
112
0.0
122
1.0
132
0.0
 79
     0
146
0.0
  0
ENDTAB
  0
TABLE
  2
UCS
  5
28E6
330
0
100
AcDbSymbolTable
 70
     0
  0
ENDTAB
  0
TABLE
  2
APPID
  5
28E8
330
0
100
AcDbSymbolTable
 70
    28
  0
APPID
  5
293D
330
28E8
100
AcDbSymbolTableRecord
100
AcDbRegAppTableRecord
  2
ACAD
 70
     0
  0
APPID
  5
2944
330
28E8
100
AcDbSymbolTableRecord
100
AcDbRegAppTableRecord
  2
ACADANNOTATIVE
 70
     0
  0
APPID
  5
294E
330
28E8
100
AcDbSymbolTableRecord
100
AcDbRegAppTableRecord
  2
ACAD_MLEADERVER
 70
     0
  0
APPID
  5
2979
330
28E8
100
AcDbSymbolTableRecord
100
AcDbRegAppTableRecord
  2
GENIUS_GENDIM_13
 70
     0
  0
APPID
  5
297A
330
28E8
100
AcDbSymbolTableRecord
100
AcDbRegAppTableRecord
  2
GENIUS_GENDTOL_13
 70
     0
  0
APPID
  5
297B
330
28E8
100
AcDbSymbolTableRecord
100
AcDbRegAppTableRecord
  2
GENIUS_GE3DTOL_13
 70
     0
  0
APPID
  5
297C
330
28E8
100
AcDbSymbolTableRecord
100
AcDbRegAppTableRecord
  2
MCAD_NO_VIS
 70
     0
  0
APPID
  5
297D
330
28E8
100
AcDbSymbolTableRecord
100
AcDbRegAppTableRecord
  2
ACAD_TEMP_GRAPHIC
 70
     0
  0
APPID
  5
297E
330
28E8
100
AcDbSymbolTableRecord
100
AcDbRegAppTableRecord
  2
AD_DRAW
 70
     0
  0
APPID
  5
297F
330
28E8
100
AcDbSymbolTableRecord
100
AcDbRegAppTableRecord
  2
ACATTRIBSERVICES
 70
     0
  0
APPID
  5
2980
330
28E8
100
AcDbSymbolTableRecord
100
AcDbRegAppTableRecord
  2
ASURF_PCURVE_APPNAME
 70
     0
  0
APPID
  5
2981
330
28E8
100
AcDbSymbolTableRecord
100
AcDbRegAppTableRecord
  2
AMG_3D2D_5_0
 70
     0
  0
APPID
  5
2982
330
28E8
100
AcDbSymbolTableRecord
100
AcDbRegAppTableRecord
  2
DESIGNERASSEMBLIES
 70
     0
  0
APPID
  5
2983
330
28E8
100
AcDbSymbolTableRecord
100
AcDbRegAppTableRecord
  2
ACADM_DIM_EDIT
 70
     0
  0
APPID
  5
2984
330
28E8
100
AcDbSymbolTableRecord
100
AcDbRegAppTableRecord
  2
AMDT_DM_ADJ
 70
     0
  0
APPID
  5
2985
330
28E8
100
AcDbSymbolTableRecord
100
AcDbRegAppTableRecord
  2
ACAD_DSTYLE_DIMARC_LENGTH_
 70
     0
  0
APPID
  5
2986
330
28E8
100
AcDbSymbolTableRecord
100
AcDbRegAppTableRecord
  2
ACAD_DSTYLE_DIMJOGGED_JOGA
 70
     0
  0
APPID
  5
2987
330
28E8
100
AcDbSymbolTableRecord
100
AcDbRegAppTableRecord
  2
ACAD_PSEXT
 70
     0
  0
APPID
  5
2988
330
28E8
100
AcDbSymbolTableRecord
100
AcDbRegAppTableRecord
  2
ACAD_EXEMPT_FROM_CAD_STANDARDS
 70
     0
  0
APPID
  5
2989
330
28E8
100
AcDbSymbolTableRecord
100
AcDbRegAppTableRecord
  2
ACAD_DSTYLE_DIMJAG
 70
     0
  0
APPID
  5
298A
330
28E8
100
AcDbSymbolTableRecord
100
AcDbRegAppTableRecord
  2
ACAD_DSTYLE_DIMTALN
 70
     0
  0
APPID
  5
298B
330
28E8
100
AcDbSymbolTableRecord
100
AcDbRegAppTableRecord
  2
AMG_3D2D_5_00
 70
     0
  0
APPID
  5
298C
330
28E8
100
AcDbSymbolTableRecord
100
AcDbRegAppTableRecord
  2
AMG_3D2D_5_01
 70
     0
  0
APPID
  5
2AAA
330
28E8
100
AcDbSymbolTableRecord
100
AcDbRegAppTableRecord
  2
AMG_3D2D_5.0
 70
     0
  0
APPID
  5
2B40
330
28E8
100
AcDbSymbolTableRecord
100
AcDbRegAppTableRecord
  2
ACAD_DSTYLE_DIMARC_LENGTH_SYMBOL
 70
     0
  0
APPID
  5
2B41
330
28E8
100
AcDbSymbolTableRecord
100
AcDbRegAppTableRecord
  2
ACAD_DSTYLE_DIM_LINETYPE
 70
     0
  0
APPID
  5
2B42
330
28E8
100
AcDbSymbolTableRecord
100
AcDbRegAppTableRecord
  2
ACAD_DSTYLE_DIM_EXT1_LINETYPE
 70
     0
  0
APPID
  5
2B43
330
28E8
100
AcDbSymbolTableRecord
100
AcDbRegAppTableRecord
  2
ACAD_DSTYLE_DIM_EXT2_LINETYPE
 70
     0
  0
ENDTAB
  0
TABLE
  2
DIMSTYLE
  5
28E9
330
0
100
AcDbSymbolTable
 70
    10
100
AcDbDimStyleTable
 71
     1
340
298D
  0
DIMSTYLE
105
293E
330
28E9
100
AcDbSymbolTableRecord
100
AcDbDimStyleTableRecord
  2
STANDARD
 70
     0
 41
12.0
 42
20.0
 44
20.0
 77
     1
 78
     8
140
64.0
141
0.0
147
10.0
275
     1
279
     2
284
     7
285
     7
286
     7
340
293C
  0
DIMSTYLE
105
293F
330
28E9
100
AcDbSymbolTableRecord
100
AcDbDimStyleTableRecord
  2
ANNOTATIVE
 70
     0
275
     1
279
     2
284
     7
285
     7
286
     7
340
293C
1001
ACADANNOTATIVE
1000
AnnotativeData
1002
{
1070
     1
1070
     1
1002
}
  0
DIMSTYLE
105
298D
330
28E9
100
AcDbSymbolTableRecord
100
AcDbDimStyleTableRecord
  2
AM_ANSI
 70
     0
  4
mm
 41
0.12
 42
0.05
 43
0.5
 44
0.1
 47
0.1
 48
0.1
 78
     7
 79
     2
140
0.12
141
0.0
146
0.71
147
0.06
176
   256
177
   256
178
     2
274
     4
284
     7
340
293C
371
    -1
372
    -1
1001
ACAD_DSTYLE_DIMARC_LENGTH_SYMBOL
1070
   379
1070
     1
1001
ACAD_DSTYLE_DIM_LINETYPE
1070
   380
1005
2941
1001
ACAD_DSTYLE_DIM_EXT1_LINETYPE
1070
   381
1005
2941
1001
ACAD_DSTYLE_DIM_EXT2_LINETYPE
1070
   382
1005
2941
  0
DIMSTYLE
105
298E
330
28E9
100
AcDbSymbolTableRecord
100
AcDbDimStyleTableRecord
  2
AM_ANSI$3
 70
     0
  4
mm
 41
0.12
 42
0.05
 43
0.5
 44
0.1
 47
0.1
 48
0.1
 78
     7
 79
     2
140
0.12
141
0.0
146
0.71
147
0.06
176
   256
177
   256
178
     2
274
     4
284
     7
288
     1
289
     0
340
293C
371
    -1
372
    -1
1001
ACAD_DSTYLE_DIMARC_LENGTH_SYMBOL
1070
   379
1070
     1
1001
ACAD_DSTYLE_DIM_LINETYPE
1070
   380
1005
2941
1001
ACAD_DSTYLE_DIM_EXT1_LINETYPE
1070
   381
1005
2941
1001
ACAD_DSTYLE_DIM_EXT2_LINETYPE
1070
   382
1005
2941
  0
DIMSTYLE
105
298F
330
28E9
100
AcDbSymbolTableRecord
100
AcDbDimStyleTableRecord
  2
AM_ANSI$4
 70
     0
  4
mm
 41
0.12
 42
0.05
 43
0.5
 44
0.1
 47
0.1
 48
0.1
 78
     7
 79
     2
140
0.12
141
0.0
146
0.71
147
0.06
176
   256
177
   256
178
     2
274
     4
284
     7
340
293C
371
    -1
372
    -1
1001
ACAD_DSTYLE_DIMARC_LENGTH_SYMBOL
1070
   379
1070
     1
1001
ACAD_DSTYLE_DIM_LINETYPE
1070
   380
1005
2941
1001
ACAD_DSTYLE_DIM_EXT1_LINETYPE
1070
   381
1005
2941
1001
ACAD_DSTYLE_DIM_EXT2_LINETYPE
1070
   382
1005
2941
  0
DIMSTYLE
105
2990
330
28E9
100
AcDbSymbolTableRecord
100
AcDbDimStyleTableRecord
  2
AM_ANSI$7
 70
     0
  4
mm
 41
0.12
 42
0.05
 43
0.5
 44
0.1
 47
0.1
 48
0.1
 78
     7
 79
     2
140
0.12
141
0.0
146
0.71
147
0.06
176
   256
177
   256
178
     2
274
     4
284
     7
340
293C
371
    -1
372
    -1
1001
ACAD_DSTYLE_DIMARC_LENGTH_SYMBOL
1070
   379
1070
     1
1001
ACAD_DSTYLE_DIM_LINETYPE
1070
   380
1005
2941
1001
ACAD_DSTYLE_DIM_EXT1_LINETYPE
1070
   381
1005
2941
1001
ACAD_DSTYLE_DIM_EXT2_LINETYPE
1070
   382
1005
2941
  0
DIMSTYLE
105
2991
330
28E9
100
AcDbSymbolTableRecord
100
AcDbDimStyleTableRecord
  2
AM_ANSI$SF
 70
     0
  4
mm
 41
0.12
 42
0.05
 43
0.5
 44
0.1
 47
0.1
 48
0.1
 75
     1
 76
     1
 78
     7
 79
     2
140
0.12
141
0.0
146
0.71
147
0.06
176
   256
177
   256
178
     2
274
     4
284
     7
340
293C
371
    -1
372
    -1
1001
ACAD_DSTYLE_DIMARC_LENGTH_SYMBOL
1070
   379
1070
     1
1001
ACAD_DSTYLE_DIM_LINETYPE
1070
   380
1005
2941
1001
ACAD_DSTYLE_DIM_EXT1_LINETYPE
1070
   381
1005
2941
1001
ACAD_DSTYLE_DIM_EXT2_LINETYPE
1070
   382
1005
2941
  0
DIMSTYLE
105
2992
330
28E9
100
AcDbSymbolTableRecord
100
AcDbDimStyleTableRecord
  2
AM_ANSI$SH
 70
     0
  4
mm
 41
0.12
 42
0.05
 43
0.5
 44
0.1
 47
0.1
 48
0.1
 75
     1
 76
     1
 78
     7
 79
     2
140
0.12
141
0.0
146
0.71
147
0.06
173
     1
176
   256
177
   256
178
     2
274
     4
284
     7
340
293C
343
29B2
371
    -1
372
    -1
1001
ACAD_DSTYLE_DIMARC_LENGTH_SYMBOL
1070
   379
1070
     1
1001
ACAD_DSTYLE_DIM_LINETYPE
1070
   380
1005
2941
1001
ACAD_DSTYLE_DIM_EXT1_LINETYPE
1070
   381
1005
2941
1001
ACAD_DSTYLE_DIM_EXT2_LINETYPE
1070
   382
1005
2941
  0
DIMSTYLE
105
2993
330
28E9
100
AcDbSymbolTableRecord
100
AcDbDimStyleTableRecord
  2
STANDARD1
 70
     0
 40
6.0
 41
2.5
 42
0.625
 43
6.0
 44
1.25
 47
1.0
 48
0.5
 77
     1
 78
     8
140
2.5
141
0.0
146
0.6
147
1.0
173
     1
275
     1
279
     2
284
     7
285
     7
286
     7
340
293C
  0
DIMSTYLE
105
2994
330
28E9
100
AcDbSymbolTableRecord
100
AcDbDimStyleTableRecord
  2
STANDARD$0
 70
     0
 41
12.0
 42
20.0
 44
20.0
 73
     0
 74
     0
 77
     1
 78
     8
140
64.0
141
0.0
147
10.0
275
     1
279
     2
284
     7
285
     7
286
     7
340
293C
  0
ENDTAB
  0
TABLE
  2
BLOCK_RECORD
  5
28E0
330
0
100
AcDbSymbolTable
 70
    71
  0
BLOCK_RECORD
  5
2953
102
{ACAD_XDICTIONARY
360
2B19
102
}
330
28E0
100
AcDbSymbolTableRecord
100
AcDbBlockTableRecord
  2
*Model_Space
340
2956
  0
BLOCK_RECORD
  5
294F
330
28E0
100
AcDbSymbolTableRecord
100
AcDbBlockTableRecord
  2
*Paper_Space
340
2952
  0
BLOCK_RECORD
  5
299C
330
28E0
100
AcDbSymbolTableRecord
100
AcDbBlockTableRecord
  2
$MODEL_SPACE
340
0
  0
BLOCK_RECORD
  5
299E
330
28E0
100
AcDbSymbolTableRecord
100
AcDbBlockTableRecord
  2
$PAPER_SPACE
340
0
  0
BLOCK_RECORD
  5
29A0
330
28E0
100
AcDbSymbolTableRecord
100
AcDbBlockTableRecord
  2
_ORIGIN
340
0
  0
BLOCK_RECORD
  5
29A2
330
28E0
100
AcDbSymbolTableRecord
100
AcDbBlockTableRecord
  2
_DOTBLANK
340
0
102
{BLKREFS
331
1299
331
129A
331
11AA
331
11AB
331
E80
331
E81
331
1123
331
1124
331
11C2
331
11C3
331
11EC
331
11ED
331
11F9
331
11FA
331
1287
331
1288
331
1417
331
1418
331
1423
331
1424
331
142F
331
1430
331
143B
331
143C
331
166E
331
166F
331
1677
331
1678
331
1680
331
1681
331
1689
331
168A
331
1696
331
1697
331
16A3
331
16A4
331
16AF
331
16B0
331
16BB
331
16BC
331
16C7
331
16C8
331
16D3
331
16D4
331
1D86
331
1D87
331
1D8F
331
1D90
331
1D98
331
1D99
331
1DA1
331
1DA2
331
1DAB
331
1DAC
331
1DB5
331
1DB6
331
2890
331
2891
331
2895
331
2896
331
289A
331
289B
331
289F
331
28A0
102
}
  0
BLOCK_RECORD
  5
29A4
330
28E0
100
AcDbSymbolTableRecord
100
AcDbBlockTableRecord
  2
_OPEN30
340
0
102
{BLKREFS
331
2088
331
25A0
102
}
  0
BLOCK_RECORD
  5
29A6
330
28E0
100
AcDbSymbolTableRecord
100
AcDbBlockTableRecord
  2
*D5
340
0
  0
BLOCK_RECORD
  5
29A8
330
28E0
100
AcDbSymbolTableRecord
100
AcDbBlockTableRecord
  2
*U6
340
0
102
{BLKREFS
331
129B
102
}
  0
BLOCK_RECORD
  5
29AA
330
28E0
100
AcDbSymbolTableRecord
100
AcDbBlockTableRecord
  2
*D7
340
0
  0
BLOCK_RECORD
  5
29AC
330
28E0
100
AcDbSymbolTableRecord
100
AcDbBlockTableRecord
  2
*U8
340
0
102
{BLKREFS
331
11AC
102
}
  0
BLOCK_RECORD
  5
29AE
330
28E0
100
AcDbSymbolTableRecord
100
AcDbBlockTableRecord
  2
*D9
340
0
  0
BLOCK_RECORD
  5
29B0
330
28E0
100
AcDbSymbolTableRecord
100
AcDbBlockTableRecord
  2
*U10
340
0
102
{BLKREFS
331
E82
102
}
  0
BLOCK_RECORD
  5
29B2
330
28E0
100
AcDbSymbolTableRecord
100
AcDbBlockTableRecord
  2
GENAXEH
340
0
  0
BLOCK_RECORD
  5
29B4
330
28E0
100
AcDbSymbolTableRecord
100
AcDbBlockTableRecord
  2
*D12
340
0
  0
BLOCK_RECORD
  5
29B6
330
28E0
100
AcDbSymbolTableRecord
100
AcDbBlockTableRecord
  2
*U13
340
0
102
{BLKREFS
331
1125
102
}
  0
BLOCK_RECORD
  5
29B8
330
28E0
100
AcDbSymbolTableRecord
100
AcDbBlockTableRecord
  2
*D14
340
0
  0
BLOCK_RECORD
  5
29BA
330
28E0
100
AcDbSymbolTableRecord
100
AcDbBlockTableRecord
  2
*U15
340
0
102
{BLKREFS
331
11C4
102
}
  0
BLOCK_RECORD
  5
29BC
330
28E0
100
AcDbSymbolTableRecord
100
AcDbBlockTableRecord
  2
*D16
340
0
  0
BLOCK_RECORD
  5
29BE
330
28E0
100
AcDbSymbolTableRecord
100
AcDbBlockTableRecord
  2
*U17
340
0
102
{BLKREFS
331
11EE
102
}
  0
BLOCK_RECORD
  5
29C0
330
28E0
100
AcDbSymbolTableRecord
100
AcDbBlockTableRecord
  2
*D18
340
0
  0
BLOCK_RECORD
  5
29C2
330
28E0
100
AcDbSymbolTableRecord
100
AcDbBlockTableRecord
  2
*U19
340
0
102
{BLKREFS
331
11FB
102
}
  0
BLOCK_RECORD
  5
29C4
330
28E0
100
AcDbSymbolTableRecord
100
AcDbBlockTableRecord
  2
*D20
340
0
  0
BLOCK_RECORD
  5
29C6
330
28E0
100
AcDbSymbolTableRecord
100
AcDbBlockTableRecord
  2
*U21
340
0
102
{BLKREFS
331
1289
102
}
  0
BLOCK_RECORD
  5
29C8
330
28E0
100
AcDbSymbolTableRecord
100
AcDbBlockTableRecord
  2
*D22
340
0
  0
BLOCK_RECORD
  5
29CA
330
28E0
100
AcDbSymbolTableRecord
100
AcDbBlockTableRecord
  2
*U23
340
0
102
{BLKREFS
331
1419
102
}
  0
BLOCK_RECORD
  5
29CC
330
28E0
100
AcDbSymbolTableRecord
100
AcDbBlockTableRecord
  2
*D24
340
0
  0
BLOCK_RECORD
  5
29CE
330
28E0
100
AcDbSymbolTableRecord
100
AcDbBlockTableRecord
  2
*U25
340
0
102
{BLKREFS
331
1425
102
}
  0
BLOCK_RECORD
  5
29D0
330
28E0
100
AcDbSymbolTableRecord
100
AcDbBlockTableRecord
  2
*D26
340
0
  0
BLOCK_RECORD
  5
29D2
330
28E0
100
AcDbSymbolTableRecord
100
AcDbBlockTableRecord
  2
*U27
340
0
102
{BLKREFS
331
1431
102
}
  0
BLOCK_RECORD
  5
29D4
330
28E0
100
AcDbSymbolTableRecord
100
AcDbBlockTableRecord
  2
*D28
340
0
  0
BLOCK_RECORD
  5
29D6
330
28E0
100
AcDbSymbolTableRecord
100
AcDbBlockTableRecord
  2
*U29
340
0
102
{BLKREFS
331
143D
102
}
  0
BLOCK_RECORD
  5
29D8
330
28E0
100
AcDbSymbolTableRecord
100
AcDbBlockTableRecord
  2
*D30
340
0
  0
BLOCK_RECORD
  5
29DA
330
28E0
100
AcDbSymbolTableRecord
100
AcDbBlockTableRecord
  2
*U31
340
0
102
{BLKREFS
331
1670
102
}
  0
BLOCK_RECORD
  5
29DC
330
28E0
100
AcDbSymbolTableRecord
100
AcDbBlockTableRecord
  2
*D32
340
0
  0
BLOCK_RECORD
  5
29DE
330
28E0
100
AcDbSymbolTableRecord
100
AcDbBlockTableRecord
  2
*U33
340
0
102
{BLKREFS
331
1679
102
}
  0
BLOCK_RECORD
  5
29E0
330
28E0
100
AcDbSymbolTableRecord
100
AcDbBlockTableRecord
  2
*D34
340
0
  0
BLOCK_RECORD
  5
29E2
330
28E0
100
AcDbSymbolTableRecord
100
AcDbBlockTableRecord
  2
*U35
340
0
102
{BLKREFS
331
1682
102
}
  0
BLOCK_RECORD
  5
29E4
330
28E0
100
AcDbSymbolTableRecord
100
AcDbBlockTableRecord
  2
*D36
340
0
  0
BLOCK_RECORD
  5
29E6
330
28E0
100
AcDbSymbolTableRecord
100
AcDbBlockTableRecord
  2
*U37
340
0
102
{BLKREFS
331
168B
102
}
  0
BLOCK_RECORD
  5
29E8
330
28E0
100
AcDbSymbolTableRecord
100
AcDbBlockTableRecord
  2
*U38
340
0
  0
BLOCK_RECORD
  5
29EA
330
28E0
100
AcDbSymbolTableRecord
100
AcDbBlockTableRecord
  2
*D39
340
0
  0
BLOCK_RECORD
  5
29EC
330
28E0
100
AcDbSymbolTableRecord
100
AcDbBlockTableRecord
  2
*U40
340
0
102
{BLKREFS
331
1698
102
}
  0
BLOCK_RECORD
  5
29EE
330
28E0
100
AcDbSymbolTableRecord
100
AcDbBlockTableRecord
  2
*D41
340
0
  0
BLOCK_RECORD
  5
29F0
330
28E0
100
AcDbSymbolTableRecord
100
AcDbBlockTableRecord
  2
*U42
340
0
102
{BLKREFS
331
16A5
102
}
  0
BLOCK_RECORD
  5
29F2
330
28E0
100
AcDbSymbolTableRecord
100
AcDbBlockTableRecord
  2
*D43
340
0
  0
BLOCK_RECORD
  5
29F4
330
28E0
100
AcDbSymbolTableRecord
100
AcDbBlockTableRecord
  2
*U44
340
0
102
{BLKREFS
331
16B1
102
}
  0
BLOCK_RECORD
  5
29F6
330
28E0
100
AcDbSymbolTableRecord
100
AcDbBlockTableRecord
  2
*D45
340
0
  0
BLOCK_RECORD
  5
29F8
330
28E0
100
AcDbSymbolTableRecord
100
AcDbBlockTableRecord
  2
*U46
340
0
102
{BLKREFS
331
16BD
102
}
  0
BLOCK_RECORD
  5
29FA
330
28E0
100
AcDbSymbolTableRecord
100
AcDbBlockTableRecord
  2
*D47
340
0
  0
BLOCK_RECORD
  5
29FC
330
28E0
100
AcDbSymbolTableRecord
100
AcDbBlockTableRecord
  2
*U48
340
0
102
{BLKREFS
331
16C9
102
}
  0
BLOCK_RECORD
  5
29FE
330
28E0
100
AcDbSymbolTableRecord
100
AcDbBlockTableRecord
  2
*D49
340
0
  0
BLOCK_RECORD
  5
2A00
330
28E0
100
AcDbSymbolTableRecord
100
AcDbBlockTableRecord
  2
*U50
340
0
102
{BLKREFS
331
16D5
102
}
  0
BLOCK_RECORD
  5
2A02
330
28E0
100
AcDbSymbolTableRecord
100
AcDbBlockTableRecord
  2
*D51
340
0
  0
BLOCK_RECORD
  5
2A04
330
28E0
100
AcDbSymbolTableRecord
100
AcDbBlockTableRecord
  2
*U52
340
0
102
{BLKREFS
331
1D88
102
}
  0
BLOCK_RECORD
  5
2A06
330
28E0
100
AcDbSymbolTableRecord
100
AcDbBlockTableRecord
  2
*D53
340
0
  0
BLOCK_RECORD
  5
2A08
330
28E0
100
AcDbSymbolTableRecord
100
AcDbBlockTableRecord
  2
*U54
340
0
102
{BLKREFS
331
1D91
102
}
  0
BLOCK_RECORD
  5
2A0A
330
28E0
100
AcDbSymbolTableRecord
100
AcDbBlockTableRecord
  2
*D55
340
0
  0
BLOCK_RECORD
  5
2A0C
330
28E0
100
AcDbSymbolTableRecord
100
AcDbBlockTableRecord
  2
*U56
340
0
102
{BLKREFS
331
1D9A
102
}
  0
BLOCK_RECORD
  5
2A0E
330
28E0
100
AcDbSymbolTableRecord
100
AcDbBlockTableRecord
  2
*D57
340
0
  0
BLOCK_RECORD
  5
2A10
330
28E0
100
AcDbSymbolTableRecord
100
AcDbBlockTableRecord
  2
*U58
340
0
102
{BLKREFS
331
1DA3
102
}
  0
BLOCK_RECORD
  5
2A12
330
28E0
100
AcDbSymbolTableRecord
100
AcDbBlockTableRecord
  2
*D59
340
0
  0
BLOCK_RECORD
  5
2A14
330
28E0
100
AcDbSymbolTableRecord
100
AcDbBlockTableRecord
  2
*U60
340
0
102
{BLKREFS
331
1DAD
102
}
  0
BLOCK_RECORD
  5
2A16
330
28E0
100
AcDbSymbolTableRecord
100
AcDbBlockTableRecord
  2
*D61
340
0
  0
BLOCK_RECORD
  5
2A18
330
28E0
100
AcDbSymbolTableRecord
100
AcDbBlockTableRecord
  2
*U62
340
0
102
{BLKREFS
331
1DB7
102
}
  0
BLOCK_RECORD
  5
2A1A
330
28E0
100
AcDbSymbolTableRecord
100
AcDbBlockTableRecord
  2
*U63
340
0
  0
BLOCK_RECORD
  5
2A1C
330
28E0
100
AcDbSymbolTableRecord
100
AcDbBlockTableRecord
  2
*U64
340
0
  0
BLOCK_RECORD
  5
2A1E
330
28E0
100
AcDbSymbolTableRecord
100
AcDbBlockTableRecord
  2
*U65
340
0
  0
BLOCK_RECORD
  5
2A20
330
28E0
100
AcDbSymbolTableRecord
100
AcDbBlockTableRecord
  2
*U66
340
0
102
{BLKREFS
331
2864
102
}
  0
BLOCK_RECORD
  5
2A22
330
28E0
100
AcDbSymbolTableRecord
100
AcDbBlockTableRecord
  2
*U67
340
0
102
{BLKREFS
331
2865
102
}
  0
BLOCK_RECORD
  5
2A24
330
28E0
100
AcDbSymbolTableRecord
100
AcDbBlockTableRecord
  2
*X68
340
0
102
{BLKREFS
331
2884
102
}
  0
BLOCK_RECORD
  5
2A26
330
28E0
100
AcDbSymbolTableRecord
100
AcDbBlockTableRecord
  2
*X69
340
0
102
{BLKREFS
331
2885
102
}
  0
ENDTAB
  0
ENDSEC
  0
SECTION
  2
BLOCKS
  0
BLOCK
  5
2954
330
2953
100
AcDbEntity
  8
0
100
AcDbBlockBegin
  2
*Model_Space
 70
     0
 10
0.0
 20
0.0
 30
0.0
  3
*Model_Space
  1

  0
ENDBLK
  5
2955
330
2953
100
AcDbEntity
  8
0
100
AcDbBlockEnd
  0
BLOCK
  5
2950
330
294F
100
AcDbEntity
 67
     1
  8
0
100
AcDbBlockBegin
  2
*Paper_Space
 70
     0
 10
0.0
 20
0.0
 30
0.0
  3
*Paper_Space
  1

  0
ENDBLK
  5
2951
330
294F
100
AcDbEntity
 67
     1
  8
0
100
AcDbBlockEnd
  0
BLOCK
  5
299D
330
299C
100
AcDbEntity
  8
0
100
AcDbBlockBegin
  2
$MODEL_SPACE
 70
     0
 10
0.0
 20
0.0
 30
0.0
  3
$MODEL_SPACE
  1

  0
ENDBLK
  5
23F8
330
299C
100
AcDbEntity
  8
0
100
AcDbBlockEnd
  0
BLOCK
  5
299F
330
299E
100
AcDbEntity
  8
0
100
AcDbBlockBegin
  2
$PAPER_SPACE
 70
     0
 10
0.0
 20
0.0
 30
0.0
  3
$PAPER_SPACE
  1

  0
ENDBLK
  5
23F4
330
299E
100
AcDbEntity
  8
0
100
AcDbBlockEnd
  0
BLOCK
  5
29A1
330
29A0
100
AcDbEntity
  8
0
100
AcDbBlockBegin
  2
_ORIGIN
 70
     0
 10
0.0
 20
0.0
 30
0.0
  3
_ORIGIN
  1

  0
CIRCLE
  5
880
330
29A0
100
AcDbEntity
  8
0
  6
Continuous
 62
     7
100
AcDbCircle
 10
0.0
 20
0.0
 30
0.0
 40
0.5
  0
LINE
  5
881
330
29A0
100
AcDbEntity
  8
0
  6
Continuous
 62
     7
100
AcDbLine
 10
0.0
 20
0.0
 30
0.0
 11
-1.0
 21
0.0
 31
0.0
  0
ENDBLK
  5
882
330
29A0
100
AcDbEntity
  8
0
100
AcDbBlockEnd
  0
BLOCK
  5
29A3
330
29A2
100
AcDbEntity
  8
0
 62
     1
100
AcDbBlockBegin
  2
_DOTBLANK
 70
     0
 10
0.0
 20
0.0
 30
0.0
  3
_DOTBLANK
  1

  0
CIRCLE
  5
AB3
330
29A2
100
AcDbEntity
  8
0
  6
ByBlock
 62
     0
100
AcDbCircle
 10
0.0
 20
0.0
 30
0.0
 40
0.5
  0
LINE
  5
AB4
330
29A2
100
AcDbEntity
  8
0
  6
ByBlock
 62
     0
100
AcDbLine
 10
-0.5
 20
0.0
 30
0.0
 11
-1.0
 21
0.0
 31
0.0
  0
ENDBLK
  5
AB6
330
29A2
100
AcDbEntity
  8
0
 62
     1
100
AcDbBlockEnd
  0
BLOCK
  5
29A5
330
29A4
100
AcDbEntity
  8
0
 62
     1
100
AcDbBlockBegin
  2
_OPEN30
 70
     0
 10
0.0
 20
0.0
 30
0.0
  3
_OPEN30
  1

  0
LINE
  5
AB8
330
29A4
100
AcDbEntity
  8
0
  6
ByBlock
 62
     0
100
AcDbLine
 10
-1.0
 20
0.26794919
 30
0.0
 11
0.0
 21
0.0
 31
0.0
  0
LINE
  5
AB9
330
29A4
100
AcDbEntity
  8
0
  6
ByBlock
 62
     0
100
AcDbLine
 10
0.0
 20
0.0
 30
0.0
 11
-1.0
 21
-0.26794919
 31
0.0
  0
LINE
  5
ABA
330
29A4
100
AcDbEntity
  8
0
  6
ByBlock
 62
     0
100
AcDbLine
 10
0.0
 20
0.0
 30
0.0
 11
-1.0
 21
0.0
 31
0.0
  0
ENDBLK
  5
ABC
330
29A4
100
AcDbEntity
  8
0
 62
     1
100
AcDbBlockEnd
  0
BLOCK
  5
29A7
330
29A6
100
AcDbEntity
  8
0
100
AcDbBlockBegin
  2
*D5
 70
     1
 10
0.0
 20
0.0
 30
0.0
  3
*D5
  1

  0
LINE
  5
1296
330
29A6
100
AcDbEntity
  8
SIZE
 62
     0
100
AcDbLine
 10
-134.5
 20
-320.0
 30
0.0
 11
-134.5
 21
-468.0173952306001
 31
0.0
  0
LINE
  5
1297
330
29A6
100
AcDbEntity
  8
SIZE
 62
     0
100
AcDbLine
 10
134.5
 20
-320.0
 30
0.0
 11
134.5
 21
-468.0173952306001
 31
0.0
  0
LINE
  5
1298
330
29A6
100
AcDbEntity
  8
SIZE
 62
     0
100
AcDbLine
 10
-122.5
 20
-448.0173952306
 30
0.0
 11
122.5
 21
-448.0173952306
 31
0.0
  0
INSERT
  5
1299
330
29A6
100
AcDbEntity
  8
SIZE
 62
     0
100
AcDbBlockReference
  2
_DOTBLANK
 10
-134.5
 20
-448.0173952306
 30
0.0
 41
12.0
 42
12.0
 43
12.0
 50
180.0
  0
INSERT
  5
129A
330
29A6
100
AcDbEntity
  8
SIZE
 62
     0
100
AcDbBlockReference
  2
_DOTBLANK
 10
134.5
 20
-448.0173952306
 30
0.0
 41
12.0
 42
12.0
 43
12.0
  0
INSERT
  5
129B
330
29A6
100
AcDbEntity
  8
0
100
AcDbBlockReference
  2
*U6
 10
0.0
 20
0.0
 30
0.0
  0
POINT
  5
129C
330
29A6
100
AcDbEntity
  8
DEFPOINTS
 62
     0
100
AcDbPoint
 10
-134.5
 20
-300.0
 30
0.0
  0
POINT
  5
129D
330
29A6
100
AcDbEntity
  8
DEFPOINTS
 62
     0
100
AcDbPoint
 10
134.5
 20
-300.0
 30
0.0
  0
POINT
  5
129E
330
29A6
100
AcDbEntity
  8
DEFPOINTS
 62
     0
100
AcDbPoint
 10
134.5
 20
-448.0173952306
 30
0.0
  0
ENDBLK
  5
D72
330
29A6
100
AcDbEntity
  8
0
100
AcDbBlockEnd
  0
BLOCK
  5
29A9
330
29A8
100
AcDbEntity
  8
0
100
AcDbBlockBegin
  2
*U6
 70
     1
 10
0.0
 20
0.0
 30
0.0
  3
*U6
  1

  0
TEXT
  5
1EF5
330
29A8
100
AcDbEntity
  8
SIZE
 62
     0
100
AcDbText
 10
-72.68571428571426
 20
-438.0173952305999
 30
0.0
 40
64.0
  1
269
 41
0.9
100
AcDbText
  0
ENDBLK
  5
1EF7
330
29A8
100
AcDbEntity
  8
0
100
AcDbBlockEnd
  0
BLOCK
  5
29AB
330
29AA
100
AcDbEntity
  8
0
100
AcDbBlockBegin
  2
*D7
 70
     1
 10
0.0
 20
0.0
 30
0.0
  3
*D7
  1

  0
LINE
  5
11A7
330
29AA
100
AcDbEntity
  8
SIZE
  6
Continuous
 62
     0
100
AcDbLine
 10
143.5
 20
-300.0
 30
0.0
 11
304.6432844803791
 21
-300.0
 31
0.0
  0
LINE
  5
11A8
330
29AA
100
AcDbEntity
  8
SIZE
  6
Continuous
 62
     0
100
AcDbLine
 10
177.5
 20
-0.0000000000000057
 30
0.0
 11
304.6432844803792
 21
-0.0000000000000417
 31
0.0
  0
LINE
  5
11A9
330
29AA
100
AcDbEntity
  8
SIZE
  6
Continuous
 62
     0
100
AcDbLine
 10
284.6432844803791
 20
-288.0000000000001
 30
0.0
 11
284.6432844803792
 21
-12.00000000000003
 31
0.0
  0
INSERT
  5
11AA
330
29AA
100
AcDbEntity
  8
SIZE
  6
Continuous
 62
     0
100
AcDbBlockReference
  2
_DOTBLANK
 10
284.6432844803791
 20
-300.0
 30
0.0
 41
12.0
 42
12.0
 43
12.0
 50
270.0
  0
INSERT
  5
11AB
330
29AA
100
AcDbEntity
  8
SIZE
  6
Continuous
 62
     0
100
AcDbBlockReference
  2
_DOTBLANK
 10
284.6432844803792
 20
-0.000000000000036
 30
0.0
 41
12.0
 42
12.0
 43
12.0
 50
90.0
  0
INSERT
  5
11AC
330
29AA
100
AcDbEntity
  8
0
100
AcDbBlockReference
  2
*U8
 10
0.0
 20
0.0
 30
0.0
  0
POINT
  5
11AD
330
29AA
100
AcDbEntity
  8
DEFPOINTS
  6
Continuous
 62
     0
100
AcDbPoint
 10
123.5
 20
-300.0
 30
0.0
  0
POINT
  5
11AE
330
29AA
100
AcDbEntity
  8
DEFPOINTS
  6
Continuous
 62
     0
100
AcDbPoint
 10
157.5
 20
0.0
 30
0.0
  0
POINT
  5
11AF
330
29AA
100
AcDbEntity
  8
DEFPOINTS
  6
Continuous
 62
     0
100
AcDbPoint
 10
284.6432844803792
 20
-0.000000000000036
 30
0.0
  0
ENDBLK
  5
E11
330
29AA
100
AcDbEntity
  8
0
100
AcDbBlockEnd
  0
BLOCK
  5
29AD
330
29AC
100
AcDbEntity
  8
0
100
AcDbBlockBegin
  2
*U8
 70
     1
 10
0.0
 20
0.0
 30
0.0
  3
*U8
  1

  0
TEXT
  5
1EE1
330
29AC
100
AcDbEntity
  8
SIZE
 62
     0
100
AcDbText
 10
274.6432844803792
 20
-224.0571428571429
 30
0.0
 40
64.0
  1
300
 50
90.0
 41
0.9
100
AcDbText
  0
ENDBLK
  5
1EE3
330
29AC
100
AcDbEntity
  8
0
100
AcDbBlockEnd
  0
BLOCK
  5
29AF
330
29AE
100
AcDbEntity
  8
0
100
AcDbBlockBegin
  2
*D9
 70
     1
 10
0.0
 20
0.0
 30
0.0
  3
*D9
  1

  0
LINE
  5
E7D
330
29AE
100
AcDbEntity
  8
SIZE
 62
     0
100
AcDbLine
 10
-139.9999999999998
 20
32.46448280219375
 30
0.0
 11
-139.9999999999998
 21
136.4516878685508
 31
0.0
  0
LINE
  5
E7E
330
29AE
100
AcDbEntity
  8
SIZE
 62
     0
100
AcDbLine
 10
140.0
 20
32.46448280219375
 30
0.0
 11
140.0
 21
136.4516878685508
 31
0.0
  0
LINE
  5
E7F
330
29AE
100
AcDbEntity
  8
SIZE
 62
     0
100
AcDbLine
 10
-128.0
 20
116.4516878685508
 30
0.0
 11
128.0
 21
116.4516878685508
 31
0.0
  0
INSERT
  5
E80
330
29AE
100
AcDbEntity
  8
SIZE
 62
     0
100
AcDbBlockReference
  2
_DOTBLANK
 10
-139.9999999999998
 20
116.4516878685508
 30
0.0
 41
12.0
 42
12.0
 43
12.0
 50
180.0
  0
INSERT
  5
E81
330
29AE
100
AcDbEntity
  8
SIZE
 62
     0
100
AcDbBlockReference
  2
_DOTBLANK
 10
140.0
 20
116.4516878685508
 30
0.0
 41
12.0
 42
12.0
 43
12.0
  0
INSERT
  5
E82
330
29AE
100
AcDbEntity
  8
0
100
AcDbBlockReference
  2
*U10
 10
0.0
 20
0.0
 30
0.0
  0
POINT
  5
E83
330
29AE
100
AcDbEntity
  8
DEFPOINTS
 62
     0
100
AcDbPoint
 10
-139.9999999999998
 20
12.46448280219374
 30
0.0
  0
POINT
  5
E84
330
29AE
100
AcDbEntity
  8
DEFPOINTS
 62
     0
100
AcDbPoint
 10
140.0
 20
12.46448280219374
 30
0.0
  0
POINT
  5
E85
330
29AE
100
AcDbEntity
  8
DEFPOINTS
 62
     0
100
AcDbPoint
 10
140.0
 20
116.4516878685508
 30
0.0
  0
ENDBLK
  5
E7C
330
29AE
100
AcDbEntity
  8
0
100
AcDbBlockEnd
  0
BLOCK
  5
29B1
330
29B0
100
AcDbEntity
  8
0
100
AcDbBlockBegin
  2
*U10
 70
     1
 10
0.0
 20
0.0
 30
0.0
  3
*U10
  1

  0
TEXT
  5
1ED8
330
29B0
100
AcDbEntity
  8
SIZE
 62
     0
100
AcDbText
 10
-74.05714285714281
 20
126.4516878685508
 30
0.0
 40
64.0
  1
280
 41
0.9
100
AcDbText
  0
ENDBLK
  5
1EDA
330
29B0
100
AcDbEntity
  8
0
100
AcDbBlockEnd
  0
BLOCK
  5
29B3
330
29B2
100
AcDbEntity
  8
0
100
AcDbBlockBegin
  2
GENAXEH
 70
     0
 10
0.0
 20
0.0
 30
0.0
  3
GENAXEH
  1

  0
LINE
  5
FDB
330
29B2
100
AcDbEntity
  8
0
100
AcDbLine
 10
-1.0
 20
0.0
 30
0.0
 11
1.0
 21
0.0
 31
0.0
  0
ENDBLK
  5
FDD
330
29B2
100
AcDbEntity
  8
0
100
AcDbBlockEnd
  0
BLOCK
  5
29B5
330
29B4
100
AcDbEntity
  8
0
100
AcDbBlockBegin
  2
*D12
 70
     1
 10
0.0
 20
0.0
 30
0.0
  3
*D12
  1

  0
LINE
  5
1120
330
29B4
100
AcDbEntity
  8
SIZE
 62
     0
100
AcDbLine
 10
-157.5
 20
20.0
 30
0.0
 11
-157.5
 21
245.5794621189598
 31
0.0
  0
LINE
  5
1121
330
29B4
100
AcDbEntity
  8
SIZE
 62
     0
100
AcDbLine
 10
157.5
 20
20.0
 30
0.0
 11
157.5
 21
245.5794621189598
 31
0.0
  0
LINE
  5
1122
330
29B4
100
AcDbEntity
  8
SIZE
 62
     0
100
AcDbLine
 10
-145.5
 20
225.5794621189598
 30
0.0
 11
145.5
 21
225.5794621189598
 31
0.0
  0
INSERT
  5
1123
330
29B4
100
AcDbEntity
  8
SIZE
 62
     0
100
AcDbBlockReference
  2
_DOTBLANK
 10
-157.5
 20
225.5794621189598
 30
0.0
 41
12.0
 42
12.0
 43
12.0
 50
180.0
  0
INSERT
  5
1124
330
29B4
100
AcDbEntity
  8
SIZE
 62
     0
100
AcDbBlockReference
  2
_DOTBLANK
 10
157.5
 20
225.5794621189598
 30
0.0
 41
12.0
 42
12.0
 43
12.0
  0
INSERT
  5
1125
330
29B4
100
AcDbEntity
  8
0
100
AcDbBlockReference
  2
*U13
 10
0.0
 20
0.0
 30
0.0
  0
POINT
  5
1126
330
29B4
100
AcDbEntity
  8
DEFPOINTS
 62
     0
100
AcDbPoint
 10
-157.5
 20
0.0
 30
0.0
  0
POINT
  5
1127
330
29B4
100
AcDbEntity
  8
DEFPOINTS
 62
     0
100
AcDbPoint
 10
157.5
 20
0.0
 30
0.0
  0
POINT
  5
1128
330
29B4
100
AcDbEntity
  8
DEFPOINTS
 62
     0
100
AcDbPoint
 10
157.5
 20
225.5794621189598
 30
0.0
  0
ENDBLK
  5
111F
330
29B4
100
AcDbEntity
  8
0
100
AcDbBlockEnd
  0
BLOCK
  5
29B7
330
29B6
100
AcDbEntity
  8
0
100
AcDbBlockBegin
  2
*U13
 70
     1
 10
0.0
 20
0.0
 30
0.0
  3
*U13
  1

  0
TEXT
  5
1EDD
330
29B6
100
AcDbEntity
  8
SIZE
 62
     0
100
AcDbText
 10
-68.57142857142857
 20
235.5794621189599
 30
0.0
 40
64.0
  1
315
 41
0.9
100
AcDbText
  0
ENDBLK
  5
1EDF
330
29B6
100
AcDbEntity
  8
0
100
AcDbBlockEnd
  0
BLOCK
  5
29B9
330
29B8
100
AcDbEntity
  8
0
100
AcDbBlockBegin
  2
*D14
 70
     1
 10
0.0
 20
0.0
 30
0.0
  3
*D14
  1

  0
LINE
  5
11BD
330
29B8
100
AcDbEntity
  8
NOTE
 62
     0
100
AcDbLine
 10
-123.4999999999999
 20
-320.0
 30
0.0
 11
-123.4999999999999
 21
-354.9529861856111
 31
0.0
  0
LINE
  5
11BE
330
29B8
100
AcDbEntity
  8
NOTE
 62
     0
100
AcDbLine
 10
-133.4999999999998
 20
-331.2126909923287
 30
0.0
 11
-133.4999999999998
 21
-354.9529861856111
 31
0.0
  0
LINE
  5
11BF
330
29B8
100
AcDbEntity
  8
NOTE
 62
     0
100
AcDbLine
 10
-111.4999999999999
 20
-334.9529861856112
 30
0.0
 11
-99.4999999999999
 21
-334.9529861856112
 31
0.0
  0
LINE
  5
11C0
330
29B8
100
AcDbEntity
  8
NOTE
 62
     0
100
AcDbLine
 10
-145.4999999999998
 20
-334.9529861856112
 30
0.0
 11
-157.4999999999998
 21
-334.9529861856112
 31
0.0
  0
LINE
  5
11C1
330
29B8
100
AcDbEntity
  8
NOTE
 62
     0
100
AcDbLine
 10
-123.4999999999999
 20
-334.9529861856112
 30
0.0
 11
-133.4999999999998
 21
-334.9529861856112
 31
0.0
  0
INSERT
  5
11C2
330
29B8
100
AcDbEntity
  8
NOTE
 62
     0
100
AcDbBlockReference
  2
_DOTBLANK
 10
-123.4999999999999
 20
-334.9529861856112
 30
0.0
 41
12.0
 42
12.0
 43
12.0
 50
180.0
  0
INSERT
  5
11C3
330
29B8
100
AcDbEntity
  8
NOTE
 62
     0
100
AcDbBlockReference
  2
_DOTBLANK
 10
-133.4999999999998
 20
-334.9529861856112
 30
0.0
 41
12.0
 42
12.0
 43
12.0
  0
INSERT
  5
11C4
330
29B8
100
AcDbEntity
  8
0
100
AcDbBlockReference
  2
*U15
 10
0.0
 20
0.0
 30
0.0
  0
POINT
  5
11C5
330
29B8
100
AcDbEntity
  8
DEFPOINTS
 62
     0
100
AcDbPoint
 10
-123.4999999999999
 20
-300.0
 30
0.0
  0
POINT
  5
11C6
330
29B8
100
AcDbEntity
  8
DEFPOINTS
 62
     0
100
AcDbPoint
 10
-133.4999999999998
 20
-311.2126909923287
 30
0.0
  0
POINT
  5
11C7
330
29B8
100
AcDbEntity
  8
DEFPOINTS
 62
     0
100
AcDbPoint
 10
-133.4999999999998
 20
-334.9529861856112
 30
0.0
  0
ENDBLK
  5
11BC
330
29B8
100
AcDbEntity
  8
0
100
AcDbBlockEnd
  0
BLOCK
  5
29BB
330
29BA
100
AcDbEntity
  8
0
100
AcDbBlockBegin
  2
*U15
 70
     1
 10
0.0
 20
0.0
 30
0.0
  3
*U15
  1

  0
TEXT
  5
1EE5
330
29BA
100
AcDbEntity
  8
NOTE
 62
     0
100
AcDbText
 10
-169.642857142857
 20
-324.9529861856112
 30
0.0
 40
64.0
  1
10
 41
0.9
100
AcDbText
  0
ENDBLK
  5
1EE7
330
29BA
100
AcDbEntity
  8
0
100
AcDbBlockEnd
  0
BLOCK
  5
29BD
330
29BC
100
AcDbEntity
  8
0
100
AcDbBlockBegin
  2
*D16
 70
     1
 10
0.0
 20
0.0
 30
0.0
  3
*D16
  1

  0
LINE
  5
11E7
330
29BC
100
AcDbEntity
  8
NOTE
 62
     0
100
AcDbLine
 10
-135.5
 20
-333.2126909923287
 30
0.0
 11
-135.5
 21
-386.2569421441843
 31
0.0
  0
LINE
  5
11E8
330
29BC
100
AcDbEntity
  8
NOTE
 62
     0
100
AcDbLine
 10
-123.4999999999999
 20
-320.0
 30
0.0
 11
-123.4999999999999
 21
-386.2569421441843
 31
0.0
  0
LINE
  5
11E9
330
29BC
100
AcDbEntity
  8
NOTE
 62
     0
100
AcDbLine
 10
-147.5
 20
-366.2569421441844
 30
0.0
 11
-159.5
 21
-366.2569421441844
 31
0.0
  0
LINE
  5
11EA
330
29BC
100
AcDbEntity
  8
NOTE
 62
     0
100
AcDbLine
 10
-111.4999999999999
 20
-366.2569421441844
 30
0.0
 11
-99.4999999999999
 21
-366.2569421441844
 31
0.0
  0
LINE
  5
11EB
330
29BC
100
AcDbEntity
  8
NOTE
 62
     0
100
AcDbLine
 10
-135.5
 20
-366.2569421441844
 30
0.0
 11
-123.4999999999999
 21
-366.2569421441844
 31
0.0
  0
INSERT
  5
11EC
330
29BC
100
AcDbEntity
  8
NOTE
 62
     0
100
AcDbBlockReference
  2
_DOTBLANK
 10
-135.5
 20
-366.2569421441844
 30
0.0
 41
12.0
 42
12.0
 43
12.0
  0
INSERT
  5
11ED
330
29BC
100
AcDbEntity
  8
NOTE
 62
     0
100
AcDbBlockReference
  2
_DOTBLANK
 10
-123.4999999999999
 20
-366.2569421441844
 30
0.0
 41
12.0
 42
12.0
 43
12.0
 50
180.0
  0
INSERT
  5
11EE
330
29BC
100
AcDbEntity
  8
0
100
AcDbBlockReference
  2
*U17
 10
0.0
 20
0.0
 30
0.0
  0
POINT
  5
11EF
330
29BC
100
AcDbEntity
  8
DEFPOINTS
 62
     0
100
AcDbPoint
 10
-135.5
 20
-313.2126909923287
 30
0.0
  0
POINT
  5
11F0
330
29BC
100
AcDbEntity
  8
DEFPOINTS
 62
     0
100
AcDbPoint
 10
-123.4999999999999
 20
-300.0
 30
0.0
  0
POINT
  5
11F1
330
29BC
100
AcDbEntity
  8
DEFPOINTS
 62
     0
100
AcDbPoint
 10
-123.4999999999999
 20
-366.2569421441844
 30
0.0
  0
ENDBLK
  5
11E6
330
29BC
100
AcDbEntity
  8
0
100
AcDbBlockEnd
  0
BLOCK
  5
29BF
330
29BE
100
AcDbEntity
  8
0
100
AcDbBlockBegin
  2
*U17
 70
     1
 10
0.0
 20
0.0
 30
0.0
  3
*U17
  1

  0
TEXT
  5
1EE9
330
29BE
100
AcDbEntity
  8
NOTE
 62
     0
100
AcDbText
 10
-170.642857142857
 20
-356.2569421441843
 30
0.0
 40
64.0
  1
12
 41
0.9
100
AcDbText
  0
ENDBLK
  5
1EEB
330
29BE
100
AcDbEntity
  8
0
100
AcDbBlockEnd
  0
BLOCK
  5
29C1
330
29C0
100
AcDbEntity
  8
0
100
AcDbBlockBegin
  2
*D18
 70
     1
 10
0.0
 20
0.0
 30
0.0
  3
*D18
  1

  0
LINE
  5
11F6
330
29C0
100
AcDbEntity
  8
NOTE
 62
     0
100
AcDbLine
 10
-123.4999999999999
 20
-320.0
 30
0.0
 11
-123.4999999999999
 21
-583.8286022818904
 31
0.0
  0
LINE
  5
11F7
330
29C0
100
AcDbEntity
  8
NOTE
 62
     0
100
AcDbLine
 10
123.5
 20
-320.0
 30
0.0
 11
123.5
 21
-583.8286022818904
 31
0.0
  0
LINE
  5
11F8
330
29C0
100
AcDbEntity
  8
NOTE
 62
     0
100
AcDbLine
 10
-111.4999999999999
 20
-563.8286022818904
 30
0.0
 11
111.5
 21
-563.8286022818904
 31
0.0
  0
INSERT
  5
11F9
330
29C0
100
AcDbEntity
  8
NOTE
 62
     0
100
AcDbBlockReference
  2
_DOTBLANK
 10
-123.4999999999999
 20
-563.8286022818904
 30
0.0
 41
12.0
 42
12.0
 43
12.0
 50
180.0
  0
INSERT
  5
11FA
330
29C0
100
AcDbEntity
  8
NOTE
 62
     0
100
AcDbBlockReference
  2
_DOTBLANK
 10
123.5
 20
-563.8286022818904
 30
0.0
 41
12.0
 42
12.0
 43
12.0
  0
INSERT
  5
11FB
330
29C0
100
AcDbEntity
  8
0
100
AcDbBlockReference
  2
*U19
 10
0.0
 20
0.0
 30
0.0
  0
POINT
  5
11FC
330
29C0
100
AcDbEntity
  8
DEFPOINTS
 62
     0
100
AcDbPoint
 10
-123.4999999999999
 20
-300.0
 30
0.0
  0
POINT
  5
11FD
330
29C0
100
AcDbEntity
  8
DEFPOINTS
 62
     0
100
AcDbPoint
 10
123.5
 20
-300.0
 30
0.0
  0
POINT
  5
11FE
330
29C0
100
AcDbEntity
  8
DEFPOINTS
 62
     0
100
AcDbPoint
 10
123.5
 20
-563.8286022818904
 30
0.0
  0
ENDBLK
  5
11F5
330
29C0
100
AcDbEntity
  8
0
100
AcDbBlockEnd
  0
BLOCK
  5
29C3
330
29C2
100
AcDbEntity
  8
0
100
AcDbBlockBegin
  2
*U19
 70
     1
 10
0.0
 20
0.0
 30
0.0
  3
*U19
  1

  0
TEXT
  5
1EED
330
29C2
100
AcDbEntity
  8
NOTE
 62
     0
100
AcDbText
 10
-74.05714285714281
 20
-553.8286022818904
 30
0.0
 40
64.0
  1
247
 41
0.9
100
AcDbText
  0
ENDBLK
  5
1EEF
330
29C2
100
AcDbEntity
  8
0
100
AcDbBlockEnd
  0
BLOCK
  5
29C5
330
29C4
100
AcDbEntity
  8
0
100
AcDbBlockBegin
  2
*D20
 70
     1
 10
0.0
 20
0.0
 30
0.0
  3
*D20
  1

  0
LINE
  5
1284
330
29C4
100
AcDbEntity
  8
NOTE
 62
     0
100
AcDbLine
 10
-123.5
 20
12.0
 30
0.0
 11
-123.5
 21
71.83630134534229
 31
0.0
  0
LINE
  5
1285
330
29C4
100
AcDbEntity
  8
NOTE
 62
     0
100
AcDbLine
 10
123.5
 20
12.0
 30
0.0
 11
123.5
 21
71.83630134534229
 31
0.0
  0
LINE
  5
1286
330
29C4
100
AcDbEntity
  8
NOTE
 62
     0
100
AcDbLine
 10
-111.5
 20
51.83630134534229
 30
0.0
 11
111.5
 21
51.83630134534229
 31
0.0
  0
INSERT
  5
1287
330
29C4
100
AcDbEntity
  8
NOTE
 62
     0
100
AcDbBlockReference
  2
_DOTBLANK
 10
-123.5
 20
51.83630134534229
 30
0.0
 41
12.0
 42
12.0
 43
12.0
 50
180.0
  0
INSERT
  5
1288
330
29C4
100
AcDbEntity
  8
NOTE
 62
     0
100
AcDbBlockReference
  2
_DOTBLANK
 10
123.5
 20
51.83630134534229
 30
0.0
 41
12.0
 42
12.0
 43
12.0
  0
INSERT
  5
1289
330
29C4
100
AcDbEntity
  8
0
100
AcDbBlockReference
  2
*U21
 10
0.0
 20
0.0
 30
0.0
  0
POINT
  5
128A
330
29C4
100
AcDbEntity
  8
DEFPOINTS
 62
     0
100
AcDbPoint
 10
-123.5
 20
-8.0
 30
0.0
  0
POINT
  5
128B
330
29C4
100
AcDbEntity
  8
DEFPOINTS
 62
     0
100
AcDbPoint
 10
123.5
 20
-8.0
 30
0.0
  0
POINT
  5
128C
330
29C4
100
AcDbEntity
  8
DEFPOINTS
 62
     0
100
AcDbPoint
 10
123.5
 20
51.83630134534229
 30
0.0
  0
ENDBLK
  5
1283
330
29C4
100
AcDbEntity
  8
0
100
AcDbBlockEnd
  0
BLOCK
  5
29C7
330
29C6
100
AcDbEntity
  8
0
100
AcDbBlockBegin
  2
*U21
 70
     1
 10
0.0
 20
0.0
 30
0.0
  3
*U21
  1

  0
TEXT
  5
1EF1
330
29C6
100
AcDbEntity
  8
NOTE
 62
     0
100
AcDbText
 10
-74.05714285714283
 20
61.83630134534229
 30
0.0
 40
64.0
  1
247
 41
0.9
100
AcDbText
  0
ENDBLK
  5
1EF3
330
29C6
100
AcDbEntity
  8
0
100
AcDbBlockEnd
  0
BLOCK
  5
29C9
330
29C8
100
AcDbEntity
  8
0
100
AcDbBlockBegin
  2
*D22
 70
     1
 10
0.0
 20
0.0
 30
0.0
  3
*D22
  1

  0
LINE
  5
1414
330
29C8
100
AcDbEntity
  8
SIZE
 62
     0
100
AcDbLine
 10
-22313.11521613997
 20
7365.702971374808
 30
0.0
 11
-22313.11521613997
 21
7217.685576144207
 31
0.0
  0
LINE
  5
1415
330
29C8
100
AcDbEntity
  8
SIZE
 62
     0
100
AcDbLine
 10
-22044.11521613997
 20
7365.702971374808
 30
0.0
 11
-22044.11521613997
 21
7217.685576144207
 31
0.0
  0
LINE
  5
1416
330
29C8
100
AcDbEntity
  8
SIZE
 62
     0
100
AcDbLine
 10
-22301.11521613997
 20
7237.685576144207
 30
0.0
 11
-22056.11521613997
 21
7237.685576144207
 31
0.0
  0
INSERT
  5
1417
330
29C8
100
AcDbEntity
  8
SIZE
 62
     0
100
AcDbBlockReference
  2
_DOTBLANK
 10
-22313.11521613997
 20
7237.685576144207
 30
0.0
 41
12.0
 42
12.0
 43
12.0
 50
180.0
  0
INSERT
  5
1418
330
29C8
100
AcDbEntity
  8
SIZE
 62
     0
100
AcDbBlockReference
  2
_DOTBLANK
 10
-22044.11521613997
 20
7237.685576144207
 30
0.0
 41
12.0
 42
12.0
 43
12.0
  0
INSERT
  5
1419
330
29C8
100
AcDbEntity
  8
0
100
AcDbBlockReference
  2
*U23
 10
0.0
 20
0.0
 30
0.0
  0
POINT
  5
141A
330
29C8
100
AcDbEntity
  8
DEFPOINTS
 62
     0
100
AcDbPoint
 10
-22313.11521613997
 20
7385.702971374808
 30
0.0
  0
POINT
  5
141B
330
29C8
100
AcDbEntity
  8
DEFPOINTS
 62
     0
100
AcDbPoint
 10
-22044.11521613997
 20
7385.702971374808
 30
0.0
  0
POINT
  5
141C
330
29C8
100
AcDbEntity
  8
DEFPOINTS
 62
     0
100
AcDbPoint
 10
-22044.11521613997
 20
7237.685576144207
 30
0.0
  0
ENDBLK
  5
141D
330
29C8
100
AcDbEntity
  8
0
100
AcDbBlockEnd
  0
BLOCK
  5
29CB
330
29CA
100
AcDbEntity
  8
0
100
AcDbBlockBegin
  2
*U23
 70
     1
 10
0.0
 20
0.0
 30
0.0
  3
*U23
  1

  0
TEXT
  5
1EF9
330
29CA
100
AcDbEntity
  8
SIZE
 62
     0
100
AcDbText
 10
-22251.30093042568
 20
7247.685576144205
 30
0.0
 40
64.0
  1
269
 41
0.9
100
AcDbText
  0
ENDBLK
  5
1EFB
330
29CA
100
AcDbEntity
  8
0
100
AcDbBlockEnd
  0
BLOCK
  5
29CD
330
29CC
100
AcDbEntity
  8
0
100
AcDbBlockBegin
  2
*D24
 70
     1
 10
0.0
 20
0.0
 30
0.0
  3
*D24
  1

  0
LINE
  5
1420
330
29CC
100
AcDbEntity
  8
SIZE
  6
Continuous
 62
     0
100
AcDbLine
 10
-22035.11521613997
 20
7385.702971374808
 30
0.0
 11
-21873.97193165959
 21
7385.702971374808
 31
0.0
  0
LINE
  5
1421
330
29CC
100
AcDbEntity
  8
SIZE
  6
Continuous
 62
     0
100
AcDbLine
 10
-22001.11521613997
 20
7685.702971374808
 30
0.0
 11
-21873.97193165959
 21
7685.702971374808
 31
0.0
  0
LINE
  5
1422
330
29CC
100
AcDbEntity
  8
SIZE
  6
Continuous
 62
     0
100
AcDbLine
 10
-21893.97193165959
 20
7397.702971374808
 30
0.0
 11
-21893.97193165959
 21
7673.702971374808
 31
0.0
  0
INSERT
  5
1423
330
29CC
100
AcDbEntity
  8
SIZE
  6
Continuous
 62
     0
100
AcDbBlockReference
  2
_DOTBLANK
 10
-21893.97193165959
 20
7385.702971374808
 30
0.0
 41
12.0
 42
12.0
 43
12.0
 50
270.0
  0
INSERT
  5
1424
330
29CC
100
AcDbEntity
  8
SIZE
  6
Continuous
 62
     0
100
AcDbBlockReference
  2
_DOTBLANK
 10
-21893.97193165959
 20
7685.702971374808
 30
0.0
 41
12.0
 42
12.0
 43
12.0
 50
90.0
  0
INSERT
  5
1425
330
29CC
100
AcDbEntity
  8
0
100
AcDbBlockReference
  2
*U25
 10
0.0
 20
0.0
 30
0.0
  0
POINT
  5
1426
330
29CC
100
AcDbEntity
  8
DEFPOINTS
  6
Continuous
 62
     0
100
AcDbPoint
 10
-22055.11521613997
 20
7385.702971374808
 30
0.0
  0
POINT
  5
1427
330
29CC
100
AcDbEntity
  8
DEFPOINTS
  6
Continuous
 62
     0
100
AcDbPoint
 10
-22021.11521613997
 20
7685.702971374808
 30
0.0
  0
POINT
  5
1428
330
29CC
100
AcDbEntity
  8
DEFPOINTS
  6
Continuous
 62
     0
100
AcDbPoint
 10
-21893.97193165959
 20
7685.702971374808
 30
0.0
  0
ENDBLK
  5
1429
330
29CC
100
AcDbEntity
  8
0
100
AcDbBlockEnd
  0
BLOCK
  5
29CF
330
29CE
100
AcDbEntity
  8
0
100
AcDbBlockBegin
  2
*U25
 70
     1
 10
0.0
 20
0.0
 30
0.0
  3
*U25
  1

  0
TEXT
  5
1EFD
330
29CE
100
AcDbEntity
  8
SIZE
 62
     0
100
AcDbText
 10
-21903.97193165959
 20
7461.645828517662
 30
0.0
 40
64.0
  1
300
 50
90.0
 41
0.9
100
AcDbText
  0
ENDBLK
  5
1EFF
330
29CE
100
AcDbEntity
  8
0
100
AcDbBlockEnd
  0
BLOCK
  5
29D1
330
29D0
100
AcDbEntity
  8
0
100
AcDbBlockBegin
  2
*D26
 70
     1
 10
0.0
 20
0.0
 30
0.0
  3
*D26
  1

  0
LINE
  5
142C
330
29D0
100
AcDbEntity
  8
SIZE
 62
     0
100
AcDbLine
 10
-22318.61521613997
 20
7718.167454177002
 30
0.0
 11
-22318.61521613997
 21
7822.154659243358
 31
0.0
  0
LINE
  5
142D
330
29D0
100
AcDbEntity
  8
SIZE
 62
     0
100
AcDbLine
 10
-22038.61521613997
 20
7718.167454177002
 30
0.0
 11
-22038.61521613997
 21
7822.154659243358
 31
0.0
  0
LINE
  5
142E
330
29D0
100
AcDbEntity
  8
SIZE
 62
     0
100
AcDbLine
 10
-22306.61521613997
 20
7802.154659243358
 30
0.0
 11
-22050.61521613997
 21
7802.154659243358
 31
0.0
  0
INSERT
  5
142F
330
29D0
100
AcDbEntity
  8
SIZE
 62
     0
100
AcDbBlockReference
  2
_DOTBLANK
 10
-22318.61521613997
 20
7802.154659243358
 30
0.0
 41
12.0
 42
12.0
 43
12.0
 50
180.0
  0
INSERT
  5
1430
330
29D0
100
AcDbEntity
  8
SIZE
 62
     0
100
AcDbBlockReference
  2
_DOTBLANK
 10
-22038.61521613997
 20
7802.154659243358
 30
0.0
 41
12.0
 42
12.0
 43
12.0
  0
INSERT
  5
1431
330
29D0
100
AcDbEntity
  8
0
100
AcDbBlockReference
  2
*U27
 10
0.0
 20
0.0
 30
0.0
  0
POINT
  5
1432
330
29D0
100
AcDbEntity
  8
DEFPOINTS
 62
     0
100
AcDbPoint
 10
-22318.61521613997
 20
7698.167454177002
 30
0.0
  0
POINT
  5
1433
330
29D0
100
AcDbEntity
  8
DEFPOINTS
 62
     0
100
AcDbPoint
 10
-22038.61521613997
 20
7698.167454177002
 30
0.0
  0
POINT
  5
1434
330
29D0
100
AcDbEntity
  8
DEFPOINTS
 62
     0
100
AcDbPoint
 10
-22038.61521613997
 20
7802.154659243358
 30
0.0
  0
ENDBLK
  5
1435
330
29D0
100
AcDbEntity
  8
0
100
AcDbBlockEnd
  0
BLOCK
  5
29D3
330
29D2
100
AcDbEntity
  8
0
100
AcDbBlockBegin
  2
*U27
 70
     1
 10
0.0
 20
0.0
 30
0.0
  3
*U27
  1

  0
TEXT
  5
1F01
330
29D2
100
AcDbEntity
  8
SIZE
 62
     0
100
AcDbText
 10
-22252.6723589971
 20
7812.154659243358
 30
0.0
 40
64.0
  1
280
 41
0.9
100
AcDbText
  0
ENDBLK
  5
1F03
330
29D2
100
AcDbEntity
  8
0
100
AcDbBlockEnd
  0
BLOCK
  5
29D5
330
29D4
100
AcDbEntity
  8
0
100
AcDbBlockBegin
  2
*D28
 70
     1
 10
0.0
 20
0.0
 30
0.0
  3
*D28
  1

  0
LINE
  5
1438
330
29D4
100
AcDbEntity
  8
SIZE
 62
     0
100
AcDbLine
 10
-22336.11521613997
 20
7705.702971374808
 30
0.0
 11
-22336.11521613997
 21
7931.282433493766
 31
0.0
  0
LINE
  5
1439
330
29D4
100
AcDbEntity
  8
SIZE
 62
     0
100
AcDbLine
 10
-22021.11521613997
 20
7705.702971374808
 30
0.0
 11
-22021.11521613997
 21
7931.282433493766
 31
0.0
  0
LINE
  5
143A
330
29D4
100
AcDbEntity
  8
SIZE
 62
     0
100
AcDbLine
 10
-22324.11521613997
 20
7911.282433493766
 30
0.0
 11
-22033.11521613997
 21
7911.282433493766
 31
0.0
  0
INSERT
  5
143B
330
29D4
100
AcDbEntity
  8
SIZE
 62
     0
100
AcDbBlockReference
  2
_DOTBLANK
 10
-22336.11521613997
 20
7911.282433493766
 30
0.0
 41
12.0
 42
12.0
 43
12.0
 50
180.0
  0
INSERT
  5
143C
330
29D4
100
AcDbEntity
  8
SIZE
 62
     0
100
AcDbBlockReference
  2
_DOTBLANK
 10
-22021.11521613997
 20
7911.282433493766
 30
0.0
 41
12.0
 42
12.0
 43
12.0
  0
INSERT
  5
143D
330
29D4
100
AcDbEntity
  8
0
100
AcDbBlockReference
  2
*U29
 10
0.0
 20
0.0
 30
0.0
  0
POINT
  5
143E
330
29D4
100
AcDbEntity
  8
DEFPOINTS
 62
     0
100
AcDbPoint
 10
-22336.11521613997
 20
7685.702971374808
 30
0.0
  0
POINT
  5
143F
330
29D4
100
AcDbEntity
  8
DEFPOINTS
 62
     0
100
AcDbPoint
 10
-22021.11521613997
 20
7685.702971374808
 30
0.0
  0
POINT
  5
1440
330
29D4
100
AcDbEntity
  8
DEFPOINTS
 62
     0
100
AcDbPoint
 10
-22021.11521613997
 20
7911.282433493766
 30
0.0
  0
ENDBLK
  5
1441
330
29D4
100
AcDbEntity
  8
0
100
AcDbBlockEnd
  0
BLOCK
  5
29D7
330
29D6
100
AcDbEntity
  8
0
100
AcDbBlockBegin
  2
*U29
 70
     1
 10
0.0
 20
0.0
 30
0.0
  3
*U29
  1

  0
TEXT
  5
1F05
330
29D6
100
AcDbEntity
  8
SIZE
 62
     0
100
AcDbText
 10
-22247.18664471139
 20
7921.282433493766
 30
0.0
 40
64.0
  1
315
 41
0.9
100
AcDbText
  0
ENDBLK
  5
1F07
330
29D6
100
AcDbEntity
  8
0
100
AcDbBlockEnd
  0
BLOCK
  5
29D9
330
29D8
100
AcDbEntity
  8
0
100
AcDbBlockBegin
  2
*D30
 70
     1
 10
0.0
 20
0.0
 30
0.0
  3
*D30
  1

  0
LINE
  5
166B
330
29D8
100
AcDbEntity
  8
SIZE
 62
     0
100
AcDbLine
 10
-134.5
 20
-320.0
 30
0.0
 11
-134.5
 21
-468.0173952306001
 31
0.0
  0
LINE
  5
166C
330
29D8
100
AcDbEntity
  8
SIZE
 62
     0
100
AcDbLine
 10
134.5
 20
-320.0
 30
0.0
 11
134.5
 21
-468.0173952306001
 31
0.0
  0
LINE
  5
166D
330
29D8
100
AcDbEntity
  8
SIZE
 62
     0
100
AcDbLine
 10
-122.5
 20
-448.0173952306
 30
0.0
 11
122.5
 21
-448.0173952306
 31
0.0
  0
INSERT
  5
166E
330
29D8
100
AcDbEntity
  8
SIZE
 62
     0
100
AcDbBlockReference
  2
_DOTBLANK
 10
-134.5
 20
-448.0173952306
 30
0.0
 41
12.0
 42
12.0
 43
12.0
 50
180.0
  0
INSERT
  5
166F
330
29D8
100
AcDbEntity
  8
SIZE
 62
     0
100
AcDbBlockReference
  2
_DOTBLANK
 10
134.5
 20
-448.0173952306
 30
0.0
 41
12.0
 42
12.0
 43
12.0
  0
INSERT
  5
1670
330
29D8
100
AcDbEntity
  8
0
100
AcDbBlockReference
  2
*U31
 10
0.0
 20
0.0
 30
0.0
  0
POINT
  5
1671
330
29D8
100
AcDbEntity
  8
DEFPOINTS
 62
     0
100
AcDbPoint
 10
-134.5
 20
-300.0
 30
0.0
  0
POINT
  5
1672
330
29D8
100
AcDbEntity
  8
DEFPOINTS
 62
     0
100
AcDbPoint
 10
134.5
 20
-300.0
 30
0.0
  0
POINT
  5
1673
330
29D8
100
AcDbEntity
  8
DEFPOINTS
 62
     0
100
AcDbPoint
 10
134.5
 20
-448.0173952306
 30
0.0
  0
ENDBLK
  5
14A7
330
29D8
100
AcDbEntity
  8
0
100
AcDbBlockEnd
  0
BLOCK
  5
29DB
330
29DA
100
AcDbEntity
  8
0
100
AcDbBlockBegin
  2
*U31
 70
     1
 10
0.0
 20
0.0
 30
0.0
  3
*U31
  1

  0
TEXT
  5
1F09
330
29DA
100
AcDbEntity
  8
SIZE
 62
     0
100
AcDbText
 10
-72.68571428571426
 20
-438.0173952306002
 30
0.0
 40
64.0
  1
269
 41
0.9
100
AcDbText
  0
ENDBLK
  5
1F0B
330
29DA
100
AcDbEntity
  8
0
100
AcDbBlockEnd
  0
BLOCK
  5
29DD
330
29DC
100
AcDbEntity
  8
0
100
AcDbBlockBegin
  2
*D32
 70
     1
 10
0.0
 20
0.0
 30
0.0
  3
*D32
  1

  0
LINE
  5
1674
330
29DC
100
AcDbEntity
  8
SIZE
  6
Continuous
 62
     0
100
AcDbLine
 10
143.5
 20
-300.0
 30
0.0
 11
304.6432844803784
 21
-300.0
 31
0.0
  0
LINE
  5
1675
330
29DC
100
AcDbEntity
  8
SIZE
  6
Continuous
 62
     0
100
AcDbLine
 10
177.5
 20
-0.0000000000000057
 30
0.0
 11
304.6432844803785
 21
-0.0000000000000417
 31
0.0
  0
LINE
  5
1676
330
29DC
100
AcDbEntity
  8
SIZE
  6
Continuous
 62
     0
100
AcDbLine
 10
284.6432844803784
 20
-288.0000000000001
 30
0.0
 11
284.6432844803785
 21
-12.00000000000003
 31
0.0
  0
INSERT
  5
1677
330
29DC
100
AcDbEntity
  8
SIZE
  6
Continuous
 62
     0
100
AcDbBlockReference
  2
_DOTBLANK
 10
284.6432844803784
 20
-300.0
 30
0.0
 41
12.0
 42
12.0
 43
12.0
 50
270.0
  0
INSERT
  5
1678
330
29DC
100
AcDbEntity
  8
SIZE
  6
Continuous
 62
     0
100
AcDbBlockReference
  2
_DOTBLANK
 10
284.6432844803785
 20
-0.000000000000036
 30
0.0
 41
12.0
 42
12.0
 43
12.0
 50
90.0
  0
INSERT
  5
1679
330
29DC
100
AcDbEntity
  8
0
100
AcDbBlockReference
  2
*U33
 10
0.0
 20
0.0
 30
0.0
  0
POINT
  5
167A
330
29DC
100
AcDbEntity
  8
DEFPOINTS
  6
Continuous
 62
     0
100
AcDbPoint
 10
123.5
 20
-300.0
 30
0.0
  0
POINT
  5
167B
330
29DC
100
AcDbEntity
  8
DEFPOINTS
  6
Continuous
 62
     0
100
AcDbPoint
 10
157.5
 20
0.0
 30
0.0
  0
POINT
  5
167C
330
29DC
100
AcDbEntity
  8
DEFPOINTS
  6
Continuous
 62
     0
100
AcDbPoint
 10
284.6432844803785
 20
-0.000000000000036
 30
0.0
  0
ENDBLK
  5
14B3
330
29DC
100
AcDbEntity
  8
0
100
AcDbBlockEnd
  0
BLOCK
  5
29DF
330
29DE
100
AcDbEntity
  8
0
100
AcDbBlockBegin
  2
*U33
 70
     1
 10
0.0
 20
0.0
 30
0.0
  3
*U33
  1

  0
TEXT
  5
1F0D
330
29DE
100
AcDbEntity
  8
SIZE
 62
     0
100
AcDbText
 10
274.6432844803785
 20
-224.0571428571429
 30
0.0
 40
64.0
  1
300
 50
90.0
 41
0.9
100
AcDbText
  0
ENDBLK
  5
1F0F
330
29DE
100
AcDbEntity
  8
0
100
AcDbBlockEnd
  0
BLOCK
  5
29E1
330
29E0
100
AcDbEntity
  8
0
100
AcDbBlockBegin
  2
*D34
 70
     1
 10
0.0
 20
0.0
 30
0.0
  3
*D34
  1

  0
LINE
  5
167D
330
29E0
100
AcDbEntity
  8
SIZE
 62
     0
100
AcDbLine
 10
-140.0
 20
32.46448280219375
 30
0.0
 11
-140.0
 21
136.4516878685507
 31
0.0
  0
LINE
  5
167E
330
29E0
100
AcDbEntity
  8
SIZE
 62
     0
100
AcDbLine
 10
140.0
 20
32.46448280219375
 30
0.0
 11
140.0
 21
136.4516878685507
 31
0.0
  0
LINE
  5
167F
330
29E0
100
AcDbEntity
  8
SIZE
 62
     0
100
AcDbLine
 10
-128.0
 20
116.4516878685508
 30
0.0
 11
128.0
 21
116.4516878685508
 31
0.0
  0
INSERT
  5
1680
330
29E0
100
AcDbEntity
  8
SIZE
 62
     0
100
AcDbBlockReference
  2
_DOTBLANK
 10
-140.0
 20
116.4516878685508
 30
0.0
 41
12.0
 42
12.0
 43
12.0
 50
180.0
  0
INSERT
  5
1681
330
29E0
100
AcDbEntity
  8
SIZE
 62
     0
100
AcDbBlockReference
  2
_DOTBLANK
 10
140.0
 20
116.4516878685508
 30
0.0
 41
12.0
 42
12.0
 43
12.0
  0
INSERT
  5
1682
330
29E0
100
AcDbEntity
  8
0
100
AcDbBlockReference
  2
*U35
 10
0.0
 20
0.0
 30
0.0
  0
POINT
  5
1683
330
29E0
100
AcDbEntity
  8
DEFPOINTS
 62
     0
100
AcDbPoint
 10
-140.0
 20
12.46448280219374
 30
0.0
  0
POINT
  5
1684
330
29E0
100
AcDbEntity
  8
DEFPOINTS
 62
     0
100
AcDbPoint
 10
140.0
 20
12.46448280219374
 30
0.0
  0
POINT
  5
1685
330
29E0
100
AcDbEntity
  8
DEFPOINTS
 62
     0
100
AcDbPoint
 10
140.0
 20
116.4516878685508
 30
0.0
  0
ENDBLK
  5
14BF
330
29E0
100
AcDbEntity
  8
0
100
AcDbBlockEnd
  0
BLOCK
  5
29E3
330
29E2
100
AcDbEntity
  8
0
100
AcDbBlockBegin
  2
*U35
 70
     1
 10
0.0
 20
0.0
 30
0.0
  3
*U35
  1

  0
TEXT
  5
1F11
330
29E2
100
AcDbEntity
  8
SIZE
 62
     0
100
AcDbText
 10
-74.05714285714283
 20
126.4516878685507
 30
0.0
 40
64.0
  1
280
 41
0.9
100
AcDbText
  0
ENDBLK
  5
1F13
330
29E2
100
AcDbEntity
  8
0
100
AcDbBlockEnd
  0
BLOCK
  5
29E5
330
29E4
100
AcDbEntity
  8
0
100
AcDbBlockBegin
  2
*D36
 70
     1
 10
0.0
 20
0.0
 30
0.0
  3
*D36
  1

  0
LINE
  5
1686
330
29E4
100
AcDbEntity
  8
SIZE
 62
     0
100
AcDbLine
 10
-157.5
 20
20.0
 30
0.0
 11
-157.5
 21
245.5794621189598
 31
0.0
  0
LINE
  5
1687
330
29E4
100
AcDbEntity
  8
SIZE
 62
     0
100
AcDbLine
 10
157.5
 20
20.0
 30
0.0
 11
157.5
 21
245.5794621189598
 31
0.0
  0
LINE
  5
1688
330
29E4
100
AcDbEntity
  8
SIZE
 62
     0
100
AcDbLine
 10
-145.5
 20
225.5794621189598
 30
0.0
 11
145.5
 21
225.5794621189598
 31
0.0
  0
INSERT
  5
1689
330
29E4
100
AcDbEntity
  8
SIZE
 62
     0
100
AcDbBlockReference
  2
_DOTBLANK
 10
-157.5
 20
225.5794621189598
 30
0.0
 41
12.0
 42
12.0
 43
12.0
 50
180.0
  0
INSERT
  5
168A
330
29E4
100
AcDbEntity
  8
SIZE
 62
     0
100
AcDbBlockReference
  2
_DOTBLANK
 10
157.5
 20
225.5794621189598
 30
0.0
 41
12.0
 42
12.0
 43
12.0
  0
INSERT
  5
168B
330
29E4
100
AcDbEntity
  8
0
100
AcDbBlockReference
  2
*U37
 10
0.0
 20
0.0
 30
0.0
  0
POINT
  5
168C
330
29E4
100
AcDbEntity
  8
DEFPOINTS
 62
     0
100
AcDbPoint
 10
-157.5
 20
0.0
 30
0.0
  0
POINT
  5
168D
330
29E4
100
AcDbEntity
  8
DEFPOINTS
 62
     0
100
AcDbPoint
 10
157.5
 20
0.0
 30
0.0
  0
POINT
  5
168E
330
29E4
100
AcDbEntity
  8
DEFPOINTS
 62
     0
100
AcDbPoint
 10
157.5
 20
225.5794621189598
 30
0.0
  0
ENDBLK
  5
14CB
330
29E4
100
AcDbEntity
  8
0
100
AcDbBlockEnd
  0
BLOCK
  5
29E7
330
29E6
100
AcDbEntity
  8
0
100
AcDbBlockBegin
  2
*U37
 70
     1
 10
0.0
 20
0.0
 30
0.0
  3
*U37
  1

  0
TEXT
  5
1F15
330
29E6
100
AcDbEntity
  8
SIZE
 62
     0
100
AcDbText
 10
-68.57142857142857
 20
235.5794621189598
 30
0.0
 40
64.0
  1
315
 41
0.9
100
AcDbText
  0
ENDBLK
  5
1F17
330
29E6
100
AcDbEntity
  8
0
100
AcDbBlockEnd
  0
BLOCK
  5
29E9
330
29E8
100
AcDbEntity
  8
0
100
AcDbBlockBegin
  2
*U38
 70
     1
 10
0.0
 20
0.0
 30
0.0
  3
*U38
  1

  0
ENDBLK
  5
15CF
330
29E8
100
AcDbEntity
  8
0
100
AcDbBlockEnd
  0
BLOCK
  5
29EB
330
29EA
100
AcDbEntity
  8
0
100
AcDbBlockBegin
  2
*D39
 70
     1
 10
0.0
 20
0.0
 30
0.0
  3
*D39
  1

  0
LINE
  5
1692
330
29EA
100
AcDbEntity
  8
SIZE
 62
     0
100
AcDbLine
 10
-25844.51823276502
 20
7685.702971374808
 30
0.0
 11
-25981.04465488371
 21
7685.702971374808
 31
0.0
  0
LINE
  5
1693
330
29EA
100
AcDbEntity
  8
SIZE
 62
     0
100
AcDbLine
 10
-25844.51823276502
 20
7677.702971374808
 30
0.0
 11
-25981.04465488371
 21
7677.702971374808
 31
0.0
  0
LINE
  5
1694
330
29EA
100
AcDbEntity
  8
SIZE
 62
     0
100
AcDbLine
 10
-25961.04465488371
 20
7697.702971374808
 30
0.0
 11
-25961.04465488371
 21
7709.702971374809
 31
0.0
  0
LINE
  5
1695
330
29EA
100
AcDbEntity
  8
SIZE
 62
     0
100
AcDbLine
 10
-25961.04465488371
 20
7665.70297137481
 30
0.0
 11
-25961.04465488371
 21
7595.302971374808
 31
0.0
  0
INSERT
  5
1696
330
29EA
100
AcDbEntity
  8
SIZE
 62
     0
100
AcDbBlockReference
  2
_DOTBLANK
 10
-25961.04465488371
 20
7685.702971374808
 30
0.0
 41
12.0
 42
12.0
 43
12.0
 50
270.0
  0
INSERT
  5
1697
330
29EA
100
AcDbEntity
  8
SIZE
 62
     0
100
AcDbBlockReference
  2
_DOTBLANK
 10
-25961.04465488371
 20
7677.702971374808
 30
0.0
 41
12.0
 42
12.0
 43
12.0
 50
90.0
  0
INSERT
  5
1698
330
29EA
100
AcDbEntity
  8
0
100
AcDbBlockReference
  2
*U40
 10
0.0
 20
0.0
 30
0.0
  0
POINT
  5
1699
330
29EA
100
AcDbEntity
  8
DEFPOINTS
 62
     0
100
AcDbPoint
 10
-25824.51823276501
 20
7685.702971374808
 30
0.0
  0
POINT
  5
169A
330
29EA
100
AcDbEntity
  8
DEFPOINTS
 62
     0
100
AcDbPoint
 10
-25824.51823276501
 20
7677.702971374808
 30
0.0
  0
POINT
  5
169B
330
29EA
100
AcDbEntity
  8
DEFPOINTS
 62
     0
100
AcDbPoint
 10
-25961.04465488371
 20
7677.702971374808
 30
0.0
  0
ENDBLK
  5
169C
330
29EA
100
AcDbEntity
  8
0
100
AcDbBlockEnd
  0
BLOCK
  5
29ED
330
29EC
100
AcDbEntity
  8
0
100
AcDbBlockBegin
  2
*U40
 70
     1
 10
0.0
 20
0.0
 30
0.0
  3
*U40
  1

  0
TEXT
  5
1F19
330
29EC
100
AcDbEntity
  8
SIZE
 62
     0
100
AcDbText
 10
-25971.04465488371
 20
7605.302971374804
 30
0.0
 40
64.0
  1
8
 50
90.0
 41
0.9
100
AcDbText
  0
ENDBLK
  5
1F1B
330
29EC
100
AcDbEntity
  8
0
100
AcDbBlockEnd
  0
BLOCK
  5
29EF
330
29EE
100
AcDbEntity
  8
0
100
AcDbBlockBegin
  2
*D41
 70
     1
 10
0.0
 20
0.0
 30
0.0
  3
*D41
  1

  0
LINE
  5
169F
330
29EE
100
AcDbEntity
  8
SIZE
 62
     0
100
AcDbLine
 10
-25512.51823276502
 20
7385.702971374808
 30
0.0
 11
-25362.37494828464
 21
7385.702971374808
 31
0.0
  0
LINE
  5
16A0
330
29EE
100
AcDbEntity
  8
SIZE
 62
     0
100
AcDbLine
 10
-25523.51823276501
 20
7373.702971374808
 30
0.0
 11
-25362.37494828464
 21
7373.702971374808
 31
0.0
  0
LINE
  5
16A1
330
29EE
100
AcDbEntity
  8
SIZE
 62
     0
100
AcDbLine
 10
-25382.37494828464
 20
7397.702971374808
 30
0.0
 11
-25382.37494828464
 21
7409.70297137481
 31
0.0
  0
LINE
  5
16A2
330
29EE
100
AcDbEntity
  8
SIZE
 62
     0
100
AcDbLine
 10
-25382.37494828464
 20
7361.702971374808
 30
0.0
 11
-25382.37494828464
 21
7244.674399946237
 31
0.0
  0
INSERT
  5
16A3
330
29EE
100
AcDbEntity
  8
SIZE
 62
     0
100
AcDbBlockReference
  2
_DOTBLANK
 10
-25382.37494828464
 20
7385.702971374808
 30
0.0
 41
12.0
 42
12.0
 43
12.0
 50
270.0
  0
INSERT
  5
16A4
330
29EE
100
AcDbEntity
  8
SIZE
 62
     0
100
AcDbBlockReference
  2
_DOTBLANK
 10
-25382.37494828464
 20
7373.702971374808
 30
0.0
 41
12.0
 42
12.0
 43
12.0
 50
90.0
  0
INSERT
  5
16A5
330
29EE
100
AcDbEntity
  8
0
100
AcDbBlockReference
  2
*U42
 10
0.0
 20
0.0
 30
0.0
  0
POINT
  5
16A6
330
29EE
100
AcDbEntity
  8
DEFPOINTS
 62
     0
100
AcDbPoint
 10
-25532.51823276502
 20
7385.702971374808
 30
0.0
  0
POINT
  5
16A7
330
29EE
100
AcDbEntity
  8
DEFPOINTS
 62
     0
100
AcDbPoint
 10
-25543.51823276502
 20
7373.702971374808
 30
0.0
  0
POINT
  5
16A8
330
29EE
100
AcDbEntity
  8
DEFPOINTS
 62
     0
100
AcDbPoint
 10
-25382.37494828464
 20
7373.702971374808
 30
0.0
  0
ENDBLK
  5
16A9
330
29EE
100
AcDbEntity
  8
0
100
AcDbBlockEnd
  0
BLOCK
  5
29F1
330
29F0
100
AcDbEntity
  8
0
100
AcDbBlockBegin
  2
*U42
 70
     1
 10
0.0
 20
0.0
 30
0.0
  3
*U42
  1

  0
TEXT
  5
1F1D
330
29F0
100
AcDbEntity
  8
SIZE
 62
     0
100
AcDbText
 10
-25392.37494828464
 20
7256.045828517662
 30
0.0
 40
64.0
  1
12
 50
90.0
 41
0.9
100
AcDbText
  0
ENDBLK
  5
1F1F
330
29F0
100
AcDbEntity
  8
0
100
AcDbBlockEnd
  0
BLOCK
  5
29F3
330
29F2
100
AcDbEntity
  8
0
100
AcDbBlockBegin
  2
*D43
 70
     1
 10
0.0
 20
0.0
 30
0.0
  3
*D43
  1

  0
LINE
  5
16AC
330
29F2
100
AcDbEntity
  8
SIZE
 62
     0
100
AcDbLine
 10
-25801.51823276501
 20
7365.702971374808
 30
0.0
 11
-25801.51823276501
 21
7217.685576144207
 31
0.0
  0
LINE
  5
16AD
330
29F2
100
AcDbEntity
  8
SIZE
 62
     0
100
AcDbLine
 10
-25532.51823276502
 20
7365.702971374808
 30
0.0
 11
-25532.51823276502
 21
7217.685576144207
 31
0.0
  0
LINE
  5
16AE
330
29F2
100
AcDbEntity
  8
SIZE
 62
     0
100
AcDbLine
 10
-25789.51823276502
 20
7237.685576144207
 30
0.0
 11
-25544.51823276501
 21
7237.685576144207
 31
0.0
  0
INSERT
  5
16AF
330
29F2
100
AcDbEntity
  8
SIZE
 62
     0
100
AcDbBlockReference
  2
_DOTBLANK
 10
-25801.51823276501
 20
7237.685576144207
 30
0.0
 41
12.0
 42
12.0
 43
12.0
 50
180.0
  0
INSERT
  5
16B0
330
29F2
100
AcDbEntity
  8
SIZE
 62
     0
100
AcDbBlockReference
  2
_DOTBLANK
 10
-25532.51823276502
 20
7237.685576144207
 30
0.0
 41
12.0
 42
12.0
 43
12.0
  0
INSERT
  5
16B1
330
29F2
100
AcDbEntity
  8
0
100
AcDbBlockReference
  2
*U44
 10
0.0
 20
0.0
 30
0.0
  0
POINT
  5
16B2
330
29F2
100
AcDbEntity
  8
DEFPOINTS
 62
     0
100
AcDbPoint
 10
-25801.51823276501
 20
7385.702971374808
 30
0.0
  0
POINT
  5
16B3
330
29F2
100
AcDbEntity
  8
DEFPOINTS
 62
     0
100
AcDbPoint
 10
-25532.51823276502
 20
7385.702971374808
 30
0.0
  0
POINT
  5
16B4
330
29F2
100
AcDbEntity
  8
DEFPOINTS
 62
     0
100
AcDbPoint
 10
-25532.51823276502
 20
7237.685576144207
 30
0.0
  0
ENDBLK
  5
16B5
330
29F2
100
AcDbEntity
  8
0
100
AcDbBlockEnd
  0
BLOCK
  5
29F5
330
29F4
100
AcDbEntity
  8
0
100
AcDbBlockBegin
  2
*U44
 70
     1
 10
0.0
 20
0.0
 30
0.0
  3
*U44
  1

  0
TEXT
  5
1F21
330
29F4
100
AcDbEntity
  8
SIZE
 62
     0
100
AcDbText
 10
-25739.70394705074
 20
7247.685576144205
 30
0.0
 40
64.0
  1
269
 41
0.9
100
AcDbText
  0
ENDBLK
  5
1F23
330
29F4
100
AcDbEntity
  8
0
100
AcDbBlockEnd
  0
BLOCK
  5
29F7
330
29F6
100
AcDbEntity
  8
0
100
AcDbBlockBegin
  2
*D45
 70
     1
 10
0.0
 20
0.0
 30
0.0
  3
*D45
  1

  0
LINE
  5
16B8
330
29F6
100
AcDbEntity
  8
SIZE
 62
     0
100
AcDbLine
 10
-25512.51823276502
 20
7385.702971374808
 30
0.0
 11
-25362.37494828464
 21
7385.702971374808
 31
0.0
  0
LINE
  5
16B9
330
29F6
100
AcDbEntity
  8
SIZE
 62
     0
100
AcDbLine
 10
-25489.51823276501
 20
7685.702971374808
 30
0.0
 11
-25362.37494828464
 21
7685.702971374808
 31
0.0
  0
LINE
  5
16BA
330
29F6
100
AcDbEntity
  8
SIZE
 62
     0
100
AcDbLine
 10
-25382.37494828464
 20
7397.702971374808
 30
0.0
 11
-25382.37494828464
 21
7673.702971374808
 31
0.0
  0
INSERT
  5
16BB
330
29F6
100
AcDbEntity
  8
SIZE
 62
     0
100
AcDbBlockReference
  2
_DOTBLANK
 10
-25382.37494828464
 20
7385.702971374808
 30
0.0
 41
12.0
 42
12.0
 43
12.0
 50
270.0
  0
INSERT
  5
16BC
330
29F6
100
AcDbEntity
  8
SIZE
 62
     0
100
AcDbBlockReference
  2
_DOTBLANK
 10
-25382.37494828464
 20
7685.702971374808
 30
0.0
 41
12.0
 42
12.0
 43
12.0
 50
90.0
  0
INSERT
  5
16BD
330
29F6
100
AcDbEntity
  8
0
100
AcDbBlockReference
  2
*U46
 10
0.0
 20
0.0
 30
0.0
  0
POINT
  5
16BE
330
29F6
100
AcDbEntity
  8
DEFPOINTS
 62
     0
100
AcDbPoint
 10
-25532.51823276502
 20
7385.702971374808
 30
0.0
  0
POINT
  5
16BF
330
29F6
100
AcDbEntity
  8
DEFPOINTS
 62
     0
100
AcDbPoint
 10
-25509.51823276502
 20
7685.702971374808
 30
0.0
  0
POINT
  5
16C0
330
29F6
100
AcDbEntity
  8
DEFPOINTS
 62
     0
100
AcDbPoint
 10
-25382.37494828464
 20
7685.702971374808
 30
0.0
  0
ENDBLK
  5
16C1
330
29F6
100
AcDbEntity
  8
0
100
AcDbBlockEnd
  0
BLOCK
  5
29F9
330
29F8
100
AcDbEntity
  8
0
100
AcDbBlockBegin
  2
*U46
 70
     1
 10
0.0
 20
0.0
 30
0.0
  3
*U46
  1

  0
TEXT
  5
1F25
330
29F8
100
AcDbEntity
  8
SIZE
 62
     0
100
AcDbText
 10
-25392.37494828464
 20
7461.645828517662
 30
0.0
 40
64.0
  1
300
 50
90.0
 41
0.9
100
AcDbText
  0
ENDBLK
  5
1F27
330
29F8
100
AcDbEntity
  8
0
100
AcDbBlockEnd
  0
BLOCK
  5
29FB
330
29FA
100
AcDbEntity
  8
0
100
AcDbBlockBegin
  2
*D47
 70
     1
 10
0.0
 20
0.0
 30
0.0
  3
*D47
  1

  0
LINE
  5
16C4
330
29FA
100
AcDbEntity
  8
SIZE
 62
     0
100
AcDbLine
 10
-25807.01823276501
 20
7718.167454177002
 30
0.0
 11
-25807.01823276501
 21
7822.154659243358
 31
0.0
  0
LINE
  5
16C5
330
29FA
100
AcDbEntity
  8
SIZE
 62
     0
100
AcDbLine
 10
-25527.01823276501
 20
7718.167454177002
 30
0.0
 11
-25527.01823276501
 21
7822.154659243358
 31
0.0
  0
LINE
  5
16C6
330
29FA
100
AcDbEntity
  8
SIZE
 62
     0
100
AcDbLine
 10
-25795.01823276502
 20
7802.154659243358
 30
0.0
 11
-25539.01823276501
 21
7802.154659243358
 31
0.0
  0
INSERT
  5
16C7
330
29FA
100
AcDbEntity
  8
SIZE
 62
     0
100
AcDbBlockReference
  2
_DOTBLANK
 10
-25807.01823276501
 20
7802.154659243358
 30
0.0
 41
12.0
 42
12.0
 43
12.0
 50
180.0
  0
INSERT
  5
16C8
330
29FA
100
AcDbEntity
  8
SIZE
 62
     0
100
AcDbBlockReference
  2
_DOTBLANK
 10
-25527.01823276501
 20
7802.154659243358
 30
0.0
 41
12.0
 42
12.0
 43
12.0
  0
INSERT
  5
16C9
330
29FA
100
AcDbEntity
  8
0
100
AcDbBlockReference
  2
*U48
 10
0.0
 20
0.0
 30
0.0
  0
POINT
  5
16CA
330
29FA
100
AcDbEntity
  8
DEFPOINTS
 62
     0
100
AcDbPoint
 10
-25807.01823276501
 20
7698.167454177002
 30
0.0
  0
POINT
  5
16CB
330
29FA
100
AcDbEntity
  8
DEFPOINTS
 62
     0
100
AcDbPoint
 10
-25527.01823276501
 20
7698.167454177002
 30
0.0
  0
POINT
  5
16CC
330
29FA
100
AcDbEntity
  8
DEFPOINTS
 62
     0
100
AcDbPoint
 10
-25527.01823276501
 20
7802.154659243358
 30
0.0
  0
ENDBLK
  5
16CD
330
29FA
100
AcDbEntity
  8
0
100
AcDbBlockEnd
  0
BLOCK
  5
29FD
330
29FC
100
AcDbEntity
  8
0
100
AcDbBlockBegin
  2
*U48
 70
     1
 10
0.0
 20
0.0
 30
0.0
  3
*U48
  1

  0
TEXT
  5
1F29
330
29FC
100
AcDbEntity
  8
SIZE
 62
     0
100
AcDbText
 10
-25741.07537562216
 20
7812.154659243358
 30
0.0
 40
64.0
  1
280
 41
0.9
100
AcDbText
  0
ENDBLK
  5
1F2B
330
29FC
100
AcDbEntity
  8
0
100
AcDbBlockEnd
  0
BLOCK
  5
29FF
330
29FE
100
AcDbEntity
  8
0
100
AcDbBlockBegin
  2
*D49
 70
     1
 10
0.0
 20
0.0
 30
0.0
  3
*D49
  1

  0
LINE
  5
16D0
330
29FE
100
AcDbEntity
  8
SIZE
 62
     0
100
AcDbLine
 10
-25824.51823276501
 20
7705.702971374808
 30
0.0
 11
-25824.51823276501
 21
7931.282433493766
 31
0.0
  0
LINE
  5
16D1
330
29FE
100
AcDbEntity
  8
SIZE
 62
     0
100
AcDbLine
 10
-25509.51823276502
 20
7705.702971374808
 30
0.0
 11
-25509.51823276502
 21
7931.282433493766
 31
0.0
  0
LINE
  5
16D2
330
29FE
100
AcDbEntity
  8
SIZE
 62
     0
100
AcDbLine
 10
-25812.51823276502
 20
7911.282433493766
 30
0.0
 11
-25521.51823276501
 21
7911.282433493766
 31
0.0
  0
INSERT
  5
16D3
330
29FE
100
AcDbEntity
  8
SIZE
 62
     0
100
AcDbBlockReference
  2
_DOTBLANK
 10
-25824.51823276501
 20
7911.282433493766
 30
0.0
 41
12.0
 42
12.0
 43
12.0
 50
180.0
  0
INSERT
  5
16D4
330
29FE
100
AcDbEntity
  8
SIZE
 62
     0
100
AcDbBlockReference
  2
_DOTBLANK
 10
-25509.51823276502
 20
7911.282433493766
 30
0.0
 41
12.0
 42
12.0
 43
12.0
  0
INSERT
  5
16D5
330
29FE
100
AcDbEntity
  8
0
100
AcDbBlockReference
  2
*U50
 10
0.0
 20
0.0
 30
0.0
  0
POINT
  5
16D6
330
29FE
100
AcDbEntity
  8
DEFPOINTS
 62
     0
100
AcDbPoint
 10
-25824.51823276501
 20
7685.702971374808
 30
0.0
  0
POINT
  5
16D7
330
29FE
100
AcDbEntity
  8
DEFPOINTS
 62
     0
100
AcDbPoint
 10
-25509.51823276502
 20
7685.702971374808
 30
0.0
  0
POINT
  5
16D8
330
29FE
100
AcDbEntity
  8
DEFPOINTS
 62
     0
100
AcDbPoint
 10
-25509.51823276502
 20
7911.282433493766
 30
0.0
  0
ENDBLK
  5
16D9
330
29FE
100
AcDbEntity
  8
0
100
AcDbBlockEnd
  0
BLOCK
  5
2A01
330
2A00
100
AcDbEntity
  8
0
100
AcDbBlockBegin
  2
*U50
 70
     1
 10
0.0
 20
0.0
 30
0.0
  3
*U50
  1

  0
TEXT
  5
1F2D
330
2A00
100
AcDbEntity
  8
SIZE
 62
     0
100
AcDbText
 10
-25735.58966133645
 20
7921.282433493766
 30
0.0
 40
64.0
  1
315
 41
0.9
100
AcDbText
  0
ENDBLK
  5
1F2F
330
2A00
100
AcDbEntity
  8
0
100
AcDbBlockEnd
  0
BLOCK
  5
2A03
330
2A02
100
AcDbEntity
  8
0
100
AcDbBlockBegin
  2
*D51
 70
     1
 10
0.0
 20
0.0
 30
0.0
  3
*D51
  1

  0
LINE
  5
1D83
330
2A02
100
AcDbEntity
  8
SIZE
 62
     0
100
AcDbLine
 10
-134.5
 20
-320.0
 30
0.0
 11
-134.5
 21
-468.0173952306001
 31
0.0
  0
LINE
  5
1D84
330
2A02
100
AcDbEntity
  8
SIZE
 62
     0
100
AcDbLine
 10
134.5
 20
-320.0
 30
0.0
 11
134.5
 21
-468.0173952306001
 31
0.0
  0
LINE
  5
1D85
330
2A02
100
AcDbEntity
  8
SIZE
 62
     0
100
AcDbLine
 10
-122.5
 20
-448.0173952306
 30
0.0
 11
122.5
 21
-448.0173952306
 31
0.0
  0
INSERT
  5
1D86
330
2A02
100
AcDbEntity
  8
SIZE
 62
     0
100
AcDbBlockReference
  2
_DOTBLANK
 10
-134.5
 20
-448.0173952306
 30
0.0
 41
12.0
 42
12.0
 43
12.0
 50
180.0
  0
INSERT
  5
1D87
330
2A02
100
AcDbEntity
  8
SIZE
 62
     0
100
AcDbBlockReference
  2
_DOTBLANK
 10
134.5
 20
-448.0173952306
 30
0.0
 41
12.0
 42
12.0
 43
12.0
  0
INSERT
  5
1D88
330
2A02
100
AcDbEntity
  8
0
100
AcDbBlockReference
  2
*U52
 10
0.0
 20
0.0
 30
0.0
  0
POINT
  5
1D89
330
2A02
100
AcDbEntity
  8
DEFPOINTS
 62
     0
100
AcDbPoint
 10
-134.5
 20
-300.0
 30
0.0
  0
POINT
  5
1D8A
330
2A02
100
AcDbEntity
  8
DEFPOINTS
 62
     0
100
AcDbPoint
 10
134.5
 20
-300.0
 30
0.0
  0
POINT
  5
1D8B
330
2A02
100
AcDbEntity
  8
DEFPOINTS
 62
     0
100
AcDbPoint
 10
134.5
 20
-448.0173952306
 30
0.0
  0
ENDBLK
  5
173D
330
2A02
100
AcDbEntity
  8
0
100
AcDbBlockEnd
  0
BLOCK
  5
2A05
330
2A04
100
AcDbEntity
  8
0
100
AcDbBlockBegin
  2
*U52
 70
     1
 10
0.0
 20
0.0
 30
0.0
  3
*U52
  1

  0
TEXT
  5
1F31
330
2A04
100
AcDbEntity
  8
SIZE
 62
     0
100
AcDbText
 10
-72.68571428571426
 20
-438.0173952306003
 30
0.0
 40
64.0
  1
269
 41
0.9
100
AcDbText
  0
ENDBLK
  5
1F33
330
2A04
100
AcDbEntity
  8
0
100
AcDbBlockEnd
  0
BLOCK
  5
2A07
330
2A06
100
AcDbEntity
  8
0
100
AcDbBlockBegin
  2
*D53
 70
     1
 10
0.0
 20
0.0
 30
0.0
  3
*D53
  1

  0
LINE
  5
1D8C
330
2A06
100
AcDbEntity
  8
SIZE
 62
     0
100
AcDbLine
 10
154.5
 20
-300.0
 30
0.0
 11
304.6432844803784
 21
-300.0
 31
0.0
  0
LINE
  5
1D8D
330
2A06
100
AcDbEntity
  8
SIZE
 62
     0
100
AcDbLine
 10
177.5
 20
-0.0000000000000057
 30
0.0
 11
304.6432844803785
 21
-0.0000000000000417
 31
0.0
  0
LINE
  5
1D8E
330
2A06
100
AcDbEntity
  8
SIZE
 62
     0
100
AcDbLine
 10
284.6432844803784
 20
-288.0
 30
0.0
 11
284.6432844803785
 21
-12.00000000000003
 31
0.0
  0
INSERT
  5
1D8F
330
2A06
100
AcDbEntity
  8
SIZE
 62
     0
100
AcDbBlockReference
  2
_DOTBLANK
 10
284.6432844803784
 20
-300.0
 30
0.0
 41
12.0
 42
12.0
 43
12.0
 50
270.0
  0
INSERT
  5
1D90
330
2A06
100
AcDbEntity
  8
SIZE
 62
     0
100
AcDbBlockReference
  2
_DOTBLANK
 10
284.6432844803785
 20
-0.000000000000036
 30
0.0
 41
12.0
 42
12.0
 43
12.0
 50
90.0
  0
INSERT
  5
1D91
330
2A06
100
AcDbEntity
  8
0
100
AcDbBlockReference
  2
*U54
 10
0.0
 20
0.0
 30
0.0
  0
POINT
  5
1D92
330
2A06
100
AcDbEntity
  8
DEFPOINTS
 62
     0
100
AcDbPoint
 10
134.5
 20
-300.0
 30
0.0
  0
POINT
  5
1D93
330
2A06
100
AcDbEntity
  8
DEFPOINTS
 62
     0
100
AcDbPoint
 10
157.5
 20
0.0
 30
0.0
  0
POINT
  5
1D94
330
2A06
100
AcDbEntity
  8
DEFPOINTS
 62
     0
100
AcDbPoint
 10
284.6432844803785
 20
-0.000000000000036
 30
0.0
  0
ENDBLK
  5
1749
330
2A06
100
AcDbEntity
  8
0
100
AcDbBlockEnd
  0
BLOCK
  5
2A09
330
2A08
100
AcDbEntity
  8
0
100
AcDbBlockBegin
  2
*U54
 70
     1
 10
0.0
 20
0.0
 30
0.0
  3
*U54
  1

  0
TEXT
  5
1F35
330
2A08
100
AcDbEntity
  8
SIZE
 62
     0
100
AcDbText
 10
274.6432844803785
 20
-224.0571428571429
 30
0.0
 40
64.0
  1
300
 50
90.0
 41
0.9
100
AcDbText
  0
ENDBLK
  5
1F37
330
2A08
100
AcDbEntity
  8
0
100
AcDbBlockEnd
  0
BLOCK
  5
2A0B
330
2A0A
100
AcDbEntity
  8
0
100
AcDbBlockBegin
  2
*D55
 70
     1
 10
0.0
 20
0.0
 30
0.0
  3
*D55
  1

  0
LINE
  5
1D95
330
2A0A
100
AcDbEntity
  8
SIZE
 62
     0
100
AcDbLine
 10
-140.0
 20
32.46448280219375
 30
0.0
 11
-140.0
 21
136.4516878685508
 31
0.0
  0
LINE
  5
1D96
330
2A0A
100
AcDbEntity
  8
SIZE
 62
     0
100
AcDbLine
 10
140.0
 20
32.46448280219375
 30
0.0
 11
140.0
 21
136.4516878685508
 31
0.0
  0
LINE
  5
1D97
330
2A0A
100
AcDbEntity
  8
SIZE
 62
     0
100
AcDbLine
 10
-128.0
 20
116.4516878685508
 30
0.0
 11
128.0
 21
116.4516878685508
 31
0.0
  0
INSERT
  5
1D98
330
2A0A
100
AcDbEntity
  8
SIZE
 62
     0
100
AcDbBlockReference
  2
_DOTBLANK
 10
-140.0
 20
116.4516878685508
 30
0.0
 41
12.0
 42
12.0
 43
12.0
 50
180.0
  0
INSERT
  5
1D99
330
2A0A
100
AcDbEntity
  8
SIZE
 62
     0
100
AcDbBlockReference
  2
_DOTBLANK
 10
140.0
 20
116.4516878685508
 30
0.0
 41
12.0
 42
12.0
 43
12.0
  0
INSERT
  5
1D9A
330
2A0A
100
AcDbEntity
  8
0
100
AcDbBlockReference
  2
*U56
 10
0.0
 20
0.0
 30
0.0
  0
POINT
  5
1D9B
330
2A0A
100
AcDbEntity
  8
DEFPOINTS
 62
     0
100
AcDbPoint
 10
-140.0
 20
12.46448280219374
 30
0.0
  0
POINT
  5
1D9C
330
2A0A
100
AcDbEntity
  8
DEFPOINTS
 62
     0
100
AcDbPoint
 10
140.0
 20
12.46448280219374
 30
0.0
  0
POINT
  5
1D9D
330
2A0A
100
AcDbEntity
  8
DEFPOINTS
 62
     0
100
AcDbPoint
 10
140.0
 20
116.4516878685508
 30
0.0
  0
ENDBLK
  5
1755
330
2A0A
100
AcDbEntity
  8
0
100
AcDbBlockEnd
  0
BLOCK
  5
2A0D
330
2A0C
100
AcDbEntity
  8
0
100
AcDbBlockBegin
  2
*U56
 70
     1
 10
0.0
 20
0.0
 30
0.0
  3
*U56
  1

  0
TEXT
  5
1F39
330
2A0C
100
AcDbEntity
  8
SIZE
 62
     0
100
AcDbText
 10
-74.05714285714283
 20
126.4516878685508
 30
0.0
 40
64.0
  1
280
 41
0.9
100
AcDbText
  0
ENDBLK
  5
1F3B
330
2A0C
100
AcDbEntity
  8
0
100
AcDbBlockEnd
  0
BLOCK
  5
2A0F
330
2A0E
100
AcDbEntity
  8
0
100
AcDbBlockBegin
  2
*D57
 70
     1
 10
0.0
 20
0.0
 30
0.0
  3
*D57
  1

  0
LINE
  5
1D9E
330
2A0E
100
AcDbEntity
  8
SIZE
 62
     0
100
AcDbLine
 10
-157.5
 20
20.0
 30
0.0
 11
-157.5
 21
245.5794621189598
 31
0.0
  0
LINE
  5
1D9F
330
2A0E
100
AcDbEntity
  8
SIZE
 62
     0
100
AcDbLine
 10
157.5
 20
20.0
 30
0.0
 11
157.5
 21
245.5794621189598
 31
0.0
  0
LINE
  5
1DA0
330
2A0E
100
AcDbEntity
  8
SIZE
 62
     0
100
AcDbLine
 10
-145.5
 20
225.5794621189598
 30
0.0
 11
145.5
 21
225.5794621189598
 31
0.0
  0
INSERT
  5
1DA1
330
2A0E
100
AcDbEntity
  8
SIZE
 62
     0
100
AcDbBlockReference
  2
_DOTBLANK
 10
-157.5
 20
225.5794621189598
 30
0.0
 41
12.0
 42
12.0
 43
12.0
 50
180.0
  0
INSERT
  5
1DA2
330
2A0E
100
AcDbEntity
  8
SIZE
 62
     0
100
AcDbBlockReference
  2
_DOTBLANK
 10
157.5
 20
225.5794621189598
 30
0.0
 41
12.0
 42
12.0
 43
12.0
  0
INSERT
  5
1DA3
330
2A0E
100
AcDbEntity
  8
0
100
AcDbBlockReference
  2
*U58
 10
0.0
 20
0.0
 30
0.0
  0
POINT
  5
1DA4
330
2A0E
100
AcDbEntity
  8
DEFPOINTS
 62
     0
100
AcDbPoint
 10
-157.5
 20
0.0
 30
0.0
  0
POINT
  5
1DA5
330
2A0E
100
AcDbEntity
  8
DEFPOINTS
 62
     0
100
AcDbPoint
 10
157.5
 20
0.0
 30
0.0
  0
POINT
  5
1DA6
330
2A0E
100
AcDbEntity
  8
DEFPOINTS
 62
     0
100
AcDbPoint
 10
157.5
 20
225.5794621189598
 30
0.0
  0
ENDBLK
  5
1761
330
2A0E
100
AcDbEntity
  8
0
100
AcDbBlockEnd
  0
BLOCK
  5
2A11
330
2A10
100
AcDbEntity
  8
0
100
AcDbBlockBegin
  2
*U58
 70
     1
 10
0.0
 20
0.0
 30
0.0
  3
*U58
  1

  0
TEXT
  5
1F3D
330
2A10
100
AcDbEntity
  8
SIZE
 62
     0
100
AcDbText
 10
-68.57142857142857
 20
235.5794621189599
 30
0.0
 40
64.0
  1
315
 41
0.9
100
AcDbText
  0
ENDBLK
  5
1F3F
330
2A10
100
AcDbEntity
  8
0
100
AcDbBlockEnd
  0
BLOCK
  5
2A13
330
2A12
100
AcDbEntity
  8
0
100
AcDbBlockBegin
  2
*D59
 70
     1
 10
0.0
 20
0.0
 30
0.0
  3
*D59
  1

  0
LINE
  5
1DA7
330
2A12
100
AcDbEntity
  8
SIZE
 62
     0
100
AcDbLine
 10
-177.5
 20
0.0000000000000057
 30
0.0
 11
-314.0264221186908
 21
0.0000000000000443
 31
0.0
  0
LINE
  5
1DA8
330
2A12
100
AcDbEntity
  8
SIZE
 62
     0
100
AcDbLine
 10
-177.5
 20
-7.999999999999993
 30
0.0
 11
-314.0264221186908
 21
-7.999999999999958
 31
0.0
  0
LINE
  5
1DA9
330
2A12
100
AcDbEntity
  8
SIZE
 62
     0
100
AcDbLine
 10
-294.0264221186908
 20
12.00000000000003
 30
0.0
 11
-294.0264221186908
 21
24.00000000000004
 31
0.0
  0
LINE
  5
1DAA
330
2A12
100
AcDbEntity
  8
SIZE
 62
     0
100
AcDbLine
 10
-294.0264221186908
 20
-19.99999999999996
 30
0.0
 11
-294.0264221186908
 21
-90.39999999999997
 31
0.0
  0
INSERT
  5
1DAB
330
2A12
100
AcDbEntity
  8
SIZE
 62
     0
100
AcDbBlockReference
  2
_DOTBLANK
 10
-294.0264221186908
 20
0.0000000000000387
 30
0.0
 41
12.0
 42
12.0
 43
12.0
 50
270.0
  0
INSERT
  5
1DAC
330
2A12
100
AcDbEntity
  8
SIZE
 62
     0
100
AcDbBlockReference
  2
_DOTBLANK
 10
-294.0264221186908
 20
-7.999999999999961
 30
0.0
 41
12.0
 42
12.0
 43
12.0
 50
90.0
  0
INSERT
  5
1DAD
330
2A12
100
AcDbEntity
  8
0
100
AcDbBlockReference
  2
*U60
 10
0.0
 20
0.0
 30
0.0
  0
POINT
  5
1DAE
330
2A12
100
AcDbEntity
  8
DEFPOINTS
 62
     0
100
AcDbPoint
 10
-157.5
 20
0.0
 30
0.0
  0
POINT
  5
1DAF
330
2A12
100
AcDbEntity
  8
DEFPOINTS
 62
     0
100
AcDbPoint
 10
-157.5
 20
-8.000000000000003
 30
0.0
  0
POINT
  5
1DB0
330
2A12
100
AcDbEntity
  8
DEFPOINTS
 62
     0
100
AcDbPoint
 10
-294.0264221186908
 20
-7.999999999999961
 30
0.0
  0
ENDBLK
  5
176D
330
2A12
100
AcDbEntity
  8
0
100
AcDbBlockEnd
  0
BLOCK
  5
2A15
330
2A14
100
AcDbEntity
  8
0
100
AcDbBlockBegin
  2
*U60
 70
     1
 10
0.0
 20
0.0
 30
0.0
  3
*U60
  1

  0
TEXT
  5
1F41
330
2A14
100
AcDbEntity
  8
SIZE
 62
     0
100
AcDbText
 10
-304.0264221186908
 20
-80.4
 30
0.0
 40
64.0
  1
8
 50
90.0
 41
0.9
100
AcDbText
  0
ENDBLK
  5
1F43
330
2A14
100
AcDbEntity
  8
0
100
AcDbBlockEnd
  0
BLOCK
  5
2A17
330
2A16
100
AcDbEntity
  8
0
100
AcDbBlockBegin
  2
*D61
 70
     1
 10
0.0
 20
0.0
 30
0.0
  3
*D61
  1

  0
LINE
  5
1DB1
330
2A16
100
AcDbEntity
  8
SIZE
 62
     0
100
AcDbLine
 10
154.5
 20
-300.0
 30
0.0
 11
304.6432844803785
 21
-300.0
 31
0.0
  0
LINE
  5
1DB2
330
2A16
100
AcDbEntity
  8
SIZE
 62
     0
100
AcDbLine
 10
143.5
 20
-312.0
 30
0.0
 11
304.6432844803785
 21
-312.0
 31
0.0
  0
LINE
  5
1DB3
330
2A16
100
AcDbEntity
  8
SIZE
 62
     0
100
AcDbLine
 10
284.6432844803785
 20
-288.0
 30
0.0
 11
284.6432844803785
 21
-276.0
 31
0.0
  0
LINE
  5
1DB4
330
2A16
100
AcDbEntity
  8
SIZE
 62
     0
100
AcDbLine
 10
284.6432844803785
 20
-324.0000000000001
 30
0.0
 11
284.6432844803784
 21
-438.2857142857143
 31
0.0
  0
INSERT
  5
1DB5
330
2A16
100
AcDbEntity
  8
SIZE
 62
     0
100
AcDbBlockReference
  2
_DOTBLANK
 10
284.6432844803785
 20
-300.0
 30
0.0
 41
12.0
 42
12.0
 43
12.0
 50
270.0
  0
INSERT
  5
1DB6
330
2A16
100
AcDbEntity
  8
SIZE
 62
     0
100
AcDbBlockReference
  2
_DOTBLANK
 10
284.6432844803785
 20
-312.0
 30
0.0
 41
12.0
 42
12.0
 43
12.0
 50
90.0
  0
INSERT
  5
1DB7
330
2A16
100
AcDbEntity
  8
0
100
AcDbBlockReference
  2
*U62
 10
0.0
 20
0.0
 30
0.0
  0
POINT
  5
1DB8
330
2A16
100
AcDbEntity
  8
DEFPOINTS
 62
     0
100
AcDbPoint
 10
134.5
 20
-300.0
 30
0.0
  0
POINT
  5
1DB9
330
2A16
100
AcDbEntity
  8
DEFPOINTS
 62
     0
100
AcDbPoint
 10
123.5
 20
-312.0
 30
0.0
  0
POINT
  5
1DBA
330
2A16
100
AcDbEntity
  8
DEFPOINTS
 62
     0
100
AcDbPoint
 10
284.6432844803785
 20
-312.0
 30
0.0
  0
ENDBLK
  5
177B
330
2A16
100
AcDbEntity
  8
0
100
AcDbBlockEnd
  0
BLOCK
  5
2A19
330
2A18
100
AcDbEntity
  8
0
100
AcDbBlockBegin
  2
*U62
 70
     1
 10
0.0
 20
0.0
 30
0.0
  3
*U62
  1

  0
TEXT
  5
1F45
330
2A18
100
AcDbEntity
  8
SIZE
 62
     0
100
AcDbText
 10
274.6432844803785
 20
-428.2857142857142
 30
0.0
 40
64.0
  1
12
 50
90.0
 41
0.9
100
AcDbText
  0
ENDBLK
  5
1F47
330
2A18
100
AcDbEntity
  8
0
100
AcDbBlockEnd
  0
BLOCK
  5
2A1B
330
2A1A
100
AcDbEntity
  8
0
100
AcDbBlockBegin
  2
*U63
 70
     1
 10
0.0
 20
0.0
 30
0.0
  3
*U63
  1

  0
ENDBLK
  5
1D57
330
2A1A
100
AcDbEntity
  8
0
100
AcDbBlockEnd
  0
BLOCK
  5
2A1D
330
2A1C
100
AcDbEntity
  8
0
100
AcDbBlockBegin
  2
*U64
 70
     1
 10
0.0
 20
0.0
 30
0.0
  3
*U64
  1

  0
INSERT
  5
2088
330
2A1C
100
AcDbEntity
  8
NOTE
100
AcDbBlockReference
  2
_OPEN30
 10
-140.0
 20
0.0
 30
0.0
 41
12.0
 42
12.0
 43
12.0
 50
312.6090116116894
  0
POLYLINE
  5
2089
330
2A1C
100
AcDbEntity
  8
NOTE
100
AcDb2dPolyline
 66
     1
 10
0.0
 20
0.0
 30
0.0
  0
VERTEX
  5
2124
330
2089
100
AcDbEntity
  8
NOTE
100
AcDbVertex
100
AcDb2dVertex
 10
-148.1239008361894
 20
8.831887408915472
 30
0.0
  0
VERTEX
  5
2125
330
2089
100
AcDbEntity
  8
NOTE
100
AcDbVertex
100
AcDb2dVertex
 10
-227.8693999922543
 20
95.52709505801338
 30
0.0
  0
VERTEX
  5
2126
330
2089
100
AcDbEntity
  8
NOTE
100
AcDbVertex
100
AcDb2dVertex
 10
-773.7093999922541
 20
95.52709505801338
 30
0.0
  0
SEQEND
  5
2127
330
2089
100
AcDbEntity
  8
NOTE
  0
ENDBLK
  5
208A
330
2A1C
100
AcDbEntity
  8
0
100
AcDbBlockEnd
  0
BLOCK
  5
2A1F
330
2A1E
100
AcDbEntity
  8
0
100
AcDbBlockBegin
  2
*U65
 70
     1
 10
0.0
 20
0.0
 30
0.0
  3
*U65
  1

  0
TEXT
  5
208D
330
2A1E
100
AcDbEntity
  8
NOTE
100
AcDbText
 10
-773.7093999922541
 20
113.5270950580134
 30
0.0
 40
64.0
  1
4×φ10取付穴
 41
0.9
100
AcDbText
  0
ENDBLK
  5
208E
330
2A1E
100
AcDbEntity
  8
0
100
AcDbBlockEnd
  0
BLOCK
  5
2A21
330
2A20
100
AcDbEntity
  8
0
100
AcDbBlockBegin
  2
*U66
 70
     1
 10
0.0
 20
0.0
 30
0.0
  3
*U66
  1

  0
INSERT
  5
25A0
330
2A20
100
AcDbEntity
  8
NOTE
100
AcDbBlockReference
  2
_OPEN30
 10
-190.0
 20
0.0
 30
0.0
 41
12.0
 42
12.0
 43
12.0
 50
312.6090116116894
  0
POLYLINE
  5
25A1
330
2A20
100
AcDbEntity
  8
NOTE
100
AcDb2dPolyline
 66
     1
 10
0.0
 20
0.0
 30
0.0
  0
VERTEX
  5
25A2
330
25A1
100
AcDbEntity
  8
NOTE
100
AcDbVertex
100
AcDb2dVertex
 10
-198.1239008361895
 20
8.831887408915475
 30
0.0
  0
VERTEX
  5
25A3
330
25A1
100
AcDbEntity
  8
NOTE
100
AcDbVertex
100
AcDb2dVertex
 10
-277.8693999922543
 20
95.52709505801338
 30
0.0
  0
VERTEX
  5
25A4
330
25A1
100
AcDbEntity
  8
NOTE
100
AcDbVertex
100
AcDb2dVertex
 10
-823.709399992254
 20
95.52709505801338
 30
0.0
  0
SEQEND
  5
25A5
330
25A1
100
AcDbEntity
  8
NOTE
  0
ENDBLK
  5
25A6
330
2A20
100
AcDbEntity
  8
0
100
AcDbBlockEnd
  0
BLOCK
  5
2A23
330
2A22
100
AcDbEntity
  8
0
100
AcDbBlockBegin
  2
*U67
 70
     1
 10
0.0
 20
0.0
 30
0.0
  3
*U67
  1

  0
TEXT
  5
25A9
330
2A22
100
AcDbEntity
  8
NOTE
100
AcDbText
 10
-823.709399992254
 20
113.5270950580134
 30
0.0
 40
64.0
  1
4×φ10取付穴
 41
0.9
100
AcDbText
  0
ENDBLK
  5
25AA
330
2A22
100
AcDbEntity
  8
0
100
AcDbBlockEnd
  0
BLOCK
  5
2A25
330
2A24
100
AcDbEntity
  8
0
100
AcDbBlockBegin
  2
*X68
 70
     1
 10
0.0
 20
0.0
 30
0.0
  3
*X68
  1

  0
LINE
  5
25AD
330
2A24
100
AcDbEntity
  8
0
 62
     0
100
AcDbLine
 10
156.2447224440566
 20
-326.4000000000014
 30
0.0
 11
157.8999999999851
 21
-325.2964844472444
 31
0.0
  0
LINE
  5
25AE
330
2A24
100
AcDbEntity
  8
0
 62
     0
100
AcDbLine
 10
151.7447611501738
 20
-326.4000000000014
 30
0.0
 11
157.8999999999851
 21
-322.2965179118292
 31
0.0
  0
LINE
  5
25AF
330
2A24
100
AcDbEntity
  8
0
 62
     0
100
AcDbLine
 10
147.2447998562892
 20
-326.4000000000014
 30
0.0
 11
157.8999999999869
 21
-319.296551376412
 31
0.0
  0
LINE
  5
25B0
330
2A24
100
AcDbEntity
  8
0
 62
     0
100
AcDbLine
 10
142.7448385624029
 20
-326.4000000000014
 30
0.0
 11
157.8999999999851
 21
-316.2965848409967
 31
0.0
  0
LINE
  5
25B1
330
2A24
100
AcDbEntity
  8
0
 62
     0
100
AcDbLine
 10
138.2448772685147
 20
-326.4000000000014
 30
0.0
 11
157.8999999999851
 21
-313.2966183055798
 31
0.0
  0
LINE
  5
25B2
330
2A24
100
AcDbEntity
  8
0
 62
     0
100
AcDbLine
 10
133.744915974632
 20
-326.3999999999996
 30
0.0
 11
157.8999999999851
 21
-310.2966517701643
 31
0.0
  0
LINE
  5
25B3
330
2A24
100
AcDbEntity
  8
0
 62
     0
100
AcDbLine
 10
129.244954680742
 20
-326.4000000000032
 30
0.0
 11
157.8999999999851
 21
-307.2966852347472
 31
0.0
  0
LINE
  5
25B4
330
2A24
100
AcDbEntity
  8
0
 62
     0
100
AcDbLine
 10
124.7449933868592
 20
-326.4000000000014
 30
0.0
 11
157.8999999999832
 21
-304.2967186993319
 31
0.0
  0
LINE
  5
25B5
330
2A24
100
AcDbEntity
  8
0
 62
     0
100
AcDbLine
 10
120.2450320929729
 20
-326.4000000000032
 30
0.0
 11
157.8999999999851
 21
-301.2967521639166
 31
0.0
  0
LINE
  5
25B6
330
2A24
100
AcDbEntity
  8
0
 62
     0
100
AcDbLine
 10
115.745070799092
 20
-326.3999999999996
 30
0.0
 11
157.8999999999851
 21
-298.2967856284995
 31
0.0
  0
LINE
  5
25B7
330
2A24
100
AcDbEntity
  8
0
 62
     0
100
AcDbLine
 10
111.2451095052038
 20
-326.4000000000014
 30
0.0
 11
157.8999999999851
 21
-295.2968190930842
 31
0.0
  0
LINE
  5
25B8
330
2A24
100
AcDbEntity
  8
0
 62
     0
100
AcDbLine
 10
106.7451482113174
 20
-326.4000000000014
 30
0.0
 11
157.8999999999851
 21
-292.2968525576653
 31
0.0
  0
LINE
  5
25B9
330
2A24
100
AcDbEntity
  8
0
 62
     0
100
AcDbLine
 10
102.2451869174347
 20
-326.4000000000014
 30
0.0
 11
157.8999999999851
 21
-289.2968860222517
 31
0.0
  0
LINE
  5
25BA
330
2A24
100
AcDbEntity
  8
0
 62
     0
100
AcDbLine
 10
97.74522562354832
 20
-326.4000000000014
 30
0.0
 11
157.8999999999851
 21
-286.2969194868348
 31
0.0
  0
LINE
  5
25BB
330
2A24
100
AcDbEntity
  8
0
 62
     0
100
AcDbLine
 10
93.24526432966013
 20
-326.4000000000014
 30
0.0
 11
157.8999999999832
 21
-283.2969529514194
 31
0.0
  0
LINE
  5
25BC
330
2A24
100
AcDbEntity
  8
0
 62
     0
100
AcDbLine
 10
88.74530303577556
 20
-326.4000000000014
 30
0.0
 11
157.8999999999851
 21
-280.2969864160023
 31
0.0
  0
LINE
  5
25BD
330
2A24
100
AcDbEntity
  8
0
 62
     0
100
AcDbLine
 10
84.24534174189281
 20
-326.3999999999996
 30
0.0
 11
157.8999999999851
 21
-277.2970198805851
 31
0.0
  0
LINE
  5
25BE
330
2A24
100
AcDbEntity
  8
0
 62
     0
100
AcDbLine
 10
79.74538044800465
 20
-326.4000000000014
 30
0.0
 11
157.8999999999832
 21
-274.2970533451697
 31
0.0
  0
LINE
  5
25BF
330
2A24
100
AcDbEntity
  8
0
 62
     0
100
AcDbLine
 10
75.24541915411827
 20
-326.4000000000014
 30
0.0
 11
157.8999999999869
 21
-271.2970868097527
 31
0.0
  0
LINE
  5
25C0
330
2A24
100
AcDbEntity
  8
0
 62
     0
100
AcDbLine
 10
70.74545786023374
 20
-326.4000000000032
 30
0.0
 11
157.8999999999851
 21
-268.2971202743374
 31
0.0
  0
LINE
  5
25C1
330
2A24
100
AcDbEntity
  8
0
 62
     0
100
AcDbLine
 10
66.24549656634918
 20
-326.3999999999996
 30
0.0
 11
157.8999999999832
 21
-265.2971537389221
 31
0.0
  0
LINE
  5
25C2
330
2A24
100
AcDbEntity
  8
0
 62
     0
100
AcDbLine
 10
61.74553527245914
 20
-326.4000000000032
 30
0.0
 11
157.8999999999832
 21
-262.297187203505
 31
0.0
  0
LINE
  5
25C3
330
2A24
100
AcDbEntity
  8
0
 62
     0
100
AcDbLine
 10
57.24557397857643
 20
-326.4000000000014
 30
0.0
 11
157.8999999999869
 21
-259.2972206680879
 31
0.0
  0
LINE
  5
25C4
330
2A24
100
AcDbEntity
  8
0
 62
     0
100
AcDbLine
 10
52.74561268469007
 20
-326.4000000000032
 30
0.0
 11
157.8999999999832
 21
-256.2972541326744
 31
0.0
  0
LINE
  5
25C5
330
2A24
100
AcDbEntity
  8
0
 62
     0
100
AcDbLine
 10
48.24565139080551
 20
-326.3999999999996
 30
0.0
 11
157.8999999999851
 21
-253.2972875972555
 31
0.0
  0
LINE
  5
25C6
330
2A24
100
AcDbEntity
  8
0
 62
     0
100
AcDbLine
 10
43.74569009692096
 20
-326.4000000000014
 30
0.0
 11
157.8999999999832
 21
-250.297321061842
 31
0.0
  0
LINE
  5
25C7
330
2A24
100
AcDbEntity
  8
0
 62
     0
100
AcDbLine
 10
39.24572880303458
 20
-326.4000000000014
 30
0.0
 11
157.8999999999869
 21
-247.2973545264231
 31
0.0
  0
LINE
  5
25C8
330
2A24
100
AcDbEntity
  8
0
 62
     0
100
AcDbLine
 10
154.7460739328726
 20
-246.3999999999996
 30
0.0
 11
157.8999999999832
 21
-244.2973879910096
 31
0.0
  0
LINE
  5
25C9
330
2A24
100
AcDbEntity
  8
0
 62
     0
100
AcDbLine
 10
34.74576750915185
 20
-326.4000000000014
 30
0.0
 11
154.7460739328689
 21
-246.4000000000015
 31
0.0
  0
LINE
  5
25CA
330
2A24
100
AcDbEntity
  8
0
 62
     0
100
AcDbLine
 10
150.2461126389844
 20
-246.3999999999978
 30
0.0
 11
157.8999999999851
 21
-241.2974214555925
 31
0.0
  0
LINE
  5
25CB
330
2A24
100
AcDbEntity
  8
0
 62
     0
100
AcDbLine
 10
30.24580621526366
 20
-326.4000000000014
 30
0.0
 11
150.2461126389844
 21
-246.3999999999978
 31
0.0
  0
LINE
  5
25CC
330
2A24
100
AcDbEntity
  8
0
 62
     0
100
AcDbLine
 10
145.7461513450998
 20
-246.3999999999996
 30
0.0
 11
157.8999999999832
 21
-238.2974549201772
 31
0.0
  0
LINE
  5
25CD
330
2A24
100
AcDbEntity
  8
0
 62
     0
100
AcDbLine
 10
25.74584492137911
 20
-326.4000000000014
 30
0.0
 11
145.7461513450998
 21
-246.3999999999996
 31
0.0
  0
LINE
  5
25CE
330
2A24
100
AcDbEntity
  8
0
 62
     0
100
AcDbLine
 10
141.2461900512134
 20
-246.3999999999996
 30
0.0
 11
157.8999999999851
 21
-235.2974883847601
 31
0.0
  0
LINE
  5
25CF
330
2A24
100
AcDbEntity
  8
0
 62
     0
100
AcDbLine
 10
21.24588362749092
 20
-326.4000000000014
 30
0.0
 11
141.2461900512134
 21
-246.3999999999996
 31
0.0
  0
LINE
  5
25D0
330
2A24
100
AcDbEntity
  8
0
 62
     0
100
AcDbLine
 10
136.7462287573289
 20
-246.3999999999978
 30
0.0
 11
157.8999999999851
 21
-232.2975218493411
 31
0.0
  0
LINE
  5
25D1
330
2A24
100
AcDbEntity
  8
0
 62
     0
100
AcDbLine
 10
16.74592233360818
 20
-326.3999999999996
 30
0.0
 11
136.7462287573253
 21
-246.3999999999996
 31
0.0
  0
LINE
  5
25D2
330
2A24
100
AcDbEntity
  8
0
 62
     0
100
AcDbLine
 10
132.2462674634425
 20
-246.3999999999996
 30
0.0
 11
157.8999999999851
 21
-229.2975553139277
 31
0.0
  0
LINE
  5
25D3
330
2A24
100
AcDbEntity
  8
0
 62
     0
100
AcDbLine
 10
12.2459610397218
 20
-326.4000000000014
 30
0.0
 11
132.2462674634425
 21
-246.3999999999996
 31
0.0
  0
LINE
  5
25D4
330
2A24
100
AcDbEntity
  8
0
 62
     0
100
AcDbLine
 10
127.746306169558
 20
-246.3999999999996
 30
0.0
 11
157.8999999999869
 21
-226.2975887785087
 31
0.0
  0
LINE
  5
25D5
330
2A24
100
AcDbEntity
  8
0
 62
     0
100
AcDbLine
 10
7.74599974583725
 20
-326.4000000000014
 30
0.0
 11
127.746306169558
 21
-246.3999999999996
 31
0.0
  0
LINE
  5
25D6
330
2A24
100
AcDbEntity
  8
0
 62
     0
100
AcDbLine
 10
123.2463448756734
 20
-246.3999999999978
 30
0.0
 11
157.8999999999851
 21
-223.2976222430953
 31
0.0
  0
LINE
  5
25D7
330
2A24
100
AcDbEntity
  8
0
 62
     0
100
AcDbLine
 10
3.246038451949058
 20
-326.4000000000032
 30
0.0
 11
123.2463448756716
 21
-246.3999999999996
 31
0.0
  0
LINE
  5
25D8
330
2A24
100
AcDbEntity
  8
0
 62
     0
100
AcDbLine
 10
118.7463835817871
 20
-246.3999999999978
 30
0.0
 11
157.8999999999851
 21
-220.2976557076781
 31
0.0
  0
LINE
  5
25D9
330
2A24
100
AcDbEntity
  8
0
 62
     0
100
AcDbLine
 10
-1.253922841933672
 20
-326.3999999999996
 30
0.0
 11
118.7463835817834
 21
-246.3999999999996
 31
0.0
  0
LINE
  5
25DA
330
2A24
100
AcDbEntity
  8
0
 62
     0
100
AcDbLine
 10
114.2464222879025
 20
-246.3999999999996
 30
0.0
 11
157.8999999999851
 21
-217.2976891722628
 31
0.0
  0
LINE
  5
25DB
330
2A24
100
AcDbEntity
  8
0
 62
     0
100
AcDbLine
 10
-5.753884135820044
 20
-326.4000000000014
 30
0.0
 11
114.2464222879025
 21
-246.3999999999996
 31
0.0
  0
LINE
  5
25DC
330
2A24
100
AcDbEntity
  8
0
 62
     0
100
AcDbLine
 10
109.7464609940143
 20
-246.3999999999996
 30
0.0
 11
157.8999999999851
 21
-214.2977226368457
 31
0.0
  0
LINE
  5
25DD
330
2A24
100
AcDbEntity
  8
0
 62
     0
100
AcDbLine
 10
-10.2538454297064
 20
-326.4000000000014
 30
0.0
 11
109.7464609940143
 21
-246.3999999999996
 31
0.0
  0
LINE
  5
25DE
330
2A24
100
AcDbEntity
  8
0
 62
     0
100
AcDbLine
 10
105.2464997001298
 20
-246.3999999999978
 30
0.0
 11
157.8999999999832
 21
-211.2977561014322
 31
0.0
  0
LINE
  5
25DF
330
2A24
100
AcDbEntity
  8
0
 62
     0
100
AcDbLine
 10
-14.75380672359096
 20
-326.4000000000014
 30
0.0
 11
105.246499700128
 21
-246.4000000000015
 31
0.0
  0
LINE
  5
25E0
330
2A24
100
AcDbEntity
  8
0
 62
     0
100
AcDbLine
 10
100.7465384062452
 20
-246.3999999999978
 30
0.0
 11
157.8999999999851
 21
-208.2977895660133
 31
0.0
  0
LINE
  5
25E1
330
2A24
100
AcDbEntity
  8
0
 62
     0
100
AcDbLine
 10
-19.25376801747552
 20
-326.3999999999996
 30
0.0
 11
100.7465384062416
 21
-246.3999999999996
 31
0.0
  0
LINE
  5
25E2
330
2A24
100
AcDbEntity
  8
0
 62
     0
100
AcDbLine
 10
96.24657711236068
 20
-246.3999999999996
 30
0.0
 11
157.8999999999869
 21
-205.297823030598
 31
0.0
  0
LINE
  5
25E3
330
2A24
100
AcDbEntity
  8
0
 62
     0
100
AcDbLine
 10
-23.75372931136189
 20
-326.4000000000014
 30
0.0
 11
96.24657711236068
 21
-246.3999999999996
 31
0.0
  0
LINE
  5
25E4
330
2A24
100
AcDbEntity
  8
0
 62
     0
100
AcDbLine
 10
91.74661581847065
 20
-246.3999999999996
 30
0.0
 11
157.8999999999832
 21
-202.2978564951809
 31
0.0
  0
LINE
  5
25E5
330
2A24
100
AcDbEntity
  8
0
 62
     0
100
AcDbLine
 10
-28.25369060525009
 20
-326.4000000000014
 30
0.0
 11
91.74661581847065
 21
-246.3999999999996
 31
0.0
  0
LINE
  5
25E6
330
2A24
100
AcDbEntity
  8
0
 62
     0
100
AcDbLine
 10
87.24665452458792
 20
-246.3999999999996
 30
0.0
 11
157.8999999999851
 21
-199.2978899597656
 31
0.0
  0
LINE
  5
25E7
330
2A24
100
AcDbEntity
  8
0
 62
     0
100
AcDbLine
 10
-32.75365189913281
 20
-326.4000000000014
 30
0.0
 11
87.24665452458612
 21
-246.4000000000015
 31
0.0
  0
LINE
  5
25E8
330
2A24
100
AcDbEntity
  8
0
 62
     0
100
AcDbLine
 10
82.74669323070337
 20
-246.3999999999996
 30
0.0
 11
157.8999999999851
 21
-196.2979234243484
 31
0.0
  0
LINE
  5
25E9
330
2A24
100
AcDbEntity
  8
0
 62
     0
100
AcDbLine
 10
-37.25361319301736
 20
-326.4000000000014
 30
0.0
 11
82.74669323070337
 21
-246.3999999999996
 31
0.0
  0
LINE
  5
25EA
330
2A24
100
AcDbEntity
  8
0
 62
     0
100
AcDbLine
 10
78.24673193681701
 20
-246.3999999999978
 30
0.0
 11
157.8999999999851
 21
-193.2979568889312
 31
0.0
  0
LINE
  5
25EB
330
2A24
100
AcDbEntity
  8
0
 62
     0
100
AcDbLine
 10
-41.75357448690556
 20
-326.4000000000014
 30
0.0
 11
78.24673193681701
 21
-246.3999999999978
 31
0.0
  0
LINE
  5
25EC
330
2A24
100
AcDbEntity
  8
0
 62
     0
100
AcDbLine
 10
73.74677064293244
 20
-246.3999999999978
 30
0.0
 11
157.8999999999832
 21
-190.2979903535179
 31
0.0
  0
LINE
  5
25ED
330
2A24
100
AcDbEntity
  8
0
 62
     0
100
AcDbLine
 10
-46.25353578079193
 20
-326.4000000000014
 30
0.0
 11
73.74677064293244
 21
-246.3999999999978
 31
0.0
  0
LINE
  5
25EE
330
2A24
100
AcDbEntity
  8
0
 62
     0
100
AcDbLine
 10
69.24680934904611
 20
-246.3999999999978
 30
0.0
 11
157.8999999999851
 21
-187.2980238180989
 31
0.0
  0
LINE
  5
25EF
330
2A24
100
AcDbEntity
  8
0
 62
     0
100
AcDbLine
 10
-50.75349707467466
 20
-326.3999999999996
 30
0.0
 11
69.24680934904427
 21
-246.3999999999996
 31
0.0
  0
LINE
  5
25F0
330
2A24
100
AcDbEntity
  8
0
 62
     0
100
AcDbLine
 10
64.74684805515972
 20
-246.3999999999996
 30
0.0
 11
157.8999999999851
 21
-184.2980572826837
 31
0.0
  0
LINE
  5
25F1
330
2A24
100
AcDbEntity
  8
0
 62
     0
100
AcDbLine
 10
-55.25345836856104
 20
-326.4000000000014
 30
0.0
 11
64.74684805515972
 21
-246.3999999999996
 31
0.0
  0
LINE
  5
25F2
330
2A24
100
AcDbEntity
  8
0
 62
     0
100
AcDbLine
 10
60.24688676127334
 20
-246.3999999999996
 30
0.0
 11
157.8999999999832
 21
-181.2980907472664
 31
0.0
  0
LINE
  5
25F3
330
2A24
100
AcDbEntity
  8
0
 62
     0
100
AcDbLine
 10
-59.75341966244922
 20
-326.4000000000014
 30
0.0
 11
60.24688676127334
 21
-246.3999999999996
 31
0.0
  0
LINE
  5
25F4
330
2A24
100
AcDbEntity
  8
0
 62
     0
100
AcDbLine
 10
55.74692546739061
 20
-246.3999999999978
 30
0.0
 11
157.8999999999851
 21
-178.2981242118512
 31
0.0
  0
LINE
  5
25F5
330
2A24
100
AcDbEntity
  8
0
 62
     0
100
AcDbLine
 10
-64.25338095633378
 20
-326.4000000000032
 30
0.0
 11
55.74692546738697
 21
-246.3999999999996
 31
0.0
  0
LINE
  5
25F6
330
2A24
100
AcDbEntity
  8
0
 62
     0
100
AcDbLine
 10
51.24696417350605
 20
-246.3999999999978
 30
0.0
 11
157.8999999999851
 21
-175.2981576764359
 31
0.0
  0
LINE
  5
25F7
330
2A24
100
AcDbEntity
  8
0
 62
     0
100
AcDbLine
 10
-68.75334225021652
 20
-326.3999999999996
 30
0.0
 11
51.24696417350243
 21
-246.3999999999996
 31
0.0
  0
LINE
  5
25F8
330
2A24
100
AcDbEntity
  8
0
 62
     0
100
AcDbLine
 10
46.74700287961786
 20
-246.3999999999996
 30
0.0
 11
157.8999999999851
 21
-172.2981911410188
 31
0.0
  0
LINE
  5
25F9
330
2A24
100
AcDbEntity
  8
0
 62
     0
100
AcDbLine
 10
-73.2533035441029
 20
-326.4000000000014
 30
0.0
 11
46.74700287961786
 21
-246.3999999999996
 31
0.0
  0
LINE
  5
25FA
330
2A24
100
AcDbEntity
  8
0
 62
     0
100
AcDbLine
 10
42.24704158573149
 20
-246.3999999999996
 30
0.0
 11
157.8999999999832
 21
-169.2982246056035
 31
0.0
  0
LINE
  5
25FB
330
2A24
100
AcDbEntity
  8
0
 62
     0
100
AcDbLine
 10
-77.75326483799107
 20
-326.4000000000014
 30
0.0
 11
42.24704158573149
 21
-246.3999999999996
 31
0.0
  0
LINE
  5
25FC
330
2A24
100
AcDbEntity
  8
0
 62
     0
100
AcDbLine
 10
37.74708029184876
 20
-246.3999999999978
 30
0.0
 11
157.8999999999851
 21
-166.2982580701864
 31
0.0
  0
LINE
  5
25FD
330
2A24
100
AcDbEntity
  8
0
 62
     0
100
AcDbLine
 10
-82.25322613187199
 20
-326.4000000000014
 30
0.0
 11
37.74708029184512
 21
-246.4000000000015
 31
0.0
  0
LINE
  5
25FE
330
2A24
100
AcDbEntity
  8
0
 62
     0
100
AcDbLine
 10
33.24711899795875
 20
-246.3999999999996
 30
0.0
 11
157.8999999999869
 21
-163.2982915347693
 31
0.0
  0
LINE
  5
25FF
330
2A24
100
AcDbEntity
  8
0
 62
     0
100
AcDbLine
 10
-86.75318742576019
 20
-326.4000000000014
 30
0.0
 11
33.24711899795875
 21
-246.3999999999996
 31
0.0
  0
LINE
  5
2600
330
2A24
100
AcDbEntity
  8
0
 62
     0
100
AcDbLine
 10
28.7471577040742
 20
-246.3999999999996
 30
0.0
 11
157.8999999999832
 21
-160.2983249993558
 31
0.0
  0
LINE
  5
2601
330
2A24
100
AcDbEntity
  8
0
 62
     0
100
AcDbLine
 10
-91.25314871964658
 20
-326.4000000000014
 30
0.0
 11
28.7471577040742
 21
-246.3999999999996
 31
0.0
  0
LINE
  5
2602
330
2A24
100
AcDbEntity
  8
0
 62
     0
100
AcDbLine
 10
24.24719641018965
 20
-246.3999999999996
 30
0.0
 11
157.8999999999869
 21
-157.2983584639369
 31
0.0
  0
LINE
  5
2603
330
2A24
100
AcDbEntity
  8
0
 62
     0
100
AcDbLine
 10
-95.7531100135329
 20
-326.4000000000014
 30
0.0
 11
24.24719641018965
 21
-246.3999999999996
 31
0.0
  0
LINE
  5
2604
330
2A24
100
AcDbEntity
  8
0
 62
     0
100
AcDbLine
 10
19.74723511630691
 20
-246.3999999999978
 30
0.0
 11
157.8999999999851
 21
-154.2983919285216
 31
0.0
  0
LINE
  5
2605
330
2A24
100
AcDbEntity
  8
0
 62
     0
100
AcDbLine
 10
-100.2530713074138
 20
-326.3999999999996
 30
0.0
 11
19.74723511630324
 21
-246.3999999999996
 31
0.0
  0
LINE
  5
2606
330
2A24
100
AcDbEntity
  8
0
 62
     0
100
AcDbLine
 10
15.24727382241872
 20
-246.3999999999996
 30
0.0
 11
157.8999999999851
 21
-151.2984253931044
 31
0.0
  0
LINE
  5
2607
330
2A24
100
AcDbEntity
  8
0
 62
     0
100
AcDbLine
 10
-104.7530326013038
 20
-326.4000000000014
 30
0.0
 11
15.24727382241872
 21
-246.3999999999996
 31
0.0
  0
LINE
  5
2608
330
2A24
100
AcDbEntity
  8
0
 62
     0
100
AcDbLine
 10
10.74731252853235
 20
-246.3999999999978
 30
0.0
 11
157.8999999999869
 21
-148.2984588576873
 31
0.0
  0
LINE
  5
2609
330
2A24
100
AcDbEntity
  8
0
 62
     0
100
AcDbLine
 10
-109.2529938951884
 20
-326.4000000000014
 30
0.0
 11
10.74731252853235
 21
-246.3999999999978
 31
0.0
  0
LINE
  5
260A
330
2A24
100
AcDbEntity
  8
0
 62
     0
100
AcDbLine
 10
6.247351234649611
 20
-246.3999999999978
 30
0.0
 11
157.8999999999887
 21
-145.2984923222702
 31
0.0
  0
LINE
  5
260B
330
2A24
100
AcDbEntity
  8
0
 62
     0
100
AcDbLine
 10
-113.7529551890729
 20
-326.4000000000014
 30
0.0
 11
6.247351234649611
 21
-246.3999999999978
 31
0.0
  0
LINE
  5
260C
330
2A24
100
AcDbEntity
  8
0
 62
     0
100
AcDbLine
 10
1.747389940759603
 20
-246.3999999999996
 30
0.0
 11
157.8999999999869
 21
-142.2985257868549
 31
0.0
  0
LINE
  5
260D
330
2A24
100
AcDbEntity
  8
0
 62
     0
100
AcDbLine
 10
-118.2529164829575
 20
-326.3999999999996
 30
0.0
 11
1.747389940759603
 21
-246.3999999999996
 31
0.0
  0
LINE
  5
260E
330
2A24
100
AcDbEntity
  8
0
 62
     0
100
AcDbLine
 10
-2.752571353123128
 20
-246.3999999999996
 30
0.0
 11
157.8999999999869
 21
-139.2985592514396
 31
0.0
  0
LINE
  5
260F
330
2A24
100
AcDbEntity
  8
0
 62
     0
100
AcDbLine
 10
-122.7528777768457
 20
-326.4000000000014
 30
0.0
 11
-2.752571353123128
 21
-246.3999999999996
 31
0.0
  0
LINE
  5
2610
330
2A24
100
AcDbEntity
  8
0
 62
     0
100
AcDbLine
 10
-7.252532647009502
 20
-246.3999999999996
 30
0.0
 11
157.8999999999905
 21
-136.2985927160207
 31
0.0
  0
LINE
  5
2611
330
2A24
100
AcDbEntity
  8
0
 62
     0
100
AcDbLine
 10
-127.2528390707302
 20
-326.4000000000014
 30
0.0
 11
-7.252532647009502
 21
-246.3999999999996
 31
0.0
  0
LINE
  5
2612
330
2A24
100
AcDbEntity
  8
0
 62
     0
100
AcDbLine
 10
-11.75249394089405
 20
-246.3999999999978
 30
0.0
 11
157.8999999999869
 21
-133.2986261806072
 31
0.0
  0
LINE
  5
2613
330
2A24
100
AcDbEntity
  8
0
 62
     0
100
AcDbLine
 10
-131.7528003646148
 20
-326.3999999999996
 30
0.0
 11
-11.75249394089405
 21
-246.3999999999978
 31
0.0
  0
LINE
  5
2614
330
2A24
100
AcDbEntity
  8
0
 62
     0
100
AcDbLine
 10
-16.25245523478406
 20
-246.3999999999996
 30
0.0
 11
157.8999999999887
 21
-130.2986596451883
 31
0.0
  0
LINE
  5
2615
330
2A24
100
AcDbEntity
  8
0
 62
     0
100
AcDbLine
 10
-136.2527616585012
 20
-326.3999999999996
 30
0.0
 11
-16.25245523478406
 21
-246.3999999999996
 31
0.0
  0
LINE
  5
2616
330
2A24
100
AcDbEntity
  8
0
 62
     0
100
AcDbLine
 10
-20.75241652866498
 20
-246.3999999999996
 30
0.0
 11
157.8999999999869
 21
-127.2986931097748
 31
0.0
  0
LINE
  5
2617
330
2A24
100
AcDbEntity
  8
0
 62
     0
100
AcDbLine
 10
-140.7527229523875
 20
-326.4000000000014
 30
0.0
 11
-20.75241652866498
 21
-246.3999999999996
 31
0.0
  0
LINE
  5
2618
330
2A24
100
AcDbEntity
  8
0
 62
     0
100
AcDbLine
 10
-25.25237782255135
 20
-246.3999999999996
 30
0.0
 11
157.8999999999905
 21
-124.2987265743577
 31
0.0
  0
LINE
  5
2619
330
2A24
100
AcDbEntity
  8
0
 62
     0
100
AcDbLine
 10
-145.2526842462721
 20
-326.4000000000014
 30
0.0
 11
-25.25237782255135
 21
-246.3999999999996
 31
0.0
  0
LINE
  5
261A
330
2A24
100
AcDbEntity
  8
0
 62
     0
100
AcDbLine
 10
-29.75233911643409
 20
-246.3999999999996
 30
0.0
 11
157.8999999999869
 21
-121.2987600389424
 31
0.0
  0
LINE
  5
261B
330
2A24
100
AcDbEntity
  8
0
 62
     0
100
AcDbLine
 10
-149.7526455401566
 20
-326.4000000000014
 30
0.0
 11
-29.75233911643773
 21
-246.4000000000015
 31
0.0
  0
LINE
  5
261C
330
2A24
100
AcDbEntity
  8
0
 62
     0
100
AcDbLine
 10
-34.25230041032228
 20
-246.3999999999978
 30
0.0
 11
157.8999999999887
 21
-118.2987935035253
 31
0.0
  0
LINE
  5
261D
330
2A24
100
AcDbEntity
  8
0
 62
     0
100
AcDbLine
 10
-154.252606834043
 20
-326.4000000000014
 30
0.0
 11
-34.25230041032228
 21
-246.3999999999978
 31
0.0
  0
LINE
  5
261E
330
2A24
100
AcDbEntity
  8
0
 62
     0
100
AcDbLine
 10
-38.75226170420683
 20
-246.3999999999978
 30
0.0
 11
157.8999999999905
 21
-115.2988269681063
 31
0.0
  0
LINE
  5
261F
330
2A24
100
AcDbEntity
  8
0
 62
     0
100
AcDbLine
 10
-157.9000000000123
 20
-325.8316226994248
 30
0.0
 11
-38.75226170420683
 21
-246.3999999999978
 31
0.0
  0
LINE
  5
2620
330
2A24
100
AcDbEntity
  8
0
 62
     0
100
AcDbLine
 10
-43.25222299809136
 20
-246.3999999999978
 30
0.0
 11
157.8999999999887
 21
-112.2988604326929
 31
0.0
  0
LINE
  5
2621
330
2A24
100
AcDbEntity
  8
0
 62
     0
100
AcDbLine
 10
-157.9000000000142
 20
-322.8316561640113
 30
0.0
 11
-43.25222299809136
 21
-246.3999999999978
 31
0.0
  0
LINE
  5
2622
330
2A24
100
AcDbEntity
  8
0
 62
     0
100
AcDbLine
 10
-47.75218429198139
 20
-246.3999999999996
 30
0.0
 11
157.8999999999887
 21
-109.2988938972758
 31
0.0
  0
LINE
  5
2623
330
2A24
100
AcDbEntity
  8
0
 62
     0
100
AcDbLine
 10
-157.9000000000142
 20
-319.8316896285942
 30
0.0
 11
-47.75218429198139
 21
-246.3999999999996
 31
0.0
  0
LINE
  5
2624
330
2A24
100
AcDbEntity
  8
0
 62
     0
100
AcDbLine
 10
-52.25214558586412
 20
-246.3999999999996
 30
0.0
 11
157.8999999999887
 21
-106.2989273618605
 31
0.0
  0
LINE
  5
2625
330
2A24
100
AcDbEntity
  8
0
 62
     0
100
AcDbLine
 10
-157.9000000000142
 20
-316.8317230931789
 30
0.0
 11
-52.25214558586412
 21
-246.3999999999996
 31
0.0
  0
LINE
  5
2626
330
2A24
100
AcDbEntity
  8
0
 62
     0
100
AcDbLine
 10
-56.75210687974868
 20
-246.3999999999978
 30
0.0
 11
157.8999999999905
 21
-103.2989608264433
 31
0.0
  0
LINE
  5
2627
330
2A24
100
AcDbEntity
  8
0
 62
     0
100
AcDbLine
 10
-157.9000000000123
 20
-313.8317565577618
 30
0.0
 11
-56.75210687974868
 21
-246.3999999999978
 31
0.0
  0
LINE
  5
2628
330
2A24
100
AcDbEntity
  8
0
 62
     0
100
AcDbLine
 10
-57.90000000000873
 20
-244.1652935906404
 30
0.0
 11
157.8999999999887
 21
-100.298994291028
 31
0.0
  0
LINE
  5
2629
330
2A24
100
AcDbEntity
  8
0
 62
     0
100
AcDbLine
 10
-157.9000000000142
 20
-310.8317900223465
 30
0.0
 11
-57.90000000001237
 21
-244.1652935906422
 31
0.0
  0
LINE
  5
262A
330
2A24
100
AcDbEntity
  8
0
 62
     0
100
AcDbLine
 10
-57.90000000001055
 20
-241.1653270552251
 30
0.0
 11
157.8999999999887
 21
-97.29902775561097
 31
0.0
  0
LINE
  5
262B
330
2A24
100
AcDbEntity
  8
0
 62
     0
100
AcDbLine
 10
-157.9000000000142
 20
-307.8318234869294
 30
0.0
 11
-57.90000000001055
 21
-241.1653270552251
 31
0.0
  0
LINE
  5
262C
330
2A24
100
AcDbEntity
  8
0
 62
     0
100
AcDbLine
 10
-57.90000000000873
 20
-238.165360519808
 30
0.0
 11
157.8999999999905
 21
-94.29906122019387
 31
0.0
  0
LINE
  5
262D
330
2A24
100
AcDbEntity
  8
0
 62
     0
100
AcDbLine
 10
-157.9000000000142
 20
-304.8318569515159
 30
0.0
 11
-57.90000000000873
 21
-238.165360519808
 31
0.0
  0
LINE
  5
262E
330
2A24
100
AcDbEntity
  8
0
 62
     0
100
AcDbLine
 10
-57.90000000001055
 20
-235.1653939843927
 30
0.0
 11
157.8999999999887
 21
-91.29909468477853
 31
0.0
  0
LINE
  5
262F
330
2A24
100
AcDbEntity
  8
0
 62
     0
100
AcDbLine
 10
-157.9000000000142
 20
-301.8318904160969
 30
0.0
 11
-57.90000000001055
 21
-235.1653939843927
 31
0.0
  0
LINE
  5
2630
330
2A24
100
AcDbEntity
  8
0
 62
     0
100
AcDbLine
 10
-57.90000000001055
 20
-232.1654274489756
 30
0.0
 11
157.8999999999887
 21
-88.29912814936321
 31
0.0
  0
LINE
  5
2631
330
2A24
100
AcDbEntity
  8
0
 62
     0
100
AcDbLine
 10
-157.900000000016
 20
-298.8319238806834
 30
0.0
 11
-57.90000000001055
 21
-232.1654274489756
 31
0.0
  0
LINE
  5
2632
330
2A24
100
AcDbEntity
  8
0
 62
     0
100
AcDbLine
 10
-57.90000000001055
 20
-229.1654609135603
 30
0.0
 11
157.8999999999887
 21
-85.29916161394611
 31
0.0
  0
LINE
  5
2633
330
2A24
100
AcDbEntity
  8
0
 62
     0
100
AcDbLine
 10
-157.9000000000142
 20
-295.8319573452645
 30
0.0
 11
-57.90000000001055
 21
-229.1654609135603
 31
0.0
  0
LINE
  5
2634
330
2A24
100
AcDbEntity
  8
0
 62
     0
100
AcDbLine
 10
-57.90000000000873
 20
-226.165494378145
 30
0.0
 11
157.8999999999905
 21
-82.29919507853081
 31
0.0
  0
LINE
  5
2635
330
2A24
100
AcDbEntity
  8
0
 62
     0
100
AcDbLine
 10
-157.9000000000123
 20
-292.8319908098492
 30
0.0
 11
-57.90000000000873
 21
-226.165494378145
 31
0.0
  0
LINE
  5
2636
330
2A24
100
AcDbEntity
  8
0
 62
     0
100
AcDbLine
 10
-57.90000000001237
 20
-223.1655278427279
 30
0.0
 11
157.8999999999869
 21
-79.29922854311555
 31
0.0
  0
LINE
  5
2637
330
2A24
100
AcDbEntity
  8
0
 62
     0
100
AcDbLine
 10
-157.900000000016
 20
-289.8320242744339
 30
0.0
 11
-57.90000000001237
 21
-223.1655278427279
 31
0.0
  0
LINE
  5
2638
330
2A24
100
AcDbEntity
  8
0
 62
     0
100
AcDbLine
 10
-57.90000000001055
 20
-220.1655613073108
 30
0.0
 11
157.8999999999887
 21
-76.29926200769658
 31
0.0
  0
LINE
  5
2639
330
2A24
100
AcDbEntity
  8
0
 62
     0
100
AcDbLine
 10
-157.9000000000142
 20
-286.832057739015
 30
0.0
 11
-57.90000000001055
 21
-220.1655613073108
 31
0.0
  0
LINE
  5
263A
330
2A24
100
AcDbEntity
  8
0
 62
     0
100
AcDbLine
 10
-57.90000000000873
 20
-217.1655947718936
 30
0.0
 11
157.8999999999887
 21
-73.29929547228312
 31
0.0
  0
LINE
  5
263B
330
2A24
100
AcDbEntity
  8
0
 62
     0
100
AcDbLine
 10
-157.9000000000142
 20
-283.8320912036015
 30
0.0
 11
-57.90000000000873
 21
-217.1655947718936
 31
0.0
  0
LINE
  5
263C
330
2A24
100
AcDbEntity
  8
0
 62
     0
100
AcDbLine
 10
-57.90000000001055
 20
-214.1656282364784
 30
0.0
 11
157.8999999999887
 21
-70.29932893686417
 31
0.0
  0
LINE
  5
263D
330
2A24
100
AcDbEntity
  8
0
 62
     0
100
AcDbLine
 10
-157.9000000000142
 20
-280.8321246681826
 30
0.0
 11
-57.90000000001055
 21
-214.1656282364784
 31
0.0
  0
LINE
  5
263E
330
2A24
100
AcDbEntity
  8
0
 62
     0
100
AcDbLine
 10
-57.90000000001055
 20
-211.1656617010631
 30
0.0
 11
157.8999999999887
 21
-67.29936240144889
 31
0.0
  0
LINE
  5
263F
330
2A24
100
AcDbEntity
  8
0
 62
     0
100
AcDbLine
 10
-157.900000000016
 20
-277.8321581327691
 30
0.0
 11
-57.90000000001055
 21
-211.1656617010631
 31
0.0
  0
LINE
  5
2640
330
2A24
100
AcDbEntity
  8
0
 62
     0
100
AcDbLine
 10
-57.90000000001055
 20
-208.165695165646
 30
0.0
 11
157.8999999999887
 21
-64.29939586603359
 31
0.0
  0
LINE
  5
2641
330
2A24
100
AcDbEntity
  8
0
 62
     0
100
AcDbLine
 10
-157.9000000000142
 20
-274.8321915973502
 30
0.0
 11
-57.90000000001055
 21
-208.165695165646
 31
0.0
  0
LINE
  5
2642
330
2A24
100
AcDbEntity
  8
0
 62
     0
100
AcDbLine
 10
-57.90000000001055
 20
-205.1657286302307
 30
0.0
 11
157.8999999999887
 21
-61.29942933061648
 31
0.0
  0
LINE
  5
2643
330
2A24
100
AcDbEntity
  8
0
 62
     0
100
AcDbLine
 10
-157.9000000000142
 20
-271.8322250619349
 30
0.0
 11
-57.90000000001055
 21
-205.1657286302307
 31
0.0
  0
LINE
  5
2644
330
2A24
100
AcDbEntity
  8
0
 62
     0
100
AcDbLine
 10
-57.90000000001237
 20
-202.1657620948134
 30
0.0
 11
157.8999999999869
 21
-58.29946279520118
 31
0.0
  0
LINE
  5
2645
330
2A24
100
AcDbEntity
  8
0
 62
     0
100
AcDbLine
 10
-157.900000000016
 20
-268.8322585265196
 30
0.0
 11
-57.90000000001237
 21
-202.1657620948134
 31
0.0
  0
LINE
  5
2646
330
2A24
100
AcDbEntity
  8
0
 62
     0
100
AcDbLine
 10
-57.90000000001055
 20
-199.1657955593981
 30
0.0
 11
157.8999999999887
 21
-55.29949625978407
 31
0.0
  0
LINE
  5
2647
330
2A24
100
AcDbEntity
  8
0
 62
     0
100
AcDbLine
 10
-157.9000000000142
 20
-265.8322919911025
 30
0.0
 11
-57.90000000001055
 21
-199.1657955593981
 31
0.0
  0
LINE
  5
2648
330
2A24
100
AcDbEntity
  8
0
 62
     0
100
AcDbLine
 10
-57.90000000000691
 20
-196.1658290239811
 30
0.0
 11
157.4492934356494
 21
-52.60000000000218
 31
0.0
  0
LINE
  5
2649
330
2A24
100
AcDbEntity
  8
0
 62
     0
100
AcDbLine
 10
-157.9000000000142
 20
-262.8323254556871
 30
0.0
 11
-57.90000000000691
 21
-196.1658290239811
 31
0.0
  0
LINE
  5
264A
330
2A24
100
AcDbEntity
  8
0
 62
     0
100
AcDbLine
 10
-57.90000000001055
 20
-193.1658624885658
 30
0.0
 11
152.9493321417667
 21
-52.59999999999855
 31
0.0
  0
LINE
  5
264B
330
2A24
100
AcDbEntity
  8
0
 62
     0
100
AcDbLine
 10
-157.9000000000142
 20
-259.8323589202701
 30
0.0
 11
-57.90000000001055
 21
-193.1658624885658
 31
0.0
  0
LINE
  5
264C
330
2A24
100
AcDbEntity
  8
0
 62
     0
100
AcDbLine
 10
-57.90000000000873
 20
-190.1658959531487
 30
0.0
 11
148.4493708478803
 21
-52.59999999999855
 31
0.0
  0
LINE
  5
264D
330
2A24
100
AcDbEntity
  8
0
 62
     0
100
AcDbLine
 10
-157.900000000016
 20
-256.8323923848548
 30
0.0
 11
-57.90000000000873
 21
-190.1658959531487
 31
0.0
  0
LINE
  5
264E
330
2A24
100
AcDbEntity
  8
0
 62
     0
100
AcDbLine
 10
-57.90000000001055
 20
-187.1659294177334
 30
0.0
 11
143.9494095539958
 21
-52.60000000000037
 31
0.0
  0
LINE
  5
264F
330
2A24
100
AcDbEntity
  8
0
 62
     0
100
AcDbLine
 10
-157.9000000000142
 20
-253.8324258494395
 30
0.0
 11
-57.90000000001055
 21
-187.1659294177334
 31
0.0
  0
LINE
  5
2650
330
2A24
100
AcDbEntity
  8
0
 62
     0
100
AcDbLine
 10
-57.90000000001055
 20
-184.1659628823163
 30
0.0
 11
139.4494482601076
 21
-52.60000000000037
 31
0.0
  0
LINE
  5
2651
330
2A24
100
AcDbEntity
  8
0
 62
     0
100
AcDbLine
 10
-157.9000000000123
 20
-250.8324593140205
 30
0.0
 11
-57.90000000001055
 21
-184.1659628823163
 31
0.0
  0
LINE
  5
2652
330
2A24
100
AcDbEntity
  8
0
 62
     0
100
AcDbLine
 10
-57.90000000001237
 20
-181.165996346901
 30
0.0
 11
134.9494869662212
 21
-52.60000000000037
 31
0.0
  0
LINE
  5
2653
330
2A24
100
AcDbEntity
  8
0
 62
     0
100
AcDbLine
 10
-157.900000000016
 20
-247.8324927786052
 30
0.0
 11
-57.90000000001237
 21
-181.165996346901
 31
0.0
  0
LINE
  5
2654
330
2A24
100
AcDbEntity
  8
0
 62
     0
100
AcDbLine
 10
-57.90000000001055
 20
-178.1660298114839
 30
0.0
 11
130.4495256723348
 21
-52.60000000000218
 31
0.0
  0
LINE
  5
2655
330
2A24
100
AcDbEntity
  8
0
 62
     0
100
AcDbLine
 10
-157.9000000000123
 20
-244.8325262431881
 30
0.0
 11
-57.90000000001055
 21
-178.1660298114839
 31
0.0
  0
LINE
  5
2656
330
2A24
100
AcDbEntity
  8
0
 62
     0
100
AcDbLine
 10
-57.90000000001055
 20
-175.1660632760686
 30
0.0
 11
125.9495643784503
 21
-52.60000000000037
 31
0.0
  0
LINE
  5
2657
330
2A24
100
AcDbEntity
  8
0
 62
     0
100
AcDbLine
 10
-157.9000000000142
 20
-241.8325597077728
 30
0.0
 11
-57.90000000001055
 21
-175.1660632760686
 31
0.0
  0
LINE
  5
2658
330
2A24
100
AcDbEntity
  8
0
 62
     0
100
AcDbLine
 10
-57.90000000001237
 20
-172.1660967406515
 30
0.0
 11
121.4496030845676
 21
-52.59999999999855
 31
0.0
  0
LINE
  5
2659
330
2A24
100
AcDbEntity
  8
0
 62
     0
100
AcDbLine
 10
-157.9000000000142
 20
-238.8325931723575
 30
0.0
 11
-57.90000000001237
 21
-172.1660967406515
 31
0.0
  0
LINE
  5
265A
330
2A24
100
AcDbEntity
  8
0
 62
     0
100
AcDbLine
 10
-57.90000000001237
 20
-169.1661302052362
 30
0.0
 11
116.949641790683
 21
-52.59999999999855
 31
0.0
  0
LINE
  5
265B
330
2A24
100
AcDbEntity
  8
0
 62
     0
100
AcDbLine
 10
-157.900000000016
 20
-235.8326266369404
 30
0.0
 11
-57.90000000001237
 21
-169.1661302052362
 31
0.0
  0
LINE
  5
265C
330
2A24
100
AcDbEntity
  8
0
 62
     0
100
AcDbLine
 10
-57.90000000001055
 20
-166.1661636698209
 30
0.0
 11
112.4496804967966
 21
-52.60000000000037
 31
0.0
  0
LINE
  5
265D
330
2A24
100
AcDbEntity
  8
0
 62
     0
100
AcDbLine
 10
-157.9000000000123
 20
-232.8326601015251
 30
0.0
 11
-57.90000000001055
 21
-166.1661636698209
 31
0.0
  0
LINE
  5
265E
330
2A24
100
AcDbEntity
  8
0
 62
     0
100
AcDbLine
 10
-57.90000000000873
 20
-163.1661971344019
 30
0.0
 11
107.9497192029102
 21
-52.60000000000037
 31
0.0
  0
LINE
  5
265F
330
2A24
100
AcDbEntity
  8
0
 62
     0
100
AcDbLine
 10
-157.9000000000123
 20
-229.8326935661062
 30
0.0
 11
-57.90000000000873
 21
-163.1661971344019
 31
0.0
  0
LINE
  5
2660
330
2A24
100
AcDbEntity
  8
0
 62
     0
100
AcDbLine
 10
-57.90000000001237
 20
-160.1662305989885
 30
0.0
 11
103.4497579090221
 21
-52.60000000000037
 31
0.0
  0
LINE
  5
2661
330
2A24
100
AcDbEntity
  8
0
 62
     0
100
AcDbLine
 10
-157.9000000000142
 20
-226.8327270306927
 30
0.0
 11
-57.90000000001237
 21
-160.1662305989885
 31
0.0
  0
LINE
  5
2662
330
2A24
100
AcDbEntity
  8
0
 62
     0
100
AcDbLine
 10
-57.90000000000873
 20
-157.1662640635695
 30
0.0
 11
98.94979661513755
 21
-52.60000000000037
 31
0.0
  0
LINE
  5
2663
330
2A24
100
AcDbEntity
  8
0
 62
     0
100
AcDbLine
 10
-157.9000000000123
 20
-223.8327604952756
 30
0.0
 11
-57.90000000000873
 21
-157.1662640635695
 31
0.0
  0
LINE
  5
2664
330
2A24
100
AcDbEntity
  8
0
 62
     0
100
AcDbLine
 10
-57.90000000001237
 20
-154.166297528156
 30
0.0
 11
94.44983532125116
 21
-52.60000000000218
 31
0.0
  0
LINE
  5
2665
330
2A24
100
AcDbEntity
  8
0
 62
     0
100
AcDbLine
 10
-157.9000000000142
 20
-220.8327939598603
 30
0.0
 11
-57.90000000001237
 21
-154.166297528156
 31
0.0
  0
LINE
  5
2666
330
2A24
100
AcDbEntity
  8
0
 62
     0
100
AcDbLine
 10
-57.90000000001055
 20
-151.1663309927371
 30
0.0
 11
89.94987402736844
 21
-52.59999999999855
 31
0.0
  0
LINE
  5
2667
330
2A24
100
AcDbEntity
  8
0
 62
     0
100
AcDbLine
 10
-157.9000000000142
 20
-217.8328274244432
 30
0.0
 11
-57.90000000001055
 21
-151.1663309927371
 31
0.0
  0
LINE
  5
2668
330
2A24
100
AcDbEntity
  8
0
 62
     0
100
AcDbLine
 10
-57.90000000001237
 20
-148.1663644573236
 30
0.0
 11
85.44991273348387
 21
-52.59999999999855
 31
0.0
  0
LINE
  5
2669
330
2A24
100
AcDbEntity
  8
0
 62
     0
100
AcDbLine
 10
-157.9000000000142
 20
-214.8328608890279
 30
0.0
 11
-57.90000000001237
 21
-148.1663644573236
 31
0.0
  0
LINE
  5
266A
330
2A24
100
AcDbEntity
  8
0
 62
     0
100
AcDbLine
 10
-57.90000000000873
 20
-145.1663979219065
 30
0.0
 11
80.94995143959932
 21
-52.59999999999855
 31
0.0
  0
LINE
  5
266B
330
2A24
100
AcDbEntity
  8
0
 62
     0
100
AcDbLine
 10
-157.9000000000123
 20
-211.8328943536107
 30
0.0
 11
-57.90000000000873
 21
-145.1663979219065
 31
0.0
  0
LINE
  5
266C
330
2A24
100
AcDbEntity
  8
0
 62
     0
100
AcDbLine
 10
-57.90000000000873
 20
-142.1664313864876
 30
0.0
 11
76.44999014571112
 21
-52.59999999999855
 31
0.0
  0
LINE
  5
266D
330
2A24
100
AcDbEntity
  8
0
 62
     0
100
AcDbLine
 10
-157.9000000000142
 20
-208.8329278181955
 30
0.0
 11
-57.90000000000873
 21
-142.1664313864876
 31
0.0
  0
LINE
  5
266E
330
2A24
100
AcDbEntity
  8
0
 62
     0
100
AcDbLine
 10
-57.90000000001055
 20
-139.1664648510741
 30
0.0
 11
71.95002885182475
 21
-52.60000000000037
 31
0.0
  0
LINE
  5
266F
330
2A24
100
AcDbEntity
  8
0
 62
     0
100
AcDbLine
 10
-157.9000000000142
 20
-205.8329612827783
 30
0.0
 11
-57.90000000001055
 21
-139.1664648510741
 31
0.0
  0
LINE
  5
2670
330
2A24
100
AcDbEntity
  8
0
 62
     0
100
AcDbLine
 10
-57.90000000000873
 20
-136.1664983156552
 30
0.0
 11
67.45006755793838
 21
-52.60000000000037
 31
0.0
  0
LINE
  5
2671
330
2A24
100
AcDbEntity
  8
0
 62
     0
100
AcDbLine
 10
-157.9000000000142
 20
-202.832994747363
 30
0.0
 11
-57.90000000000873
 21
-136.1664983156552
 31
0.0
  0
LINE
  5
2672
330
2A24
100
AcDbEntity
  8
0
 62
     0
100
AcDbLine
 10
-57.90000000001055
 20
-133.1665317802417
 30
0.0
 11
62.95010626405201
 21
-52.60000000000218
 31
0.0
  0
LINE
  5
2673
330
2A24
100
AcDbEntity
  8
0
 62
     0
100
AcDbLine
 10
-157.9000000000142
 20
-199.8330282119459
 30
0.0
 11
-57.90000000001055
 21
-133.1665317802417
 31
0.0
  0
LINE
  5
2674
330
2A24
100
AcDbEntity
  8
0
 62
     0
100
AcDbLine
 10
-57.90000000001055
 20
-130.1665652448246
 30
0.0
 11
58.45014497016563
 21
-52.60000000000037
 31
0.0
  0
LINE
  5
2675
330
2A24
100
AcDbEntity
  8
0
 62
     0
100
AcDbLine
 10
-157.9000000000142
 20
-196.8330616765288
 30
0.0
 11
-57.90000000001055
 21
-130.1665652448246
 31
0.0
  0
LINE
  5
2676
330
2A24
100
AcDbEntity
  8
0
 62
     0
100
AcDbLine
 10
-57.90000000001055
 20
-127.1665987094093
 30
0.0
 11
53.95018367628654
 21
-52.59999999999855
 31
0.0
  0
LINE
  5
2677
330
2A24
100
AcDbEntity
  8
0
 62
     0
100
AcDbLine
 10
-157.9000000000142
 20
-193.8330951411152
 30
0.0
 11
-57.90000000001055
 21
-127.1665987094093
 31
0.0
  0
LINE
  5
2678
330
2A24
100
AcDbEntity
  8
0
 62
     0
100
AcDbLine
 10
-57.90000000000873
 20
-124.1666321739922
 30
0.0
 11
49.45022238240017
 21
-52.59999999999855
 31
0.0
  0
LINE
  5
2679
330
2A24
100
AcDbEntity
  8
0
 62
     0
100
AcDbLine
 10
-157.9000000000123
 20
-190.8331286056964
 30
0.0
 11
-57.90000000000873
 21
-124.1666321739922
 31
0.0
  0
LINE
  5
267A
330
2A24
100
AcDbEntity
  8
0
 62
     0
100
AcDbLine
 10
-57.90000000000873
 20
-121.166665638575
 30
0.0
 11
44.95026108851377
 21
-52.60000000000037
 31
0.0
  0
LINE
  5
267B
330
2A24
100
AcDbEntity
  8
0
 62
     0
100
AcDbLine
 10
-157.9000000000104
 20
-187.8331620702811
 30
0.0
 11
-57.90000000001055
 21
-121.1666656385787
 31
0.0
  0
LINE
  5
267C
330
2A24
100
AcDbEntity
  8
0
 62
     0
100
AcDbLine
 10
-57.90000000001055
 20
-118.1666991031598
 30
0.0
 11
40.45029979462561
 21
-52.60000000000037
 31
0.0
  0
LINE
  5
267D
330
2A24
100
AcDbEntity
  8
0
 62
     0
100
AcDbLine
 10
-157.9000000000104
 20
-184.8331955348621
 30
0.0
 11
-57.90000000001055
 21
-118.1666991031598
 31
0.0
  0
LINE
  5
267E
330
2A24
100
AcDbEntity
  8
0
 62
     0
100
AcDbLine
 10
-57.90000000000873
 20
-115.1667325677445
 30
0.0
 11
35.95033850074106
 21
-52.60000000000037
 31
0.0
  0
LINE
  5
267F
330
2A24
100
AcDbEntity
  8
0
 62
     0
100
AcDbLine
 10
-157.9000000000086
 20
-181.8332289994468
 30
0.0
 11
-57.90000000000873
 21
-115.1667325677445
 31
0.0
  0
LINE
  5
2680
330
2A24
100
AcDbEntity
  8
0
 62
     0
100
AcDbLine
 10
-57.90000000001055
 20
-112.1667660323273
 30
0.0
 11
31.45037720685468
 21
-52.60000000000037
 31
0.0
  0
LINE
  5
2681
330
2A24
100
AcDbEntity
  8
0
 62
     0
100
AcDbLine
 10
-157.9000000000104
 20
-178.8332624640297
 30
0.0
 11
-57.90000000001055
 21
-112.1667660323273
 31
0.0
  0
LINE
  5
2682
330
2A24
100
AcDbEntity
  8
0
 62
     0
100
AcDbLine
 10
-57.90000000001055
 20
-109.166799496912
 30
0.0
 11
26.95041591296649
 21
-52.60000000000218
 31
0.0
  0
LINE
  5
2683
330
2A24
100
AcDbEntity
  8
0
 62
     0
100
AcDbLine
 10
-157.9000000000142
 20
-175.8332959286161
 30
0.0
 11
-57.90000000001055
 21
-109.166799496912
 31
0.0
  0
LINE
  5
2684
330
2A24
100
AcDbEntity
  8
0
 62
     0
100
AcDbLine
 10
-57.90000000001055
 20
-106.1668329614949
 30
0.0
 11
22.45045461908739
 21
-52.59999999999855
 31
0.0
  0
LINE
  5
2685
330
2A24
100
AcDbEntity
  8
0
 62
     0
100
AcDbLine
 10
-157.9000000000104
 20
-172.8333293931991
 30
0.0
 11
-57.90000000001055
 21
-106.1668329614949
 31
0.0
  0
LINE
  5
2686
330
2A24
100
AcDbEntity
  8
0
 62
     0
100
AcDbLine
 10
-57.90000000000873
 20
-103.1668664260796
 30
0.0
 11
17.95049332520284
 21
-52.60000000000037
 31
0.0
  0
LINE
  5
2687
330
2A24
100
AcDbEntity
  8
0
 62
     0
100
AcDbLine
 10
-157.9000000000086
 20
-169.833362857782
 30
0.0
 11
-57.90000000000873
 21
-103.1668664260796
 31
0.0
  0
LINE
  5
2688
330
2A24
100
AcDbEntity
  8
0
 62
     0
100
AcDbLine
 10
-57.90000000001237
 20
-100.1668998906643
 30
0.0
 11
13.45053203131283
 21
-52.59999999999855
 31
0.0
  0
LINE
  5
2689
330
2A24
100
AcDbEntity
  8
0
 62
     0
100
AcDbLine
 10
-157.9000000000123
 20
-166.8333963223667
 30
0.0
 11
-57.90000000001237
 21
-100.1668998906643
 31
0.0
  0
LINE
  5
268A
330
2A24
100
AcDbEntity
  8
0
 62
     0
100
AcDbLine
 10
-57.90000000001055
 20
-97.16693335524542
 30
0.0
 11
8.950570737428279
 21
-52.59999999999855
 31
0.0
  0
LINE
  5
268B
330
2A24
100
AcDbEntity
  8
0
 62
     0
100
AcDbLine
 10
-157.9000000000104
 20
-163.8334297869478
 30
0.0
 11
-57.90000000001055
 21
-97.16693335524542
 31
0.0
  0
LINE
  5
268C
330
2A24
100
AcDbEntity
  8
0
 62
     0
100
AcDbLine
 10
-57.90000000001055
 20
-94.16696681983195
 30
0.0
 11
4.450609443541907
 21
-52.60000000000037
 31
0.0
  0
LINE
  5
268D
330
2A24
100
AcDbEntity
  8
0
 62
     0
100
AcDbLine
 10
-157.9000000000104
 20
-160.8334632515343
 30
0.0
 11
-57.90000000001055
 21
-94.16696681983195
 31
0.0
  0
LINE
  5
268E
330
2A24
100
AcDbEntity
  8
0
 62
     0
100
AcDbLine
 10
-57.90000000001055
 20
-91.16700028441295
 30
0.0
 11
-0.0493518503444648
 21
-52.60000000000037
 31
0.0
  0
LINE
  5
268F
330
2A24
100
AcDbEntity
  8
0
 62
     0
100
AcDbLine
 10
-157.9000000000104
 20
-157.8334967161172
 30
0.0
 11
-57.90000000001055
 21
-91.16700028441295
 31
0.0
  0
LINE
  5
2690
330
2A24
100
AcDbEntity
  8
0
 62
     0
100
AcDbLine
 10
-57.90000000000873
 20
-88.16703374899772
 30
0.0
 11
-4.549313144230833
 21
-52.60000000000218
 31
0.0
  0
LINE
  5
2691
330
2A24
100
AcDbEntity
  8
0
 62
     0
100
AcDbLine
 10
-157.9000000000123
 20
-154.8335301807019
 30
0.0
 11
-57.90000000000873
 21
-88.16703374899772
 31
0.0
  0
LINE
  5
2692
330
2A24
100
AcDbEntity
  8
0
 62
     0
100
AcDbLine
 10
-57.90000000001055
 20
-85.16706721358241
 30
0.0
 11
-9.049274438117208
 21
-52.60000000000218
 31
0.0
  0
LINE
  5
2693
330
2A24
100
AcDbEntity
  8
0
 62
     0
100
AcDbLine
 10
-157.9000000000104
 20
-151.8335636452848
 30
0.0
 11
-57.90000000001055
 21
-85.16706721358241
 31
0.0
  0
LINE
  5
2694
330
2A24
100
AcDbEntity
  8
0
 62
     0
100
AcDbLine
 10
-57.90000000000873
 20
-82.16710067816531
 30
0.0
 11
-13.54923573199812
 21
-52.59999999999855
 31
0.0
  0
LINE
  5
2695
330
2A24
100
AcDbEntity
  8
0
 62
     0
100
AcDbLine
 10
-157.9000000000104
 20
-148.8335971098677
 30
0.0
 11
-57.90000000000873
 21
-82.16710067816531
 31
0.0
  0
LINE
  5
2696
330
2A24
100
AcDbEntity
  8
0
 62
     0
100
AcDbLine
 10
-57.90000000001237
 20
-79.16713414275
 30
0.0
 11
-18.04919702588449
 21
-52.59999999999855
 31
0.0
  0
LINE
  5
2697
330
2A24
100
AcDbEntity
  8
0
 62
     0
100
AcDbLine
 10
-157.9000000000123
 20
-145.8336305744524
 30
0.0
 11
-57.90000000001237
 21
-79.16713414275
 31
0.0
  0
LINE
  5
2698
330
2A24
100
AcDbEntity
  8
0
 62
     0
100
AcDbLine
 10
-57.90000000000873
 20
-76.16716760733284
 30
0.0
 11
-22.54915831977087
 21
-52.60000000000037
 31
0.0
  0
LINE
  5
2699
330
2A24
100
AcDbEntity
  8
0
 62
     0
100
AcDbLine
 10
-157.9000000000104
 20
-142.8336640390353
 30
0.0
 11
-57.90000000000873
 21
-76.16716760733284
 31
0.0
  0
LINE
  5
269A
330
2A24
100
AcDbEntity
  8
0
 62
     0
100
AcDbLine
 10
-57.90000000001055
 20
-73.16720107191759
 30
0.0
 11
-27.04911961365543
 21
-52.60000000000037
 31
0.0
  0
LINE
  5
269B
330
2A24
100
AcDbEntity
  8
0
 62
     0
100
AcDbLine
 10
-157.9000000000104
 20
-139.83369750362
 30
0.0
 11
-57.90000000001055
 21
-73.16720107191759
 31
0.0
  0
LINE
  5
269C
330
2A24
100
AcDbEntity
  8
0
 62
     0
100
AcDbLine
 10
-57.90000000000873
 20
-70.16723453650229
 30
0.0
 11
-31.54908090754179
 21
-52.60000000000037
 31
0.0
  0
LINE
  5
269D
330
2A24
100
AcDbEntity
  8
0
 62
     0
100
AcDbLine
 10
-157.9000000000104
 20
-136.8337309682047
 30
0.0
 11
-57.90000000000873
 21
-70.16723453650229
 31
0.0
  0
LINE
  5
269E
330
2A24
100
AcDbEntity
  8
0
 62
     0
100
AcDbLine
 10
-57.90000000000873
 20
-67.16726800108336
 30
0.0
 11
-36.04904220142998
 21
-52.60000000000037
 31
0.0
  0
LINE
  5
269F
330
2A24
100
AcDbEntity
  8
0
 62
     0
100
AcDbLine
 10
-157.9000000000123
 20
-133.8337644327876
 30
0.0
 11
-57.90000000001237
 21
-67.16726800108517
 31
0.0
  0
LINE
  5
26A0
330
2A24
100
AcDbEntity
  8
0
 62
     0
100
AcDbLine
 10
-57.90000000001055
 20
-64.16730146566988
 30
0.0
 11
-40.54900349531453
 21
-52.60000000000218
 31
0.0
  0
LINE
  5
26A1
330
2A24
100
AcDbEntity
  8
0
 62
     0
100
AcDbLine
 10
-157.9000000000104
 20
-130.8337978973723
 30
0.0
 11
-57.90000000001055
 21
-64.16730146566988
 31
0.0
  0
LINE
  5
26A2
330
2A24
100
AcDbEntity
  8
0
 62
     0
100
AcDbLine
 10
-57.90000000000873
 20
-61.16733493025094
 30
0.0
 11
-45.04896478919545
 21
-52.59999999999855
 31
0.0
  0
LINE
  5
26A3
330
2A24
100
AcDbEntity
  8
0
 62
     0
100
AcDbLine
 10
-157.9000000000086
 20
-127.8338313619533
 30
0.0
 11
-57.90000000000873
 21
-61.16733493025094
 31
0.0
  0
LINE
  5
26A4
330
2A24
100
AcDbEntity
  8
0
 62
     0
100
AcDbLine
 10
-57.90000000001237
 20
-58.16736839483564
 30
0.0
 11
-49.54892608308362
 21
-52.59999999999855
 31
0.0
  0
LINE
  5
26A5
330
2A24
100
AcDbEntity
  8
0
 62
     0
100
AcDbLine
 10
-157.9000000000123
 20
-124.833864826538
 30
0.0
 11
-57.90000000001237
 21
-58.16736839483564
 31
0.0
  0
LINE
  5
26A6
330
2A24
100
AcDbEntity
  8
0
 62
     0
100
AcDbLine
 10
-57.90000000000873
 20
-55.16740185942034
 30
0.0
 11
-54.04888737696818
 21
-52.59999999999855
 31
0.0
  0
LINE
  5
26A7
330
2A24
100
AcDbEntity
  8
0
 62
     0
100
AcDbLine
 10
-157.9000000000086
 20
-121.8338982911226
 30
0.0
 11
-57.90000000000873
 21
-55.16740185942034
 31
0.0
  0
LINE
  5
26A8
330
2A24
100
AcDbEntity
  8
0
 62
     0
100
AcDbLine
 10
-157.9000000000104
 20
-118.8339317557056
 30
0.0
 11
-58.54884867085456
 21
-52.59999999999855
 31
0.0
  0
LINE
  5
26A9
330
2A24
100
AcDbEntity
  8
0
 62
     0
100
AcDbLine
 10
-157.9000000000104
 20
-115.8339652202903
 30
0.0
 11
-63.04880996473912
 21
-52.59999999999855
 31
0.0
  0
LINE
  5
26AA
330
2A24
100
AcDbEntity
  8
0
 62
     0
100
AcDbLine
 10
-157.9000000000123
 20
-112.8339986848732
 30
0.0
 11
-67.54877125862731
 21
-52.60000000000037
 31
0.0
  0
LINE
  5
26AB
330
2A24
100
AcDbEntity
  8
0
 62
     0
100
AcDbLine
 10
-157.9000000000086
 20
-109.8340321494579
 30
0.0
 11
-72.04873255251005
 21
-52.60000000000037
 31
0.0
  0
LINE
  5
26AC
330
2A24
100
AcDbEntity
  8
0
 62
     0
100
AcDbLine
 10
-157.9000000000086
 20
-106.8340656140408
 30
0.0
 11
-76.54869384639822
 21
-52.59999999999855
 31
0.0
  0
LINE
  5
26AD
330
2A24
100
AcDbEntity
  8
0
 62
     0
100
AcDbLine
 10
-157.9000000000104
 20
-103.8340990786255
 30
0.0
 11
-81.04865514028093
 21
-52.59999999999855
 31
0.0
  0
LINE
  5
26AE
330
2A24
100
AcDbEntity
  8
0
 62
     0
100
AcDbLine
 10
-157.9000000000086
 20
-100.8341325432084
 30
0.0
 11
-85.54861643416733
 21
-52.59999999999855
 31
0.0
  0
LINE
  5
26AF
330
2A24
100
AcDbEntity
  8
0
 62
     0
100
AcDbLine
 10
-157.9000000000104
 20
-97.83416600779311
 30
0.0
 11
-90.04857772805371
 21
-52.60000000000037
 31
0.0
  0
LINE
  5
26B0
330
2A24
100
AcDbEntity
  8
0
 62
     0
100
AcDbLine
 10
-157.9000000000104
 20
-94.83419947237598
 30
0.0
 11
-94.54853902193828
 21
-52.59999999999855
 31
0.0
  0
LINE
  5
26B1
330
2A24
100
AcDbEntity
  8
0
 62
     0
100
AcDbLine
 10
-157.9000000000104
 20
-91.83423293696248
 30
0.0
 11
-99.04850031582284
 21
-52.59999999999855
 31
0.0
  0
LINE
  5
26B2
330
2A24
100
AcDbEntity
  8
0
 62
     0
100
AcDbLine
 10
-157.9000000000086
 20
-88.83426640154356
 30
0.0
 11
-103.5484616097092
 21
-52.59999999999855
 31
0.0
  0
LINE
  5
26B3
330
2A24
100
AcDbEntity
  8
0
 62
     0
100
AcDbLine
 10
-157.9000000000104
 20
-85.83429986612825
 30
0.0
 11
-108.0484229035955
 21
-52.59999999999855
 31
0.0
  0
LINE
  5
26B4
330
2A24
100
AcDbEntity
  8
0
 62
     0
100
AcDbLine
 10
-157.9000000000104
 20
-82.83433333071117
 30
0.0
 11
-112.5483841974801
 21
-52.59999999999855
 31
0.0
  0
LINE
  5
26B5
330
2A24
100
AcDbEntity
  8
0
 62
     0
100
AcDbLine
 10
-157.9000000000086
 20
-79.83436679529404
 30
0.0
 11
-117.0483454913683
 21
-52.60000000000037
 31
0.0
  0
LINE
  5
26B6
330
2A24
100
AcDbEntity
  8
0
 62
     0
100
AcDbLine
 10
-157.9000000000104
 20
-76.83440025988057
 30
0.0
 11
-121.5483067852528
 21
-52.59999999999855
 31
0.0
  0
LINE
  5
26B7
330
2A24
100
AcDbEntity
  8
0
 62
     0
100
AcDbLine
 10
-157.9000000000104
 20
-73.83443372446162
 30
0.0
 11
-126.0482680791392
 21
-52.59999999999855
 31
0.0
  0
LINE
  5
26B8
330
2A24
100
AcDbEntity
  8
0
 62
     0
100
AcDbLine
 10
-157.9000000000104
 20
-70.83446718904816
 30
0.0
 11
-130.5482293730219
 21
-52.59999999999855
 31
0.0
  0
LINE
  5
26B9
330
2A24
100
AcDbEntity
  8
0
 62
     0
100
AcDbLine
 10
-157.9000000000086
 20
-67.83450065362922
 30
0.0
 11
-135.0481906669101
 21
-52.60000000000037
 31
0.0
  0
LINE
  5
26BA
330
2A24
100
AcDbEntity
  8
0
 62
     0
100
AcDbLine
 10
-157.9000000000104
 20
-64.83453411821574
 30
0.0
 11
-139.5481519607947
 21
-52.60000000000037
 31
0.0
  0
LINE
  5
26BB
330
2A24
100
AcDbEntity
  8
0
 62
     0
100
AcDbLine
 10
-157.9000000000104
 20
-61.83456758279863
 30
0.0
 11
-144.048113254681
 21
-52.59999999999855
 31
0.0
  0
LINE
  5
26BC
330
2A24
100
AcDbEntity
  8
0
 62
     0
100
AcDbLine
 10
-157.9000000000104
 20
-58.83460104738333
 30
0.0
 11
-148.5480745485656
 21
-52.60000000000037
 31
0.0
  0
LINE
  5
26BD
330
2A24
100
AcDbEntity
  8
0
 62
     0
100
AcDbLine
 10
-157.9000000000104
 20
-55.83463451196621
 30
0.0
 11
-153.0480358424502
 21
-52.59999999999855
 31
0.0
  0
LINE
  5
26BE
330
2A24
100
AcDbEntity
  8
0
 62
     0
100
AcDbLine
 10
-157.9000000000104
 20
-52.83466797654909
 30
0.0
 11
-157.5479971363365
 21
-52.60000000000037
 31
0.0
  0
ENDBLK
  5
26BF
330
2A24
100
AcDbEntity
  8
0
100
AcDbBlockEnd
  0
BLOCK
  5
2A27
330
2A26
100
AcDbEntity
  8
0
100
AcDbBlockBegin
  2
*X69
 70
     1
 10
0.0
 20
0.0
 30
0.0
  3
*X69
  1

  0
LINE
  5
26C2
330
2A26
100
AcDbEntity
  8
0
 62
     0
100
AcDbLine
 10
-157.9000000000069
 20
-324.9313771232137
 30
0.0
 11
-155.6970600595596
 21
-326.4000000000032
 31
0.0
  0
LINE
  5
26C3
330
2A26
100
AcDbEntity
  8
0
 62
     0
100
AcDbLine
 10
-157.9000000000069
 20
-321.9314105877966
 30
0.0
 11
-151.1970987656748
 21
-326.4000000000032
 31
0.0
  0
LINE
  5
26C4
330
2A26
100
AcDbEntity
  8
0
 62
     0
100
AcDbLine
 10
-157.9000000000086
 20
-318.9314440523812
 30
0.0
 11
-146.6971374717923
 21
-326.4000000000032
 31
0.0
  0
LINE
  5
26C5
330
2A26
100
AcDbEntity
  8
0
 62
     0
100
AcDbLine
 10
-157.9000000000086
 20
-315.9314775169641
 30
0.0
 11
-142.1971761779041
 21
-326.4000000000032
 31
0.0
  0
LINE
  5
26C6
330
2A26
100
AcDbEntity
  8
0
 62
     0
100
AcDbLine
 10
-157.9000000000069
 20
-312.9315109815471
 30
0.0
 11
-137.6972148840214
 21
-326.3999999999996
 31
0.0
  0
LINE
  5
26C7
330
2A26
100
AcDbEntity
  8
0
 62
     0
100
AcDbLine
 10
-157.9000000000086
 20
-309.9315444461317
 30
0.0
 11
-133.1972535901332
 21
-326.4000000000032
 31
0.0
  0
LINE
  5
26C8
330
2A26
100
AcDbEntity
  8
0
 62
     0
100
AcDbLine
 10
-157.9000000000069
 20
-306.9315779107146
 30
0.0
 11
-128.6972922962485
 21
-326.4000000000014
 31
0.0
  0
LINE
  5
26C9
330
2A26
100
AcDbEntity
  8
0
 62
     0
100
AcDbLine
 10
-157.9000000000069
 20
-303.9316113752993
 30
0.0
 11
-124.1973310023622
 21
-326.4000000000032
 31
0.0
  0
LINE
  5
26CA
330
2A26
100
AcDbEntity
  8
0
 62
     0
100
AcDbLine
 10
-157.9000000000069
 20
-300.9316448398822
 30
0.0
 11
-119.6973697084795
 21
-326.4000000000014
 31
0.0
  0
LINE
  5
26CB
330
2A26
100
AcDbEntity
  8
0
 62
     0
100
AcDbLine
 10
-157.9000000000086
 20
-297.9316783044668
 30
0.0
 11
-115.1974084145912
 21
-326.4000000000051
 31
0.0
  0
LINE
  5
26CC
330
2A26
100
AcDbEntity
  8
0
 62
     0
100
AcDbLine
 10
-157.9000000000069
 20
-294.9317117690516
 30
0.0
 11
-110.6974471207068
 21
-326.4000000000014
 31
0.0
  0
LINE
  5
26CD
330
2A26
100
AcDbEntity
  8
0
 62
     0
100
AcDbLine
 10
-157.9000000000069
 20
-291.9317452336345
 30
0.0
 11
-106.1974858268204
 21
-326.4000000000032
 31
0.0
  0
LINE
  5
26CE
330
2A26
100
AcDbEntity
  8
0
 62
     0
100
AcDbLine
 10
-157.9000000000086
 20
-288.9317786982174
 30
0.0
 11
-101.6975245329376
 21
-326.4000000000014
 31
0.0
  0
LINE
  5
26CF
330
2A26
100
AcDbEntity
  8
0
 62
     0
100
AcDbLine
 10
-157.9000000000069
 20
-285.9318121628021
 30
0.0
 11
-97.19756323904949
 21
-326.4000000000032
 31
0.0
  0
LINE
  5
26D0
330
2A26
100
AcDbEntity
  8
0
 62
     0
100
AcDbLine
 10
-157.9000000000069
 20
-282.9318456273849
 30
0.0
 11
-92.69760194516312
 21
-326.4000000000032
 31
0.0
  0
LINE
  5
26D1
330
2A26
100
AcDbEntity
  8
0
 62
     0
100
AcDbLine
 10
-157.9000000000069
 20
-279.9318790919715
 30
0.0
 11
-88.19764065128039
 21
-326.4000000000014
 31
0.0
  0
LINE
  5
26D2
330
2A26
100
AcDbEntity
  8
0
 62
     0
100
AcDbLine
 10
-157.9000000000086
 20
-276.9319125565544
 30
0.0
 11
-83.69767935739218
 21
-326.4000000000032
 31
0.0
  0
LINE
  5
26D3
330
2A26
100
AcDbEntity
  8
0
 62
     0
100
AcDbLine
 10
-157.9000000000051
 20
-273.9319460211373
 30
0.0
 11
-79.19771806350579
 21
-326.4000000000014
 31
0.0
  0
LINE
  5
26D4
330
2A26
100
AcDbEntity
  8
0
 62
     0
100
AcDbLine
 10
-157.9000000000086
 20
-270.9319794857202
 30
0.0
 11
-74.69775676962126
 21
-326.4000000000032
 31
0.0
  0
LINE
  5
26D5
330
2A26
100
AcDbEntity
  8
0
 62
     0
100
AcDbLine
 10
-157.9000000000069
 20
-267.9320129503048
 30
0.0
 11
-70.19779547573853
 21
-326.3999999999996
 31
0.0
  0
LINE
  5
26D6
330
2A26
100
AcDbEntity
  8
0
 62
     0
100
AcDbLine
 10
-157.9000000000086
 20
-264.9320464148877
 30
0.0
 11
-65.69783418184852
 21
-326.4000000000032
 31
0.0
  0
LINE
  5
26D7
330
2A26
100
AcDbEntity
  8
0
 62
     0
100
AcDbLine
 10
-157.9000000000051
 20
-261.9320798794724
 30
0.0
 11
-61.19787288796579
 21
-326.4000000000014
 31
0.0
  0
LINE
  5
26D8
330
2A26
100
AcDbEntity
  8
0
 62
     0
100
AcDbLine
 10
-157.9000000000086
 20
-258.9321133440571
 30
0.0
 11
-56.69791159407941
 21
-326.4000000000032
 31
0.0
  0
LINE
  5
26D9
330
2A26
100
AcDbEntity
  8
0
 62
     0
100
AcDbLine
 10
-157.9000000000069
 20
-255.93214680864
 30
0.0
 11
-52.19795030019485
 21
-326.4000000000014
 31
0.0
  0
LINE
  5
26DA
330
2A26
100
AcDbEntity
  8
0
 62
     0
100
AcDbLine
 10
-157.9000000000069
 20
-252.9321802732247
 30
0.0
 11
-47.69798900630486
 21
-326.4000000000051
 31
0.0
  0
LINE
  5
26DB
330
2A26
100
AcDbEntity
  8
0
 62
     0
100
AcDbLine
 10
-157.9000000000069
 20
-249.9322137378076
 30
0.0
 11
-43.19802771242392
 21
-326.4000000000014
 31
0.0
  0
LINE
  5
26DC
330
2A26
100
AcDbEntity
  8
0
 62
     0
100
AcDbLine
 10
-157.9000000000086
 20
-246.9322472023923
 30
0.0
 11
-38.69806641853756
 21
-326.4000000000032
 31
0.0
  0
LINE
  5
26DD
330
2A26
100
AcDbEntity
  8
0
 62
     0
100
AcDbLine
 10
-157.9000000000069
 20
-243.9322806669752
 30
0.0
 11
-34.19810512465301
 21
-326.4000000000014
 31
0.0
  0
LINE
  5
26DE
330
2A26
100
AcDbEntity
  8
0
 62
     0
100
AcDbLine
 10
-157.9000000000069
 20
-240.9323141315599
 30
0.0
 11
-29.69814383076664
 21
-326.4000000000032
 31
0.0
  0
LINE
  5
26DF
330
2A26
100
AcDbEntity
  8
0
 62
     0
100
AcDbLine
 10
-157.9000000000086
 20
-237.9323475961428
 30
0.0
 11
-25.19818253688209
 21
-326.4000000000032
 31
0.0
  0
LINE
  5
26E0
330
2A26
100
AcDbEntity
  8
0
 62
     0
100
AcDbLine
 10
-157.9000000000069
 20
-234.9323810607293
 30
0.0
 11
-20.69822124299753
 21
-326.4000000000014
 31
0.0
  0
LINE
  5
26E1
330
2A26
100
AcDbEntity
  8
0
 62
     0
100
AcDbLine
 10
-157.9000000000069
 20
-231.9324145253104
 30
0.0
 11
-16.19825994910752
 21
-326.4000000000032
 31
0.0
  0
LINE
  5
26E2
330
2A26
100
AcDbEntity
  8
0
 62
     0
100
AcDbLine
 10
-157.9000000000069
 20
-228.9324479898933
 30
0.0
 11
-11.69829865522479
 21
-326.4000000000014
 31
0.0
  0
LINE
  5
26E3
330
2A26
100
AcDbEntity
  8
0
 62
     0
100
AcDbLine
 10
-157.9000000000086
 20
-225.9324814544779
 30
0.0
 11
-7.198337361340236
 21
-326.4000000000032
 31
0.0
  0
LINE
  5
26E4
330
2A26
100
AcDbEntity
  8
0
 62
     0
100
AcDbLine
 10
-157.9000000000051
 20
-222.9325149190608
 30
0.0
 11
-2.698376067453863
 21
-326.4000000000014
 31
0.0
  0
LINE
  5
26E5
330
2A26
100
AcDbEntity
  8
0
 62
     0
100
AcDbLine
 10
-157.9000000000069
 20
-219.9325483836456
 30
0.0
 11
1.801585226434323
 21
-326.4000000000032
 31
0.0
  0
LINE
  5
26E6
330
2A26
100
AcDbEntity
  8
0
 62
     0
100
AcDbLine
 10
-157.9000000000069
 20
-216.9325818482302
 30
0.0
 11
6.301546520317057
 21
-326.4000000000014
 31
0.0
  0
LINE
  5
26E7
330
2A26
100
AcDbEntity
  8
0
 62
     0
100
AcDbLine
 10
-157.9000000000069
 20
-213.932615312815
 30
0.0
 11
10.80150781420343
 21
-326.4000000000032
 31
0.0
  0
LINE
  5
26E8
330
2A26
100
AcDbEntity
  8
0
 62
     0
100
AcDbLine
 10
-157.9000000000051
 20
-210.9326487773977
 30
0.0
 11
15.30146910808798
 21
-326.4000000000014
 31
0.0
  0
LINE
  5
26E9
330
2A26
100
AcDbEntity
  8
0
 62
     0
100
AcDbLine
 10
-157.9000000000069
 20
-207.9326822419826
 30
0.0
 11
19.80143040197253
 21
-326.4000000000032
 31
0.0
  0
LINE
  5
26EA
330
2A26
100
AcDbEntity
  8
0
 62
     0
100
AcDbLine
 10
-157.9000000000069
 20
-204.9327157065636
 30
0.0
 11
24.30139169586073
 21
-326.4000000000014
 31
0.0
  0
LINE
  5
26EB
330
2A26
100
AcDbEntity
  8
0
 62
     0
100
AcDbLine
 10
-157.9000000000069
 20
-201.9327491711501
 30
0.0
 11
28.80135298974528
 21
-326.4000000000014
 31
0.0
  0
LINE
  5
26EC
330
2A26
100
AcDbEntity
  8
0
 62
     0
100
AcDbLine
 10
-157.9000000000069
 20
-198.932782635733
 30
0.0
 11
33.30131428362984
 21
-326.4000000000014
 31
0.0
  0
LINE
  5
26ED
330
2A26
100
AcDbEntity
  8
0
 62
     0
100
AcDbLine
 10
-157.9000000000086
 20
-195.9328161003177
 30
0.0
 11
37.80127557751439
 21
-326.4000000000032
 31
0.0
  0
LINE
  5
26EE
330
2A26
100
AcDbEntity
  8
0
 62
     0
100
AcDbLine
 10
-157.9000000000069
 20
-192.9328495649006
 30
0.0
 11
42.30123687140258
 21
-326.4000000000032
 31
0.0
  0
LINE
  5
26EF
330
2A26
100
AcDbEntity
  8
0
 62
     0
100
AcDbLine
 10
-157.9000000000033
 20
-189.9328830294851
 30
0.0
 11
46.80119816528713
 21
-326.3999999999996
 31
0.0
  0
LINE
  5
26F0
330
2A26
100
AcDbEntity
  8
0
 62
     0
100
AcDbLine
 10
-157.9000000000033
 20
-186.93291649407
 30
0.0
 11
51.3011594591753
 21
-326.4000000000032
 31
0.0
  0
LINE
  5
26F1
330
2A26
100
AcDbEntity
  8
0
 62
     0
100
AcDbLine
 10
-157.9000000000033
 20
-183.9329499586529
 30
0.0
 11
55.80112075305804
 21
-326.4000000000014
 31
0.0
  0
LINE
  5
26F2
330
2A26
100
AcDbEntity
  8
0
 62
     0
100
AcDbLine
 10
-157.9000000000014
 20
-180.9329834232376
 30
0.0
 11
60.30108204694625
 21
-326.4000000000032
 31
0.0
  0
LINE
  5
26F3
330
2A26
100
AcDbEntity
  8
0
 62
     0
100
AcDbLine
 10
-57.90000000000509
 20
-244.5995133195228
 30
0.0
 11
-55.19926308288813
 21
-246.4000000000015
 31
0.0
  0
LINE
  5
26F4
330
2A26
100
AcDbEntity
  8
0
 62
     0
100
AcDbLine
 10
-55.19926308288813
 20
-246.4000000000015
 30
0.0
 11
64.80104334082716
 21
-326.4000000000014
 31
0.0
  0
LINE
  5
26F5
330
2A26
100
AcDbEntity
  8
0
 62
     0
100
AcDbLine
 10
-157.9000000000051
 20
-177.9330168878205
 30
0.0
 11
-57.90000000000509
 21
-244.5995133195228
 31
0.0
  0
LINE
  5
26F6
330
2A26
100
AcDbEntity
  8
0
 62
     0
100
AcDbLine
 10
-57.90000000000327
 20
-241.5995467841094
 30
0.0
 11
-50.69930178900722
 21
-246.4000000000015
 31
0.0
  0
LINE
  5
26F7
330
2A26
100
AcDbEntity
  8
0
 62
     0
100
AcDbLine
 10
-50.69930178900358
 20
-246.4000000000033
 30
0.0
 11
69.30100463471717
 21
-326.4000000000051
 31
0.0
  0
LINE
  5
26F8
330
2A26
100
AcDbEntity
  8
0
 62
     0
100
AcDbLine
 10
-157.9000000000033
 20
-174.933050352407
 30
0.0
 11
-57.90000000000509
 21
-241.5995467841076
 31
0.0
  0
LINE
  5
26F9
330
2A26
100
AcDbEntity
  8
0
 62
     0
100
AcDbLine
 10
-57.90000000000509
 20
-238.5995802486905
 30
0.0
 11
-46.19934049511539
 21
-246.4000000000033
 31
0.0
  0
LINE
  5
26FA
330
2A26
100
AcDbEntity
  8
0
 62
     0
100
AcDbLine
 10
-46.19934049511539
 20
-246.4000000000033
 30
0.0
 11
73.80096592859991
 21
-326.4000000000014
 31
0.0
  0
LINE
  5
26FB
330
2A26
100
AcDbEntity
  8
0
 62
     0
100
AcDbLine
 10
-157.9000000000051
 20
-171.9330838169881
 30
0.0
 11
-57.90000000000509
 21
-238.5995802486905
 31
0.0
  0
LINE
  5
26FC
330
2A26
100
AcDbEntity
  8
0
 62
     0
100
AcDbLine
 10
-57.90000000000327
 20
-235.5996137132752
 30
0.0
 11
-41.69937920123266
 21
-246.4000000000015
 31
0.0
  0
LINE
  5
26FD
330
2A26
100
AcDbEntity
  8
0
 62
     0
100
AcDbLine
 10
-41.69937920123266
 20
-246.4000000000015
 30
0.0
 11
78.30092722248811
 21
-326.4000000000032
 31
0.0
  0
LINE
  5
26FE
330
2A26
100
AcDbEntity
  8
0
 62
     0
100
AcDbLine
 10
-157.9000000000033
 20
-168.9331172815728
 30
0.0
 11
-57.90000000000327
 21
-235.5996137132752
 31
0.0
  0
LINE
  5
26FF
330
2A26
100
AcDbEntity
  8
0
 62
     0
100
AcDbLine
 10
-57.90000000000509
 20
-232.5996471778581
 30
0.0
 11
-37.19941790734629
 21
-246.4000000000015
 31
0.0
  0
LINE
  5
2700
330
2A26
100
AcDbEntity
  8
0
 62
     0
100
AcDbLine
 10
-37.19941790734629
 20
-246.4000000000015
 30
0.0
 11
82.80088851636902
 21
-326.4000000000014
 31
0.0
  0
LINE
  5
2701
330
2A26
100
AcDbEntity
  8
0
 62
     0
100
AcDbLine
 10
-157.9000000000051
 20
-165.9331507461556
 30
0.0
 11
-57.90000000000509
 21
-232.5996471778581
 31
0.0
  0
LINE
  5
2702
330
2A26
100
AcDbEntity
  8
0
 62
     0
100
AcDbLine
 10
-57.90000000000327
 20
-229.5996806424446
 30
0.0
 11
-32.69945661345992
 21
-246.4000000000033
 31
0.0
  0
LINE
  5
2703
330
2A26
100
AcDbEntity
  8
0
 62
     0
100
AcDbLine
 10
-32.69945661345992
 20
-246.4000000000033
 30
0.0
 11
87.3008498102572
 21
-326.4000000000032
 31
0.0
  0
LINE
  5
2704
330
2A26
100
AcDbEntity
  8
0
 62
     0
100
AcDbLine
 10
-157.9000000000033
 20
-162.9331842107403
 30
0.0
 11
-57.90000000000327
 21
-229.5996806424446
 31
0.0
  0
LINE
  5
2705
330
2A26
100
AcDbEntity
  8
0
 62
     0
100
AcDbLine
 10
-57.90000000000327
 20
-226.5997141070275
 30
0.0
 11
-28.19949531957536
 21
-246.4000000000015
 31
0.0
  0
LINE
  5
2706
330
2A26
100
AcDbEntity
  8
0
 62
     0
100
AcDbLine
 10
-28.19949531957536
 20
-246.4000000000015
 30
0.0
 11
91.80081110414356
 21
-326.4000000000014
 31
0.0
  0
LINE
  5
2707
330
2A26
100
AcDbEntity
  8
0
 62
     0
100
AcDbLine
 10
-157.9000000000033
 20
-159.9332176753232
 30
0.0
 11
-57.90000000000327
 21
-226.5997141070275
 31
0.0
  0
LINE
  5
2708
330
2A26
100
AcDbEntity
  8
0
 62
     0
100
AcDbLine
 10
-57.90000000000327
 20
-223.5997475716122
 30
0.0
 11
-23.69953402569081
 21
-246.4000000000033
 31
0.0
  0
LINE
  5
2709
330
2A26
100
AcDbEntity
  8
0
 62
     0
100
AcDbLine
 10
-23.69953402569081
 20
-246.4000000000033
 30
0.0
 11
96.30077239802631
 21
-326.4000000000014
 31
0.0
  0
LINE
  5
270A
330
2A26
100
AcDbEntity
  8
0
 62
     0
100
AcDbLine
 10
-157.9000000000033
 20
-156.9332511399097
 30
0.0
 11
-57.90000000000327
 21
-223.5997475716122
 31
0.0
  0
LINE
  5
270B
330
2A26
100
AcDbEntity
  8
0
 62
     0
100
AcDbLine
 10
-57.90000000000509
 20
-220.599781036195
 30
0.0
 11
-19.19957273180806
 21
-246.3999999999996
 31
0.0
  0
LINE
  5
270C
330
2A26
100
AcDbEntity
  8
0
 62
     0
100
AcDbLine
 10
-19.19957273180806
 20
-246.3999999999996
 30
0.0
 11
100.8007336919108
 21
-326.4000000000014
 31
0.0
  0
LINE
  5
270D
330
2A26
100
AcDbEntity
  8
0
 62
     0
100
AcDbLine
 10
-157.9000000000051
 20
-153.9332846044926
 30
0.0
 11
-57.90000000000509
 21
-220.599781036195
 31
0.0
  0
LINE
  5
270E
330
2A26
100
AcDbEntity
  8
0
 62
     0
100
AcDbLine
 10
-57.90000000000327
 20
-217.5998145007761
 30
0.0
 11
-14.69961143791624
 21
-246.4000000000015
 31
0.0
  0
LINE
  5
270F
330
2A26
100
AcDbEntity
  8
0
 62
     0
100
AcDbLine
 10
-14.69961143791624
 20
-246.4000000000015
 30
0.0
 11
105.3006949858009
 21
-326.4000000000014
 31
0.0
  0
LINE
  5
2710
330
2A26
100
AcDbEntity
  8
0
 62
     0
100
AcDbLine
 10
-157.9000000000033
 20
-150.9333180690737
 30
0.0
 11
-57.90000000000327
 21
-217.5998145007761
 31
0.0
  0
LINE
  5
2711
330
2A26
100
AcDbEntity
  8
0
 62
     0
100
AcDbLine
 10
-57.90000000000327
 20
-214.5998479653627
 30
0.0
 11
-10.19965014403351
 21
-246.4000000000015
 31
0.0
  0
LINE
  5
2712
330
2A26
100
AcDbEntity
  8
0
 62
     0
100
AcDbLine
 10
-10.19965014403351
 20
-246.4000000000015
 30
0.0
 11
109.8006562796854
 21
-326.4000000000032
 31
0.0
  0
LINE
  5
2713
330
2A26
100
AcDbEntity
  8
0
 62
     0
100
AcDbLine
 10
-157.9000000000033
 20
-147.9333515336584
 30
0.0
 11
-57.90000000000327
 21
-214.5998479653608
 31
0.0
  0
LINE
  5
2714
330
2A26
100
AcDbEntity
  8
0
 62
     0
100
AcDbLine
 10
-57.90000000000509
 20
-211.5998814299455
 30
0.0
 11
-5.699688850148959
 21
-246.4000000000015
 31
0.0
  0
LINE
  5
2715
330
2A26
100
AcDbEntity
  8
0
 62
     0
100
AcDbLine
 10
-5.699688850148959
 20
-246.4000000000015
 30
0.0
 11
114.3006175735681
 21
-326.3999999999996
 31
0.0
  0
LINE
  5
2716
330
2A26
100
AcDbEntity
  8
0
 62
     0
100
AcDbLine
 10
-157.9000000000051
 20
-144.9333849982413
 30
0.0
 11
-57.90000000000509
 21
-211.5998814299455
 31
0.0
  0
LINE
  5
2717
330
2A26
100
AcDbEntity
  8
0
 62
     0
100
AcDbLine
 10
-57.90000000000327
 20
-208.5999148945302
 30
0.0
 11
-1.199727556260768
 21
-246.4000000000033
 31
0.0
  0
LINE
  5
2718
330
2A26
100
AcDbEntity
  8
0
 62
     0
100
AcDbLine
 10
-1.199727556260768
 20
-246.4000000000033
 30
0.0
 11
118.8005788674582
 21
-326.4000000000032
 31
0.0
  0
LINE
  5
2719
330
2A26
100
AcDbEntity
  8
0
 62
     0
100
AcDbLine
 10
-157.9000000000033
 20
-141.9334184628278
 30
0.0
 11
-57.90000000000327
 21
-208.5999148945302
 31
0.0
  0
LINE
  5
271A
330
2A26
100
AcDbEntity
  8
0
 62
     0
100
AcDbLine
 10
-57.90000000000327
 20
-205.5999483591131
 30
0.0
 11
3.300233737625601
 21
-246.4000000000033
 31
0.0
  0
LINE
  5
271B
330
2A26
100
AcDbEntity
  8
0
 62
     0
100
AcDbLine
 10
3.300233737625601
 20
-246.4000000000033
 30
0.0
 11
123.3005401613427
 21
-326.4000000000014
 31
0.0
  0
LINE
  5
271C
330
2A26
100
AcDbEntity
  8
0
 62
     0
100
AcDbLine
 10
-157.9000000000033
 20
-138.9334519274107
 30
0.0
 11
-57.90000000000327
 21
-205.5999483591131
 31
0.0
  0
LINE
  5
271D
330
2A26
100
AcDbEntity
  8
0
 62
     0
100
AcDbLine
 10
-57.90000000000327
 20
-202.5999818236977
 30
0.0
 11
7.800195031508335
 21
-246.4000000000015
 31
0.0
  0
LINE
  5
271E
330
2A26
100
AcDbEntity
  8
0
 62
     0
100
AcDbLine
 10
7.800195031508335
 20
-246.4000000000015
 30
0.0
 11
127.8005014552272
 21
-326.4000000000032
 31
0.0
  0
LINE
  5
271F
330
2A26
100
AcDbEntity
  8
0
 62
     0
100
AcDbLine
 10
-157.9000000000033
 20
-135.9334853919954
 30
0.0
 11
-57.90000000000327
 21
-202.5999818236977
 31
0.0
  0
LINE
  5
2720
330
2A26
100
AcDbEntity
  8
0
 62
     0
100
AcDbLine
 10
-57.90000000000327
 20
-199.6000152882807
 30
0.0
 11
12.30015632539471
 21
-246.4000000000015
 31
0.0
  0
LINE
  5
2721
330
2A26
100
AcDbEntity
  8
0
 62
     0
100
AcDbLine
 10
12.30015632539471
 20
-246.4000000000015
 30
0.0
 11
132.3004627491118
 21
-326.4000000000014
 31
0.0
  0
LINE
  5
2722
330
2A26
100
AcDbEntity
  8
0
 62
     0
100
AcDbLine
 10
-157.9000000000033
 20
-132.9335188565783
 30
0.0
 11
-57.90000000000327
 21
-199.6000152882807
 31
0.0
  0
LINE
  5
2723
330
2A26
100
AcDbEntity
  8
0
 62
     0
100
AcDbLine
 10
-57.90000000000144
 20
-196.6000487528654
 30
0.0
 11
16.8001176192829
 21
-246.4000000000033
 31
0.0
  0
LINE
  5
2724
330
2A26
100
AcDbEntity
  8
0
 62
     0
100
AcDbLine
 10
16.8001176192829
 20
-246.4000000000033
 30
0.0
 11
136.8004240429982
 21
-326.4000000000014
 31
0.0
  0
LINE
  5
2725
330
2A26
100
AcDbEntity
  8
0
 62
     0
100
AcDbLine
 10
-157.9000000000014
 20
-129.933552321163
 30
0.0
 11
-57.90000000000327
 21
-196.6000487528654
 31
0.0
  0
LINE
  5
2726
330
2A26
100
AcDbEntity
  8
0
 62
     0
100
AcDbLine
 10
-57.90000000000327
 20
-193.6000822174482
 30
0.0
 11
21.30007891316745
 21
-246.4000000000033
 31
0.0
  0
LINE
  5
2727
330
2A26
100
AcDbEntity
  8
0
 62
     0
100
AcDbLine
 10
21.30007891316745
 20
-246.4000000000033
 30
0.0
 11
141.3003853368846
 21
-326.4000000000014
 31
0.0
  0
LINE
  5
2728
330
2A26
100
AcDbEntity
  8
0
 62
     0
100
AcDbLine
 10
-157.9000000000033
 20
-126.9335857857459
 30
0.0
 11
-57.90000000000327
 21
-193.6000822174482
 31
0.0
  0
LINE
  5
2729
330
2A26
100
AcDbEntity
  8
0
 62
     0
100
AcDbLine
 10
-57.90000000000327
 20
-190.6001156820329
 30
0.0
 11
25.80004020705019
 21
-246.4000000000015
 31
0.0
  0
LINE
  5
272A
330
2A26
100
AcDbEntity
  8
0
 62
     0
100
AcDbLine
 10
25.80004020705019
 20
-246.4000000000015
 30
0.0
 11
145.8003466307655
 21
-326.4000000000014
 31
0.0
  0
LINE
  5
272B
330
2A26
100
AcDbEntity
  8
0
 62
     0
100
AcDbLine
 10
-157.9000000000033
 20
-123.9336192503306
 30
0.0
 11
-57.90000000000509
 21
-190.6001156820329
 31
0.0
  0
LINE
  5
272C
330
2A26
100
AcDbEntity
  8
0
 62
     0
100
AcDbLine
 10
-57.90000000000327
 20
-187.6001491466159
 30
0.0
 11
30.30000150093656
 21
-246.4000000000015
 31
0.0
  0
LINE
  5
272D
330
2A26
100
AcDbEntity
  8
0
 62
     0
100
AcDbLine
 10
30.30000150093656
 20
-246.4000000000015
 30
0.0
 11
150.3003079246536
 21
-326.4000000000014
 31
0.0
  0
LINE
  5
272E
330
2A26
100
AcDbEntity
  8
0
 62
     0
100
AcDbLine
 10
-157.9000000000033
 20
-120.9336527149134
 30
0.0
 11
-57.90000000000509
 21
-187.6001491466159
 31
0.0
  0
LINE
  5
272F
330
2A26
100
AcDbEntity
  8
0
 62
     0
100
AcDbLine
 10
-57.90000000000327
 20
-184.6001826112006
 30
0.0
 11
34.79996279482293
 21
-246.4000000000033
 31
0.0
  0
LINE
  5
2730
330
2A26
100
AcDbEntity
  8
0
 62
     0
100
AcDbLine
 10
34.79996279482293
 20
-246.4000000000033
 30
0.0
 11
154.80026921854
 21
-326.4000000000032
 31
0.0
  0
LINE
  5
2731
330
2A26
100
AcDbEntity
  8
0
 62
     0
100
AcDbLine
 10
-157.9000000000033
 20
-117.9336861794981
 30
0.0
 11
-57.90000000000327
 21
-184.6001826112006
 31
0.0
  0
LINE
  5
2732
330
2A26
100
AcDbEntity
  8
0
 62
     0
100
AcDbLine
 10
-57.90000000000509
 20
-181.6002160757834
 30
0.0
 11
39.29992408870567
 21
-246.4000000000015
 31
0.0
  0
LINE
  5
2733
330
2A26
100
AcDbEntity
  8
0
 62
     0
100
AcDbLine
 10
39.29992408870567
 20
-246.4000000000015
 30
0.0
 11
157.8999999999905
 21
-325.466515375394
 31
0.0
  0
LINE
  5
2734
330
2A26
100
AcDbEntity
  8
0
 62
     0
100
AcDbLine
 10
-157.9000000000051
 20
-114.9337196440811
 30
0.0
 11
-57.90000000000509
 21
-181.6002160757834
 31
0.0
  0
LINE
  5
2735
330
2A26
100
AcDbEntity
  8
0
 62
     0
100
AcDbLine
 10
-57.90000000000327
 20
-178.6002495403663
 30
0.0
 11
43.79988538259385
 21
-246.4000000000015
 31
0.0
  0
LINE
  5
2736
330
2A26
100
AcDbEntity
  8
0
 62
     0
100
AcDbLine
 10
43.79988538259385
 20
-246.4000000000015
 30
0.0
 11
157.8999999999923
 21
-322.4665488399769
 31
0.0
  0
LINE
  5
2737
330
2A26
100
AcDbEntity
  8
0
 62
     0
100
AcDbLine
 10
-157.9000000000033
 20
-111.9337531086639
 30
0.0
 11
-57.90000000000327
 21
-178.6002495403663
 31
0.0
  0
LINE
  5
2738
330
2A26
100
AcDbEntity
  8
0
 62
     0
100
AcDbLine
 10
-57.90000000000327
 20
-175.600283004951
 30
0.0
 11
48.29984667648023
 21
-246.4000000000033
 31
0.0
  0
LINE
  5
2739
330
2A26
100
AcDbEntity
  8
0
 62
     0
100
AcDbLine
 10
48.29984667648023
 20
-246.4000000000033
 30
0.0
 11
157.8999999999923
 21
-319.4665823045616
 31
0.0
  0
LINE
  5
273A
330
2A26
100
AcDbEntity
  8
0
 62
     0
100
AcDbLine
 10
-157.9000000000033
 20
-108.9337865732486
 30
0.0
 11
-57.90000000000327
 21
-175.600283004951
 31
0.0
  0
LINE
  5
273B
330
2A26
100
AcDbEntity
  8
0
 62
     0
100
AcDbLine
 10
-57.90000000000327
 20
-172.6003164695339
 30
0.0
 11
52.79980797036478
 21
-246.4000000000015
 31
0.0
  0
LINE
  5
273C
330
2A26
100
AcDbEntity
  8
0
 62
     0
100
AcDbLine
 10
52.79980797036478
 20
-246.4000000000015
 30
0.0
 11
157.8999999999923
 21
-316.4666157691446
 31
0.0
  0
LINE
  5
273D
330
2A26
100
AcDbEntity
  8
0
 62
     0
100
AcDbLine
 10
-157.9000000000033
 20
-105.9338200378315
 30
0.0
 11
-57.90000000000327
 21
-172.6003164695339
 31
0.0
  0
LINE
  5
273E
330
2A26
100
AcDbEntity
  8
0
 62
     0
100
AcDbLine
 10
-57.90000000000509
 20
-169.6003499341186
 30
0.0
 11
57.2997692642475
 21
-246.4000000000015
 31
0.0
  0
LINE
  5
273F
330
2A26
100
AcDbEntity
  8
0
 62
     0
100
AcDbLine
 10
57.2997692642475
 20
-246.4000000000015
 30
0.0
 11
157.8999999999905
 21
-313.4666492337292
 31
0.0
  0
LINE
  5
2740
330
2A26
100
AcDbEntity
  8
0
 62
     0
100
AcDbLine
 10
-157.9000000000051
 20
-102.9338535024162
 30
0.0
 11
-57.90000000000509
 21
-169.6003499341186
 31
0.0
  0
LINE
  5
2741
330
2A26
100
AcDbEntity
  8
0
 62
     0
100
AcDbLine
 10
-57.90000000000144
 20
-166.6003833987033
 30
0.0
 11
61.79973055813754
 21
-246.4000000000015
 31
0.0
  0
LINE
  5
2742
330
2A26
100
AcDbEntity
  8
0
 62
     0
100
AcDbLine
 10
61.79973055813754
 20
-246.4000000000015
 30
0.0
 11
157.8999999999942
 21
-310.4666826983139
 31
0.0
  0
LINE
  5
2743
330
2A26
100
AcDbEntity
  8
0
 62
     0
100
AcDbLine
 10
-157.9000000000014
 20
-99.93388696699913
 30
0.0
 11
-57.90000000000144
 21
-166.6003833987033
 31
0.0
  0
LINE
  5
2744
330
2A26
100
AcDbEntity
  8
0
 62
     0
100
AcDbLine
 10
-57.90000000000327
 20
-163.600416863288
 30
0.0
 11
66.29969185202208
 21
-246.4000000000033
 31
0.0
  0
LINE
  5
2745
330
2A26
100
AcDbEntity
  8
0
 62
     0
100
AcDbLine
 10
66.29969185202208
 20
-246.4000000000033
 30
0.0
 11
157.8999999999923
 21
-307.4667161628986
 31
0.0
  0
LINE
  5
2746
330
2A26
100
AcDbEntity
  8
0
 62
     0
100
AcDbLine
 10
-157.9000000000033
 20
-96.93392043158381
 30
0.0
 11
-57.90000000000327
 21
-163.6004168632862
 31
0.0
  0
LINE
  5
2747
330
2A26
100
AcDbEntity
  8
0
 62
     0
100
AcDbLine
 10
-57.90000000000327
 20
-160.6004503278709
 30
0.0
 11
70.79965314590663
 21
-246.4000000000033
 31
0.0
  0
LINE
  5
2748
330
2A26
100
AcDbEntity
  8
0
 62
     0
100
AcDbLine
 10
70.79965314590663
 20
-246.4000000000033
 30
0.0
 11
157.8999999999923
 21
-304.4667496274815
 31
0.0
  0
LINE
  5
2749
330
2A26
100
AcDbEntity
  8
0
 62
     0
100
AcDbLine
 10
-157.9000000000033
 20
-93.93395389616856
 30
0.0
 11
-57.90000000000509
 21
-160.6004503278691
 31
0.0
  0
LINE
  5
274A
330
2A26
100
AcDbEntity
  8
0
 62
     0
100
AcDbLine
 10
-57.90000000000327
 20
-157.6004837924538
 30
0.0
 11
75.29961443979118
 21
-246.4000000000015
 31
0.0
  0
LINE
  5
274B
330
2A26
100
AcDbEntity
  8
0
 62
     0
100
AcDbLine
 10
75.29961443979118
 20
-246.4000000000015
 30
0.0
 11
157.8999999999923
 21
-301.4667830920662
 31
0.0
  0
LINE
  5
274C
330
2A26
100
AcDbEntity
  8
0
 62
     0
100
AcDbLine
 10
-157.9000000000033
 20
-90.9339873607514
 30
0.0
 11
-57.90000000000327
 21
-157.6004837924538
 31
0.0
  0
LINE
  5
274D
330
2A26
100
AcDbEntity
  8
0
 62
     0
100
AcDbLine
 10
-57.90000000000327
 20
-154.6005172570367
 30
0.0
 11
79.79957573367937
 21
-246.4000000000015
 31
0.0
  0
LINE
  5
274E
330
2A26
100
AcDbEntity
  8
0
 62
     0
100
AcDbLine
 10
79.79957573367937
 20
-246.4000000000015
 30
0.0
 11
157.8999999999923
 21
-298.4668165566473
 31
0.0
  0
LINE
  5
274F
330
2A26
100
AcDbEntity
  8
0
 62
     0
100
AcDbLine
 10
-157.9000000000033
 20
-87.93402082533431
 30
0.0
 11
-57.90000000000327
 21
-154.6005172570367
 31
0.0
  0
LINE
  5
2750
330
2A26
100
AcDbEntity
  8
0
 62
     0
100
AcDbLine
 10
-57.90000000000327
 20
-151.6005507216214
 30
0.0
 11
84.29953702756391
 21
-246.4000000000033
 31
0.0
  0
LINE
  5
2751
330
2A26
100
AcDbEntity
  8
0
 62
     0
100
AcDbLine
 10
84.29953702756391
 20
-246.4000000000033
 30
0.0
 11
157.8999999999905
 21
-295.4668500212338
 31
0.0
  0
LINE
  5
2752
330
2A26
100
AcDbEntity
  8
0
 62
     0
100
AcDbLine
 10
-157.9000000000033
 20
-84.93405428991902
 30
0.0
 11
-57.90000000000327
 21
-151.6005507216214
 31
0.0
  0
LINE
  5
2753
330
2A26
100
AcDbEntity
  8
0
 62
     0
100
AcDbLine
 10
-57.90000000000327
 20
-148.6005841862061
 30
0.0
 11
88.79949832144848
 21
-246.4000000000015
 31
0.0
  0
LINE
  5
2754
330
2A26
100
AcDbEntity
  8
0
 62
     0
100
AcDbLine
 10
88.79949832144848
 20
-246.4000000000015
 30
0.0
 11
157.8999999999923
 21
-292.4668834858167
 31
0.0
  0
LINE
  5
2755
330
2A26
100
AcDbEntity
  8
0
 62
     0
100
AcDbLine
 10
-157.9000000000033
 20
-81.93408775450189
 30
0.0
 11
-57.90000000000327
 21
-148.6005841862061
 31
0.0
  0
LINE
  5
2756
330
2A26
100
AcDbEntity
  8
0
 62
     0
100
AcDbLine
 10
-57.90000000000144
 20
-145.6006176507908
 30
0.0
 11
93.29945961533484
 21
-246.4000000000015
 31
0.0
  0
LINE
  5
2757
330
2A26
100
AcDbEntity
  8
0
 62
     0
100
AcDbLine
 10
93.29945961533484
 20
-246.4000000000015
 30
0.0
 11
157.8999999999923
 21
-289.4669169504013
 31
0.0
  0
LINE
  5
2758
330
2A26
100
AcDbEntity
  8
0
 62
     0
100
AcDbLine
 10
-157.9000000000014
 20
-78.93412121908842
 30
0.0
 11
-57.90000000000144
 21
-145.6006176507908
 31
0.0
  0
LINE
  5
2759
330
2A26
100
AcDbEntity
  8
0
 62
     0
100
AcDbLine
 10
-57.90000000000327
 20
-142.6006511153737
 30
0.0
 11
97.79942090921942
 21
-246.4000000000015
 31
0.0
  0
LINE
  5
275A
330
2A26
100
AcDbEntity
  8
0
 62
     0
100
AcDbLine
 10
97.79942090921942
 20
-246.4000000000015
 30
0.0
 11
157.8999999999923
 21
-286.4669504149842
 31
0.0
  0
LINE
  5
275B
330
2A26
100
AcDbEntity
  8
0
 62
     0
100
AcDbLine
 10
-157.9000000000033
 20
-75.9341546836713
 30
0.0
 11
-57.90000000000327
 21
-142.6006511153737
 31
0.0
  0
LINE
  5
275C
330
2A26
100
AcDbEntity
  8
0
 62
     0
100
AcDbLine
 10
-57.90000000000327
 20
-139.6006845799566
 30
0.0
 11
102.2993822031057
 21
-246.4000000000015
 31
0.0
  0
LINE
  5
275D
330
2A26
100
AcDbEntity
  8
0
 62
     0
100
AcDbLine
 10
102.2993822031057
 20
-246.4000000000015
 30
0.0
 11
157.8999999999905
 21
-283.4669838795671
 31
0.0
  0
LINE
  5
275E
330
2A26
100
AcDbEntity
  8
0
 62
     0
100
AcDbLine
 10
-157.9000000000033
 20
-72.93418814825418
 30
0.0
 11
-57.90000000000327
 21
-139.6006845799566
 31
0.0
  0
LINE
  5
275F
330
2A26
100
AcDbEntity
  8
0
 62
     0
100
AcDbLine
 10
-57.90000000000327
 20
-136.6007180445413
 30
0.0
 11
106.7993434969903
 21
-246.4000000000015
 31
0.0
  0
LINE
  5
2760
330
2A26
100
AcDbEntity
  8
0
 62
     0
100
AcDbLine
 10
106.7993434969903
 20
-246.4000000000015
 30
0.0
 11
157.8999999999923
 21
-280.4670173441518
 31
0.0
  0
LINE
  5
2761
330
2A26
100
AcDbEntity
  8
0
 62
     0
100
AcDbLine
 10
-157.9000000000033
 20
-69.93422161283888
 30
0.0
 11
-57.90000000000509
 21
-136.6007180445394
 31
0.0
  0
LINE
  5
2762
330
2A26
100
AcDbEntity
  8
0
 62
     0
100
AcDbLine
 10
-57.90000000000144
 20
-133.6007515091241
 30
0.0
 11
111.2993047908767
 21
-246.4000000000015
 31
0.0
  0
LINE
  5
2763
330
2A26
100
AcDbEntity
  8
0
 62
     0
100
AcDbLine
 10
111.2993047908767
 20
-246.4000000000015
 30
0.0
 11
157.8999999999923
 21
-277.4670508087347
 31
0.0
  0
LINE
  5
2764
330
2A26
100
AcDbEntity
  8
0
 62
     0
100
AcDbLine
 10
-157.9000000000014
 20
-66.93425507742176
 30
0.0
 11
-57.90000000000327
 21
-133.6007515091241
 31
0.0
  0
LINE
  5
2765
330
2A26
100
AcDbEntity
  8
0
 62
     0
100
AcDbLine
 10
-57.90000000000509
 20
-130.6007849737088
 30
0.0
 11
115.7992660847612
 21
-246.4000000000033
 31
0.0
  0
LINE
  5
2766
330
2A26
100
AcDbEntity
  8
0
 62
     0
100
AcDbLine
 10
115.7992660847612
 20
-246.4000000000033
 30
0.0
 11
157.8999999999923
 21
-274.4670842733194
 31
0.0
  0
LINE
  5
2767
330
2A26
100
AcDbEntity
  8
0
 62
     0
100
AcDbLine
 10
-157.9000000000033
 20
-63.93428854200646
 30
0.0
 11
-57.90000000000509
 21
-130.6007849737088
 31
0.0
  0
LINE
  5
2768
330
2A26
100
AcDbEntity
  8
0
 62
     0
100
AcDbLine
 10
-57.90000000000327
 20
-127.6008184382917
 30
0.0
 11
120.2992273786494
 21
-246.4000000000015
 31
0.0
  0
LINE
  5
2769
330
2A26
100
AcDbEntity
  8
0
 62
     0
100
AcDbLine
 10
120.2992273786494
 20
-246.4000000000015
 30
0.0
 11
157.8999999999923
 21
-271.4671177379023
 31
0.0
  0
LINE
  5
276A
330
2A26
100
AcDbEntity
  8
0
 62
     0
100
AcDbLine
 10
-157.9000000000014
 20
-60.93432200658935
 30
0.0
 11
-57.90000000000327
 21
-127.6008184382917
 31
0.0
  0
LINE
  5
276B
330
2A26
100
AcDbEntity
  8
0
 62
     0
100
AcDbLine
 10
-57.90000000000327
 20
-124.6008519028764
 30
0.0
 11
124.799188672534
 21
-246.4000000000015
 31
0.0
  0
LINE
  5
276C
330
2A26
100
AcDbEntity
  8
0
 62
     0
100
AcDbLine
 10
124.799188672534
 20
-246.4000000000015
 30
0.0
 11
157.8999999999923
 21
-268.467151202487
 31
0.0
  0
LINE
  5
276D
330
2A26
100
AcDbEntity
  8
0
 62
     0
100
AcDbLine
 10
-157.9000000000033
 20
-57.93435547117406
 30
0.0
 11
-57.90000000000327
 21
-124.6008519028764
 31
0.0
  0
LINE
  5
276E
330
2A26
100
AcDbEntity
  8
0
 62
     0
100
AcDbLine
 10
-57.90000000000327
 20
-121.6008853674593
 30
0.0
 11
129.2991499664185
 21
-246.4000000000015
 31
0.0
  0
LINE
  5
276F
330
2A26
100
AcDbEntity
  8
0
 62
     0
100
AcDbLine
 10
129.2991499664185
 20
-246.4000000000015
 30
0.0
 11
157.8999999999923
 21
-265.4671846670699
 31
0.0
  0
LINE
  5
2770
330
2A26
100
AcDbEntity
  8
0
 62
     0
100
AcDbLine
 10
-157.9000000000033
 20
-54.93438893575694
 30
0.0
 11
-57.90000000000327
 21
-121.6008853674593
 31
0.0
  0
LINE
  5
2771
330
2A26
100
AcDbEntity
  8
0
 62
     0
100
AcDbLine
 10
-57.90000000000509
 20
-118.600918832044
 30
0.0
 11
133.7991112603031
 21
-246.4000000000033
 31
0.0
  0
LINE
  5
2772
330
2A26
100
AcDbEntity
  8
0
 62
     0
100
AcDbLine
 10
133.7991112603031
 20
-246.4000000000033
 30
0.0
 11
157.8999999999905
 21
-262.4672181316545
 31
0.0
  0
LINE
  5
2773
330
2A26
100
AcDbEntity
  8
0
 62
     0
100
AcDbLine
 10
-156.9016310511542
 20
-52.60000000000218
 30
0.0
 11
-57.90000000000509
 21
-118.600918832044
 31
0.0
  0
LINE
  5
2774
330
2A26
100
AcDbEntity
  8
0
 62
     0
100
AcDbLine
 10
-57.90000000000327
 20
-115.6009522966269
 30
0.0
 11
138.2990725541913
 21
-246.4000000000033
 31
0.0
  0
LINE
  5
2775
330
2A26
100
AcDbEntity
  8
0
 62
     0
100
AcDbLine
 10
138.2990725541913
 20
-246.4000000000033
 30
0.0
 11
157.8999999999923
 21
-259.4672515962375
 31
0.0
  0
LINE
  5
2776
330
2A26
100
AcDbEntity
  8
0
 62
     0
100
AcDbLine
 10
-152.4016697572679
 20
-52.60000000000218
 30
0.0
 11
-57.90000000000509
 21
-115.6009522966269
 31
0.0
  0
LINE
  5
2777
330
2A26
100
AcDbEntity
  8
0
 62
     0
100
AcDbLine
 10
-57.90000000000327
 20
-112.6009857612116
 30
0.0
 11
142.7990338480758
 21
-246.4000000000015
 31
0.0
  0
LINE
  5
2778
330
2A26
100
AcDbEntity
  8
0
 62
     0
100
AcDbLine
 10
142.7990338480758
 20
-246.4000000000015
 30
0.0
 11
157.8999999999923
 21
-256.4672850608221
 31
0.0
  0
LINE
  5
2779
330
2A26
100
AcDbEntity
  8
0
 62
     0
100
AcDbLine
 10
-147.9017084633797
 20
-52.60000000000218
 30
0.0
 11
-57.90000000000327
 21
-112.6009857612116
 31
0.0
  0
LINE
  5
277A
330
2A26
100
AcDbEntity
  8
0
 62
     0
100
AcDbLine
 10
-57.90000000000327
 20
-109.6010192257945
 30
0.0
 11
147.2989951419604
 21
-246.4000000000015
 31
0.0
  0
LINE
  5
277B
330
2A26
100
AcDbEntity
  8
0
 62
     0
100
AcDbLine
 10
147.2989951419604
 20
-246.4000000000015
 30
0.0
 11
157.8999999999923
 21
-253.467318525405
 31
0.0
  0
LINE
  5
277C
330
2A26
100
AcDbEntity
  8
0
 62
     0
100
AcDbLine
 10
-143.4017471694951
 20
-52.60000000000218
 30
0.0
 11
-57.90000000000509
 21
-109.6010192257945
 31
0.0
  0
LINE
  5
277D
330
2A26
100
AcDbEntity
  8
0
 62
     0
100
AcDbLine
 10
-57.90000000000327
 20
-106.6010526903792
 30
0.0
 11
151.7989564358467
 21
-246.4000000000033
 31
0.0
  0
LINE
  5
277E
330
2A26
100
AcDbEntity
  8
0
 62
     0
100
AcDbLine
 10
151.7989564358467
 20
-246.4000000000033
 30
0.0
 11
157.8999999999905
 21
-250.4673519899897
 31
0.0
  0
LINE
  5
277F
330
2A26
100
AcDbEntity
  8
0
 62
     0
100
AcDbLine
 10
-138.9017858756106
 20
-52.60000000000218
 30
0.0
 11
-57.90000000000327
 21
-106.6010526903792
 31
0.0
  0
LINE
  5
2780
330
2A26
100
AcDbEntity
  8
0
 62
     0
100
AcDbLine
 10
-57.90000000000327
 20
-103.6010861549621
 30
0.0
 11
156.2989177297313
 21
-246.4000000000015
 31
0.0
  0
LINE
  5
2781
330
2A26
100
AcDbEntity
  8
0
 62
     0
100
AcDbLine
 10
156.2989177297313
 20
-246.4000000000015
 30
0.0
 11
157.8999999999942
 21
-247.4673854545745
 31
0.0
  0
LINE
  5
2782
330
2A26
100
AcDbEntity
  8
0
 62
     0
100
AcDbLine
 10
-134.4018245817242
 20
-52.60000000000218
 30
0.0
 11
-57.90000000000327
 21
-103.6010861549621
 31
0.0
  0
LINE
  5
2783
330
2A26
100
AcDbEntity
  8
0
 62
     0
100
AcDbLine
 10
-57.90000000000327
 20
-100.6011196195486
 30
0.0
 11
157.8999999999905
 21
-244.4674189191573
 31
0.0
  0
LINE
  5
2784
330
2A26
100
AcDbEntity
  8
0
 62
     0
100
AcDbLine
 10
-129.9018632878378
 20
-52.60000000000399
 30
0.0
 11
-57.90000000000327
 21
-100.6011196195468
 31
0.0
  0
LINE
  5
2785
330
2A26
100
AcDbEntity
  8
0
 62
     0
100
AcDbLine
 10
-57.90000000000509
 20
-97.6011530841297
 30
0.0
 11
157.8999999999905
 21
-241.4674523837402
 31
0.0
  0
LINE
  5
2786
330
2A26
100
AcDbEntity
  8
0
 62
     0
100
AcDbLine
 10
-125.4019019939569
 20
-52.60000000000037
 30
0.0
 11
-57.90000000000509
 21
-97.6011530841297
 31
0.0
  0
LINE
  5
2787
330
2A26
100
AcDbEntity
  8
0
 62
     0
100
AcDbLine
 10
-57.90000000000144
 20
-94.60118654871257
 30
0.0
 11
157.8999999999923
 21
-238.4674858483231
 31
0.0
  0
LINE
  5
2788
330
2A26
100
AcDbEntity
  8
0
 62
     0
100
AcDbLine
 10
-120.9019407000633
 20
-52.60000000000218
 30
0.0
 11
-57.90000000000144
 21
-94.60118654871257
 31
0.0
  0
LINE
  5
2789
330
2A26
100
AcDbEntity
  8
0
 62
     0
100
AcDbLine
 10
-57.90000000000327
 20
-91.60122001329726
 30
0.0
 11
157.8999999999923
 21
-235.4675193129078
 31
0.0
  0
LINE
  5
278A
330
2A26
100
AcDbEntity
  8
0
 62
     0
100
AcDbLine
 10
-116.4019794061823
 20
-52.60000000000218
 30
0.0
 11
-57.90000000000327
 21
-91.60122001329726
 31
0.0
  0
LINE
  5
278B
330
2A26
100
AcDbEntity
  8
0
 62
     0
100
AcDbLine
 10
-57.90000000000327
 20
-88.60125347788015
 30
0.0
 11
157.8999999999905
 21
-232.4675527774925
 31
0.0
  0
LINE
  5
278C
330
2A26
100
AcDbEntity
  8
0
 62
     0
100
AcDbLine
 10
-111.902018112296
 20
-52.60000000000218
 30
0.0
 11
-57.90000000000509
 21
-88.60125347788015
 31
0.0
  0
LINE
  5
278D
330
2A26
100
AcDbEntity
  8
0
 62
     0
100
AcDbLine
 10
-57.90000000000327
 20
-85.60128694246669
 30
0.0
 11
157.8999999999905
 21
-229.4675862420754
 31
0.0
  0
LINE
  5
278E
330
2A26
100
AcDbEntity
  8
0
 62
     0
100
AcDbLine
 10
-107.4020568184132
 20
-52.60000000000218
 30
0.0
 11
-57.90000000000509
 21
-85.60128694246484
 31
0.0
  0
LINE
  5
278F
330
2A26
100
AcDbEntity
  8
0
 62
     0
100
AcDbLine
 10
-57.90000000000144
 20
-82.60132040704958
 30
0.0
 11
157.8999999999923
 21
-226.4676197066583
 31
0.0
  0
LINE
  5
2790
330
2A26
100
AcDbEntity
  8
0
 62
     0
100
AcDbLine
 10
-102.9020955245232
 20
-52.60000000000399
 30
0.0
 11
-57.90000000000327
 21
-82.60132040704769
 31
0.0
  0
LINE
  5
2791
330
2A26
100
AcDbEntity
  8
0
 62
     0
100
AcDbLine
 10
-57.90000000000327
 20
-79.60135387163422
 30
0.0
 11
157.8999999999905
 21
-223.467653171243
 31
0.0
  0
LINE
  5
2792
330
2A26
100
AcDbEntity
  8
0
 62
     0
100
AcDbLine
 10
-98.40213423064051
 20
-52.60000000000218
 30
0.0
 11
-57.90000000000509
 21
-79.60135387163245
 31
0.0
  0
LINE
  5
2793
330
2A26
100
AcDbEntity
  8
0
 62
     0
100
AcDbLine
 10
-57.90000000000144
 20
-76.60138733621716
 30
0.0
 11
157.8999999999923
 21
-220.4676866358259
 31
0.0
  0
LINE
  5
2794
330
2A26
100
AcDbEntity
  8
0
 62
     0
100
AcDbLine
 10
-93.90217293675233
 20
-52.60000000000218
 30
0.0
 11
-57.90000000000327
 21
-76.60138733621534
 31
0.0
  0
LINE
  5
2795
330
2A26
100
AcDbEntity
  8
0
 62
     0
100
AcDbLine
 10
-57.90000000000144
 20
-73.60142080080186
 30
0.0
 11
157.8999999999923
 21
-217.4677201004124
 31
0.0
  0
LINE
  5
2796
330
2A26
100
AcDbEntity
  8
0
 62
     0
100
AcDbLine
 10
-89.40221164286596
 20
-52.60000000000399
 30
0.0
 11
-57.90000000000327
 21
-73.60142080080001
 31
0.0
  0
LINE
  5
2797
330
2A26
100
AcDbEntity
  8
0
 62
     0
100
AcDbLine
 10
-57.90000000000327
 20
-70.60145426538473
 30
0.0
 11
157.8999999999923
 21
-214.4677535649953
 31
0.0
  0
LINE
  5
2798
330
2A26
100
AcDbEntity
  8
0
 62
     0
100
AcDbLine
 10
-84.90225034898321
 20
-52.60000000000218
 30
0.0
 11
-57.90000000000327
 21
-70.60145426538473
 31
0.0
  0
LINE
  5
2799
330
2A26
100
AcDbEntity
  8
0
 62
     0
100
AcDbLine
 10
-57.90000000000509
 20
-67.60148772996945
 30
0.0
 11
157.8999999999905
 21
-211.46778702958
 31
0.0
  0
LINE
  5
279A
330
2A26
100
AcDbEntity
  8
0
 62
     0
100
AcDbLine
 10
-80.40228905509867
 20
-52.60000000000399
 30
0.0
 11
-57.90000000000509
 21
-67.60148772996945
 31
0.0
  0
LINE
  5
279B
330
2A26
100
AcDbEntity
  8
0
 62
     0
100
AcDbLine
 10
-57.90000000000327
 20
-64.60152119455232
 30
0.0
 11
157.8999999999923
 21
-208.4678204941628
 31
0.0
  0
LINE
  5
279C
330
2A26
100
AcDbEntity
  8
0
 62
     0
100
AcDbLine
 10
-75.90232776121045
 20
-52.60000000000218
 30
0.0
 11
-57.90000000000327
 21
-64.60152119455232
 31
0.0
  0
LINE
  5
279D
330
2A26
100
AcDbEntity
  8
0
 62
     0
100
AcDbLine
 10
-57.90000000000327
 20
-61.60155465913703
 30
0.0
 11
157.8999999999923
 21
-205.4678539587476
 31
0.0
  0
LINE
  5
279E
330
2A26
100
AcDbEntity
  8
0
 62
     0
100
AcDbLine
 10
-71.4023664673241
 20
-52.60000000000399
 30
0.0
 11
-57.90000000000327
 21
-61.60155465913522
 31
0.0
  0
LINE
  5
279F
330
2A26
100
AcDbEntity
  8
0
 62
     0
100
AcDbLine
 10
-57.90000000000327
 20
-58.60158812371992
 30
0.0
 11
157.8999999999905
 21
-202.4678874233285
 31
0.0
  0
LINE
  5
27A0
330
2A26
100
AcDbEntity
  8
0
 62
     0
100
AcDbLine
 10
-66.90240517344136
 20
-52.60000000000218
 30
0.0
 11
-57.90000000000509
 21
-58.6015881237181
 31
0.0
  0
LINE
  5
27A1
330
2A26
100
AcDbEntity
  8
0
 62
     0
100
AcDbLine
 10
-57.90000000000327
 20
-55.60162158830279
 30
0.0
 11
157.8999999999923
 21
-199.4679208879133
 31
0.0
  0
LINE
  5
27A2
330
2A26
100
AcDbEntity
  8
0
 62
     0
100
AcDbLine
 10
-62.40244387955137
 20
-52.60000000000399
 30
0.0
 11
-57.90000000000327
 21
-55.60162158830099
 31
0.0
  0
LINE
  5
27A3
330
2A26
100
AcDbEntity
  8
0
 62
     0
100
AcDbLine
 10
-57.90000000000144
 20
-52.60165505288751
 30
0.0
 11
157.8999999999923
 21
-196.467954352498
 31
0.0
  0
LINE
  5
27A4
330
2A26
100
AcDbEntity
  8
0
 62
     0
100
AcDbLine
 10
-57.90248258566681
 20
-52.60000000000399
 30
0.0
 11
-57.90000000000327
 21
-52.60165505288751
 31
0.0
  0
LINE
  5
27A5
330
2A26
100
AcDbEntity
  8
0
 62
     0
100
AcDbLine
 10
-53.40252129178589
 20
-52.60000000000037
 30
0.0
 11
157.8999999999905
 21
-193.4679878170808
 31
0.0
  0
LINE
  5
27A6
330
2A26
100
AcDbEntity
  8
0
 62
     0
100
AcDbLine
 10
-48.90255999790316
 20
-52.60000000000037
 30
0.0
 11
157.8999999999905
 21
-190.4680212816656
 31
0.0
  0
LINE
  5
27A7
330
2A26
100
AcDbEntity
  8
0
 62
     0
100
AcDbLine
 10
-44.40259870401131
 20
-52.60000000000218
 30
0.0
 11
157.8999999999923
 21
-187.4680547462485
 31
0.0
  0
LINE
  5
27A8
330
2A26
100
AcDbEntity
  8
0
 62
     0
100
AcDbLine
 10
-39.90263741012859
 20
-52.60000000000218
 30
0.0
 11
157.8999999999923
 21
-184.4680882108332
 31
0.0
  0
LINE
  5
27A9
330
2A26
100
AcDbEntity
  8
0
 62
     0
100
AcDbLine
 10
-35.40267611624404
 20
-52.60000000000218
 30
0.0
 11
157.8999999999905
 21
-181.4681216754161
 31
0.0
  0
LINE
  5
27AA
330
2A26
100
AcDbEntity
  8
0
 62
     0
100
AcDbLine
 10
-30.90271482235948
 20
-52.60000000000037
 30
0.0
 11
157.8999999999923
 21
-178.4681551400008
 31
0.0
  0
LINE
  5
27AB
330
2A26
100
AcDbEntity
  8
0
 62
     0
100
AcDbLine
 10
-26.40275352846948
 20
-52.60000000000218
 30
0.0
 11
157.8999999999923
 21
-175.4681886045837
 31
0.0
  0
LINE
  5
27AC
330
2A26
100
AcDbEntity
  8
0
 62
     0
100
AcDbLine
 10
-21.90279223458674
 20
-52.60000000000218
 30
0.0
 11
157.8999999999923
 21
-172.4682220691684
 31
0.0
  0
LINE
  5
27AD
330
2A26
100
AcDbEntity
  8
0
 62
     0
100
AcDbLine
 10
-17.40283094070036
 20
-52.60000000000218
 30
0.0
 11
157.8999999999923
 21
-169.4682555337513
 31
0.0
  0
LINE
  5
27AE
330
2A26
100
AcDbEntity
  8
0
 62
     0
100
AcDbLine
 10
-12.90286964681218
 20
-52.60000000000399
 30
0.0
 11
157.8999999999923
 21
-166.468288998336
 31
0.0
  0
LINE
  5
27AF
330
2A26
100
AcDbEntity
  8
0
 62
     0
100
AcDbLine
 10
-8.402908352931261
 20
-52.60000000000037
 30
0.0
 11
157.8999999999923
 21
-163.4683224629189
 31
0.0
  0
LINE
  5
27B0
330
2A26
100
AcDbEntity
  8
0
 62
     0
100
AcDbLine
 10
-3.90294705904489
 20
-52.60000000000037
 30
0.0
 11
157.8999999999905
 21
-160.4683559275017
 31
0.0
  0
LINE
  5
27B1
330
2A26
100
AcDbEntity
  8
0
 62
     0
100
AcDbLine
 10
0.5970142348414811
 20
-52.60000000000218
 30
0.0
 11
157.8999999999923
 21
-157.4683893920864
 31
0.0
  0
LINE
  5
27B2
330
2A26
100
AcDbEntity
  8
0
 62
     0
100
AcDbLine
 10
5.096975528729672
 20
-52.60000000000218
 30
0.0
 11
157.8999999999923
 21
-154.4684228566711
 31
0.0
  0
LINE
  5
27B3
330
2A26
100
AcDbEntity
  8
0
 62
     0
100
AcDbLine
 10
9.596936822610588
 20
-52.60000000000037
 30
0.0
 11
157.8999999999923
 21
-151.4684563212558
 31
0.0
  0
LINE
  5
27B4
330
2A26
100
AcDbEntity
  8
0
 62
     0
100
AcDbLine
 10
14.09689811649878
 20
-52.60000000000037
 30
0.0
 11
157.899999999996
 21
-148.4684897858404
 31
0.0
  0
LINE
  5
27B5
330
2A26
100
AcDbEntity
  8
0
 62
     0
100
AcDbLine
 10
18.59685941038515
 20
-52.60000000000218
 30
0.0
 11
157.899999999996
 21
-145.4685232504252
 31
0.0
  0
LINE
  5
27B6
330
2A26
100
AcDbEntity
  8
0
 62
     0
100
AcDbLine
 10
23.0968207042697
 20
-52.60000000000218
 30
0.0
 11
157.8999999999942
 21
-142.4685567150063
 31
0.0
  0
LINE
  5
27B7
330
2A26
100
AcDbEntity
  8
0
 62
     0
100
AcDbLine
 10
27.59678199815244
 20
-52.60000000000218
 30
0.0
 11
157.8999999999942
 21
-139.4685901795928
 31
0.0
  0
LINE
  5
27B8
330
2A26
100
AcDbEntity
  8
0
 62
     0
100
AcDbLine
 10
32.09674329204063
 20
-52.60000000000218
 30
0.0
 11
157.8999999999942
 21
-136.4686236441757
 31
0.0
  0
LINE
  5
27B9
330
2A26
100
AcDbEntity
  8
0
 62
     0
100
AcDbLine
 10
36.596704585927
 20
-52.60000000000218
 30
0.0
 11
157.8999999999942
 21
-133.4686571087604
 31
0.0
  0
LINE
  5
27BA
330
2A26
100
AcDbEntity
  8
0
 62
     0
100
AcDbLine
 10
41.09666587980973
 20
-52.60000000000037
 30
0.0
 11
157.8999999999942
 21
-130.4686905733433
 31
0.0
  0
LINE
  5
27BB
330
2A26
100
AcDbEntity
  8
0
 62
     0
100
AcDbLine
 10
45.59662717369611
 20
-52.60000000000218
 30
0.0
 11
157.8999999999942
 21
-127.468724037928
 31
0.0
  0
LINE
  5
27BC
330
2A26
100
AcDbEntity
  8
0
 62
     0
100
AcDbLine
 10
50.0965884675843
 20
-52.60000000000218
 30
0.0
 11
157.899999999996
 21
-124.4687575025109
 31
0.0
  0
LINE
  5
27BD
330
2A26
100
AcDbEntity
  8
0
 62
     0
100
AcDbLine
 10
54.59654976146885
 20
-52.60000000000218
 30
0.0
 11
157.8999999999942
 21
-121.4687909670938
 31
0.0
  0
LINE
  5
27BE
330
2A26
100
AcDbEntity
  8
0
 62
     0
100
AcDbLine
 10
59.09651105535158
 20
-52.60000000000037
 30
0.0
 11
157.8999999999942
 21
-118.4688244316785
 31
0.0
  0
LINE
  5
27BF
330
2A26
100
AcDbEntity
  8
0
 62
     0
100
AcDbLine
 10
63.59647234924342
 20
-52.60000000000218
 30
0.0
 11
157.8999999999978
 21
-115.4688578962614
 31
0.0
  0
LINE
  5
27C0
330
2A26
100
AcDbEntity
  8
0
 62
     0
100
AcDbLine
 10
68.09643364312615
 20
-52.60000000000218
 30
0.0
 11
157.899999999996
 21
-112.4688913608461
 31
0.0
  0
LINE
  5
27C1
330
2A26
100
AcDbEntity
  8
0
 62
     0
100
AcDbLine
 10
72.59639493701071
 20
-52.60000000000218
 30
0.0
 11
157.8999999999942
 21
-109.468924825429
 31
0.0
  0
LINE
  5
27C2
330
2A26
100
AcDbEntity
  8
0
 62
     0
100
AcDbLine
 10
77.09635623089706
 20
-52.60000000000399
 30
0.0
 11
157.8999999999942
 21
-106.4689582900137
 31
0.0
  0
LINE
  5
27C3
330
2A26
100
AcDbEntity
  8
0
 62
     0
100
AcDbLine
 10
81.59631752478526
 20
-52.60000000000218
 30
0.0
 11
157.899999999996
 21
-103.4689917545966
 31
0.0
  0
LINE
  5
27C4
330
2A26
100
AcDbEntity
  8
0
 62
     0
100
AcDbLine
 10
86.0962788186662
 20
-52.60000000000218
 30
0.0
 11
157.8999999999942
 21
-100.4690252191813
 31
0.0
  0
LINE
  5
27C5
330
2A26
100
AcDbEntity
  8
0
 62
     0
100
AcDbLine
 10
90.59624011255435
 20
-52.60000000000218
 30
0.0
 11
157.899999999996
 21
-97.46905868376416
 31
0.0
  0
LINE
  5
27C6
330
2A26
100
AcDbEntity
  8
0
 62
     0
100
AcDbLine
 10
95.09620140644074
 20
-52.60000000000399
 30
0.0
 11
157.899999999996
 21
-94.4690921483507
 31
0.0
  0
LINE
  5
27C7
330
2A26
100
AcDbEntity
  8
0
 62
     0
100
AcDbLine
 10
99.59616270032348
 20
-52.60000000000218
 30
0.0
 11
157.899999999996
 21
-91.46912561293355
 31
0.0
  0
LINE
  5
27C8
330
2A26
100
AcDbEntity
  8
0
 62
     0
100
AcDbLine
 10
104.096123994208
 20
-52.60000000000218
 30
0.0
 11
157.8999999999942
 21
-88.46915907751826
 31
0.0
  0
LINE
  5
27C9
330
2A26
100
AcDbEntity
  8
0
 62
     0
100
AcDbLine
 10
108.5960852880962
 20
-52.60000000000218
 30
0.0
 11
157.899999999996
 21
-85.46919254210115
 31
0.0
  0
LINE
  5
27CA
330
2A26
100
AcDbEntity
  8
0
 62
     0
100
AcDbLine
 10
113.0960465819826
 20
-52.60000000000218
 30
0.0
 11
157.899999999996
 21
-82.46922600668401
 31
0.0
  0
LINE
  5
27CB
330
2A26
100
AcDbEntity
  8
0
 62
     0
100
AcDbLine
 10
117.5960078758653
 20
-52.60000000000218
 30
0.0
 11
157.899999999996
 21
-79.46925947126873
 31
0.0
  0
LINE
  5
27CC
330
2A26
100
AcDbEntity
  8
0
 62
     0
100
AcDbLine
 10
122.0959691697553
 20
-52.60000000000399
 30
0.0
 11
157.8999999999942
 21
-76.46929293585163
 31
0.0
  0
LINE
  5
27CD
330
2A26
100
AcDbEntity
  8
0
 62
     0
100
AcDbLine
 10
126.5959304636399
 20
-52.60000000000218
 30
0.0
 11
157.899999999996
 21
-73.46932640043633
 31
0.0
  0
LINE
  5
27CE
330
2A26
100
AcDbEntity
  8
0
 62
     0
100
AcDbLine
 10
131.0958917575244
 20
-52.60000000000218
 30
0.0
 11
157.8999999999942
 21
-70.46935986501921
 31
0.0
  0
LINE
  5
27CF
330
2A26
100
AcDbEntity
  8
0
 62
     0
100
AcDbLine
 10
135.5958530514072
 20
-52.60000000000218
 30
0.0
 11
157.8999999999942
 21
-67.46939332960391
 31
0.0
  0
LINE
  5
27D0
330
2A26
100
AcDbEntity
  8
0
 62
     0
100
AcDbLine
 10
140.0958143452953
 20
-52.60000000000218
 30
0.0
 11
157.899999999996
 21
-64.46942679418679
 31
0.0
  0
LINE
  5
27D1
330
2A26
100
AcDbEntity
  8
0
 62
     0
100
AcDbLine
 10
144.5957756391817
 20
-52.60000000000399
 30
0.0
 11
157.899999999996
 21
-61.46946025877149
 31
0.0
  0
LINE
  5
27D2
330
2A26
100
AcDbEntity
  8
0
 62
     0
100
AcDbLine
 10
149.0957369330626
 20
-52.60000000000037
 30
0.0
 11
157.899999999996
 21
-58.46949372335439
 31
0.0
  0
LINE
  5
27D3
330
2A26
100
AcDbEntity
  8
0
 62
     0
100
AcDbLine
 10
153.5956982269545
 20
-52.60000000000399
 30
0.0
 11
157.8999999999942
 21
-55.46952718793909
 31
0.0
  0
ENDBLK
  5
27D4
330
2A26
100
AcDbEntity
  8
0
100
AcDbBlockEnd
  0
ENDSEC
  0
SECTION
  2
ENTITIES
  0
TEXT
  5
953
330
2953
100
AcDbEntity
  8
OUTLINE
  6
Continuous
 62
     3
100
AcDbText
 10
-418.231467
 20
13.715189
 30
0.0
 40
64.0
  1
 
 41
0.9
100
AcDbText
  0
TEXT
  5
954
330
2953
100
AcDbEntity
  8
OUTLINE
  6
Continuous
 62
     3
100
AcDbText
 10
-418.231467
 20
13.715189
 30
0.0
 40
64.0
  1
 
 41
0.9
100
AcDbText
  0
TEXT
  5
955
330
2953
100
AcDbEntity
  8
OUTLINE
  6
Continuous
 62
     3
100
AcDbText
 10
1341.41903
 20
-706.0588199999997
 30
0.0
 40
64.0
  1
 
 41
0.9
100
AcDbText
  0
TEXT
  5
956
330
2953
100
AcDbEntity
  8
OUTLINE
  6
Continuous
 62
     3
100
AcDbText
 10
1341.41903
 20
-706.0588199999997
 30
0.0
 40
64.0
  1
 
 41
0.9
100
AcDbText
  0
TEXT
  5
957
330
2953
100
AcDbEntity
  8
OUTLINE
  6
Continuous
 62
     3
100
AcDbText
 10
1341.41903
 20
-706.0588199999997
 30
0.0
 40
64.0
  1
 
 41
0.9
100
AcDbText
  0
TEXT
  5
958
330
2953
100
AcDbEntity
  8
OUTLINE
  6
Continuous
 62
     3
100
AcDbText
 10
1341.41903
 20
-706.0588199999997
 30
0.0
 40
64.0
  1
 
 41
0.9
100
AcDbText
  0
TEXT
  5
2843
330
2953
100
AcDbEntity
  8
ETC
100
AcDbText
 10
256.2468308916468
 20
415.5302363732356
 30
0.0
 40
64.0
  1
システム部材
 41
0.9
100
AcDbText
  0
TEXT
  5
2844
330
2953
100
AcDbEntity
  8
ETC
100
AcDbText
 10
262.4548288916449
 20
516.4135623732354
 30
0.0
 40
64.0
  1
W-30SDACM_6
 41
0.9
100
AcDbText
  0
TEXT
  5
2845
330
2953
100
AcDbEntity
  8
ETC
100
AcDbText
 10
256.2468308916468
 20
315.5302363732358
 30
0.0
 40
64.0
  1
W-30SDACM
 41
0.9
100
AcDbText
  0
LINE
  5
2846
330
2953
100
AcDbEntity
  8
DETAIL
100
AcDbLine
 10
-173.5
 20
-2.599999999999908
 30
0.0
 11
-173.5
 21
-342.0
 31
0.0
  0
LINE
  5
2847
330
2953
100
AcDbEntity
  8
OUTLINE
100
AcDbLine
 10
173.5
 20
-2.599999999999908
 30
0.0
 11
173.5
 21
-342.0
 31
0.0
  0
LINE
  5
2848
330
2953
100
AcDbEntity
  8
DETAIL
100
AcDbLine
 10
173.5
 20
-2.599999999999908
 30
0.0
 11
173.5
 21
-342.0
 31
0.0
  0
POLYLINE
  5
2849
330
2953
100
AcDbEntity
  8
DETAIL
100
AcDb2dPolyline
 66
     1
 10
0.0
 20
0.0
 30
0.0
  0
VERTEX
  5
284A
330
2849
100
AcDbEntity
  8
DETAIL
100
AcDbVertex
100
AcDb2dVertex
 10
-173.5
 20
-37.0
 30
0.0
  0
VERTEX
  5
284B
330
2849
100
AcDbEntity
  8
DETAIL
100
AcDbVertex
100
AcDb2dVertex
 10
173.4999999999961
 20
-37.0
 30
0.0
  0
SEQEND
  5
284C
330
2849
100
AcDbEntity
  8
DETAIL
  0
POLYLINE
  5
284D
330
2953
100
AcDbEntity
  8
DETAIL
100
AcDb2dPolyline
 66
     1
 10
0.0
 20
0.0
 30
0.0
  0
VERTEX
  5
284E
330
284D
100
AcDbEntity
  8
DETAIL
100
AcDbVertex
100
AcDb2dVertex
 10
-207.5
 20
-2.599999999999908
 30
0.0
  0
VERTEX
  5
284F
330
284D
100
AcDbEntity
  8
DETAIL
100
AcDbVertex
100
AcDb2dVertex
 10
207.5
 20
-2.599999999999908
 30
0.0
  0
SEQEND
  5
2850
330
284D
100
AcDbEntity
  8
DETAIL
  0
POLYLINE
  5
2851
330
2953
100
AcDbEntity
  8
DETAIL
100
AcDb2dPolyline
 66
     1
 10
0.0
 20
0.0
 30
0.0
  0
VERTEX
  5
2852
330
2851
100
AcDbEntity
  8
DETAIL
100
AcDbVertex
100
AcDb2dVertex
 10
-207.5
 20
0.0
 30
0.0
  0
VERTEX
  5
2853
330
2851
100
AcDbEntity
  8
DETAIL
100
AcDbVertex
100
AcDb2dVertex
 10
207.5
 20
0.0
 30
0.0
  0
SEQEND
  5
2854
330
2851
100
AcDbEntity
  8
DETAIL
  0
LINE
  5
2855
330
2953
100
AcDbEntity
  8
DETAIL
100
AcDbLine
 10
-207.5
 20
-2.599999999999908
 30
0.0
 11
-207.5
 21
0.0
 31
0.0
  0
LINE
  5
2856
330
2953
100
AcDbEntity
  8
NOTE
100
AcDbLine
 10
-190.0
 20
12.5
 30
0.0
 11
-190.0
 21
-12.5
 31
0.0
  0
LINE
  5
2857
330
2953
100
AcDbEntity
  8
NOTE
100
AcDbLine
 10
190.0
 20
-12.5
 30
0.0
 11
190.0
 21
12.5
 31
0.0
  0
LINE
  5
2858
330
2953
100
AcDbEntity
  8
DETAIL
100
AcDbLine
 10
207.5
 20
-2.599999999999908
 30
0.0
 11
207.5
 21
0.0
 31
0.0
  0
LINE
  5
2859
330
2953
100
AcDbEntity
  8
DETAIL
100
AcDbLine
 10
-173.5
 20
-342.0
 30
0.0
 11
173.5
 21
-342.0
 31
0.0
  0
CIRCLE
  5
285A
330
2953
100
AcDbEntity
  8
ARRANGE
100
AcDbCircle
 10
0.0
 20
0.0
 30
0.0
 40
40.0
  0
POINT
  5
285B
330
2953
100
AcDbEntity
  8
ARRANGE
100
AcDbPoint
 10
0.0
 20
0.0
 30
0.0
 39
50.0
  0
LINE
  5
285C
330
2953
100
AcDbEntity
  8
BASIS
100
AcDbLine
 10
0.0
 20
25.0
 30
0.0
 11
0.0
 21
-367.0
 31
0.0
  0
LINE
  5
285D
330
2953
100
AcDbEntity
  8
DETAIL
100
AcDbLine
 10
-157.9000000000014
 20
-52.5999999999999
 30
0.0
 11
-157.9000000000014
 21
-326.3999999999996
 31
0.0
  0
LINE
  5
285E
330
2953
100
AcDbEntity
  8
DETAIL
100
AcDbLine
 10
157.8999999999978
 20
-52.5999999999999
 30
0.0
 11
157.8999999999978
 21
-326.3999999999996
 31
0.0
  0
POLYLINE
  5
285F
330
2953
100
AcDbEntity
  8
DETAIL
100
AcDb2dPolyline
 66
     1
 10
0.0
 20
0.0
 30
0.0
  0
VERTEX
  5
2860
330
285F
100
AcDbEntity
  8
DETAIL
100
AcDbVertex
100
AcDb2dVertex
 10
-157.9000000000014
 20
-52.5999999999999
 30
0.0
  0
VERTEX
  5
2861
330
285F
100
AcDbEntity
  8
DETAIL
100
AcDbVertex
100
AcDb2dVertex
 10
157.8999999999978
 20
-52.5999999999999
 30
0.0
  0
SEQEND
  5
2862
330
285F
100
AcDbEntity
  8
DETAIL
  0
LINE
  5
2863
330
2953
100
AcDbEntity
  8
DETAIL
100
AcDbLine
 10
-157.9000000000014
 20
-326.3999999999996
 30
0.0
 11
157.8999999999978
 21
-326.3999999999996
 31
0.0
  0
INSERT
  5
2864
330
2953
100
AcDbEntity
  8
0
100
AcDbBlockReference
  2
*U66
 10
0.0
 20
0.0
 30
0.0
1001
ACAD
1000
DSTYLE
1002
{
1070
    41
1040
12.0
1070
    42
1040
20.0
1070
    43
1040
200.0
1070
    44
1040
20.0
1070
    73
1070
     0
1070
    74
1070
     0
1070
    77
1070
     1
1070
    78
1070
     8
1070
   140
1040
64.0
1070
   147
1040
50.0
1070
   172
1070
     1
1070
   174
1070
     1
1070
   275
1070
     0
1070
   284
1070
     0
1070
   285
1070
     0
1070
   286
1070
     0
1070
   341
1005
0
1070
   342
1005
0
1002
}
  0
INSERT
  5
2865
330
2953
100
AcDbEntity
  8
0
100
AcDbBlockReference
  2
*U67
 10
0.0
 20
0.0
 30
0.0
  0
LINE
  5
2866
330
2953
100
AcDbEntity
  8
NOTE
100
AcDbLine
 39
50.0
 10
177.5
 20
0.0
 30
0.0
 11
202.5
 21
0.0
 31
0.0
  0
LINE
  5
2867
330
2953
100
AcDbEntity
  8
NOTE
100
AcDbLine
 39
50.0
 10
-202.5
 20
0.0
 30
0.0
 11
-177.5
 21
0.0
 31
0.0
  0
LINE
  5
2868
330
2953
100
AcDbEntity
  8
OUTLINE
100
AcDbLine
 10
-173.5
 20
-2.599999999999908
 30
0.0
 11
-173.5
 21
-342.0
 31
0.0
  0
LINE
  5
2869
330
2953
100
AcDbEntity
  8
OUTLINE
100
AcDbLine
 10
173.5
 20
-2.599999999999908
 30
0.0
 11
173.5
 21
-342.0
 31
0.0
  0
POLYLINE
  5
286A
330
2953
100
AcDbEntity
  8
OUTLINE
100
AcDb2dPolyline
 66
     1
 10
0.0
 20
0.0
 30
0.0
  0
VERTEX
  5
286B
330
286A
100
AcDbEntity
  8
OUTLINE
100
AcDbVertex
100
AcDb2dVertex
 10
-173.5
 20
-37.0
 30
0.0
  0
VERTEX
  5
286C
330
286A
100
AcDbEntity
  8
OUTLINE
100
AcDbVertex
100
AcDb2dVertex
 10
173.4999999999961
 20
-37.0
 30
0.0
  0
SEQEND
  5
286D
330
286A
100
AcDbEntity
  8
OUTLINE
  0
POLYLINE
  5
286E
330
2953
100
AcDbEntity
  8
OUTLINE
100
AcDb2dPolyline
 66
     1
 10
0.0
 20
0.0
 30
0.0
  0
VERTEX
  5
286F
330
286E
100
AcDbEntity
  8
OUTLINE
100
AcDbVertex
100
AcDb2dVertex
 10
-207.5
 20
-2.599999999999908
 30
0.0
  0
VERTEX
  5
2870
330
286E
100
AcDbEntity
  8
OUTLINE
100
AcDbVertex
100
AcDb2dVertex
 10
207.5
 20
-2.599999999999908
 30
0.0
  0
SEQEND
  5
2871
330
286E
100
AcDbEntity
  8
OUTLINE
  0
LINE
  5
2872
330
2953
100
AcDbEntity
  8
OUTLINE
100
AcDbLine
 10
-173.5
 20
-342.0
 30
0.0
 11
173.5
 21
-342.0
 31
0.0
  0
LINE
  5
2873
330
2953
100
AcDbEntity
  8
OUTLINE
100
AcDbLine
 39
50.0
 10
-207.5
 20
-2.599999999999908
 30
0.0
 11
-207.5
 21
0.0
 31
0.0
  0
LINE
  5
2874
330
2953
100
AcDbEntity
  8
OUTLINE
100
AcDbLine
 39
50.0
 10
-207.5
 20
0.0
 30
0.0
 11
207.5
 21
0.0
 31
0.0
  0
LINE
  5
2875
330
2953
100
AcDbEntity
  8
OUTLINE
100
AcDbLine
 39
50.0
 10
207.5
 20
0.0
 30
0.0
 11
207.5
 21
-2.599999999999908
 31
0.0
  0
LINE
  5
2876
330
2953
100
AcDbEntity
  8
DETAIL
100
AcDbLine
 10
-157.9000000000014
 20
-52.5999999999999
 30
0.0
 11
-157.9000000000014
 21
-326.3999999999996
 31
0.0
  0
LINE
  5
2877
330
2953
100
AcDbEntity
  8
DETAIL
100
AcDbLine
 10
157.8999999999978
 20
-52.5999999999999
 30
0.0
 11
157.8999999999978
 21
-326.3999999999996
 31
0.0
  0
POLYLINE
  5
2878
330
2953
100
AcDbEntity
  8
DETAIL
100
AcDb2dPolyline
 66
     1
 10
0.0
 20
0.0
 30
0.0
  0
VERTEX
  5
2879
330
2878
100
AcDbEntity
  8
DETAIL
100
AcDbVertex
100
AcDb2dVertex
 10
-157.9000000000014
 20
-52.5999999999999
 30
0.0
  0
VERTEX
  5
287A
330
2878
100
AcDbEntity
  8
DETAIL
100
AcDbVertex
100
AcDb2dVertex
 10
157.8999999999978
 20
-52.5999999999999
 30
0.0
  0
SEQEND
  5
287B
330
2878
100
AcDbEntity
  8
DETAIL
  0
LINE
  5
287C
330
2953
100
AcDbEntity
  8
DETAIL
100
AcDbLine
 10
-157.9000000000014
 20
-326.3999999999996
 30
0.0
 11
157.8999999999978
 21
-326.3999999999996
 31
0.0
  0
LINE
  5
287D
330
2953
100
AcDbEntity
  8
DETAIL
100
AcDbLine
 10
157.8999999999978
 20
-52.5999999999999
 30
0.0
 11
157.8999999999978
 21
-326.4000000000006
 31
0.0
  0
LINE
  5
287E
330
2953
100
AcDbEntity
  8
DETAIL
100
AcDbLine
 10
-157.9000000000051
 20
-52.5999999999999
 30
0.0
 11
-157.9000000000051
 21
-326.4000000000006
 31
0.0
  0
POLYLINE
  5
287F
330
2953
100
AcDbEntity
  8
DETAIL
100
AcDb2dPolyline
 66
     1
 10
0.0
 20
0.0
 30
0.0
  0
VERTEX
  5
2880
330
287F
100
AcDbEntity
  8
DETAIL
100
AcDbVertex
100
AcDb2dVertex
 10
-157.9000000000051
 20
-52.5999999999999
 30
0.0
  0
VERTEX
  5
2881
330
287F
100
AcDbEntity
  8
DETAIL
100
AcDbVertex
100
AcDb2dVertex
 10
157.8999999999978
 20
-52.5999999999999
 30
0.0
  0
SEQEND
  5
2882
330
287F
100
AcDbEntity
  8
DETAIL
  0
LINE
  5
2883
330
2953
100
AcDbEntity
  8
DETAIL
100
AcDbLine
 10
-157.9000000000051
 20
-326.4000000000006
 30
0.0
 11
157.8999999999978
 21
-326.4000000000006
 31
0.0
  0
INSERT
  5
2884
330
2953
100
AcDbEntity
  8
DETAIL
100
AcDbBlockReference
  2
*X68
 10
0.0
 20
0.0
 30
0.0
1001
ACADANNOTATIVE
1000
AnnotativeData
1002
{
1070
     1
1070
     0
1002
}
1001
ACAD
1000
HATCH
1002
{
1070
    19
1000
LINE
1040
19.969
1040
0.5880014249968896
1000
R14_HATCH_DATA
1000
809D
1011
1.0
1021
0.0
1031
0.0
1011
0.0
1021
1.0
1031
0.0
1011
0.0
1021
0.0
1031
1.0
1040
0.0
1010
0.0
1020
0.0
1030
1.0
1000
LINE
1070
     0
1070
     0
1071
        2
1071
        7
1070
     0
1070
     1
1071
        6
1040
-57.90000000000144
1040
-52.5999999999999
1040
-157.9000000000014
1040
-52.5999999999999
1040
-157.9000000000051
1040
-326.4000000000006
1040
157.8999999999942
1040
-326.4000000000006
1040
157.8999999999942
1040
-246.4000000000005
1040
-57.90000000000144
1040
-246.3999999999996
1071
        0
1071
        7
1070
     0
1070
     1
1071
        4
1040
157.8999999999978
1040
-52.60000000000037
1040
-57.90000000000144
1040
-52.60000000000037
1040
-57.90000000000144
1040
-246.3999999999996
1040
157.8999999999942
1040
-246.3999999999996
1071
        0
1070
     0
1070
     1
1040
0.5880014249968896
1040
19.969
1070
     0
1070
     1
1040
0.5880014249968896
1040
20569.5969055431
1040
3535.575431169335
1040
-1.384598579568018
1040
2.076903172775084
1070
     0
1040
0.6036262587467213
1071
        2
1040
-102.5825242502542
1040
-148.2502574516666
1040
0.0
1040
88.48330888504642
1040
-171.3214214842228
1040
0.0
1002
}
  0
INSERT
  5
2885
330
2953
100
AcDbEntity
  8
DETAIL
100
AcDbBlockReference
  2
*X69
 10
0.0
 20
0.0
 30
0.0
1001
ACADANNOTATIVE
1000
AnnotativeData
1002
{
1070
     1
1070
     0
1002
}
1001
ACAD
1000
HATCH
1002
{
1070
    19
1000
LINE
1040
19.969
1040
5.695183882182695
1000
R14_HATCH_DATA
1000
80A3
1011
1.0
1021
0.0
1031
0.0
1011
0.0
1021
1.0
1031
0.0
1011
0.0
1021
0.0
1031
1.0
1040
0.0
1010
0.0
1020
0.0
1030
1.0
1000
LINE
1070
     0
1070
     0
1071
        2
1071
        7
1070
     0
1070
     1
1071
        6
1040
-57.90000000000144
1040
-52.5999999999999
1040
-157.9000000000014
1040
-52.5999999999999
1040
-157.9000000000051
1040
-326.4000000000006
1040
157.8999999999942
1040
-326.4000000000006
1040
157.8999999999942
1040
-246.4000000000005
1040
-57.90000000000144
1040
-246.3999999999996
1071
        0
1071
        7
1070
     0
1070
     1
1071
        4
1040
-57.90000000000144
1040
-52.59999999999945
1040
-57.90000000000144
1040
-246.3999999999996
1040
157.8999999999942
1040
-246.3999999999996
1040
157.8999999999978
1040
-52.60000000000037
1071
        0
1070
     0
1070
     1
1040
5.695183882182695
1040
19.969
1070
     0
1070
     1
1040
5.695183882182695
1040
20569.5969055431
1040
3535.575431169335
1040
1.384598579568018
1040
2.076903172775084
1070
     0
1040
1.072193615192194
1071
        2
1040
-98.95749621026334
1040
-89.6936027590832
1040
0.0
1040
53.47801823268309
1040
-97.96932302824281
1040
0.0
1002
}
  0
LINE
  5
2886
330
2953
100
AcDbEntity
  8
DETAIL
100
AcDbLine
 10
157.8999999999978
 20
-52.5999999999999
 30
0.0
 11
157.8999999999978
 21
-326.4000000000006
 31
0.0
  0
LINE
  5
2887
330
2953
100
AcDbEntity
  8
DETAIL
100
AcDbLine
 10
-157.9000000000051
 20
-52.5999999999999
 30
0.0
 11
-157.9000000000051
 21
-326.4000000000006
 31
0.0
  0
POLYLINE
  5
2888
330
2953
100
AcDbEntity
  8
DETAIL
100
AcDb2dPolyline
 66
     1
 10
0.0
 20
0.0
 30
0.0
  0
VERTEX
  5
2889
330
2888
100
AcDbEntity
  8
DETAIL
100
AcDbVertex
100
AcDb2dVertex
 10
-157.9000000000051
 20
-52.5999999999999
 30
0.0
  0
VERTEX
  5
288A
330
2888
100
AcDbEntity
  8
DETAIL
100
AcDbVertex
100
AcDb2dVertex
 10
157.8999999999978
 20
-52.5999999999999
 30
0.0
  0
SEQEND
  5
288B
330
2888
100
AcDbEntity
  8
DETAIL
  0
LINE
  5
288C
330
2953
100
AcDbEntity
  8
DETAIL
100
AcDbLine
 10
-157.9000000000051
 20
-326.4000000000006
 30
0.0
 11
157.8999999999978
 21
-326.4000000000006
 31
0.0
  0
LINE
  5
288D
330
2953
100
AcDbEntity
  8
SIZE
100
AcDbLine
 10
190.0
 20
32.5
 30
0.0
 11
190.0
 21
180.9320910096174
 31
0.0
  0
LINE
  5
288E
330
2953
100
AcDbEntity
  8
SIZE
100
AcDbLine
 10
-190.0
 20
32.5
 30
0.0
 11
-190.0
 21
180.9320910096174
 31
0.0
  0
LINE
  5
288F
330
2953
100
AcDbEntity
  8
SIZE
100
AcDbLine
 10
178.0
 20
160.9320910096176
 30
0.0
 11
-178.0
 21
160.9320910096176
 31
0.0
  0
INSERT
  5
2890
330
2953
100
AcDbEntity
  8
SIZE
100
AcDbBlockReference
  2
_DOTBLANK
 10
190.0
 20
160.9320910096176
 30
0.0
 41
12.0
 42
12.0
 43
12.0
  0
INSERT
  5
2891
330
2953
100
AcDbEntity
  8
SIZE
100
AcDbBlockReference
  2
_DOTBLANK
 10
-190.0
 20
160.9320910096176
 30
0.0
 41
12.0
 42
12.0
 43
12.0
 50
180.0
  0
LINE
  5
2892
330
2953
100
AcDbEntity
  8
SIZE
100
AcDbLine
 10
207.5
 20
20.0
 30
0.0
 11
207.5
 21
299.4865929365169
 31
0.0
  0
LINE
  5
2893
330
2953
100
AcDbEntity
  8
SIZE
100
AcDbLine
 10
-207.5
 20
20.0
 30
0.0
 11
-207.5
 21
299.4865929365169
 31
0.0
  0
LINE
  5
2894
330
2953
100
AcDbEntity
  8
SIZE
100
AcDbLine
 10
195.5
 20
279.4865929365169
 30
0.0
 11
-195.5
 21
279.4865929365169
 31
0.0
  0
INSERT
  5
2895
330
2953
100
AcDbEntity
  8
SIZE
100
AcDbBlockReference
  2
_DOTBLANK
 10
207.5
 20
279.4865929365169
 30
0.0
 41
12.0
 42
12.0
 43
12.0
  0
INSERT
  5
2896
330
2953
100
AcDbEntity
  8
SIZE
100
AcDbBlockReference
  2
_DOTBLANK
 10
-207.5
 20
279.4865929365169
 30
0.0
 41
12.0
 42
12.0
 43
12.0
 50
180.0
  0
LINE
  5
2897
330
2953
100
AcDbEntity
  8
SIZE
100
AcDbLine
 10
-193.5
 20
-342.0
 30
0.0
 11
-345.3170819897098
 21
-342.0
 31
0.0
  0
LINE
  5
2898
330
2953
100
AcDbEntity
  8
SIZE
100
AcDbLine
 10
-227.5
 20
0.0
 30
0.0
 11
-345.3170819897098
 21
0.0
 31
0.0
  0
LINE
  5
2899
330
2953
100
AcDbEntity
  8
SIZE
100
AcDbLine
 10
-325.3170819897097
 20
-330.0
 30
0.0
 11
-325.3170819897095
 21
-11.99999999999994
 31
0.0
  0
INSERT
  5
289A
330
2953
100
AcDbEntity
  8
SIZE
100
AcDbBlockReference
  2
_DOTBLANK
 10
-325.3170819897097
 20
-342.0
 30
0.0
 41
12.0
 42
12.0
 43
12.0
 50
270.0
  0
INSERT
  5
289B
330
2953
100
AcDbEntity
  8
SIZE
100
AcDbBlockReference
  2
_DOTBLANK
 10
-325.3170819897095
 20
0.0
 30
0.0
 41
12.0
 42
12.0
 43
12.0
 50
90.0
  0
LINE
  5
289C
330
2953
100
AcDbEntity
  8
SIZE
100
AcDbLine
 10
173.5
 20
-362.0
 30
0.0
 11
173.5
 21
-521.8785026932937
 31
0.0
  0
LINE
  5
289D
330
2953
100
AcDbEntity
  8
SIZE
100
AcDbLine
 10
-173.5
 20
-362.0
 30
0.0
 11
-173.5
 21
-521.8785026932937
 31
0.0
  0
LINE
  5
289E
330
2953
100
AcDbEntity
  8
SIZE
100
AcDbLine
 10
161.5
 20
-501.8785026932937
 30
0.0
 11
-161.5
 21
-501.8785026932937
 31
0.0
  0
INSERT
  5
289F
330
2953
100
AcDbEntity
  8
SIZE
100
AcDbBlockReference
  2
_DOTBLANK
 10
173.5
 20
-501.8785026932937
 30
0.0
 41
12.0
 42
12.0
 43
12.0
  0
INSERT
  5
28A0
330
2953
100
AcDbEntity
  8
SIZE
100
AcDbBlockReference
  2
_DOTBLANK
 10
-173.5
 20
-501.8785026932937
 30
0.0
 41
12.0
 42
12.0
 43
12.0
 50
180.0
  0
TEXT
  5
28A1
330
2953
100
AcDbEntity
  8
SIZE
100
AcDbText
 10
-74.05714285714293
 20
-491.8785026932936
 30
0.0
 40
64.0
  1
347
 41
0.9
100
AcDbText
  0
TEXT
  5
28A2
330
2953
100
AcDbEntity
  8
SIZE
100
AcDbText
 10
-335.3170819897095
 20
-238.9832365731448
 30
0.0
 40
64.0
  1
342
 50
90.0
 41
0.9
100
AcDbText
  0
TEXT
  5
28A3
330
2953
100
AcDbEntity
  8
SIZE
100
AcDbText
 10
-74.61302049113601
 20
170.9320910096176
 30
0.0
 40
64.0
  1
380
 41
0.9
100
AcDbText
  0
TEXT
  5
28A4
330
2953
100
AcDbEntity
  8
SIZE
100
AcDbText
 10
-68.57142857142865
 20
289.4865929365169
 30
0.0
 40
64.0
  1
415
 41
0.9
100
AcDbText
  0
ENDSEC
  0
SECTION
  2
OBJECTS
  0
DICTIONARY
  5
28EB
330
0
100
AcDbDictionary
281
     1
  3
ACAD_2007HEADERVARS_RT
350
2B33
  3
ACAD_COLOR
350
2949
  3
ACAD_GROUP
350
28EC
  3
ACAD_LAYOUT
350
2948
  3
ACAD_MATERIAL
350
28EF
  3
ACAD_MLEADERSTYLE
350
294C
  3
ACAD_MLINESTYLE
350
2945
  3
ACAD_PLOTSETTINGS
350
2947
  3
ACAD_PLOTSTYLENAME
350
28ED
  3
ACAD_SCALELIST
350
2919
  3
ACAD_TABLESTYLE
350
294A
  3
ACAD_VISUALSTYLE
350
2908
  3
ACDB_RECOMPOSE_DATA
350
2B31
  3
AcDbVariableDictionary
350
2B28
  3
AcmDictionary
350
2ADB
  3
AMG
350
2A28
  3
DWGPROPS
350
2B32
  3
MAPISURF_MODULE
350
2AA8
  0
DICTIONARY
  5
2B03
330
293B
100
AcDbDictionary
280
     1
281
     1
  3
ADSK_XREC_LAYER_RECONCILED
360
2B04
  0
DICTIONARY
  5
2B05
330
296A
100
AcDbDictionary
280
     1
281
     1
  3
ADSK_XREC_LAYER_RECONCILED
360
2B06
  0
DICTIONARY
  5
2B07
330
296B
100
AcDbDictionary
280
     1
281
     1
  3
ADSK_XREC_LAYER_RECONCILED
360
2B08
  0
DICTIONARY
  5
2B09
330
296C
100
AcDbDictionary
280
     1
281
     1
  3
ADSK_XREC_LAYER_RECONCILED
360
2B0A
  0
DICTIONARY
  5
2B0B
330
296D
100
AcDbDictionary
280
     1
281
     1
  3
ADSK_XREC_LAYER_RECONCILED
360
2B0C
  0
DICTIONARY
  5
2B0D
330
296E
100
AcDbDictionary
280
     1
281
     1
  3
ADSK_XREC_LAYER_RECONCILED
360
2B0E
  0
DICTIONARY
  5
2B0F
330
2970
100
AcDbDictionary
280
     1
281
     1
  3
ADSK_XREC_LAYER_RECONCILED
360
2B10
  0
DICTIONARY
  5
2B11
330
2971
100
AcDbDictionary
280
     1
281
     1
  3
ADSK_XREC_LAYER_RECONCILED
360
2B12
  0
DICTIONARY
  5
2B13
330
2972
100
AcDbDictionary
280
     1
281
     1
  3
ADSK_XREC_LAYER_RECONCILED
360
2B14
  0
DICTIONARY
  5
2B15
330
2973
100
AcDbDictionary
280
     1
281
     1
  3
ADSK_XREC_LAYER_RECONCILED
360
2B16
  0
DICTIONARY
  5
2B17
330
2974
100
AcDbDictionary
280
     1
281
     1
  3
ADSK_XREC_LAYER_RECONCILED
360
2B18
  0
DICTIONARY
  5
2B19
330
2953
100
AcDbDictionary
280
     1
281
     1
  3
ACAD_INDEX
360
2B1A
  0
DICTIONARY
  5
2B33
102
{ACAD_REACTORS
330
28EB
102
}
330
28EB
100
AcDbDictionary
281
     1
  3
DIMARCSYM
350
2B34
  3
DIMLTEX1
350
2B36
  3
DIMLTEX2
350
2B37
  3
DIMLTYPE
350
2B35
  0
DICTIONARY
  5
2949
102
{ACAD_REACTORS
330
28EB
102
}
330
28EB
100
AcDbDictionary
281
     1
  0
DICTIONARY
  5
28EC
102
{ACAD_REACTORS
330
28EB
102
}
330
28EB
100
AcDbDictionary
281
     1
  0
DICTIONARY
  5
2948
102
{ACAD_REACTORS
330
28EB
102
}
330
28EB
100
AcDbDictionary
281
     1
  3
Model
350
2956
  3
レイアウト1
350
2952
  0
DICTIONARY
  5
28EF
102
{ACAD_REACTORS
330
28EB
102
}
330
28EB
100
AcDbDictionary
281
     1
  3
ByBlock
350
28F8
  3
ByLayer
350
28F0
  3
Global
350
2900
  0
DICTIONARY
  5
294C
102
{ACAD_REACTORS
330
28EB
102
}
330
28EB
100
AcDbDictionary
281
     1
  3
Standard
350
294D
  0
DICTIONARY
  5
2945
102
{ACAD_REACTORS
330
28EB
102
}
330
28EB
100
AcDbDictionary
281
     1
  3
Standard
350
2946
  0
DICTIONARY
  5
2947
102
{ACAD_REACTORS
330
28EB
102
}
330
28EB
100
AcDbDictionary
281
     1
  0
ACDBDICTIONARYWDFLT
  5
28ED
102
{ACAD_REACTORS
330
28EB
102
}
330
28EB
100
AcDbDictionary
281
     1
  3
Normal
350
28EE
100
AcDbDictionaryWithDefault
340
28EE
  0
DICTIONARY
  5
2919
102
{ACAD_REACTORS
330
28EB
102
}
330
28EB
100
AcDbDictionary
281
     1
  3
A0
350
291A
  3
A1
350
291B
  3
A2
350
291C
  3
A3
350
291D
  3
A4
350
291E
  3
A5
350
291F
  3
A6
350
2920
  3
A7
350
2921
  3
A8
350
2922
  3
A9
350
2923
  3
B0
350
2924
  3
B1
350
2925
  3
B2
350
2926
  3
B3
350
2927
  3
B4
350
2928
  3
B5
350
2929
  3
B6
350
292A
  3
B7
350
292B
  3
B8
350
292C
  3
B9
350
292D
  3
C0
350
292E
  3
C1
350
292F
  3
C2
350
2930
  3
C3
350
2931
  3
C4
350
2932
  3
C5
350
2933
  3
C6
350
2934
  3
C7
350
2935
  3
C8
350
2936
  3
C9
350
2937
  3
D0
350
2938
  3
D1
350
2939
  3
D2
350
293A
  0
DICTIONARY
  5
294A
102
{ACAD_REACTORS
330
28EB
102
}
330
28EB
100
AcDbDictionary
281
     1
  3
Standard
350
294B
  0
DICTIONARY
  5
2908
102
{ACAD_REACTORS
330
28EB
102
}
330
28EB
100
AcDbDictionary
281
     1
  3
2dWireframe
350
290E
  3
3D Hidden
350
2910
  3
3dWireframe
350
290F
  3
Basic
350
290D
  3
Brighten
350
2914
  3
ColorChange
350
2918
  3
Conceptual
350
2911
  3
Dim
350
2913
  3
Facepattern
350
2917
  3
Flat
350
2909
  3
FlatWithEdges
350
290A
  3
Gouraud
350
290B
  3
GouraudWithEdges
350
290C
  3
Linepattern
350
2916
  3
Realistic
350
2912
  3
Thicken
350
2915
  0
XRECORD
  5
2B31
102
{ACAD_REACTORS
330
28EB
102
}
330
28EB
100
AcDbXrecord
280
     1
 90
        1
330
294B
  0
DICTIONARY
  5
2B28
102
{ACAD_REACTORS
330
28EB
102
}
330
28EB
100
AcDbDictionary
281
     1
  3
CANNOSCALE
350
2B2B
  3
CMLEADERSTYLE
350
2B2A
  3
CTABLESTYLE
350
2B29
  3
DIMASSOC
350
2B2E
  3
INDEXCTL
350
2B2D
  3
SORTENTS
350
2B2C
  0
DICTIONARY
  5
2ADB
102
{ACAD_REACTORS
330
28EB
102
}
330
28EB
100
AcDbDictionary
281
     1
  3
AcmStdDictionary
350
2AE9
  0
DICTIONARY
  5
2A28
102
{ACAD_REACTORS
330
28EB
102
}
330
28EB
100
AcDbDictionary
281
     1
  3
AcMgSettings
350
2A29
  0
XRECORD
  5
2B32
102
{ACAD_REACTORS
330
28EB
102
}
330
28EB
100
AcDbXrecord
280
     1
  1
DWGPROPS COOKIE
  2

  3

  4

  6

  7

  8
A090053
  9

300
AmdtFileType=84
301
=
302
=
303
=
304
=
305
=
306
=
307
=
308
=
309
=
 40
1.040843715277777
 41
2452321.396199653
 42
2456210.611681424
  1

 90
        1
  0
XRECORD
  5
2B04
102
{ACAD_REACTORS
330
2B03
102
}
330
2B03
100
AcDbXrecord
280
     1
290
     1
  0
XRECORD
  5
2B06
102
{ACAD_REACTORS
330
2B05
102
}
330
2B05
100
AcDbXrecord
280
     1
290
     1
  0
XRECORD
  5
2B08
102
{ACAD_REACTORS
330
2B07
102
}
330
2B07
100
AcDbXrecord
280
     1
290
     1
  0
XRECORD
  5
2B0A
102
{ACAD_REACTORS
330
2B09
102
}
330
2B09
100
AcDbXrecord
280
     1
290
     1
  0
XRECORD
  5
2B0C
102
{ACAD_REACTORS
330
2B0B
102
}
330
2B0B
100
AcDbXrecord
280
     1
290
     1
  0
XRECORD
  5
2B0E
102
{ACAD_REACTORS
330
2B0D
102
}
330
2B0D
100
AcDbXrecord
280
     1
290
     1
  0
XRECORD
  5
2B10
102
{ACAD_REACTORS
330
2B0F
102
}
330
2B0F
100
AcDbXrecord
280
     1
290
     1
  0
XRECORD
  5
2B12
102
{ACAD_REACTORS
330
2B11
102
}
330
2B11
100
AcDbXrecord
280
     1
290
     1
  0
XRECORD
  5
2B14
102
{ACAD_REACTORS
330
2B13
102
}
330
2B13
100
AcDbXrecord
280
     1
290
     1
  0
XRECORD
  5
2B16
102
{ACAD_REACTORS
330
2B15
102
}
330
2B15
100
AcDbXrecord
280
     1
290
     1
  0
XRECORD
  5
2B18
102
{ACAD_REACTORS
330
2B17
102
}
330
2B17
100
AcDbXrecord
280
     1
290
     1
  0
DICTIONARY
  5
2B1A
102
{ACAD_REACTORS
330
2B19
102
}
330
2B19
100
AcDbDictionary
281
     1
  3
*A1
350
2B1B
  0
XRECORD
  5
2B34
102
{ACAD_REACTORS
330
2B33
102
}
330
2B33
100
AcDbXrecord
280
     1
 70
     1
  0
XRECORD
  5
2B36
102
{ACAD_REACTORS
330
2B33
102
}
330
2B33
100
AcDbXrecord
280
     1
340
2941
  0
XRECORD
  5
2B37
102
{ACAD_REACTORS
330
2B33
102
}
330
2B33
100
AcDbXrecord
280
     1
340
2941
  0
XRECORD
  5
2B35
102
{ACAD_REACTORS
330
2B33
102
}
330
2B33
100
AcDbXrecord
280
     1
340
2941
  0
LAYOUT
  5
2956
102
{ACAD_XDICTIONARY
360
2B3E
102
}
102
{ACAD_REACTORS
330
2948
102
}
330
2948
100
AcDbPlotSettings
  1

  2
自動 EPSON LP-9600S (W2450527 上)
  4

  6

 40
0.0
 41
0.0
 42
0.0
 43
0.0
 44
0.0
 45
0.0
 46
0.0
 47
0.0
 48
0.0
 49
0.0
140
0.0
141
0.0
142
1.0
143
1.0
 70
  1712
 72
     0
 73
     0
 74
     0
  7

 75
     0
147
1.0
148
0.0
149
0.0
100
AcDbLayout
  1
Model
 70
     1
 71
     0
 10
0.0
 20
0.0
 11
12.0
 21
9.0
 12
0.0
 22
0.0
 32
0.0
 14
0.0
 24
0.0
 34
0.0
 15
0.0
 25
0.0
 35
0.0
146
0.0
 13
0.0
 23
0.0
 33
0.0
 16
1.0
 26
0.0
 36
0.0
 17
0.0
 27
1.0
 37
0.0
 76
     0
330
2953
331
2957
  0
LAYOUT
  5
2952
102
{ACAD_XDICTIONARY
360
2B3C
102
}
102
{ACAD_REACTORS
330
2948
102
}
330
2948
100
AcDbPlotSettings
  1

  2
自動 EPSON LP-9600S (W2450527 上)
  4

  6

 40
0.0
 41
0.0
 42
0.0
 43
0.0
 44
0.0
 45
0.0
 46
0.0
 47
0.0
 48
0.0
 49
0.0
140
0.0
141
0.0
142
1.0
143
1.0
 70
   688
 72
     0
 73
     0
 74
     5
  7

 75
    16
147
1.0
148
0.0
149
0.0
100
AcDbLayout
  1
レイアウト1
 70
     1
 71
     1
 10
0.0
 20
0.0
 11
12.0
 21
9.0
 12
0.0
 22
0.0
 32
0.0
 14
1.000000000000000E+20
 24
1.000000000000000E+20
 34
1.000000000000000E+20
 15
-1.000000000000000E+20
 25
-1.000000000000000E+20
 35
-1.000000000000000E+20
146
0.0
 13
0.0
 23
0.0
 33
0.0
 16
1.0
 26
0.0
 36
0.0
 17
0.0
 27
1.0
 37
0.0
 76
     0
330
294F
  0
MATERIAL
  5
28F8
102
{ACAD_XDICTIONARY
360
28F9
102
}
102
{ACAD_REACTORS
330
28EF
102
}
330
28EF
100
AcDbMaterial
  1
ByBlock
 72
     0
 43
0.0208333333333333
 43
0.0
 43
0.0
 43
0.0
 43
0.0
 43
0.0208333333333333
 43
0.0
 43
0.0
 43
0.0
 43
0.0
 43
1.0
 43
0.0
 43
0.0
 43
0.0
 43
0.0
 43
1.0
 77
     0
 47
0.0208333333333333
 47
0.0
 47
0.0
 47
0.0
 47
0.0
 47
0.0208333333333333
 47
0.0
 47
0.0
 47
0.0
 47
0.0
 47
1.0
 47
0.0
 47
0.0
 47
0.0
 47
0.0
 47
1.0
171
     0
 49
0.0208333333333333
 49
0.0
 49
0.0
 49
0.0
 49
0.0
 49
0.0208333333333333
 49
0.0
 49
0.0
 49
0.0
 49
0.0
 49
1.0
 49
0.0
 49
0.0
 49
0.0
 49
0.0
 49
1.0
175
     0
142
0.0208333333333333
142
0.0
142
0.0
142
0.0
142
0.0
142
0.0208333333333333
142
0.0
142
0.0
142
0.0
142
0.0
142
1.0
142
0.0
142
0.0
142
0.0
142
0.0
142
1.0
179
     0
144
0.0208333333333333
144
0.0
144
0.0
144
0.0
144
0.0
144
0.0208333333333333
144
0.0
144
0.0
144
0.0
144
0.0
144
1.0
144
0.0
144
0.0
144
0.0
144
0.0
144
1.0
147
0.0208333333333333
147
0.0
147
0.0
147
0.0
147
0.0
147
0.0208333333333333
147
0.0
147
0.0
147
0.0
147
0.0
147
1.0
147
0.0
147
0.0
147
0.0
147
0.0
147
1.0
  0
MATERIAL
  5
28F0
102
{ACAD_XDICTIONARY
360
28F1
102
}
102
{ACAD_REACTORS
330
28EF
102
}
330
28EF
100
AcDbMaterial
  1
ByLayer
 72
     0
 43
0.0208333333333333
 43
0.0
 43
0.0
 43
0.0
 43
0.0
 43
0.0208333333333333
 43
0.0
 43
0.0
 43
0.0
 43
0.0
 43
1.0
 43
0.0
 43
0.0
 43
0.0
 43
0.0
 43
1.0
 77
     0
 47
0.0208333333333333
 47
0.0
 47
0.0
 47
0.0
 47
0.0
 47
0.0208333333333333
 47
0.0
 47
0.0
 47
0.0
 47
0.0
 47
1.0
 47
0.0
 47
0.0
 47
0.0
 47
0.0
 47
1.0
171
     0
 49
0.0208333333333333
 49
0.0
 49
0.0
 49
0.0
 49
0.0
 49
0.0208333333333333
 49
0.0
 49
0.0
 49
0.0
 49
0.0
 49
1.0
 49
0.0
 49
0.0
 49
0.0
 49
0.0
 49
1.0
175
     0
142
0.0208333333333333
142
0.0
142
0.0
142
0.0
142
0.0
142
0.0208333333333333
142
0.0
142
0.0
142
0.0
142
0.0
142
1.0
142
0.0
142
0.0
142
0.0
142
0.0
142
1.0
179
     0
144
0.0208333333333333
144
0.0
144
0.0
144
0.0
144
0.0
144
0.0208333333333333
144
0.0
144
0.0
144
0.0
144
0.0
144
1.0
144
0.0
144
0.0
144
0.0
144
0.0
144
1.0
147
0.0208333333333333
147
0.0
147
0.0
147
0.0
147
0.0
147
0.0208333333333333
147
0.0
147
0.0
147
0.0
147
0.0
147
1.0
147
0.0
147
0.0
147
0.0
147
0.0
147
1.0
  0
MATERIAL
  5
2900
102
{ACAD_XDICTIONARY
360
2901
102
}
102
{ACAD_REACTORS
330
28EF
102
}
330
28EF
100
AcDbMaterial
  1
Global
 72
     0
 43
0.0208333333333333
 43
0.0
 43
0.0
 43
0.0
 43
0.0
 43
0.0208333333333333
 43
0.0
 43
0.0
 43
0.0
 43
0.0
 43
1.0
 43
0.0
 43
0.0
 43
0.0
 43
0.0
 43
1.0
 77
     0
 47
0.0208333333333333
 47
0.0
 47
0.0
 47
0.0
 47
0.0
 47
0.0208333333333333
 47
0.0
 47
0.0
 47
0.0
 47
0.0
 47
1.0
 47
0.0
 47
0.0
 47
0.0
 47
0.0
 47
1.0
171
     0
 49
0.0208333333333333
 49
0.0
 49
0.0
 49
0.0
 49
0.0
 49
0.0208333333333333
 49
0.0
 49
0.0
 49
0.0
 49
0.0
 49
1.0
 49
0.0
 49
0.0
 49
0.0
 49
0.0
 49
1.0
175
     0
142
0.0208333333333333
142
0.0
142
0.0
142
0.0
142
0.0
142
0.0208333333333333
142
0.0
142
0.0
142
0.0
142
0.0
142
1.0
142
0.0
142
0.0
142
0.0
142
0.0
142
1.0
179
     0
144
0.0208333333333333
144
0.0
144
0.0
144
0.0
144
0.0
144
0.0208333333333333
144
0.0
144
0.0
144
0.0
144
0.0
144
1.0
144
0.0
144
0.0
144
0.0
144
0.0
144
1.0
147
0.0208333333333333
147
0.0
147
0.0
147
0.0
147
0.0
147
0.0208333333333333
147
0.0
147
0.0
147
0.0
147
0.0
147
1.0
147
0.0
147
0.0
147
0.0
147
0.0
147
1.0
  0
MLEADERSTYLE
  5
294D
102
{ACAD_REACTORS
330
294C
102
}
330
294C
100
AcDbMLeaderStyle
170
     2
171
     1
172
     0
 90
        2
 40
0.0
 41
0.0
173
     1
 91
-1056964608
340
2941
 92
       -2
290
     1
 42
0.09
291
     1
 43
0.36
  3
Standard
 44
0.18
300

342
293C
174
     1
178
     6
175
     1
176
     0
 93
-1056964608
 45
0.18
292
     0
297
     0
 46
0.18
 94
-1056964608
 47
1.0
 49
1.0
140
1.0
293
     1
141
0.0
294
     1
177
     0
142
1.0
295
     0
296
     0
143
0.125
1001
ACAD_MLEADERVER
1070
     2
  0
MLINESTYLE
  5
2946
102
{ACAD_REACTORS
330
2945
102
}
330
2945
100
AcDbMlineStyle
  2
STANDARD
 70
     0
  3

 62
   256
 51
90.0
 52
90.0
 71
     2
 49
0.5
 62
   256
  6
BYLAYER
 49
-0.5
 62
   256
  6
BYLAYER
  0
ACDBPLACEHOLDER
  5
28EE
102
{ACAD_REACTORS
330
28ED
102
}
330
28ED
  0
SCALE
  5
291A
102
{ACAD_REACTORS
330
2919
102
}
330
2919
100
AcDbScale
 70
     0
300
1:1
140
1.0
141
1.0
290
     1
  0
SCALE
  5
291B
102
{ACAD_REACTORS
330
2919
102
}
330
2919
100
AcDbScale
 70
     0
300
1:2
140
1.0
141
2.0
290
     0
  0
SCALE
  5
291C
102
{ACAD_REACTORS
330
2919
102
}
330
2919
100
AcDbScale
 70
     0
300
1:4
140
1.0
141
4.0
290
     0
  0
SCALE
  5
291D
102
{ACAD_REACTORS
330
2919
102
}
330
2919
100
AcDbScale
 70
     0
300
1:5
140
1.0
141
5.0
290
     0
  0
SCALE
  5
291E
102
{ACAD_REACTORS
330
2919
102
}
330
2919
100
AcDbScale
 70
     0
300
1:8
140
1.0
141
8.0
290
     0
  0
SCALE
  5
291F
102
{ACAD_REACTORS
330
2919
102
}
330
2919
100
AcDbScale
 70
     0
300
1:10
140
1.0
141
10.0
290
     0
  0
SCALE
  5
2920
102
{ACAD_REACTORS
330
2919
102
}
330
2919
100
AcDbScale
 70
     0
300
1:16
140
1.0
141
16.0
290
     0
  0
SCALE
  5
2921
102
{ACAD_REACTORS
330
2919
102
}
330
2919
100
AcDbScale
 70
     0
300
1:20
140
1.0
141
20.0
290
     0
  0
SCALE
  5
2922
102
{ACAD_REACTORS
330
2919
102
}
330
2919
100
AcDbScale
 70
     0
300
1:30
140
1.0
141
30.0
290
     0
  0
SCALE
  5
2923
102
{ACAD_REACTORS
330
2919
102
}
330
2919
100
AcDbScale
 70
     0
300
1:40
140
1.0
141
40.0
290
     0
  0
SCALE
  5
2924
102
{ACAD_REACTORS
330
2919
102
}
330
2919
100
AcDbScale
 70
     0
300
1:50
140
1.0
141
50.0
290
     0
  0
SCALE
  5
2925
102
{ACAD_REACTORS
330
2919
102
}
330
2919
100
AcDbScale
 70
     0
300
1:100
140
1.0
141
100.0
290
     0
  0
SCALE
  5
2926
102
{ACAD_REACTORS
330
2919
102
}
330
2919
100
AcDbScale
 70
     0
300
2:1
140
2.0
141
1.0
290
     0
  0
SCALE
  5
2927
102
{ACAD_REACTORS
330
2919
102
}
330
2919
100
AcDbScale
 70
     0
300
4:1
140
4.0
141
1.0
290
     0
  0
SCALE
  5
2928
102
{ACAD_REACTORS
330
2919
102
}
330
2919
100
AcDbScale
 70
     0
300
8:1
140
8.0
141
1.0
290
     0
  0
SCALE
  5
2929
102
{ACAD_REACTORS
330
2919
102
}
330
2919
100
AcDbScale
 70
     0
300
10:1
140
10.0
141
1.0
290
     0
  0
SCALE
  5
292A
102
{ACAD_REACTORS
330
2919
102
}
330
2919
100
AcDbScale
 70
     0
300
100:1
140
100.0
141
1.0
290
     0
  0
SCALE
  5
292B
102
{ACAD_REACTORS
330
2919
102
}
330
2919
100
AcDbScale
 70
     0
300
1/128" = 1'-0"
140
0.0078125
141
12.0
290
     0
  0
SCALE
  5
292C
102
{ACAD_REACTORS
330
2919
102
}
330
2919
100
AcDbScale
 70
     0
300
1/64" = 1'-0"
140
0.015625
141
12.0
290
     0
  0
SCALE
  5
292D
102
{ACAD_REACTORS
330
2919
102
}
330
2919
100
AcDbScale
 70
     0
300
1/32" = 1'-0"
140
0.03125
141
12.0
290
     0
  0
SCALE
  5
292E
102
{ACAD_REACTORS
330
2919
102
}
330
2919
100
AcDbScale
 70
     0
300
1/16" = 1'-0"
140
0.0625
141
12.0
290
     0
  0
SCALE
  5
292F
102
{ACAD_REACTORS
330
2919
102
}
330
2919
100
AcDbScale
 70
     0
300
3/32" = 1'-0"
140
0.09375
141
12.0
290
     0
  0
SCALE
  5
2930
102
{ACAD_REACTORS
330
2919
102
}
330
2919
100
AcDbScale
 70
     0
300
1/8" = 1'-0"
140
0.125
141
12.0
290
     0
  0
SCALE
  5
2931
102
{ACAD_REACTORS
330
2919
102
}
330
2919
100
AcDbScale
 70
     0
300
3/16" = 1'-0"
140
0.1875
141
12.0
290
     0
  0
SCALE
  5
2932
102
{ACAD_REACTORS
330
2919
102
}
330
2919
100
AcDbScale
 70
     0
300
1/4" = 1'-0"
140
0.25
141
12.0
290
     0
  0
SCALE
  5
2933
102
{ACAD_REACTORS
330
2919
102
}
330
2919
100
AcDbScale
 70
     0
300
3/8" = 1'-0"
140
0.375
141
12.0
290
     0
  0
SCALE
  5
2934
102
{ACAD_REACTORS
330
2919
102
}
330
2919
100
AcDbScale
 70
     0
300
1/2" = 1'-0"
140
0.5
141
12.0
290
     0
  0
SCALE
  5
2935
102
{ACAD_REACTORS
330
2919
102
}
330
2919
100
AcDbScale
 70
     0
300
3/4" = 1'-0"
140
0.75
141
12.0
290
     0
  0
SCALE
  5
2936
102
{ACAD_REACTORS
330
2919
102
}
330
2919
100
AcDbScale
 70
     0
300
1" = 1'-0"
140
1.0
141
12.0
290
     0
  0
SCALE
  5
2937
102
{ACAD_REACTORS
330
2919
102
}
330
2919
100
AcDbScale
 70
     0
300
1-1/2" = 1'-0"
140
1.5
141
12.0
290
     0
  0
SCALE
  5
2938
102
{ACAD_REACTORS
330
2919
102
}
330
2919
100
AcDbScale
 70
     0
300
3" = 1'-0"
140
3.0
141
12.0
290
     0
  0
SCALE
  5
2939
102
{ACAD_REACTORS
330
2919
102
}
330
2919
100
AcDbScale
 70
     0
300
6" = 1'-0"
140
6.0
141
12.0
290
     0
  0
SCALE
  5
293A
102
{ACAD_REACTORS
330
2919
102
}
330
2919
100
AcDbScale
 70
     0
300
1'-0" = 1'-0"
140
12.0
141
12.0
290
     0
  0
TABLESTYLE
  5
294B
102
{ACAD_XDICTIONARY
360
2B2F
102
}
102
{ACAD_REACTORS
330
294A
102
}
330
294A
100
AcDbTableStyle
  3
Standard
 70
     0
 71
     0
 40
0.06
 41
0.06
280
     0
281
     0
  7
STANDARD
140
0.18
170
     2
 62
     0
 63
     7
283
     0
274
    -2
284
     1
 64
     0
275
    -2
285
     1
 65
     0
276
    -2
286
     1
 66
     0
277
    -2
287
     1
 67
     0
278
    -2
288
     1
 68
     0
279
    -2
289
     1
 69
     0
  7
STANDARD
140
0.25
170
     5
 62
     0
 63
     7
283
     0
274
    -2
284
     1
 64
     0
275
    -2
285
     1
 65
     0
276
    -2
286
     1
 66
     0
277
    -2
287
     1
 67
     0
278
    -2
288
     1
 68
     0
279
    -2
289
     1
 69
     0
  7
STANDARD
140
0.18
170
     5
 62
     0
 63
     7
283
     0
274
    -2
284
     1
 64
     0
275
    -2
285
     1
 65
     0
276
    -2
286
     1
 66
     0
277
    -2
287
     1
 67
     0
278
    -2
288
     1
 68
     0
279
    -2
289
     1
 69
     0
  0
VISUALSTYLE
  5
290E
102
{ACAD_REACTORS
330
2908
102
}
330
2908
100
AcDbVisualStyle
  2
2dWireframe
 70
     4
 71
     0
 72
     2
 73
     0
 90
        0
 40
-0.6
 41
-30.0
 62
     5
 63
     7
 74
     1
 91
        4
 64
     7
 65
   257
 75
     1
175
     1
 42
1.0
 92
        0
 66
   257
 43
1.0
 76
     1
 77
     6
 78
     2
 67
     7
 79
     5
170
     0
171
     0
290
     0
174
     0
 93
        1
 44
0.0
173
     0
291
     0
 45
0.0
1001
ACAD
1000
AcDbSavedByObjectVersion
1070
     0
  0
VISUALSTYLE
  5
2910
102
{ACAD_REACTORS
330
2908
102
}
330
2908
100
AcDbVisualStyle
  2
3D Hidden
 70
     6
 71
     1
 72
     2
 73
     2
 90
        0
 40
-0.6
 41
-30.0
 62
     5
 63
     7
 74
     2
 91
        2
 64
     7
 65
   257
 75
     2
175
     1
 42
40.0
 92
        0
 66
   257
 43
1.0
 76
     1
 77
     6
 78
     2
 67
     7
 79
     3
170
     0
171
     0
290
     0
174
     0
 93
        1
 44
0.0
173
     0
291
     0
 45
0.0
1001
ACAD
1000
AcDbSavedByObjectVersion
1070
     0
  0
VISUALSTYLE
  5
290F
102
{ACAD_REACTORS
330
2908
102
}
330
2908
100
AcDbVisualStyle
  2
3dWireframe
 70
     5
 71
     0
 72
     2
 73
     0
 90
        0
 40
-0.6
 41
-30.0
 62
     5
 63
     7
 74
     1
 91
        4
 64
     7
 65
   257
 75
     1
175
     1
 42
1.0
 92
        0
 66
   257
 43
1.0
 76
     1
 77
     6
 78
     2
 67
     7
 79
     5
170
     0
171
     0
290
     0
174
     0
 93
        1
 44
0.0
173
     0
291
     0
 45
0.0
1001
ACAD
1000
AcDbSavedByObjectVersion
1070
     0
  0
VISUALSTYLE
  5
290D
102
{ACAD_REACTORS
330
2908
102
}
330
2908
100
AcDbVisualStyle
  2
Basic
 70
     7
 71
     1
 72
     0
 73
     1
 90
        0
 40
-0.6
 41
-30.0
 62
     5
 63
     7
 74
     0
 91
        4
 64
     7
 65
   257
 75
     1
175
     1
 42
1.0
 92
        8
 66
     7
 43
1.0
 76
     1
 77
     6
 78
     2
 67
     7
 79
     5
170
     0
171
     0
290
     0
174
     0
 93
        1
 44
0.0
173
     0
291
     1
 45
0.0
1001
ACAD
1000
AcDbSavedByObjectVersion
1070
     0
  0
VISUALSTYLE
  5
2914
102
{ACAD_REACTORS
330
2908
102
}
330
2908
100
AcDbVisualStyle
  2
Brighten
 70
    12
 71
     2
 72
     2
 73
     0
 90
        0
 40
-0.6
 41
-30.0
 62
     5
 63
     7
 74
     1
 91
        4
 64
     7
 65
   257
 75
     1
175
     1
 42
1.0
 92
        8
 66
     7
 43
1.0
 76
     1
 77
     6
 78
     2
 67
     7
 79
     5
170
     0
171
     0
290
     0
174
     0
 93
        1
 44
50.0
173
     0
291
     1
 45
0.0
1001
ACAD
1000
AcDbSavedByObjectVersion
1070
     0
  0
VISUALSTYLE
  5
2918
102
{ACAD_REACTORS
330
2908
102
}
330
2908
100
AcDbVisualStyle
  2
ColorChange
 70
    16
 71
     2
 72
     2
 73
     3
 90
        0
 40
-0.6
 41
-30.0
 62
     5
 63
     8
 74
     1
 91
        4
 64
     7
 65
   257
 75
     1
175
     1
 42
1.0
 92
        8
 66
     8
 43
1.0
 76
     1
 77
     6
 78
     2
 67
     7
 79
     5
170
     0
171
     0
290
     0
174
     0
 93
        1
 44
0.0
173
     0
291
     1
 45
0.0
1001
ACAD
1000
AcDbSavedByObjectVersion
1070
     0
  0
VISUALSTYLE
  5
2911
102
{ACAD_REACTORS
330
2908
102
}
330
2908
100
AcDbVisualStyle
  2
Conceptual
 70
     9
 71
     3
 72
     2
 73
     0
 90
        0
 40
-0.6
 41
-30.0
 62
     5
 63
     7
 74
     2
 91
        2
 64
     7
 65
   257
 75
     1
175
     1
 42
40.0
 92
        8
 66
     7
 43
1.0
 76
     1
 77
     6
 78
     2
 67
     7
 79
     3
170
     0
171
     0
290
     0
174
     0
 93
        1
 44
0.0
173
     0
291
     0
 45
0.0
1001
ACAD
1000
AcDbSavedByObjectVersion
1070
     0
  0
VISUALSTYLE
  5
2913
102
{ACAD_REACTORS
330
2908
102
}
330
2908
100
AcDbVisualStyle
  2
Dim
 70
    11
 71
     2
 72
     2
 73
     0
 90
        0
 40
-0.6
 41
-30.0
 62
     5
 63
     7
 74
     1
 91
        4
 64
     7
 65
   257
 75
     1
175
     1
 42
1.0
 92
        8
 66
     7
 43
1.0
 76
     1
 77
     6
 78
     2
 67
     7
 79
     5
170
     0
171
     0
290
     0
174
     0
 93
        1
 44
-50.0
173
     0
291
     1
 45
0.0
1001
ACAD
1000
AcDbSavedByObjectVersion
1070
     0
  0
VISUALSTYLE
  5
2917
102
{ACAD_REACTORS
330
2908
102
}
330
2908
100
AcDbVisualStyle
  2
Facepattern
 70
    15
 71
     2
 72
     2
 73
     0
 90
        0
 40
-0.6
 41
-30.0
 62
     5
 63
     7
 74
     1
 91
        4
 64
     7
 65
   257
 75
     1
175
     1
 42
1.0
 92
        8
 66
     7
 43
1.0
 76
     1
 77
     6
 78
     2
 67
     7
 79
     5
170
     0
171
     0
290
     0
174
     0
 93
        1
 44
0.0
173
     0
291
     1
 45
0.0
1001
ACAD
1000
AcDbSavedByObjectVersion
1070
     0
  0
VISUALSTYLE
  5
2909
102
{ACAD_REACTORS
330
2908
102
}
330
2908
100
AcDbVisualStyle
  2
Flat
 70
     0
 71
     2
 72
     1
 73
     1
 90
        2
 40
-0.6
 41
30.0
 62
     5
 63
     7
 74
     0
 91
        4
 64
     7
 65
   257
 75
     1
175
     1
 42
1.0
 92
        8
 66
     7
 43
1.0
 76
     1
 77
     6
 78
     2
 67
     7
 79
     5
170
     0
171
     0
290
     0
174
     0
 93
       13
 44
0.0
173
     0
291
     1
 45
0.0
1001
ACAD
1000
AcDbSavedByObjectVersion
1070
     0
  0
VISUALSTYLE
  5
290A
102
{ACAD_REACTORS
330
2908
102
}
330
2908
100
AcDbVisualStyle
  2
FlatWithEdges
 70
     1
 71
     2
 72
     1
 73
     1
 90
        2
 40
-0.6
 41
30.0
 62
     5
 63
     7
 74
     1
 91
        4
 64
     7
 65
   257
 75
     1
175
     1
 42
1.0
 92
        0
 66
   257
 43
1.0
 76
     1
 77
     6
 78
     2
 67
     7
 79
     5
170
     0
171
     0
290
     0
174
     0
 93
       13
 44
0.0
173
     0
291
     1
 45
0.0
1001
ACAD
1000
AcDbSavedByObjectVersion
1070
     0
  0
VISUALSTYLE
  5
290B
102
{ACAD_REACTORS
330
2908
102
}
330
2908
100
AcDbVisualStyle
  2
Gouraud
 70
     2
 71
     2
 72
     2
 73
     1
 90
        2
 40
-0.6
 41
30.0
 62
     5
 63
     7
 74
     0
 91
        4
 64
     7
 65
   257
 75
     1
175
     1
 42
1.0
 92
        0
 66
     7
 43
1.0
 76
     1
 77
     6
 78
     2
 67
     7
 79
     5
170
     0
171
     0
290
     0
174
     0
 93
       13
 44
0.0
173
     0
291
     1
 45
0.0
1001
ACAD
1000
AcDbSavedByObjectVersion
1070
     0
  0
VISUALSTYLE
  5
290C
102
{ACAD_REACTORS
330
2908
102
}
330
2908
100
AcDbVisualStyle
  2
GouraudWithEdges
 70
     3
 71
     2
 72
     2
 73
     1
 90
        2
 40
-0.6
 41
30.0
 62
     5
 63
     7
 74
     1
 91
        4
 64
     7
 65
   257
 75
     1
175
     1
 42
1.0
 92
        0
 66
   257
 43
1.0
 76
     1
 77
     6
 78
     2
 67
     7
 79
     5
170
     0
171
     0
290
     0
174
     0
 93
       13
 44
0.0
173
     0
291
     1
 45
0.0
1001
ACAD
1000
AcDbSavedByObjectVersion
1070
     0
  0
VISUALSTYLE
  5
2916
102
{ACAD_REACTORS
330
2908
102
}
330
2908
100
AcDbVisualStyle
  2
Linepattern
 70
    14
 71
     2
 72
     2
 73
     0
 90
        0
 40
-0.6
 41
-30.0
 62
     5
 63
     7
 74
     1
 91
        4
 64
     7
 65
   257
 75
     7
175
     7
 42
1.0
 92
        8
 66
     7
 43
1.0
 76
     1
 77
     6
 78
     2
 67
     7
 79
     5
170
     0
171
     0
290
     0
174
     0
 93
        1
 44
0.0
173
     0
291
     1
 45
0.0
1001
ACAD
1000
AcDbSavedByObjectVersion
1070
     0
  0
VISUALSTYLE
  5
2912
102
{ACAD_REACTORS
330
2908
102
}
330
2908
100
AcDbVisualStyle
  2
Realistic
 70
     8
 71
     2
 72
     2
 73
     0
 90
        0
 40
-0.6
 41
-30.0
 62
     5
 63
     7
 74
     1
 91
        0
 64
     7
 65
   257
 75
     1
175
     1
 42
1.0
 92
        8
 66
     8
 43
1.0
 76
     1
 77
     6
 78
     2
 67
     7
 79
     5
170
     0
171
     0
290
     0
174
     0
 93
       13
 44
0.0
173
     0
291
     0
 45
0.0
1001
ACAD
1000
AcDbSavedByObjectVersion
1070
     0
  0
VISUALSTYLE
  5
2915
102
{ACAD_REACTORS
330
2908
102
}
330
2908
100
AcDbVisualStyle
  2
Thicken
 70
    13
 71
     2
 72
     2
 73
     0
 90
        0
 40
-0.6
 41
-30.0
 62
     5
 63
     7
 74
     1
 91
        4
 64
     7
 65
   257
 75
     1
175
     1
 42
1.0
 92
       12
 66
     7
 43
1.0
 76
     1
 77
     6
 78
     2
 67
     7
 79
     5
170
     0
171
     0
290
     0
174
     0
 93
        1
 44
0.0
173
     0
291
     1
 45
0.0
1001
ACAD
1000
AcDbSavedByObjectVersion
1070
     0
  0
DICTIONARYVAR
  5
2B2B
102
{ACAD_REACTORS
330
2B28
102
}
330
2B28
100
DictionaryVariables
280
     0
  1
1:1
  0
DICTIONARYVAR
  5
2B2A
102
{ACAD_REACTORS
330
2B28
102
}
330
2B28
100
DictionaryVariables
280
     0
  1
STANDARD
  0
DICTIONARYVAR
  5
2B29
102
{ACAD_REACTORS
330
2B28
102
}
330
2B28
100
DictionaryVariables
280
     0
  1
STANDARD
  0
DICTIONARYVAR
  5
2B2E
102
{ACAD_REACTORS
330
2B28
102
}
330
2B28
100
DictionaryVariables
280
     0
  1
1
  0
DICTIONARYVAR
  5
2B2D
102
{ACAD_REACTORS
330
2B28
102
}
330
2B28
100
DictionaryVariables
280
     0
  1
1
  0
DICTIONARYVAR
  5
2B2C
102
{ACAD_REACTORS
330
2B28
102
}
330
2B28
100
DictionaryVariables
280
     0
  1
127
  0
DICTIONARY
  5
2AE9
102
{ACAD_REACTORS
330
2ADB
102
}
330
2ADB
100
AcDbDictionary
281
     1
  0
DICTIONARY
  5
2A29
102
{ACAD_REACTORS
330
2A28
102
}
330
2A28
100
AcDbDictionary
281
     1
  3
DWGSETTINGS
350
2A2A
  3
TRANSSETTINGS
350
2A2B
  0
LAYER_INDEX
  5
2B1B
102
{ACAD_REACTORS
330
2B1A
102
}
330
2B1A
100
AcDbIndex
 40
2456210.611681424
100
AcDbLayerIndex
  8
0
360
2B1C
 90
        2
  8
OUTLINE
360
2B1D
 90
       15
  8
SIZE
360
2B1E
 90
       24
  8
BASIS
360
2B1F
 90
        1
  8
DETAIL
360
2B20
 90
       26
  8
ARRANGE
360
2B21
 90
        2
  8
DEFPOINTS
360
2B22
 90
        0
  8
ETC
360
2B23
 90
        3
  8
FIX
360
2B24
 90
        0
  8
NOTE
360
2B25
 90
        4
  8
SERVICESPACE
360
2B26
 90
        0
  8
SYMBOLLINE
360
2B27
 90
        0
  0
DICTIONARY
  5
2B3E
330
2956
100
AcDbDictionary
280
     1
281
     1
  3
ACAD_XREC_ROUNDTRIP
360
2B3F
  0
DICTIONARY
  5
2B3C
330
2952
100
AcDbDictionary
280
     1
281
     1
  3
ACAD_XREC_ROUNDTRIP
360
2B3D
  0
DICTIONARY
  5
28F9
330
28F8
100
AcDbDictionary
280
     1
281
     1
  3
ACAD_XREC_ROUNDTRIP
360
2B39
  3
BUMPTILE
360
28FB
  3
DIFFUSETILE
360
28FA
  3
OPACITYTILE
360
28FE
  3
REFLECTIONTILE
360
28FD
  3
REFRACTIONTILE
360
28FF
  3
SPECULARTILE
360
28FC
  0
DICTIONARY
  5
28F1
330
28F0
100
AcDbDictionary
280
     1
281
     1
  3
ACAD_XREC_ROUNDTRIP
360
2B38
  3
BUMPTILE
360
28F3
  3
DIFFUSETILE
360
28F2
  3
OPACITYTILE
360
28F6
  3
REFLECTIONTILE
360
28F5
  3
REFRACTIONTILE
360
28F7
  3
SPECULARTILE
360
28F4
  0
DICTIONARY
  5
2901
330
2900
100
AcDbDictionary
280
     1
281
     1
  3
ACAD_XREC_ROUNDTRIP
360
2B3A
  3
BUMPTILE
360
2903
  3
DIFFUSETILE
360
2902
  3
OPACITYTILE
360
2906
  3
REFLECTIONTILE
360
2905
  3
REFRACTIONTILE
360
2907
  3
SPECULARTILE
360
2904
  0
DICTIONARY
  5
2B2F
330
294B
100
AcDbDictionary
280
     1
281
     1
  3
ACAD_ROUNDTRIP_2008_TABLESTYLE_CELLSTYLEMAP
360
2B30
  3
ACAD_XREC_ROUNDTRIP
360
2B3B
  0
IDBUFFER
  5
2B1C
330
0
100
AcDbIdBuffer
330
2864
330
2865
  0
IDBUFFER
  5
2B1D
330
0
100
AcDbIdBuffer
330
953
330
954
330
955
330
956
330
957
330
958
330
2847
330
2868
330
2869
330
286A
330
286E
330
2872
330
2873
330
2874
330
2875
  0
IDBUFFER
  5
2B1E
330
0
100
AcDbIdBuffer
330
289D
330
289E
330
289F
330
28A0
330
28A1
330
28A2
330
28A3
330
28A4
330
288D
330
288E
330
288F
330
2890
330
2891
330
2892
330
2893
330
2894
330
2895
330
2896
330
2897
330
2898
330
2899
330
289A
330
289B
330
289C
  0
IDBUFFER
  5
2B1F
330
0
100
AcDbIdBuffer
330
285C
  0
IDBUFFER
  5
2B20
330
0
100
AcDbIdBuffer
330
287D
330
287E
330
287F
330
2883
330
2884
330
2885
330
2886
330
2887
330
2888
330
288C
330
2846
330
2848
330
2849
330
284D
330
2851
330
2855
330
2858
330
2859
330
285D
330
285E
330
285F
330
2863
330
2876
330
2877
330
2878
330
287C
  0
IDBUFFER
  5
2B21
330
0
100
AcDbIdBuffer
330
285A
330
285B
  0
IDBUFFER
  5
2B22
330
0
100
AcDbIdBuffer
  0
IDBUFFER
  5
2B23
330
0
100
AcDbIdBuffer
330
2843
330
2844
330
2845
  0
IDBUFFER
  5
2B24
330
0
100
AcDbIdBuffer
  0
IDBUFFER
  5
2B25
330
0
100
AcDbIdBuffer
330
2856
330
2857
330
2866
330
2867
  0
IDBUFFER
  5
2B26
330
0
100
AcDbIdBuffer
  0
IDBUFFER
  5
2B27
330
0
100
AcDbIdBuffer
  0
XRECORD
  5
2B3F
102
{ACAD_REACTORS
330
2B3E
102
}
330
2B3E
100
AcDbXrecord
280
     1
102
SHADEPLOT
 70
     0
102
SHADEPLOTRESLEVEL
 70
     2
102
SHADEPLOTCUSTOMDPI
 70
   300
  0
XRECORD
  5
2B3D
102
{ACAD_REACTORS
330
2B3C
102
}
330
2B3C
100
AcDbXrecord
280
     1
102
SHADEPLOT
 70
     0
102
SHADEPLOTRESLEVEL
 70
     2
102
SHADEPLOTCUSTOMDPI
 70
   300
  0
XRECORD
  5
2B39
102
{ACAD_REACTORS
330
28F9
102
}
330
28F9
100
AcDbXrecord
280
     1
102
MATERIAL
148
0.0
149
0.0
149
0.0
 93
        0
 94
      127
282
     0
 72
     0
 77
     0
171
     0
175
     0
179
     0
273
     0
  0
XRECORD
  5
28FB
102
{ACAD_REACTORS
330
28F9
102
}
330
28F9
100
AcDbXrecord
280
     1
270
     1
271
     1
  0
XRECORD
  5
28FA
102
{ACAD_REACTORS
330
28F9
102
}
330
28F9
100
AcDbXrecord
280
     1
270
     1
271
     1
  0
XRECORD
  5
28FE
102
{ACAD_REACTORS
330
28F9
102
}
330
28F9
100
AcDbXrecord
280
     1
270
     1
271
     1
  0
XRECORD
  5
28FD
102
{ACAD_REACTORS
330
28F9
102
}
330
28F9
100
AcDbXrecord
280
     1
270
     1
271
     1
  0
XRECORD
  5
28FF
102
{ACAD_REACTORS
330
28F9
102
}
330
28F9
100
AcDbXrecord
280
     1
270
     1
271
     1
  0
XRECORD
  5
28FC
102
{ACAD_REACTORS
330
28F9
102
}
330
28F9
100
AcDbXrecord
280
     1
270
     1
271
     1
  0
XRECORD
  5
2B38
102
{ACAD_REACTORS
330
28F1
102
}
330
28F1
100
AcDbXrecord
280
     1
102
MATERIAL
148
0.0
149
0.0
149
0.0
 93
        0
 94
      127
282
     0
 72
     0
 77
     0
171
     0
175
     0
179
     0
273
     0
  0
XRECORD
  5
28F3
102
{ACAD_REACTORS
330
28F1
102
}
330
28F1
100
AcDbXrecord
280
     1
270
     1
271
     1
  0
XRECORD
  5
28F2
102
{ACAD_REACTORS
330
28F1
102
}
330
28F1
100
AcDbXrecord
280
     1
270
     1
271
     1
  0
XRECORD
  5
28F6
102
{ACAD_REACTORS
330
28F1
102
}
330
28F1
100
AcDbXrecord
280
     1
270
     1
271
     1
  0
XRECORD
  5
28F5
102
{ACAD_REACTORS
330
28F1
102
}
330
28F1
100
AcDbXrecord
280
     1
270
     1
271
     1
  0
XRECORD
  5
28F7
102
{ACAD_REACTORS
330
28F1
102
}
330
28F1
100
AcDbXrecord
280
     1
270
     1
271
     1
  0
XRECORD
  5
28F4
102
{ACAD_REACTORS
330
28F1
102
}
330
28F1
100
AcDbXrecord
280
     1
270
     1
271
     1
  0
XRECORD
  5
2B3A
102
{ACAD_REACTORS
330
2901
102
}
330
2901
100
AcDbXrecord
280
     1
102
MATERIAL
148
0.0
149
0.0
149
0.0
 93
        0
 94
      127
282
     0
 72
     0
 77
     0
171
     0
175
     0
179
     0
273
     0
  0
XRECORD
  5
2903
102
{ACAD_REACTORS
330
2901
102
}
330
2901
100
AcDbXrecord
280
     1
270
     1
271
     1
  0
XRECORD
  5
2902
102
{ACAD_REACTORS
330
2901
102
}
330
2901
100
AcDbXrecord
280
     1
270
     1
271
     1
  0
XRECORD
  5
2906
102
{ACAD_REACTORS
330
2901
102
}
330
2901
100
AcDbXrecord
280
     1
270
     1
271
     1
  0
XRECORD
  5
2905
102
{ACAD_REACTORS
330
2901
102
}
330
2901
100
AcDbXrecord
280
     1
270
     1
271
     1
  0
XRECORD
  5
2907
102
{ACAD_REACTORS
330
2901
102
}
330
2901
100
AcDbXrecord
280
     1
270
     1
271
     1
  0
XRECORD
  5
2904
102
{ACAD_REACTORS
330
2901
102
}
330
2901
100
AcDbXrecord
280
     1
270
     1
271
     1
  0
CELLSTYLEMAP
  5
2B30
102
{ACAD_REACTORS
330
2B2F
102
}
330
2B2F
100
AcDbCellStyleMap
 90
        3
300
CELLSTYLE
  1
TABLEFORMAT_BEGIN
 90
        5
170
     1
 91
        0
 92
    32768
 62
   257
 93
        1
300
CONTENTFORMAT
  1
CONTENTFORMAT_BEGIN
 90
        0
 91
        0
 92
      512
 93
        0
300

 40
0.0
140
1.0
 94
        5
 62
     0
340
293C
144
0.25
309
CONTENTFORMAT_END
171
     0
 94
        0
309
TABLEFORMAT_END
  1
CELLSTYLE_BEGIN
 90
        1
 91
        1
300
_TITLE
309
CELLSTYLE_END
300
CELLSTYLE
  1
TABLEFORMAT_BEGIN
 90
        5
170
     1
 91
        0
 92
        0
 62
   257
 93
        1
300
CONTENTFORMAT
  1
CONTENTFORMAT_BEGIN
 90
        0
 91
        0
 92
      512
 93
        0
300

 40
0.0
140
1.0
 94
        5
 62
     0
340
293C
144
0.18
309
CONTENTFORMAT_END
171
     0
 94
        0
309
TABLEFORMAT_END
  1
CELLSTYLE_BEGIN
 90
        2
 91
        1
300
_HEADER
309
CELLSTYLE_END
300
CELLSTYLE
  1
TABLEFORMAT_BEGIN
 90
        5
170
     1
 91
        0
 92
        0
 62
   257
 93
        1
300
CONTENTFORMAT
  1
CONTENTFORMAT_BEGIN
 90
        0
 91
        0
 92
      512
 93
        0
300

 40
0.0
140
1.0
 94
        2
 62
     0
340
293C
144
0.18
309
CONTENTFORMAT_END
171
     0
 94
        0
309
TABLEFORMAT_END
  1
CELLSTYLE_BEGIN
 90
        3
 91
        2
300
_DATA
309
CELLSTYLE_END
  0
XRECORD
  5
2B3B
102
{ACAD_REACTORS
330
2B2F
102
}
330
2B2F
100
AcDbXrecord
280
     1
102
ACAD_ROUNDTRIP_PRE2007_TABLESTYLE
 90
      512
 91
        0
  1

 92
      512
 93
        0
  2

 94
      512
 95
        0
  3

  0
ENDSEC
  0
EOF
