  0
SECTION
  2
HEADER
  9
$ACADVER
  1
AC1015
  9
$ACADMAINTVER
 70
    20
  9
$DWGCODEPAGE
  3
ANSI_932
  9
$INSBASE
 10
0.0
 20
0.0
 30
0.0
  9
$EXTMIN
 10
-823.709399992254
 20
-519.8785026932937
 30
0.0
  9
$EXTMAX
 10
720.5119717487879
 20
582.4135623732358
 30
50.0
  9
$LIMMIN
 10
-2970.0
 20
-2100.0
  9
$LIMMAX
 10
2970.0
 20
2100.0
  9
$ORTHOMODE
 70
     1
  9
$REGENMODE
 70
     0
  9
$FILLMODE
 70
     1
  9
$QTEXTMODE
 70
     0
  9
$MIRRTEXT
 70
     0
  9
$LTSCALE
 40
20.0
  9
$ATTMODE
 70
     1
  9
$TEXTSIZE
 40
64.0
  9
$TRACEWID
 40
0.05
  9
$TEXTSTYLE
  7
STANDARD
  9
$CLAYER
  8
0
  9
$CELTYPE
  6
ByLayer
  9
$CECOLOR
 62
   256
  9
$CELTSCALE
 40
1.0
  9
$DISPSILH
 70
     0
  9
$DIMSCALE
 40
1.0
  9
$DIMASZ
 40
0.12
  9
$DIMEXO
 40
0.05
  9
$DIMDLI
 40
0.5
  9
$DIMRND
 40
0.0
  9
$DIMDLE
 40
0.0
  9
$DIMEXE
 40
0.1
  9
$DIMTP
 40
0.1
  9
$DIMTM
 40
0.1
  9
$DIMTXT
 40
0.12
  9
$DIMCEN
 40
0.0
  9
$DIMTSZ
 40
0.0
  9
$DIMTOL
 70
     0
  9
$DIMLIM
 70
     0
  9
$DIMTIH
 70
     1
  9
$DIMTOH
 70
     1
  9
$DIMSE1
 70
     0
  9
$DIMSE2
 70
     0
  9
$DIMTAD
 70
     0
  9
$DIMZIN
 70
     7
  9
$DIMBLK
  1

  9
$DIMASO
 70
     1
  9
$DIMSHO
 70
     0
  9
$DIMPOST
  1

  9
$DIMAPOST
  1
mm
  9
$DIMALT
 70
     0
  9
$DIMALTD
 70
     2
  9
$DIMALTF
 40
25.4
  9
$DIMLFAC
 40
1.0
  9
$DIMTOFL
 70
     0
  9
$DIMTVP
 40
0.0
  9
$DIMTIX
 70
     0
  9
$DIMSOXD
 70
     0
  9
$DIMSAH
 70
     0
  9
$DIMBLK1
  1

  9
$DIMBLK2
  1

  9
$DIMSTYLE
  2
AM_ANSI
  9
$DIMCLRD
 70
   256
  9
$DIMCLRE
 70
   256
  9
$DIMCLRT
 70
     2
  9
$DIMTFAC
 40
0.71
  9
$DIMGAP
 40
0.06
  9
$DIMJUST
 70
     0
  9
$DIMSD1
 70
     0
  9
$DIMSD2
 70
     0
  9
$DIMTOLJ
 70
     1
  9
$DIMTZIN
 70
     7
  9
$DIMALTZ
 70
     0
  9
$DIMALTTZ
 70
     0
  9
$DIMUPT
 70
     0
  9
$DIMDEC
 70
     4
  9
$DIMTDEC
 70
     4
  9
$DIMALTU
 70
     2
  9
$DIMALTTD
 70
     4
  9
$DIMTXSTY
  7
STANDARD
  9
$DIMAUNIT
 70
     0
  9
$DIMADEC
 70
     0
  9
$DIMALTRND
 40
0.0
  9
$DIMAZIN
 70
     2
  9
$DIMDSEP
 70
    46
  9
$DIMATFIT
 70
     3
  9
$DIMFRAC
 70
     0
  9
$DIMLDRBLK
  1

  9
$DIMLUNIT
 70
     2
  9
$DIMLWD
 70
    -1
  9
$DIMLWE
 70
    -1
  9
$DIMTMOVE
 70
     0
  9
$LUNITS
 70
     2
  9
$LUPREC
 70
     4
  9
$SKETCHINC
 40
0.1
  9
$FILLETRAD
 40
4.0
  9
$AUNITS
 70
     1
  9
$AUPREC
 70
     3
  9
$MENU
  1
ACAD
  9
$ELEVATION
 40
0.0
  9
$PELEVATION
 40
0.0
  9
$THICKNESS
 40
50.0
  9
$LIMCHECK
 70
     0
  9
$CHAMFERA
 40
0.0
  9
$CHAMFERB
 40
0.0
  9
$CHAMFERC
 40
0.0
  9
$CHAMFERD
 40
0.0
  9
$SKPOLY
 70
     0
  9
$TDCREATE
 40
2452321.396199653
  9
$TDUCREATE
 40
2452321.021199653
  9
$TDUPDATE
 40
2456210.787236817
  9
$TDUUPDATE
 40
2456210.412236818
  9
$TDINDWG
 40
1.0428738426
  9
$TDUSRTIMER
 40
1.0428680787
  9
$USRTIMER
 70
     1
  9
$ANGBASE
 50
0.0
  9
$ANGDIR
 70
     0
  9
$PDMODE
 70
     3
  9
$PDSIZE
 40
-2.0
  9
$PLINEWID
 40
0.0
  9
$SPLFRAME
 70
     0
  9
$SPLINETYPE
 70
     6
  9
$SPLINESEGS
 70
     8
  9
$HANDSEED
  5
36C2
  9
$SURFTAB1
 70
     6
  9
$SURFTAB2
 70
     6
  9
$SURFTYPE
 70
     6
  9
$SURFU
 70
     6
  9
$SURFV
 70
     6
  9
$UCSBASE
  2

  9
$UCSNAME
  2

  9
$UCSORG
 10
0.0
 20
0.0
 30
0.0
  9
$UCSXDIR
 10
1.0
 20
0.0
 30
0.0
  9
$UCSYDIR
 10
0.0
 20
1.0
 30
0.0
  9
$UCSORTHOREF
  2

  9
$UCSORTHOVIEW
 70
     0
  9
$UCSORGTOP
 10
0.0
 20
0.0
 30
0.0
  9
$UCSORGBOTTOM
 10
0.0
 20
0.0
 30
0.0
  9
$UCSORGLEFT
 10
0.0
 20
0.0
 30
0.0
  9
$UCSORGRIGHT
 10
0.0
 20
0.0
 30
0.0
  9
$UCSORGFRONT
 10
0.0
 20
0.0
 30
0.0
  9
$UCSORGBACK
 10
0.0
 20
0.0
 30
0.0
  9
$PUCSBASE
  2

  9
$PUCSNAME
  2

  9
$PUCSORG
 10
0.0
 20
0.0
 30
0.0
  9
$PUCSXDIR
 10
1.0
 20
0.0
 30
0.0
  9
$PUCSYDIR
 10
0.0
 20
1.0
 30
0.0
  9
$PUCSORTHOREF
  2

  9
$PUCSORTHOVIEW
 70
     0
  9
$PUCSORGTOP
 10
0.0
 20
0.0
 30
0.0
  9
$PUCSORGBOTTOM
 10
0.0
 20
0.0
 30
0.0
  9
$PUCSORGLEFT
 10
0.0
 20
0.0
 30
0.0
  9
$PUCSORGRIGHT
 10
0.0
 20
0.0
 30
0.0
  9
$PUCSORGFRONT
 10
0.0
 20
0.0
 30
0.0
  9
$PUCSORGBACK
 10
0.0
 20
0.0
 30
0.0
  9
$USERI1
 70
     0
  9
$USERI2
 70
     0
  9
$USERI3
 70
     0
  9
$USERI4
 70
     0
  9
$USERI5
 70
     0
  9
$USERR1
 40
20.0
  9
$USERR2
 40
0.0
  9
$USERR3
 40
0.0
  9
$USERR4
 40
0.0
  9
$USERR5
 40
0.0
  9
$WORLDVIEW
 70
     1
  9
$SHADEDGE
 70
     3
  9
$SHADEDIF
 70
    70
  9
$TILEMODE
 70
     1
  9
$MAXACTVP
 70
    64
  9
$PINSBASE
 10
0.0
 20
0.0
 30
0.0
  9
$PLIMCHECK
 70
     0
  9
$PEXTMIN
 10
1.000000000000000E+20
 20
1.000000000000000E+20
 30
1.000000000000000E+20
  9
$PEXTMAX
 10
-1.000000000000000E+20
 20
-1.000000000000000E+20
 30
-1.000000000000000E+20
  9
$PLIMMIN
 10
0.0
 20
0.0
  9
$PLIMMAX
 10
12.0
 20
9.0
  9
$UNITMODE
 70
     0
  9
$VISRETAIN
 70
     1
  9
$PLINEGEN
 70
     0
  9
$PSLTSCALE
 70
     1
  9
$TREEDEPTH
 70
  3020
  9
$CMLSTYLE
  2
Standard
  9
$CMLJUST
 70
     0
  9
$CMLSCALE
 40
1.0
  9
$PROXYGRAPHICS
 70
     1
  9
$MEASUREMENT
 70
     0
  9
$CELWEIGHT
370
    -1
  9
$ENDCAPS
280
     0
  9
$JOINSTYLE
280
     0
  9
$LWDISPLAY
290
     0
  9
$INSUNITS
 70
     0
  9
$HYPERLINKBASE
  1

  9
$STYLESHEET
  1

  9
$XEDIT
290
     1
  9
$CEPSNTYPE
380
     0
  9
$PSTYLEMODE
290
     1
  9
$FINGERPRINTGUID
  2
{1F73FAA4-FC1A-4F35-8151-53393B4FEAF8}
  9
$VERSIONGUID
  2
{13556AEE-1581-4C86-93D2-9CB33DB7B9DA}
  9
$EXTNAMES
290
     1
  9
$PSVPSCALE
 40
0.0
  9
$OLESTARTUP
290
     0
  0
ENDSEC
  0
SECTION
  2
CLASSES
  0
CLASS
  1
ACDBDICTIONARYWDFLT
  2
AcDbDictionaryWithDefault
  3
ObjectDBX Classes
 90
        0
280
     0
281
     0
  0
CLASS
  1
MATERIAL
  2
AcDbMaterial
  3
ObjectDBX Classes
 90
     1153
280
     0
281
     0
  0
CLASS
  1
VISUALSTYLE
  2
AcDbVisualStyle
  3
ObjectDBX Classes
 90
     4095
280
     0
281
     0
  0
CLASS
  1
SCALE
  2
AcDbScale
  3
ObjectDBX Classes
 90
     1153
280
     0
281
     0
  0
CLASS
  1
TABLESTYLE
  2
AcDbTableStyle
  3
ObjectDBX Classes
 90
     4095
280
     0
281
     0
  0
CLASS
  1
MLEADERSTYLE
  2
AcDbMLeaderStyle
  3
ACDB_MLEADERSTYLE_CLASS
 90
     4095
280
     0
281
     0
  0
CLASS
  1
AMGSETTINGSOBJ
  2
AmgSettingsObj
  3
"AcadM|Product Description: AutoCAD Mechanical|Company: Autodesk, Inc."
 90
     1024
280
     0
281
     0
  0
CLASS
  1
ACME_DOCUMENT
  2
AcMeDbDoc
  3
AcMeServices
 90
     1024
280
     0
281
     0
  0
CLASS
  1
ACMESCOPE
  2
AcMeScope
  3
AcMeServices
 90
     1024
280
     0
281
     0
  0
CLASS
  1
ACMECOMMANDHISTORY
  2
AcMeCommandHistory
  3
AcMeServices
 90
     1024
280
     0
281
     0
  0
CLASS
  1
ACIMSYSVARMAN
  2
AcImSysVarManager
  3
AcMeServices
 90
     1024
280
     0
281
     0
  0
CLASS
  1
ACIMREALSYSVAR
  2
AcImRealSysVar
  3
AcMeServices
 90
     1024
280
     0
281
     0
  0
CLASS
  1
ACIMINTSYSVAR
  2
AcImIntSysVar
  3
AcMeServices
 90
     1024
280
     0
281
     0
  0
CLASS
  1
ACMEDRAWINGMAN
  2
AcMeDrawingMan
  3
AcMeServices
 90
     1024
280
     0
281
     0
  0
CLASS
  1
ACMEVIEW
  2
AcMeView
  3
AcMeServices
 90
     1024
280
     0
281
     0
  0
CLASS
  1
ACDBENTITYCACHE
  2
AcMeEntityCache
  3
AcMeServices
 90
     1024
280
     0
281
     0
  0
CLASS
  1
GSMANAGER
  2
AcMeGSManager
  3
AcMeServices
 90
     1024
280
     0
281
     0
  0
CLASS
  1
AMDTINTERNALREACTOR
  2
AmdtInternalReactor
  3
AcMeServices
 90
     1024
280
     0
281
     0
  0
CLASS
  1
ACMESTATEMGR
  2
AcMeStateMgr
  3
AcMeServices
 90
     1024
280
     0
281
     0
  0
CLASS
  1
ACGREFMASTER
  2
AcGrefMaster
  3
AcAttribServices
 90
     1024
280
     0
281
     0
  0
CLASS
  1
AM_DRAWING_MGR
  2
AcDmDwgMgr
  3
AcMechDwgViewMgmt
 90
     1024
280
     0
281
     0
  0
CLASS
  1
AM_DWG_DOCUMENT
  2
AcDmDwgDocument
  3
AcMechDwgViewMgmt
 90
     1024
280
     0
281
     0
  0
CLASS
  1
AM_DWG_SHEET
  2
AcDmSheet
  3
AcMechDwgViewMgmt
 90
     1024
280
     0
281
     0
  0
CLASS
  1
AM_VIEWDIMPARMAP
  2
AcDmViewDimParMap
  3
AcMechDwgViewMgmt
 90
     1024
280
     0
281
     0
  0
CLASS
  1
AM_DWGMGR_NAME
  2
AcDmDwgMgrName
  3
AcMechDwgViewMgmt
 90
     1024
280
     0
281
     0
  0
CLASS
  1
ACME_DATABASE
  2
AcMeDbDatabase
  3
AcMeServices
 90
     1024
280
     0
281
     0
  0
CLASS
  1
ACRFINSADJUSTERMGR
  2
AcRfInsAdjusterMgr
  3
AcMeServices
 90
     1024
280
     0
281
     0
  0
CLASS
  1
ACGREFACADMASTER
  2
AcGrefacadMaster
  3
AcGrefServices
 90
     1024
280
     0
281
     0
  0
CLASS
  1
AMDTMENUSTATEMGR
  2
AmdtMenuStateMgr
  3
McadcomServices
 90
     1024
280
     0
281
     0
  0
CLASS
  1
AMDTMCOMMENUSTATE
  2
AmdtMcomMenuState
  3
McadcomServices
 90
     1024
280
     0
281
     0
  0
CLASS
  1
AMIMASTER
  2
AmiMaster
  3
AmiServices
 90
     1024
280
     0
281
     0
  0
CLASS
  1
ASAPP
  2
AcAsAppObject
  3
AutoSurfServices
 90
     1024
280
     0
281
     0
  0
CLASS
  1
IM_STATIC_MAN
  2
AcImStaticVarManager
  3
AcMeServices
 90
     1024
280
     0
281
     0
  0
CLASS
  1
ACIMSTRSYSVAR
  2
AcImStrSysVar
  3
AcMeServices
 90
     1024
280
     0
281
     0
  0
CLASS
  1
ACIMDBLSTATICVAR
  2
AcImDblStaticVar
  3
AcMeServices
 90
     1024
280
     0
281
     0
  0
CLASS
  1
ACIMSTRSTATICVAR
  2
AcImStrStaticVar
  3
AcMeServices
 90
     1024
280
     0
281
     0
  0
CLASS
  1
ACIMINTSTATICVAR
  2
AcImIntStaticVar
  3
AcMeServices
 90
     1024
280
     0
281
     0
  0
CLASS
  1
ACASGREFMASTER
  2
AcAsGrefMaster
  3
AutoSurfResolverServices
 90
     1024
280
     0
281
     0
  0
CLASS
  1
ACADGREFMODULE
  2
AcAdGrefModule
  3
AdGrefServices
 90
     1024
280
     0
281
     0
  0
CLASS
  1
AMDTMAPISURFMOUDULE
  2
AmdtMApiSurfModule
  3
MApiSurfServices
 90
     1024
280
     0
281
     0
  0
CLASS
  1
MAPIAMMOUDLE
  2
MApiAmModule
  3
MApiAmServices
 90
     1024
280
     0
281
     0
  0
CLASS
  1
AMDTADMENUSTATE
  2
AmdtAdMenuState
  3
DesignerServices
 90
     1024
280
     0
281
     0
  0
CLASS
  1
ADAPPL
  2
AcAdAppl
  3
DesignerServices
 90
     1024
280
     0
281
     0
  0
CLASS
  1
DEPMGR
  2
AcAdDepMgr
  3
DesignerServices
 90
     1024
280
     0
281
     0
  0
CLASS
  1
PARAMMGR
  2
AcAdParamMgr
  3
DesignerServices
 90
     1024
280
     0
281
     0
  0
CLASS
  1
PARAMSCOPE
  2
AcAdParamScope
  3
DesignerServices
 90
     1024
280
     0
281
     0
  0
CLASS
  1
NAMEDAPPL
  2
AcAdNamedAppl
  3
DesignerServices
 90
     1024
280
     0
281
     0
  0
CLASS
  1
AMDTDMMENUSTATE
  2
AmdtDmMenuState
  3
AcMechDwgViewMgmt
 90
     1024
280
     0
281
     0
  0
CLASS
  1
MAPIADMODULE
  2
MApiAdModule
  3
MApiAdServices
 90
     1024
280
     0
281
     0
  0
CLASS
  1
AMDTAMMENUSTATE
  2
AmdtAmMenuState
  3
DesignerAssemblies
 90
     1024
280
     0
281
     0
  0
CLASS
  1
ACAMPROJECT
  2
AcAmProject
  3
DesignerAssemblies
 90
     1024
280
     0
281
     0
  0
CLASS
  1
ACAMGRCOMPDEF
  2
AcAmGrCompDef
  3
DesignerAssemblies
 90
     1024
280
     0
281
     0
  0
CLASS
  1
ACCMCONTEXT
  2
AcCmContext
  3
DesignerAssemblies
 90
     1024
280
     0
281
     0
  0
CLASS
  1
ACAMCOMPDEF
  2
AcAmCompDef
  3
DesignerAssemblies
 90
     1024
280
     0
281
     0
  0
CLASS
  1
ACAMCOMPDEFMGR
  2
AcAmCompDefMgr
  3
DesignerAssemblies
 90
     1024
280
     0
281
     0
  0
CLASS
  1
AMCONTEXTMGR
  2
AcAmContextMgr
  3
DesignerAssemblies
 90
     1024
280
     0
281
     0
  0
CLASS
  1
ACAMCONTEXTMODELER
  2
AcAmContextModeler
  3
DesignerAssemblies
 90
     1024
280
     0
281
     0
  0
CLASS
  1
ACMDATADICTIONARY
  2
AcmDataDictionary
  3
"AcmSymBB|Product Description: AutoCAD Mechanical|Company: Autodesk, Inc."
 90
     1024
280
     0
281
     0
  0
CLASS
  1
ACMDATAENTRYBLOCK
  2
AcmDataEntryBlock
  3
AcmSymBB|Product Description: AutoCAD Mechanical|Company: Autodesk, Inc.
 90
     1024
280
     0
281
     0
  0
CLASS
  1
ACRFATTGENMGR
  2
AcRfAttGeneralMgr
  3
AcAttribServices
 90
     1024
280
     0
281
     0
  0
CLASS
  1
ACRFOBJATTMGR
  2
AcRfObjAttGroupMgr
  3
AcAttribServices
 90
     1024
280
     0
281
     0
  0
CLASS
  1
ACRFMCADAPIATTHOLDER
  2
AcRfMCADAPIAttHolder
  3
AcAttribServices
 90
     1024
280
     0
281
     0
  0
CLASS
  1
AMDTSYSATTR
  2
AmdtSystemAttribute
  3
AcAttribServices
 90
     1024
280
     0
281
     0
  0
CLASS
  1
CATALOGSTATE
  2
AcAmCatalogState
  3
DesignerAssemblies
 90
     1024
280
     0
281
     0
  0
CLASS
  1
ACAMGRCOMPDEFSET
  2
AcAmGrCompDefSet
  3
DesignerAssemblies
 90
     1024
280
     0
281
     0
  0
CLASS
  1
AMDTBROWSERDBTAB
  2
AmdtBrowserDbTab
  3
McadcomServices
 90
     1024
280
     0
281
     0
  0
CLASS
  1
CBROWSERAPPOBJECT
  2
CBrowserAppObject
  3
McadcomServices
 90
     1024
280
     0
281
     0
  0
CLASS
  1
DM_PLACEHOLDER
  2
AcDmSelsetPlaceholder
  3
AcMechDwgViewMgmt
 90
     1024
280
     0
281
     0
  0
CLASS
  1
ACMSTANDARDANSI
  2
AcmStandardANSI
  3
"Amdt_StdImp|Product Description: AutoCAD Mechanical|Company: Autodesk, Inc."
 90
     1024
280
     0
281
     0
  0
CLASS
  1
ACMSURFSTANDARDANSI
  2
AcmSurfTextStdANSI
  3
"Amdt_StdImp|Product Description: AutoCAD Mechanical|Company: Autodesk, Inc."
 90
     1024
280
     0
281
     0
  0
CLASS
  1
ACMFCFSTANDARDANSI
  2
AcmFCFStdANSI
  3
"Amdt_StdImp|Product Description: AutoCAD Mechanical|Company: Autodesk, Inc."
 90
     1024
280
     0
281
     0
  0
CLASS
  1
ACMWELDSTANDARDANSI
  2
AcmWeldingStdANSI
  3
"Amdt_StdImp|Product Description: AutoCAD Mechanical|Company: Autodesk, Inc."
 90
     1024
280
     0
281
     0
  0
CLASS
  1
ACMIDSTANDARDANSI
  2
AcmIdStdANSI
  3
"Amdt_StdImp|Product Description: AutoCAD Mechanical|Company: Autodesk, Inc."
 90
     1024
280
     0
281
     0
  0
CLASS
  1
ACMDATUMSTANDARDANSI
  2
AcmDatumStdANSI
  3
"Amdt_StdImp|Product Description: AutoCAD Mechanical|Company: Autodesk, Inc."
 90
     1024
280
     0
281
     0
  0
CLASS
  1
ACMBOMSTANDARDANSI
  2
AcmBOMStdANSI
  3
"Amdt_StdImp|Product Description: AutoCAD Mechanical|Company: Autodesk, Inc."
 90
     1024
280
     0
281
     0
  0
CLASS
  1
ACMDETAILSTANDARDANSI
  2
AmdtDetailSymStdANSI
  3
"Amdt_StdImp|Product Description: AutoCAD Mechanical|Company: Autodesk, Inc."
 90
     1024
280
     0
281
     0
  0
CLASS
  1
ACMSECTIONSTANDARDANSI
  2
AmdtSectionSymStdANSI
  3
"Amdt_StdImp|Product Description: AutoCAD Mechanical|Company: Autodesk, Inc."
 90
     1024
280
     0
281
     0
  0
CLASS
  1
ACMCENTERLINESTANDARDANSI
  2
AmdtCenterLineStdANSI
  3
"Amdt_StdImp|Product Description: AutoCAD Mechanical|Company: Autodesk, Inc."
 90
     1024
280
     0
281
     0
  0
CLASS
  1
ACMTHREADLINESTANDARDANSI
  2
AmdtThreadLineStdANSI
  3
"Amdt_StdImp|Product Description: AutoCAD Mechanical|Company: Autodesk, Inc."
 90
     1024
280
     0
281
     0
  0
CLASS
  1
ACMNOTESTANDARDANSI
  2
AmdtNoteStdANSI
  3
"Amdt_StdImp|Product Description: AutoCAD Mechanical|Company: Autodesk, Inc."
 90
     1024
280
     0
281
     0
  0
CLASS
  1
ACMTAPERSTANDARDANSI
  2
AcmTaperStdANSI
  3
"Amdt_StdImp|Product Description: AutoCAD Mechanical|Company: Autodesk, Inc."
 90
     1024
280
     0
281
     0
  0
CLASS
  1
ACMANOOTATIONVIEWSTANDARDANSI
  2
AmdtAnViewStdANSI
  3
"Amdt_StdImp|Product Description: AutoCAD Mechanical|Company: Autodesk, Inc."
 90
     1024
280
     0
281
     0
  0
CLASS
  1
ACAMGLAYSTD
  2
AcAmgLayStd
  3
"AmgLay|Product Description: AutoCAD Mechanical|Company: Autodesk, Inc."
 90
     1024
280
     0
281
     0
  0
CLASS
  1
ACAMGDIMSTD
  2
AcAmgDimStd
  3
"AmgDim|Product Description: AutoCAD Mechanical|Company: Autodesk, Inc."
 90
     1024
280
     0
281
     0
  0
CLASS
  1
ACAMGHOLECHARTSTDANSI
  2
AcAmgHoleChartStdANSI
  3
AmgDim|Product Description: AutoCAD Mechanical|Company: Autodesk, Inc.
 90
     1024
280
     0
281
     0
  0
CLASS
  1
AMGOBJPROPCFG
  2
AmgObjPropCfg
  3
"AmgLay|Product Description: AutoCAD Mechanical|Company: Autodesk, Inc."
 90
     1025
280
     0
281
     0
  0
CLASS
  1
ACAMGTITLESTD
  2
AcAmgTitleStd
  3
"AmgTitle|Product Description: AutoCAD Mechanical|Company: Autodesk, Inc."
 90
     4095
280
     0
281
     0
  0
CLASS
  1
AMDTNOTETEMPLATEDB
  2
AmdtNoteTemplateDB
  3
AcmSymBB|Product Description: AutoCAD Mechanical|Company: Autodesk, Inc.
 90
     1024
280
     0
281
     0
  0
CLASS
  1
LAYER_INDEX
  2
AcDbLayerIndex
  3
ObjectDBX Classes
 90
        0
280
     0
281
     0
  0
CLASS
  1
IDBUFFER
  2
AcDbIdBuffer
  3
ObjectDBX Classes
 90
        0
280
     0
281
     0
  0
CLASS
  1
DICTIONARYVAR
  2
AcDbDictionaryVar
  3
ObjectDBX Classes
 90
        0
280
     0
281
     0
  0
CLASS
  1
CELLSTYLEMAP
  2
AcDbCellStyleMap
  3
ObjectDBX Classes
 90
     1152
280
     0
281
     0
  0
CLASS
  1
ACDBPLACEHOLDER
  2
AcDbPlaceHolder
  3
ObjectDBX Classes
 90
        0
280
     0
281
     0
  0
CLASS
  1
LAYOUT
  2
AcDbLayout
  3
ObjectDBX Classes
 90
        0
280
     0
281
     0
  0
ENDSEC
  0
SECTION
  2
TABLES
  0
TABLE
  2
VPORT
  5
3458
330
0
100
AcDbSymbolTable
 70
     1
  0
VPORT
  5
34C8
330
3458
100
AcDbSymbolTableRecord
100
AcDbViewportTableRecord
  2
*ACTIVE
 70
     0
 10
0.0
 20
0.0
 11
1.0
 21
1.0
 12
0.0
 22
0.0
 13
0.0
 23
0.0
 14
1.0
 24
1.0
 15
0.0
 25
0.0
 16
0.0
 26
0.0
 36
1.0
 17
-51.66319423781772
 27
31.24238042072646
 37
0.0
 40
1109.893341967136
 41
1.712555066079295
 42
50.0
 43
0.0
 44
0.0
 50
0.0
 51
0.0
 71
     0
 72
   100
 73
     1
 74
     0
 75
     0
 76
     0
 77
     0
 78
     0
281
     0
 65
     0
110
0.0
120
0.0
130
0.0
111
1.0
121
0.0
131
0.0
112
0.0
122
1.0
132
0.0
 79
     0
146
0.0
  0
ENDTAB
  0
TABLE
  2
LTYPE
  5
3455
330
0
100
AcDbSymbolTable
 70
    19
  0
LTYPE
  5
34B2
330
3455
100
AcDbSymbolTableRecord
100
AcDbLinetypeTableRecord
  2
ByBlock
 70
     0
  3

 72
    65
 73
     0
 40
0.0
  0
LTYPE
  5
34B3
330
3455
100
AcDbSymbolTableRecord
100
AcDbLinetypeTableRecord
  2
ByLayer
 70
     0
  3

 72
    65
 73
     0
 40
0.0
  0
LTYPE
  5
34B4
330
3455
100
AcDbSymbolTableRecord
100
AcDbLinetypeTableRecord
  2
CONTINUOUS
 70
     0
  3
実線
 72
    65
 73
     0
 40
0.0
  0
LTYPE
  5
34C9
330
3455
100
AcDbSymbolTableRecord
100
AcDbLinetypeTableRecord
  2
DASHDOT
 70
     0
  3
____ _ ____ _ ____ _ ____ _ ____ _ ____ _ ____
 72
    65
 73
     4
 40
5.5
 49
4.0
 74
     0
 49
-0.6
 74
     0
 49
0.3
 74
     0
 49
-0.6
 74
     0
  0
LTYPE
  5
34CA
330
3455
100
AcDbSymbolTableRecord
100
AcDbLinetypeTableRecord
  2
HIDDEN
 70
     0
  3
Hidden __ __ __ __ __ __ __ __ __ __ __ __ __ _
 72
    65
 73
     2
 40
0.375
 49
0.25
 74
     0
 49
-0.125
 74
     0
  0
LTYPE
  5
34CB
330
3455
100
AcDbSymbolTableRecord
100
AcDbLinetypeTableRecord
  2
PHANTOM2
 70
     0
  3
Phantom (.5x) ___ _ _ ___ _ _ ___ _ _ ___ _ _
 72
    65
 73
     6
 40
1.25
 49
0.625
 74
     0
 49
-0.125
 74
     0
 49
0.125
 74
     0
 49
-0.125
 74
     0
 49
0.125
 74
     0
 49
-0.125
 74
     0
  0
LTYPE
  5
34CC
330
3455
100
AcDbSymbolTableRecord
100
AcDbLinetypeTableRecord
  2
CENTER
 70
     0
  3
Center ____ _ ____ _ ____ _ ____ _ ____ _ ____
 72
    65
 73
     4
 40
2.0
 49
1.25
 74
     0
 49
-0.25
 74
     0
 49
0.25
 74
     0
 49
-0.25
 74
     0
  0
LTYPE
  5
34CD
330
3455
100
AcDbSymbolTableRecord
100
AcDbLinetypeTableRecord
  2
ASULTYPE
 70
     0
  3
実線
 72
    65
 73
     2
 40
3.0
 49
2.5
 74
     0
 49
0.5
 74
     0
  0
LTYPE
  5
34CE
330
3455
100
AcDbSymbolTableRecord
100
AcDbLinetypeTableRecord
  2
ASVLTYPE
 70
     0
  3
__ __ __ __ __ __ __ __ __ __ __ __ __ __ __ __ __ __ __ __ __
 72
    65
 73
     2
 40
0.75
 49
0.5
 74
     0
 49
-0.25
 74
     0
  0
LTYPE
  5
34CF
330
3455
100
AcDbSymbolTableRecord
100
AcDbLinetypeTableRecord
  2
AM_ISO02W050
 70
     0
  3
__ __ __ __ __ __ __ __ __ __ __ __ __ __ __
 72
    65
 73
     2
 40
7.5
 49
6.0
 74
     0
 49
-1.5
 74
     0
  0
LTYPE
  5
34D0
330
3455
100
AcDbSymbolTableRecord
100
AcDbLinetypeTableRecord
  2
AM_ISO08W050
 70
     0
  3
____ . ____ . ____ . ____ . ____ . ____ . ____
 72
    65
 73
     4
 40
18.0
 49
12.0
 74
     0
 49
-1.5
 74
     0
 49
3.0
 74
     0
 49
-1.5
 74
     0
  0
LTYPE
  5
34D1
330
3455
100
AcDbSymbolTableRecord
100
AcDbLinetypeTableRecord
  2
AM_ISO09W050
 70
     0
  3
_____ . . _____ . . _____ . . ____ .. ____
 72
    65
 73
     6
 40
22.5
 49
12.0
 74
     0
 49
-1.5
 74
     0
 49
3.0
 74
     0
 49
-1.5
 74
     0
 49
3.0
 74
     0
 49
-1.5
 74
     0
  0
LTYPE
  5
34D2
330
3455
100
AcDbSymbolTableRecord
100
AcDbLinetypeTableRecord
  2
AMCONSTR
 70
     0
  3
_______________________
 72
    65
 73
     2
 40
9999.0
 49
9999.0
 74
     0
 49
0.0
 74
     0
  0
LTYPE
  5
34D3
330
3455
100
AcDbSymbolTableRecord
100
AcDbLinetypeTableRecord
  2
AM_ISO08W050X2
 70
     0
  3
__ . __ . __ . __ . __ . __
 72
    65
 73
     4
 40
9.0
 49
6.0
 74
     0
 49
-0.75
 74
     0
 49
1.5
 74
     0
 49
-0.75
 74
     0
  0
LTYPE
  5
34D4
330
3455
100
AcDbSymbolTableRecord
100
AcDbLinetypeTableRecord
  2
AM_ISO02W050X2
 70
     0
  3
 _ _ _ _ _ _ _ _ _ _ _ _
 72
    65
 73
     2
 40
3.75
 49
3.0
 74
     0
 49
-0.75
 74
     0
  0
LTYPE
  5
34D5
330
3455
100
AcDbSymbolTableRecord
100
AcDbLinetypeTableRecord
  2
AMZIGZAG
 70
     0
  3
/\/-/\/-/\/-/\/-/\/-/\/
 72
    65
 73
     2
 40
11.0001
 49
0.0001
 74
     0
 49
-11.0
 74
     0
  0
LTYPE
  5
34D6
330
3455
100
AcDbSymbolTableRecord
100
AcDbLinetypeTableRecord
  2
CENTER2
 70
     0
  3
Center (.5x) ___ _ ___ _ ___ _ ___ _ ___ _ ___
 72
    65
 73
     4
 40
1.125
 49
0.75
 74
     0
 49
-0.125
 74
     0
 49
0.125
 74
     0
 49
-0.125
 74
     0
  0
LTYPE
  5
34D7
330
3455
100
AcDbSymbolTableRecord
100
AcDbLinetypeTableRecord
  2
HIDDEN2
 70
     0
  3
Hidden (.5x) _ _ _ _ _ _ _ _ _ _ _ _ _ _ _ _ _
 72
    65
 73
     2
 40
0.1875
 49
0.125
 74
     0
 49
-0.0625
 74
     0
  0
LTYPE
  5
34D8
330
3455
100
AcDbSymbolTableRecord
100
AcDbLinetypeTableRecord
  2
AMZIGZAG2
 70
     0
  3
/\/-/\/-/\/-/\/-/\/-/\/
 72
    65
 73
     2
 40
0.4401
 49
0.0001
 74
     0
 49
-0.4400000000000003
 74
     0
  0
LTYPE
  5
34D9
330
3455
100
AcDbSymbolTableRecord
100
AcDbLinetypeTableRecord
  2
ACANSTGB
 70
     0
  3
__ . . __ . .
 72
    65
 73
     6
 40
0.35433070866
 49
0.15748031496
 74
     0
 49
-0.03937007874
 74
     0
 49
0.03937007874
 74
     0
 49
-0.03937007874
 74
     0
 49
0.03937007874
 74
     0
 49
-0.03937007874
 74
     0
  0
LTYPE
  5
34DA
330
3455
100
AcDbSymbolTableRecord
100
AcDbLinetypeTableRecord
  2
ACANSTGL
 70
     0
  3
_ _ _ _ _
 72
    65
 73
     2
 40
0.11811023622
 49
0.07874015748
 74
     0
 49
-0.03937007874
 74
     0
  0
ENDTAB
  0
TABLE
  2
LAYER
  5
3452
330
0
100
AcDbSymbolTable
 70
    12
  0
LAYER
  5
34AC
102
{ACAD_XDICTIONARY
360
3681
102
}
330
3452
100
AcDbSymbolTableRecord
100
AcDbLayerTableRecord
  2
0
 70
     0
 62
     7
  6
CONTINUOUS
370
    -3
390
345F
  0
LAYER
  5
34DB
102
{ACAD_XDICTIONARY
360
3683
102
}
330
3452
100
AcDbSymbolTableRecord
100
AcDbLayerTableRecord
  2
OUTLINE
 70
     0
 62
     3
  6
CONTINUOUS
370
    -3
390
345F
  0
LAYER
  5
34DC
102
{ACAD_XDICTIONARY
360
3685
102
}
330
3452
100
AcDbSymbolTableRecord
100
AcDbLayerTableRecord
  2
SIZE
 70
     0
 62
    30
  6
CONTINUOUS
370
    -3
390
345F
  0
LAYER
  5
34DD
102
{ACAD_XDICTIONARY
360
3687
102
}
330
3452
100
AcDbSymbolTableRecord
100
AcDbLayerTableRecord
  2
BASIS
 70
     0
 62
     6
  6
DASHDOT
370
    -3
390
345F
  0
LAYER
  5
34DE
102
{ACAD_XDICTIONARY
360
3689
102
}
330
3452
100
AcDbSymbolTableRecord
100
AcDbLayerTableRecord
  2
DETAIL
 70
     0
 62
     5
  6
CONTINUOUS
370
    -3
390
345F
  0
LAYER
  5
34DF
102
{ACAD_XDICTIONARY
360
368B
102
}
330
3452
100
AcDbSymbolTableRecord
100
AcDbLayerTableRecord
  2
ARRANGE
 70
     0
 62
     1
  6
CONTINUOUS
370
    -3
390
345F
  0
LAYER
  5
34E0
330
3452
100
AcDbSymbolTableRecord
100
AcDbLayerTableRecord
  2
DEFPOINTS
 70
     0
 62
     7
  6
CONTINUOUS
290
     0
370
    -3
390
345F
  0
LAYER
  5
34E1
102
{ACAD_XDICTIONARY
360
368D
102
}
330
3452
100
AcDbSymbolTableRecord
100
AcDbLayerTableRecord
  2
ETC
 70
     0
 62
    61
  6
CONTINUOUS
370
    -3
390
345F
  0
LAYER
  5
34E2
102
{ACAD_XDICTIONARY
360
368F
102
}
330
3452
100
AcDbSymbolTableRecord
100
AcDbLayerTableRecord
  2
FIX
 70
     0
 62
    11
  6
CONTINUOUS
370
    -3
390
345F
  0
LAYER
  5
34E3
102
{ACAD_XDICTIONARY
360
3691
102
}
330
3452
100
AcDbSymbolTableRecord
100
AcDbLayerTableRecord
  2
NOTE
 70
     0
 62
     4
  6
CONTINUOUS
370
    -3
390
345F
  0
LAYER
  5
34E4
102
{ACAD_XDICTIONARY
360
3693
102
}
330
3452
100
AcDbSymbolTableRecord
100
AcDbLayerTableRecord
  2
SERVICESPACE
 70
     0
 62
     2
  6
DASHDOT
370
    -3
390
345F
  0
LAYER
  5
34E5
102
{ACAD_XDICTIONARY
360
3695
102
}
330
3452
100
AcDbSymbolTableRecord
100
AcDbLayerTableRecord
  2
SYMBOLLINE
 70
     0
 62
    15
  6
CONTINUOUS
370
    -3
390
345F
  0
ENDTAB
  0
TABLE
  2
STYLE
  5
3453
330
0
100
AcDbSymbolTable
 70
     5
  0
STYLE
  5
34AD
330
3453
100
AcDbSymbolTableRecord
100
AcDbTextStyleTableRecord
  2
STANDARD
 70
     0
 40
64.0
 41
0.9
 50
0.0
 71
     0
 42
64.0
  3
SIMPLEX.shx
  4
BIGFONT.shx
  0
STYLE
  5
34B1
330
3453
100
AcDbSymbolTableRecord
100
AcDbTextStyleTableRecord
  2
ANNOTATIVE
 70
     0
 40
0.0
 41
1.0
 50
0.0
 71
     0
 42
0.2
  3
txt
  4

1001
ACADANNOTATIVE
1000
AnnotativeData
1002
{
1070
     1
1070
     1
1002
}
  0
STYLE
  5
34E6
330
3453
100
AcDbSymbolTableRecord
100
AcDbTextStyleTableRecord
  2

 70
     1
 40
0.0
 41
1.0
 50
0.0
 71
     0
 42
64.0
  3
genltshp.shx
  4

  0
STYLE
  5
34E7
330
3453
100
AcDbSymbolTableRecord
100
AcDbTextStyleTableRecord
  2
ACANSTS
 70
     0
 40
1.0
 41
1.0
 50
0.0
 71
     0
 42
64.0
  3
romans.shx
  4
extfont.shx
  0
STYLE
  5
34E8
330
3453
100
AcDbSymbolTableRecord
100
AcDbTextStyleTableRecord
  2
ACANSGDT
 70
     0
 40
0.0
 41
1.0
 50
0.0
 71
     0
 42
64.0
  3
amgdt.shx
  4

  0
ENDTAB
  0
TABLE
  2
VIEW
  5
3456
330
0
100
AcDbSymbolTable
 70
     1
  0
VIEW
  5
34E9
330
3456
100
AcDbSymbolTableRecord
100
AcDbViewTableRecord
  2
ALL
 70
     0
 40
4282.619807999997
 10
0.0
 20
41.30990399999999
 41
5940.0
 11
0.0
 21
0.0
 31
1.0
 12
0.0
 22
0.0
 32
0.0
 42
50.0
 43
0.0
 44
0.0
 50
0.0
 71
     0
281
     0
 72
     1
110
0.0
120
0.0
130
0.0
111
1.0
121
0.0
131
0.0
112
0.0
122
1.0
132
0.0
 79
     0
146
0.0
  0
ENDTAB
  0
TABLE
  2
UCS
  5
3457
330
0
100
AcDbSymbolTable
 70
     0
  0
ENDTAB
  0
TABLE
  2
APPID
  5
3459
330
0
100
AcDbSymbolTable
 70
    33
  0
APPID
  5
34AE
330
3459
100
AcDbSymbolTableRecord
100
AcDbRegAppTableRecord
  2
ACAD
 70
     0
  0
APPID
  5
34B5
330
3459
100
AcDbSymbolTableRecord
100
AcDbRegAppTableRecord
  2
ACADANNOTATIVE
 70
     0
  0
APPID
  5
34BF
330
3459
100
AcDbSymbolTableRecord
100
AcDbRegAppTableRecord
  2
ACAD_MLEADERVER
 70
     0
  0
APPID
  5
34EA
330
3459
100
AcDbSymbolTableRecord
100
AcDbRegAppTableRecord
  2
GENIUS_GENDIM_13
 70
     0
  0
APPID
  5
34EB
330
3459
100
AcDbSymbolTableRecord
100
AcDbRegAppTableRecord
  2
GENIUS_GENDTOL_13
 70
     0
  0
APPID
  5
34EC
330
3459
100
AcDbSymbolTableRecord
100
AcDbRegAppTableRecord
  2
GENIUS_GE3DTOL_13
 70
     0
  0
APPID
  5
34ED
330
3459
100
AcDbSymbolTableRecord
100
AcDbRegAppTableRecord
  2
MCAD_NO_VIS
 70
     0
  0
APPID
  5
34EE
330
3459
100
AcDbSymbolTableRecord
100
AcDbRegAppTableRecord
  2
ACAD_TEMP_GRAPHIC
 70
     0
  0
APPID
  5
34EF
330
3459
100
AcDbSymbolTableRecord
100
AcDbRegAppTableRecord
  2
AD_DRAW
 70
     0
  0
APPID
  5
34F0
330
3459
100
AcDbSymbolTableRecord
100
AcDbRegAppTableRecord
  2
ACATTRIBSERVICES
 70
     0
  0
APPID
  5
34F1
330
3459
100
AcDbSymbolTableRecord
100
AcDbRegAppTableRecord
  2
ASURF_PCURVE_APPNAME
 70
     0
  0
APPID
  5
34F2
330
3459
100
AcDbSymbolTableRecord
100
AcDbRegAppTableRecord
  2
AMG_3D2D_5_0
 70
     0
  0
APPID
  5
34F3
330
3459
100
AcDbSymbolTableRecord
100
AcDbRegAppTableRecord
  2
DESIGNERASSEMBLIES
 70
     0
  0
APPID
  5
34F4
330
3459
100
AcDbSymbolTableRecord
100
AcDbRegAppTableRecord
  2
ACADM_DIM_EDIT
 70
     0
  0
APPID
  5
34F5
330
3459
100
AcDbSymbolTableRecord
100
AcDbRegAppTableRecord
  2
AMDT_DM_ADJ
 70
     0
  0
APPID
  5
34F6
330
3459
100
AcDbSymbolTableRecord
100
AcDbRegAppTableRecord
  2
ACAD_DSTYLE_DIMARC_LENGTH_
 70
     0
  0
APPID
  5
34F7
330
3459
100
AcDbSymbolTableRecord
100
AcDbRegAppTableRecord
  2
ACAD_DSTYLE_DIMJOGGED_JOGA
 70
     0
  0
APPID
  5
34F8
330
3459
100
AcDbSymbolTableRecord
100
AcDbRegAppTableRecord
  2
ACAD_PSEXT
 70
     0
  0
APPID
  5
34F9
330
3459
100
AcDbSymbolTableRecord
100
AcDbRegAppTableRecord
  2
ACAD_EXEMPT_FROM_CAD_STANDARDS
 70
     0
  0
APPID
  5
34FA
330
3459
100
AcDbSymbolTableRecord
100
AcDbRegAppTableRecord
  2
ACAD_DSTYLE_DIMJAG
 70
     0
  0
APPID
  5
34FB
330
3459
100
AcDbSymbolTableRecord
100
AcDbRegAppTableRecord
  2
ACAD_DSTYLE_DIMTALN
 70
     0
  0
APPID
  5
34FC
330
3459
100
AcDbSymbolTableRecord
100
AcDbRegAppTableRecord
  2
AMG_3D2D_5_00
 70
     0
  0
APPID
  5
34FD
330
3459
100
AcDbSymbolTableRecord
100
AcDbRegAppTableRecord
  2
AMG_3D2D_5_01
 70
     0
  0
APPID
  5
34FE
330
3459
100
AcDbSymbolTableRecord
100
AcDbRegAppTableRecord
  2
AMG_3D2D_5_02
 70
     0
  0
APPID
  5
34FF
330
3459
100
AcDbSymbolTableRecord
100
AcDbRegAppTableRecord
  2
AMG_3D2D_5_03
 70
     0
  0
APPID
  5
3500
330
3459
100
AcDbSymbolTableRecord
100
AcDbRegAppTableRecord
  2
AMG_3D2D_5_04
 70
     0
  0
APPID
  5
3501
330
3459
100
AcDbSymbolTableRecord
100
AcDbRegAppTableRecord
  2
AMG_3D2D_5_05
 70
     0
  0
APPID
  5
3502
330
3459
100
AcDbSymbolTableRecord
100
AcDbRegAppTableRecord
  2
AMG_3D2D_5_06
 70
     0
  0
APPID
  5
3628
330
3459
100
AcDbSymbolTableRecord
100
AcDbRegAppTableRecord
  2
AMG_3D2D_5.0
 70
     0
  0
APPID
  5
36BE
330
3459
100
AcDbSymbolTableRecord
100
AcDbRegAppTableRecord
  2
ACAD_DSTYLE_DIMARC_LENGTH_SYMBOL
 70
     0
  0
APPID
  5
36BF
330
3459
100
AcDbSymbolTableRecord
100
AcDbRegAppTableRecord
  2
ACAD_DSTYLE_DIM_LINETYPE
 70
     0
  0
APPID
  5
36C0
330
3459
100
AcDbSymbolTableRecord
100
AcDbRegAppTableRecord
  2
ACAD_DSTYLE_DIM_EXT1_LINETYPE
 70
     0
  0
APPID
  5
36C1
330
3459
100
AcDbSymbolTableRecord
100
AcDbRegAppTableRecord
  2
ACAD_DSTYLE_DIM_EXT2_LINETYPE
 70
     0
  0
ENDTAB
  0
TABLE
  2
DIMSTYLE
  5
345A
330
0
100
AcDbSymbolTable
 70
    10
100
AcDbDimStyleTable
 71
     1
340
3503
  0
DIMSTYLE
105
34AF
330
345A
100
AcDbSymbolTableRecord
100
AcDbDimStyleTableRecord
  2
STANDARD
 70
     0
 41
12.0
 42
20.0
 44
20.0
 77
     1
 78
     8
140
64.0
141
0.0
147
10.0
275
     1
279
     2
284
     7
285
     7
286
     7
340
34AD
  0
DIMSTYLE
105
34B0
330
345A
100
AcDbSymbolTableRecord
100
AcDbDimStyleTableRecord
  2
ANNOTATIVE
 70
     0
275
     1
279
     2
284
     7
285
     7
286
     7
340
34AD
1001
ACADANNOTATIVE
1000
AnnotativeData
1002
{
1070
     1
1070
     1
1002
}
  0
DIMSTYLE
105
3503
330
345A
100
AcDbSymbolTableRecord
100
AcDbDimStyleTableRecord
  2
AM_ANSI
 70
     0
  4
mm
 41
0.12
 42
0.05
 43
0.5
 44
0.1
 47
0.1
 48
0.1
 78
     7
 79
     2
140
0.12
141
0.0
146
0.71
147
0.06
176
   256
177
   256
178
     2
274
     4
284
     7
340
34AD
371
    -1
372
    -1
1001
ACAD_DSTYLE_DIMARC_LENGTH_SYMBOL
1070
   379
1070
     1
1001
ACAD_DSTYLE_DIM_LINETYPE
1070
   380
1005
34B2
1001
ACAD_DSTYLE_DIM_EXT1_LINETYPE
1070
   381
1005
34B2
1001
ACAD_DSTYLE_DIM_EXT2_LINETYPE
1070
   382
1005
34B2
  0
DIMSTYLE
105
3504
330
345A
100
AcDbSymbolTableRecord
100
AcDbDimStyleTableRecord
  2
AM_ANSI$3
 70
     0
  4
mm
 41
0.12
 42
0.05
 43
0.5
 44
0.1
 47
0.1
 48
0.1
 78
     7
 79
     2
140
0.12
141
0.0
146
0.71
147
0.06
176
   256
177
   256
178
     2
274
     4
284
     7
288
     1
289
     0
340
34AD
371
    -1
372
    -1
1001
ACAD_DSTYLE_DIMARC_LENGTH_SYMBOL
1070
   379
1070
     1
1001
ACAD_DSTYLE_DIM_LINETYPE
1070
   380
1005
34B2
1001
ACAD_DSTYLE_DIM_EXT1_LINETYPE
1070
   381
1005
34B2
1001
ACAD_DSTYLE_DIM_EXT2_LINETYPE
1070
   382
1005
34B2
  0
DIMSTYLE
105
3505
330
345A
100
AcDbSymbolTableRecord
100
AcDbDimStyleTableRecord
  2
AM_ANSI$4
 70
     0
  4
mm
 41
0.12
 42
0.05
 43
0.5
 44
0.1
 47
0.1
 48
0.1
 78
     7
 79
     2
140
0.12
141
0.0
146
0.71
147
0.06
176
   256
177
   256
178
     2
274
     4
284
     7
340
34AD
371
    -1
372
    -1
1001
ACAD_DSTYLE_DIMARC_LENGTH_SYMBOL
1070
   379
1070
     1
1001
ACAD_DSTYLE_DIM_LINETYPE
1070
   380
1005
34B2
1001
ACAD_DSTYLE_DIM_EXT1_LINETYPE
1070
   381
1005
34B2
1001
ACAD_DSTYLE_DIM_EXT2_LINETYPE
1070
   382
1005
34B2
  0
DIMSTYLE
105
3506
330
345A
100
AcDbSymbolTableRecord
100
AcDbDimStyleTableRecord
  2
AM_ANSI$7
 70
     0
  4
mm
 41
0.12
 42
0.05
 43
0.5
 44
0.1
 47
0.1
 48
0.1
 78
     7
 79
     2
140
0.12
141
0.0
146
0.71
147
0.06
176
   256
177
   256
178
     2
274
     4
284
     7
340
34AD
371
    -1
372
    -1
1001
ACAD_DSTYLE_DIMARC_LENGTH_SYMBOL
1070
   379
1070
     1
1001
ACAD_DSTYLE_DIM_LINETYPE
1070
   380
1005
34B2
1001
ACAD_DSTYLE_DIM_EXT1_LINETYPE
1070
   381
1005
34B2
1001
ACAD_DSTYLE_DIM_EXT2_LINETYPE
1070
   382
1005
34B2
  0
DIMSTYLE
105
3507
330
345A
100
AcDbSymbolTableRecord
100
AcDbDimStyleTableRecord
  2
AM_ANSI$SF
 70
     0
  4
mm
 41
0.12
 42
0.05
 43
0.5
 44
0.1
 47
0.1
 48
0.1
 75
     1
 76
     1
 78
     7
 79
     2
140
0.12
141
0.0
146
0.71
147
0.06
176
   256
177
   256
178
     2
274
     4
284
     7
340
34AD
371
    -1
372
    -1
1001
ACAD_DSTYLE_DIMARC_LENGTH_SYMBOL
1070
   379
1070
     1
1001
ACAD_DSTYLE_DIM_LINETYPE
1070
   380
1005
34B2
1001
ACAD_DSTYLE_DIM_EXT1_LINETYPE
1070
   381
1005
34B2
1001
ACAD_DSTYLE_DIM_EXT2_LINETYPE
1070
   382
1005
34B2
  0
DIMSTYLE
105
3508
330
345A
100
AcDbSymbolTableRecord
100
AcDbDimStyleTableRecord
  2
AM_ANSI$SH
 70
     0
  4
mm
 41
0.12
 42
0.05
 43
0.5
 44
0.1
 47
0.1
 48
0.1
 75
     1
 76
     1
 78
     7
 79
     2
140
0.12
141
0.0
146
0.71
147
0.06
173
     1
176
   256
177
   256
178
     2
274
     4
284
     7
340
34AD
343
3528
371
    -1
372
    -1
1001
ACAD_DSTYLE_DIMARC_LENGTH_SYMBOL
1070
   379
1070
     1
1001
ACAD_DSTYLE_DIM_LINETYPE
1070
   380
1005
34B2
1001
ACAD_DSTYLE_DIM_EXT1_LINETYPE
1070
   381
1005
34B2
1001
ACAD_DSTYLE_DIM_EXT2_LINETYPE
1070
   382
1005
34B2
  0
DIMSTYLE
105
3509
330
345A
100
AcDbSymbolTableRecord
100
AcDbDimStyleTableRecord
  2
STANDARD1
 70
     0
 40
6.0
 41
2.5
 42
0.625
 43
6.0
 44
1.25
 47
1.0
 48
0.5
 77
     1
 78
     8
140
2.5
141
0.0
146
0.6
147
1.0
173
     1
275
     1
279
     2
284
     7
285
     7
286
     7
340
34AD
  0
DIMSTYLE
105
350A
330
345A
100
AcDbSymbolTableRecord
100
AcDbDimStyleTableRecord
  2
STANDARD$0
 70
     0
 41
12.0
 42
20.0
 44
20.0
 73
     0
 74
     0
 77
     1
 78
     8
140
64.0
141
0.0
147
10.0
275
     1
279
     2
284
     7
285
     7
286
     7
340
34AD
  0
ENDTAB
  0
TABLE
  2
BLOCK_RECORD
  5
3451
330
0
100
AcDbSymbolTable
 70
    75
  0
BLOCK_RECORD
  5
34C4
102
{ACAD_XDICTIONARY
360
3697
102
}
330
3451
100
AcDbSymbolTableRecord
100
AcDbBlockTableRecord
  2
*Model_Space
340
34C7
  0
BLOCK_RECORD
  5
34C0
330
3451
100
AcDbSymbolTableRecord
100
AcDbBlockTableRecord
  2
*Paper_Space
340
34C3
  0
BLOCK_RECORD
  5
3512
330
3451
100
AcDbSymbolTableRecord
100
AcDbBlockTableRecord
  2
$MODEL_SPACE
340
0
  0
BLOCK_RECORD
  5
3514
330
3451
100
AcDbSymbolTableRecord
100
AcDbBlockTableRecord
  2
$PAPER_SPACE
340
0
  0
BLOCK_RECORD
  5
3516
330
3451
100
AcDbSymbolTableRecord
100
AcDbBlockTableRecord
  2
_ORIGIN
340
0
  0
BLOCK_RECORD
  5
3518
330
3451
100
AcDbSymbolTableRecord
100
AcDbBlockTableRecord
  2
_DOTBLANK
340
0
102
{BLKREFS
331
1299
331
129A
331
11AA
331
11AB
331
E80
331
E81
331
1123
331
1124
331
11C2
331
11C3
331
11EC
331
11ED
331
11F9
331
11FA
331
1287
331
1288
331
1417
331
1418
331
1423
331
1424
331
142F
331
1430
331
143B
331
143C
331
166E
331
166F
331
1677
331
1678
331
1680
331
1681
331
1689
331
168A
331
1696
331
1697
331
16A3
331
16A4
331
16AF
331
16B0
331
16BB
331
16BC
331
16C7
331
16C8
331
16D3
331
16D4
331
1D86
331
1D87
331
1D8F
331
1D90
331
1D98
331
1D99
331
1DA1
331
1DA2
331
1DAB
331
1DAC
331
1DB5
331
1DB6
331
318F
331
3190
331
3194
331
3195
331
3199
331
319A
331
319E
331
319F
102
}
  0
BLOCK_RECORD
  5
351A
330
3451
100
AcDbSymbolTableRecord
100
AcDbBlockTableRecord
  2
_OPEN30
340
0
102
{BLKREFS
331
2088
331
27FE
331
2D51
331
3042
102
}
  0
BLOCK_RECORD
  5
351C
330
3451
100
AcDbSymbolTableRecord
100
AcDbBlockTableRecord
  2
*D5
340
0
  0
BLOCK_RECORD
  5
351E
330
3451
100
AcDbSymbolTableRecord
100
AcDbBlockTableRecord
  2
*U6
340
0
102
{BLKREFS
331
129B
102
}
  0
BLOCK_RECORD
  5
3520
330
3451
100
AcDbSymbolTableRecord
100
AcDbBlockTableRecord
  2
*D7
340
0
  0
BLOCK_RECORD
  5
3522
330
3451
100
AcDbSymbolTableRecord
100
AcDbBlockTableRecord
  2
*U8
340
0
102
{BLKREFS
331
11AC
102
}
  0
BLOCK_RECORD
  5
3524
330
3451
100
AcDbSymbolTableRecord
100
AcDbBlockTableRecord
  2
*D9
340
0
  0
BLOCK_RECORD
  5
3526
330
3451
100
AcDbSymbolTableRecord
100
AcDbBlockTableRecord
  2
*U10
340
0
102
{BLKREFS
331
E82
102
}
  0
BLOCK_RECORD
  5
3528
330
3451
100
AcDbSymbolTableRecord
100
AcDbBlockTableRecord
  2
GENAXEH
340
0
  0
BLOCK_RECORD
  5
352A
330
3451
100
AcDbSymbolTableRecord
100
AcDbBlockTableRecord
  2
*D12
340
0
  0
BLOCK_RECORD
  5
352C
330
3451
100
AcDbSymbolTableRecord
100
AcDbBlockTableRecord
  2
*U13
340
0
102
{BLKREFS
331
1125
102
}
  0
BLOCK_RECORD
  5
352E
330
3451
100
AcDbSymbolTableRecord
100
AcDbBlockTableRecord
  2
*D14
340
0
  0
BLOCK_RECORD
  5
3530
330
3451
100
AcDbSymbolTableRecord
100
AcDbBlockTableRecord
  2
*U15
340
0
102
{BLKREFS
331
11C4
102
}
  0
BLOCK_RECORD
  5
3532
330
3451
100
AcDbSymbolTableRecord
100
AcDbBlockTableRecord
  2
*D16
340
0
  0
BLOCK_RECORD
  5
3534
330
3451
100
AcDbSymbolTableRecord
100
AcDbBlockTableRecord
  2
*U17
340
0
102
{BLKREFS
331
11EE
102
}
  0
BLOCK_RECORD
  5
3536
330
3451
100
AcDbSymbolTableRecord
100
AcDbBlockTableRecord
  2
*D18
340
0
  0
BLOCK_RECORD
  5
3538
330
3451
100
AcDbSymbolTableRecord
100
AcDbBlockTableRecord
  2
*U19
340
0
102
{BLKREFS
331
11FB
102
}
  0
BLOCK_RECORD
  5
353A
330
3451
100
AcDbSymbolTableRecord
100
AcDbBlockTableRecord
  2
*D20
340
0
  0
BLOCK_RECORD
  5
353C
330
3451
100
AcDbSymbolTableRecord
100
AcDbBlockTableRecord
  2
*U21
340
0
102
{BLKREFS
331
1289
102
}
  0
BLOCK_RECORD
  5
353E
330
3451
100
AcDbSymbolTableRecord
100
AcDbBlockTableRecord
  2
*D22
340
0
  0
BLOCK_RECORD
  5
3540
330
3451
100
AcDbSymbolTableRecord
100
AcDbBlockTableRecord
  2
*U23
340
0
102
{BLKREFS
331
1419
102
}
  0
BLOCK_RECORD
  5
3542
330
3451
100
AcDbSymbolTableRecord
100
AcDbBlockTableRecord
  2
*D24
340
0
  0
BLOCK_RECORD
  5
3544
330
3451
100
AcDbSymbolTableRecord
100
AcDbBlockTableRecord
  2
*U25
340
0
102
{BLKREFS
331
1425
102
}
  0
BLOCK_RECORD
  5
3546
330
3451
100
AcDbSymbolTableRecord
100
AcDbBlockTableRecord
  2
*D26
340
0
  0
BLOCK_RECORD
  5
3548
330
3451
100
AcDbSymbolTableRecord
100
AcDbBlockTableRecord
  2
*U27
340
0
102
{BLKREFS
331
1431
102
}
  0
BLOCK_RECORD
  5
354A
330
3451
100
AcDbSymbolTableRecord
100
AcDbBlockTableRecord
  2
*D28
340
0
  0
BLOCK_RECORD
  5
354C
330
3451
100
AcDbSymbolTableRecord
100
AcDbBlockTableRecord
  2
*U29
340
0
102
{BLKREFS
331
143D
102
}
  0
BLOCK_RECORD
  5
354E
330
3451
100
AcDbSymbolTableRecord
100
AcDbBlockTableRecord
  2
*D30
340
0
  0
BLOCK_RECORD
  5
3550
330
3451
100
AcDbSymbolTableRecord
100
AcDbBlockTableRecord
  2
*U31
340
0
102
{BLKREFS
331
1670
102
}
  0
BLOCK_RECORD
  5
3552
330
3451
100
AcDbSymbolTableRecord
100
AcDbBlockTableRecord
  2
*D32
340
0
  0
BLOCK_RECORD
  5
3554
330
3451
100
AcDbSymbolTableRecord
100
AcDbBlockTableRecord
  2
*U33
340
0
102
{BLKREFS
331
1679
102
}
  0
BLOCK_RECORD
  5
3556
330
3451
100
AcDbSymbolTableRecord
100
AcDbBlockTableRecord
  2
*D34
340
0
  0
BLOCK_RECORD
  5
3558
330
3451
100
AcDbSymbolTableRecord
100
AcDbBlockTableRecord
  2
*U35
340
0
102
{BLKREFS
331
1682
102
}
  0
BLOCK_RECORD
  5
355A
330
3451
100
AcDbSymbolTableRecord
100
AcDbBlockTableRecord
  2
*D36
340
0
  0
BLOCK_RECORD
  5
355C
330
3451
100
AcDbSymbolTableRecord
100
AcDbBlockTableRecord
  2
*U37
340
0
102
{BLKREFS
331
168B
102
}
  0
BLOCK_RECORD
  5
355E
330
3451
100
AcDbSymbolTableRecord
100
AcDbBlockTableRecord
  2
*U38
340
0
  0
BLOCK_RECORD
  5
3560
330
3451
100
AcDbSymbolTableRecord
100
AcDbBlockTableRecord
  2
*D39
340
0
  0
BLOCK_RECORD
  5
3562
330
3451
100
AcDbSymbolTableRecord
100
AcDbBlockTableRecord
  2
*U40
340
0
102
{BLKREFS
331
1698
102
}
  0
BLOCK_RECORD
  5
3564
330
3451
100
AcDbSymbolTableRecord
100
AcDbBlockTableRecord
  2
*D41
340
0
  0
BLOCK_RECORD
  5
3566
330
3451
100
AcDbSymbolTableRecord
100
AcDbBlockTableRecord
  2
*U42
340
0
102
{BLKREFS
331
16A5
102
}
  0
BLOCK_RECORD
  5
3568
330
3451
100
AcDbSymbolTableRecord
100
AcDbBlockTableRecord
  2
*D43
340
0
  0
BLOCK_RECORD
  5
356A
330
3451
100
AcDbSymbolTableRecord
100
AcDbBlockTableRecord
  2
*U44
340
0
102
{BLKREFS
331
16B1
102
}
  0
BLOCK_RECORD
  5
356C
330
3451
100
AcDbSymbolTableRecord
100
AcDbBlockTableRecord
  2
*D45
340
0
  0
BLOCK_RECORD
  5
356E
330
3451
100
AcDbSymbolTableRecord
100
AcDbBlockTableRecord
  2
*U46
340
0
102
{BLKREFS
331
16BD
102
}
  0
BLOCK_RECORD
  5
3570
330
3451
100
AcDbSymbolTableRecord
100
AcDbBlockTableRecord
  2
*D47
340
0
  0
BLOCK_RECORD
  5
3572
330
3451
100
AcDbSymbolTableRecord
100
AcDbBlockTableRecord
  2
*U48
340
0
102
{BLKREFS
331
16C9
102
}
  0
BLOCK_RECORD
  5
3574
330
3451
100
AcDbSymbolTableRecord
100
AcDbBlockTableRecord
  2
*D49
340
0
  0
BLOCK_RECORD
  5
3576
330
3451
100
AcDbSymbolTableRecord
100
AcDbBlockTableRecord
  2
*U50
340
0
102
{BLKREFS
331
16D5
102
}
  0
BLOCK_RECORD
  5
3578
330
3451
100
AcDbSymbolTableRecord
100
AcDbBlockTableRecord
  2
*D51
340
0
  0
BLOCK_RECORD
  5
357A
330
3451
100
AcDbSymbolTableRecord
100
AcDbBlockTableRecord
  2
*U52
340
0
102
{BLKREFS
331
1D88
102
}
  0
BLOCK_RECORD
  5
357C
330
3451
100
AcDbSymbolTableRecord
100
AcDbBlockTableRecord
  2
*D53
340
0
  0
BLOCK_RECORD
  5
357E
330
3451
100
AcDbSymbolTableRecord
100
AcDbBlockTableRecord
  2
*U54
340
0
102
{BLKREFS
331
1D91
102
}
  0
BLOCK_RECORD
  5
3580
330
3451
100
AcDbSymbolTableRecord
100
AcDbBlockTableRecord
  2
*D55
340
0
  0
BLOCK_RECORD
  5
3582
330
3451
100
AcDbSymbolTableRecord
100
AcDbBlockTableRecord
  2
*U56
340
0
102
{BLKREFS
331
1D9A
102
}
  0
BLOCK_RECORD
  5
3584
330
3451
100
AcDbSymbolTableRecord
100
AcDbBlockTableRecord
  2
*D57
340
0
  0
BLOCK_RECORD
  5
3586
330
3451
100
AcDbSymbolTableRecord
100
AcDbBlockTableRecord
  2
*U58
340
0
102
{BLKREFS
331
1DA3
102
}
  0
BLOCK_RECORD
  5
3588
330
3451
100
AcDbSymbolTableRecord
100
AcDbBlockTableRecord
  2
*D59
340
0
  0
BLOCK_RECORD
  5
358A
330
3451
100
AcDbSymbolTableRecord
100
AcDbBlockTableRecord
  2
*U60
340
0
102
{BLKREFS
331
1DAD
102
}
  0
BLOCK_RECORD
  5
358C
330
3451
100
AcDbSymbolTableRecord
100
AcDbBlockTableRecord
  2
*D61
340
0
  0
BLOCK_RECORD
  5
358E
330
3451
100
AcDbSymbolTableRecord
100
AcDbBlockTableRecord
  2
*U62
340
0
102
{BLKREFS
331
1DB7
102
}
  0
BLOCK_RECORD
  5
3590
330
3451
100
AcDbSymbolTableRecord
100
AcDbBlockTableRecord
  2
*U63
340
0
  0
BLOCK_RECORD
  5
3592
330
3451
100
AcDbSymbolTableRecord
100
AcDbBlockTableRecord
  2
*U64
340
0
  0
BLOCK_RECORD
  5
3594
330
3451
100
AcDbSymbolTableRecord
100
AcDbBlockTableRecord
  2
*U65
340
0
  0
BLOCK_RECORD
  5
3596
330
3451
100
AcDbSymbolTableRecord
100
AcDbBlockTableRecord
  2
*U66
340
0
  0
BLOCK_RECORD
  5
3598
330
3451
100
AcDbSymbolTableRecord
100
AcDbBlockTableRecord
  2
*U67
340
0
  0
BLOCK_RECORD
  5
359A
330
3451
100
AcDbSymbolTableRecord
100
AcDbBlockTableRecord
  2
*U68
340
0
  0
BLOCK_RECORD
  5
359C
330
3451
100
AcDbSymbolTableRecord
100
AcDbBlockTableRecord
  2
*U69
340
0
  0
BLOCK_RECORD
  5
359E
330
3451
100
AcDbSymbolTableRecord
100
AcDbBlockTableRecord
  2
*U70
340
0
102
{BLKREFS
331
316A
102
}
  0
BLOCK_RECORD
  5
35A0
330
3451
100
AcDbSymbolTableRecord
100
AcDbBlockTableRecord
  2
*U71
340
0
102
{BLKREFS
331
316B
102
}
  0
BLOCK_RECORD
  5
35A2
330
3451
100
AcDbSymbolTableRecord
100
AcDbBlockTableRecord
  2
*X72
340
0
102
{BLKREFS
331
318A
102
}
  0
BLOCK_RECORD
  5
35A4
330
3451
100
AcDbSymbolTableRecord
100
AcDbBlockTableRecord
  2
*X73
340
0
102
{BLKREFS
331
318B
102
}
  0
ENDTAB
  0
ENDSEC
  0
SECTION
  2
BLOCKS
  0
BLOCK
  5
34C5
330
34C4
100
AcDbEntity
  8
0
100
AcDbBlockBegin
  2
*Model_Space
 70
     0
 10
0.0
 20
0.0
 30
0.0
  3
*Model_Space
  1

  0
ENDBLK
  5
34C6
330
34C4
100
AcDbEntity
  8
0
100
AcDbBlockEnd
  0
BLOCK
  5
34C1
330
34C0
100
AcDbEntity
 67
     1
  8
0
100
AcDbBlockBegin
  2
*Paper_Space
 70
     0
 10
0.0
 20
0.0
 30
0.0
  3
*Paper_Space
  1

  0
ENDBLK
  5
34C2
330
34C0
100
AcDbEntity
 67
     1
  8
0
100
AcDbBlockEnd
  0
BLOCK
  5
3513
330
3512
100
AcDbEntity
  8
0
100
AcDbBlockBegin
  2
$MODEL_SPACE
 70
     0
 10
0.0
 20
0.0
 30
0.0
  3
$MODEL_SPACE
  1

  0
ENDBLK
  5
3254
330
3512
100
AcDbEntity
  8
0
100
AcDbBlockEnd
  0
BLOCK
  5
3515
330
3514
100
AcDbEntity
  8
0
100
AcDbBlockBegin
  2
$PAPER_SPACE
 70
     0
 10
0.0
 20
0.0
 30
0.0
  3
$PAPER_SPACE
  1

  0
ENDBLK
  5
3250
330
3514
100
AcDbEntity
  8
0
100
AcDbBlockEnd
  0
BLOCK
  5
3517
330
3516
100
AcDbEntity
  8
0
100
AcDbBlockBegin
  2
_ORIGIN
 70
     0
 10
0.0
 20
0.0
 30
0.0
  3
_ORIGIN
  1

  0
CIRCLE
  5
880
330
3516
100
AcDbEntity
  8
0
  6
Continuous
 62
     7
100
AcDbCircle
 10
0.0
 20
0.0
 30
0.0
 40
0.5
  0
LINE
  5
881
330
3516
100
AcDbEntity
  8
0
  6
Continuous
 62
     7
100
AcDbLine
 10
0.0
 20
0.0
 30
0.0
 11
-1.0
 21
0.0
 31
0.0
  0
ENDBLK
  5
882
330
3516
100
AcDbEntity
  8
0
100
AcDbBlockEnd
  0
BLOCK
  5
3519
330
3518
100
AcDbEntity
  8
0
 62
     1
100
AcDbBlockBegin
  2
_DOTBLANK
 70
     0
 10
0.0
 20
0.0
 30
0.0
  3
_DOTBLANK
  1

  0
CIRCLE
  5
AB3
330
3518
100
AcDbEntity
  8
0
  6
ByBlock
 62
     0
100
AcDbCircle
 10
0.0
 20
0.0
 30
0.0
 40
0.5
  0
LINE
  5
AB4
330
3518
100
AcDbEntity
  8
0
  6
ByBlock
 62
     0
100
AcDbLine
 10
-0.5
 20
0.0
 30
0.0
 11
-1.0
 21
0.0
 31
0.0
  0
ENDBLK
  5
AB6
330
3518
100
AcDbEntity
  8
0
 62
     1
100
AcDbBlockEnd
  0
BLOCK
  5
351B
330
351A
100
AcDbEntity
  8
0
 62
     1
100
AcDbBlockBegin
  2
_OPEN30
 70
     0
 10
0.0
 20
0.0
 30
0.0
  3
_OPEN30
  1

  0
LINE
  5
AB8
330
351A
100
AcDbEntity
  8
0
  6
ByBlock
 62
     0
100
AcDbLine
 10
-1.0
 20
0.26794919
 30
0.0
 11
0.0
 21
0.0
 31
0.0
  0
LINE
  5
AB9
330
351A
100
AcDbEntity
  8
0
  6
ByBlock
 62
     0
100
AcDbLine
 10
0.0
 20
0.0
 30
0.0
 11
-1.0
 21
-0.26794919
 31
0.0
  0
LINE
  5
ABA
330
351A
100
AcDbEntity
  8
0
  6
ByBlock
 62
     0
100
AcDbLine
 10
0.0
 20
0.0
 30
0.0
 11
-1.0
 21
0.0
 31
0.0
  0
ENDBLK
  5
ABC
330
351A
100
AcDbEntity
  8
0
 62
     1
100
AcDbBlockEnd
  0
BLOCK
  5
351D
330
351C
100
AcDbEntity
  8
0
100
AcDbBlockBegin
  2
*D5
 70
     1
 10
0.0
 20
0.0
 30
0.0
  3
*D5
  1

  0
LINE
  5
1296
330
351C
100
AcDbEntity
  8
SIZE
 62
     0
100
AcDbLine
 10
-134.5
 20
-320.0
 30
0.0
 11
-134.5
 21
-468.0173952306001
 31
0.0
  0
LINE
  5
1297
330
351C
100
AcDbEntity
  8
SIZE
 62
     0
100
AcDbLine
 10
134.5
 20
-320.0
 30
0.0
 11
134.5
 21
-468.0173952306001
 31
0.0
  0
LINE
  5
1298
330
351C
100
AcDbEntity
  8
SIZE
 62
     0
100
AcDbLine
 10
-122.5
 20
-448.0173952306
 30
0.0
 11
122.5
 21
-448.0173952306
 31
0.0
  0
INSERT
  5
1299
330
351C
100
AcDbEntity
  8
SIZE
 62
     0
100
AcDbBlockReference
  2
_DOTBLANK
 10
-134.5
 20
-448.0173952306
 30
0.0
 41
12.0
 42
12.0
 43
12.0
 50
180.0
  0
INSERT
  5
129A
330
351C
100
AcDbEntity
  8
SIZE
 62
     0
100
AcDbBlockReference
  2
_DOTBLANK
 10
134.5
 20
-448.0173952306
 30
0.0
 41
12.0
 42
12.0
 43
12.0
  0
INSERT
  5
129B
330
351C
100
AcDbEntity
  8
0
100
AcDbBlockReference
  2
*U6
 10
0.0
 20
0.0
 30
0.0
  0
POINT
  5
129C
330
351C
100
AcDbEntity
  8
DEFPOINTS
 62
     0
100
AcDbPoint
 10
-134.5
 20
-300.0
 30
0.0
  0
POINT
  5
129D
330
351C
100
AcDbEntity
  8
DEFPOINTS
 62
     0
100
AcDbPoint
 10
134.5
 20
-300.0
 30
0.0
  0
POINT
  5
129E
330
351C
100
AcDbEntity
  8
DEFPOINTS
 62
     0
100
AcDbPoint
 10
134.5
 20
-448.0173952306
 30
0.0
  0
ENDBLK
  5
D72
330
351C
100
AcDbEntity
  8
0
100
AcDbBlockEnd
  0
BLOCK
  5
351F
330
351E
100
AcDbEntity
  8
0
100
AcDbBlockBegin
  2
*U6
 70
     1
 10
0.0
 20
0.0
 30
0.0
  3
*U6
  1

  0
TEXT
  5
1EF5
330
351E
100
AcDbEntity
  8
SIZE
 62
     0
100
AcDbText
 10
-72.68571428571426
 20
-438.0173952305999
 30
0.0
 40
64.0
  1
269
 41
0.9
100
AcDbText
  0
ENDBLK
  5
1EF7
330
351E
100
AcDbEntity
  8
0
100
AcDbBlockEnd
  0
BLOCK
  5
3521
330
3520
100
AcDbEntity
  8
0
100
AcDbBlockBegin
  2
*D7
 70
     1
 10
0.0
 20
0.0
 30
0.0
  3
*D7
  1

  0
LINE
  5
11A7
330
3520
100
AcDbEntity
  8
SIZE
  6
Continuous
 62
     0
100
AcDbLine
 10
143.5
 20
-300.0
 30
0.0
 11
304.6432844803791
 21
-300.0
 31
0.0
  0
LINE
  5
11A8
330
3520
100
AcDbEntity
  8
SIZE
  6
Continuous
 62
     0
100
AcDbLine
 10
177.5
 20
-0.0000000000000057
 30
0.0
 11
304.6432844803792
 21
-0.0000000000000417
 31
0.0
  0
LINE
  5
11A9
330
3520
100
AcDbEntity
  8
SIZE
  6
Continuous
 62
     0
100
AcDbLine
 10
284.6432844803791
 20
-288.0000000000001
 30
0.0
 11
284.6432844803792
 21
-12.00000000000003
 31
0.0
  0
INSERT
  5
11AA
330
3520
100
AcDbEntity
  8
SIZE
  6
Continuous
 62
     0
100
AcDbBlockReference
  2
_DOTBLANK
 10
284.6432844803791
 20
-300.0
 30
0.0
 41
12.0
 42
12.0
 43
12.0
 50
270.0
  0
INSERT
  5
11AB
330
3520
100
AcDbEntity
  8
SIZE
  6
Continuous
 62
     0
100
AcDbBlockReference
  2
_DOTBLANK
 10
284.6432844803792
 20
-0.000000000000036
 30
0.0
 41
12.0
 42
12.0
 43
12.0
 50
90.0
  0
INSERT
  5
11AC
330
3520
100
AcDbEntity
  8
0
100
AcDbBlockReference
  2
*U8
 10
0.0
 20
0.0
 30
0.0
  0
POINT
  5
11AD
330
3520
100
AcDbEntity
  8
DEFPOINTS
  6
Continuous
 62
     0
100
AcDbPoint
 10
123.5
 20
-300.0
 30
0.0
  0
POINT
  5
11AE
330
3520
100
AcDbEntity
  8
DEFPOINTS
  6
Continuous
 62
     0
100
AcDbPoint
 10
157.5
 20
0.0
 30
0.0
  0
POINT
  5
11AF
330
3520
100
AcDbEntity
  8
DEFPOINTS
  6
Continuous
 62
     0
100
AcDbPoint
 10
284.6432844803792
 20
-0.000000000000036
 30
0.0
  0
ENDBLK
  5
E11
330
3520
100
AcDbEntity
  8
0
100
AcDbBlockEnd
  0
BLOCK
  5
3523
330
3522
100
AcDbEntity
  8
0
100
AcDbBlockBegin
  2
*U8
 70
     1
 10
0.0
 20
0.0
 30
0.0
  3
*U8
  1

  0
TEXT
  5
1EE1
330
3522
100
AcDbEntity
  8
SIZE
 62
     0
100
AcDbText
 10
274.6432844803792
 20
-224.0571428571429
 30
0.0
 40
64.0
  1
300
 50
90.0
 41
0.9
100
AcDbText
  0
ENDBLK
  5
1EE3
330
3522
100
AcDbEntity
  8
0
100
AcDbBlockEnd
  0
BLOCK
  5
3525
330
3524
100
AcDbEntity
  8
0
100
AcDbBlockBegin
  2
*D9
 70
     1
 10
0.0
 20
0.0
 30
0.0
  3
*D9
  1

  0
LINE
  5
E7D
330
3524
100
AcDbEntity
  8
SIZE
 62
     0
100
AcDbLine
 10
-139.9999999999998
 20
32.46448280219375
 30
0.0
 11
-139.9999999999998
 21
136.4516878685508
 31
0.0
  0
LINE
  5
E7E
330
3524
100
AcDbEntity
  8
SIZE
 62
     0
100
AcDbLine
 10
140.0
 20
32.46448280219375
 30
0.0
 11
140.0
 21
136.4516878685508
 31
0.0
  0
LINE
  5
E7F
330
3524
100
AcDbEntity
  8
SIZE
 62
     0
100
AcDbLine
 10
-128.0
 20
116.4516878685508
 30
0.0
 11
128.0
 21
116.4516878685508
 31
0.0
  0
INSERT
  5
E80
330
3524
100
AcDbEntity
  8
SIZE
 62
     0
100
AcDbBlockReference
  2
_DOTBLANK
 10
-139.9999999999998
 20
116.4516878685508
 30
0.0
 41
12.0
 42
12.0
 43
12.0
 50
180.0
  0
INSERT
  5
E81
330
3524
100
AcDbEntity
  8
SIZE
 62
     0
100
AcDbBlockReference
  2
_DOTBLANK
 10
140.0
 20
116.4516878685508
 30
0.0
 41
12.0
 42
12.0
 43
12.0
  0
INSERT
  5
E82
330
3524
100
AcDbEntity
  8
0
100
AcDbBlockReference
  2
*U10
 10
0.0
 20
0.0
 30
0.0
  0
POINT
  5
E83
330
3524
100
AcDbEntity
  8
DEFPOINTS
 62
     0
100
AcDbPoint
 10
-139.9999999999998
 20
12.46448280219374
 30
0.0
  0
POINT
  5
E84
330
3524
100
AcDbEntity
  8
DEFPOINTS
 62
     0
100
AcDbPoint
 10
140.0
 20
12.46448280219374
 30
0.0
  0
POINT
  5
E85
330
3524
100
AcDbEntity
  8
DEFPOINTS
 62
     0
100
AcDbPoint
 10
140.0
 20
116.4516878685508
 30
0.0
  0
ENDBLK
  5
E7C
330
3524
100
AcDbEntity
  8
0
100
AcDbBlockEnd
  0
BLOCK
  5
3527
330
3526
100
AcDbEntity
  8
0
100
AcDbBlockBegin
  2
*U10
 70
     1
 10
0.0
 20
0.0
 30
0.0
  3
*U10
  1

  0
TEXT
  5
1ED8
330
3526
100
AcDbEntity
  8
SIZE
 62
     0
100
AcDbText
 10
-74.05714285714281
 20
126.4516878685508
 30
0.0
 40
64.0
  1
280
 41
0.9
100
AcDbText
  0
ENDBLK
  5
1EDA
330
3526
100
AcDbEntity
  8
0
100
AcDbBlockEnd
  0
BLOCK
  5
3529
330
3528
100
AcDbEntity
  8
0
100
AcDbBlockBegin
  2
GENAXEH
 70
     0
 10
0.0
 20
0.0
 30
0.0
  3
GENAXEH
  1

  0
LINE
  5
FDB
330
3528
100
AcDbEntity
  8
0
100
AcDbLine
 10
-1.0
 20
0.0
 30
0.0
 11
1.0
 21
0.0
 31
0.0
  0
ENDBLK
  5
FDD
330
3528
100
AcDbEntity
  8
0
100
AcDbBlockEnd
  0
BLOCK
  5
352B
330
352A
100
AcDbEntity
  8
0
100
AcDbBlockBegin
  2
*D12
 70
     1
 10
0.0
 20
0.0
 30
0.0
  3
*D12
  1

  0
LINE
  5
1120
330
352A
100
AcDbEntity
  8
SIZE
 62
     0
100
AcDbLine
 10
-157.5
 20
20.0
 30
0.0
 11
-157.5
 21
245.5794621189598
 31
0.0
  0
LINE
  5
1121
330
352A
100
AcDbEntity
  8
SIZE
 62
     0
100
AcDbLine
 10
157.5
 20
20.0
 30
0.0
 11
157.5
 21
245.5794621189598
 31
0.0
  0
LINE
  5
1122
330
352A
100
AcDbEntity
  8
SIZE
 62
     0
100
AcDbLine
 10
-145.5
 20
225.5794621189598
 30
0.0
 11
145.5
 21
225.5794621189598
 31
0.0
  0
INSERT
  5
1123
330
352A
100
AcDbEntity
  8
SIZE
 62
     0
100
AcDbBlockReference
  2
_DOTBLANK
 10
-157.5
 20
225.5794621189598
 30
0.0
 41
12.0
 42
12.0
 43
12.0
 50
180.0
  0
INSERT
  5
1124
330
352A
100
AcDbEntity
  8
SIZE
 62
     0
100
AcDbBlockReference
  2
_DOTBLANK
 10
157.5
 20
225.5794621189598
 30
0.0
 41
12.0
 42
12.0
 43
12.0
  0
INSERT
  5
1125
330
352A
100
AcDbEntity
  8
0
100
AcDbBlockReference
  2
*U13
 10
0.0
 20
0.0
 30
0.0
  0
POINT
  5
1126
330
352A
100
AcDbEntity
  8
DEFPOINTS
 62
     0
100
AcDbPoint
 10
-157.5
 20
0.0
 30
0.0
  0
POINT
  5
1127
330
352A
100
AcDbEntity
  8
DEFPOINTS
 62
     0
100
AcDbPoint
 10
157.5
 20
0.0
 30
0.0
  0
POINT
  5
1128
330
352A
100
AcDbEntity
  8
DEFPOINTS
 62
     0
100
AcDbPoint
 10
157.5
 20
225.5794621189598
 30
0.0
  0
ENDBLK
  5
111F
330
352A
100
AcDbEntity
  8
0
100
AcDbBlockEnd
  0
BLOCK
  5
352D
330
352C
100
AcDbEntity
  8
0
100
AcDbBlockBegin
  2
*U13
 70
     1
 10
0.0
 20
0.0
 30
0.0
  3
*U13
  1

  0
TEXT
  5
1EDD
330
352C
100
AcDbEntity
  8
SIZE
 62
     0
100
AcDbText
 10
-68.57142857142857
 20
235.5794621189599
 30
0.0
 40
64.0
  1
315
 41
0.9
100
AcDbText
  0
ENDBLK
  5
1EDF
330
352C
100
AcDbEntity
  8
0
100
AcDbBlockEnd
  0
BLOCK
  5
352F
330
352E
100
AcDbEntity
  8
0
100
AcDbBlockBegin
  2
*D14
 70
     1
 10
0.0
 20
0.0
 30
0.0
  3
*D14
  1

  0
LINE
  5
11BD
330
352E
100
AcDbEntity
  8
NOTE
 62
     0
100
AcDbLine
 10
-123.4999999999999
 20
-320.0
 30
0.0
 11
-123.4999999999999
 21
-354.9529861856111
 31
0.0
  0
LINE
  5
11BE
330
352E
100
AcDbEntity
  8
NOTE
 62
     0
100
AcDbLine
 10
-133.4999999999998
 20
-331.2126909923287
 30
0.0
 11
-133.4999999999998
 21
-354.9529861856111
 31
0.0
  0
LINE
  5
11BF
330
352E
100
AcDbEntity
  8
NOTE
 62
     0
100
AcDbLine
 10
-111.4999999999999
 20
-334.9529861856112
 30
0.0
 11
-99.4999999999999
 21
-334.9529861856112
 31
0.0
  0
LINE
  5
11C0
330
352E
100
AcDbEntity
  8
NOTE
 62
     0
100
AcDbLine
 10
-145.4999999999998
 20
-334.9529861856112
 30
0.0
 11
-157.4999999999998
 21
-334.9529861856112
 31
0.0
  0
LINE
  5
11C1
330
352E
100
AcDbEntity
  8
NOTE
 62
     0
100
AcDbLine
 10
-123.4999999999999
 20
-334.9529861856112
 30
0.0
 11
-133.4999999999998
 21
-334.9529861856112
 31
0.0
  0
INSERT
  5
11C2
330
352E
100
AcDbEntity
  8
NOTE
 62
     0
100
AcDbBlockReference
  2
_DOTBLANK
 10
-123.4999999999999
 20
-334.9529861856112
 30
0.0
 41
12.0
 42
12.0
 43
12.0
 50
180.0
  0
INSERT
  5
11C3
330
352E
100
AcDbEntity
  8
NOTE
 62
     0
100
AcDbBlockReference
  2
_DOTBLANK
 10
-133.4999999999998
 20
-334.9529861856112
 30
0.0
 41
12.0
 42
12.0
 43
12.0
  0
INSERT
  5
11C4
330
352E
100
AcDbEntity
  8
0
100
AcDbBlockReference
  2
*U15
 10
0.0
 20
0.0
 30
0.0
  0
POINT
  5
11C5
330
352E
100
AcDbEntity
  8
DEFPOINTS
 62
     0
100
AcDbPoint
 10
-123.4999999999999
 20
-300.0
 30
0.0
  0
POINT
  5
11C6
330
352E
100
AcDbEntity
  8
DEFPOINTS
 62
     0
100
AcDbPoint
 10
-133.4999999999998
 20
-311.2126909923287
 30
0.0
  0
POINT
  5
11C7
330
352E
100
AcDbEntity
  8
DEFPOINTS
 62
     0
100
AcDbPoint
 10
-133.4999999999998
 20
-334.9529861856112
 30
0.0
  0
ENDBLK
  5
11BC
330
352E
100
AcDbEntity
  8
0
100
AcDbBlockEnd
  0
BLOCK
  5
3531
330
3530
100
AcDbEntity
  8
0
100
AcDbBlockBegin
  2
*U15
 70
     1
 10
0.0
 20
0.0
 30
0.0
  3
*U15
  1

  0
TEXT
  5
1EE5
330
3530
100
AcDbEntity
  8
NOTE
 62
     0
100
AcDbText
 10
-169.642857142857
 20
-324.9529861856112
 30
0.0
 40
64.0
  1
10
 41
0.9
100
AcDbText
  0
ENDBLK
  5
1EE7
330
3530
100
AcDbEntity
  8
0
100
AcDbBlockEnd
  0
BLOCK
  5
3533
330
3532
100
AcDbEntity
  8
0
100
AcDbBlockBegin
  2
*D16
 70
     1
 10
0.0
 20
0.0
 30
0.0
  3
*D16
  1

  0
LINE
  5
11E7
330
3532
100
AcDbEntity
  8
NOTE
 62
     0
100
AcDbLine
 10
-135.5
 20
-333.2126909923287
 30
0.0
 11
-135.5
 21
-386.2569421441843
 31
0.0
  0
LINE
  5
11E8
330
3532
100
AcDbEntity
  8
NOTE
 62
     0
100
AcDbLine
 10
-123.4999999999999
 20
-320.0
 30
0.0
 11
-123.4999999999999
 21
-386.2569421441843
 31
0.0
  0
LINE
  5
11E9
330
3532
100
AcDbEntity
  8
NOTE
 62
     0
100
AcDbLine
 10
-147.5
 20
-366.2569421441844
 30
0.0
 11
-159.5
 21
-366.2569421441844
 31
0.0
  0
LINE
  5
11EA
330
3532
100
AcDbEntity
  8
NOTE
 62
     0
100
AcDbLine
 10
-111.4999999999999
 20
-366.2569421441844
 30
0.0
 11
-99.4999999999999
 21
-366.2569421441844
 31
0.0
  0
LINE
  5
11EB
330
3532
100
AcDbEntity
  8
NOTE
 62
     0
100
AcDbLine
 10
-135.5
 20
-366.2569421441844
 30
0.0
 11
-123.4999999999999
 21
-366.2569421441844
 31
0.0
  0
INSERT
  5
11EC
330
3532
100
AcDbEntity
  8
NOTE
 62
     0
100
AcDbBlockReference
  2
_DOTBLANK
 10
-135.5
 20
-366.2569421441844
 30
0.0
 41
12.0
 42
12.0
 43
12.0
  0
INSERT
  5
11ED
330
3532
100
AcDbEntity
  8
NOTE
 62
     0
100
AcDbBlockReference
  2
_DOTBLANK
 10
-123.4999999999999
 20
-366.2569421441844
 30
0.0
 41
12.0
 42
12.0
 43
12.0
 50
180.0
  0
INSERT
  5
11EE
330
3532
100
AcDbEntity
  8
0
100
AcDbBlockReference
  2
*U17
 10
0.0
 20
0.0
 30
0.0
  0
POINT
  5
11EF
330
3532
100
AcDbEntity
  8
DEFPOINTS
 62
     0
100
AcDbPoint
 10
-135.5
 20
-313.2126909923287
 30
0.0
  0
POINT
  5
11F0
330
3532
100
AcDbEntity
  8
DEFPOINTS
 62
     0
100
AcDbPoint
 10
-123.4999999999999
 20
-300.0
 30
0.0
  0
POINT
  5
11F1
330
3532
100
AcDbEntity
  8
DEFPOINTS
 62
     0
100
AcDbPoint
 10
-123.4999999999999
 20
-366.2569421441844
 30
0.0
  0
ENDBLK
  5
11E6
330
3532
100
AcDbEntity
  8
0
100
AcDbBlockEnd
  0
BLOCK
  5
3535
330
3534
100
AcDbEntity
  8
0
100
AcDbBlockBegin
  2
*U17
 70
     1
 10
0.0
 20
0.0
 30
0.0
  3
*U17
  1

  0
TEXT
  5
1EE9
330
3534
100
AcDbEntity
  8
NOTE
 62
     0
100
AcDbText
 10
-170.642857142857
 20
-356.2569421441843
 30
0.0
 40
64.0
  1
12
 41
0.9
100
AcDbText
  0
ENDBLK
  5
1EEB
330
3534
100
AcDbEntity
  8
0
100
AcDbBlockEnd
  0
BLOCK
  5
3537
330
3536
100
AcDbEntity
  8
0
100
AcDbBlockBegin
  2
*D18
 70
     1
 10
0.0
 20
0.0
 30
0.0
  3
*D18
  1

  0
LINE
  5
11F6
330
3536
100
AcDbEntity
  8
NOTE
 62
     0
100
AcDbLine
 10
-123.4999999999999
 20
-320.0
 30
0.0
 11
-123.4999999999999
 21
-583.8286022818904
 31
0.0
  0
LINE
  5
11F7
330
3536
100
AcDbEntity
  8
NOTE
 62
     0
100
AcDbLine
 10
123.5
 20
-320.0
 30
0.0
 11
123.5
 21
-583.8286022818904
 31
0.0
  0
LINE
  5
11F8
330
3536
100
AcDbEntity
  8
NOTE
 62
     0
100
AcDbLine
 10
-111.4999999999999
 20
-563.8286022818904
 30
0.0
 11
111.5
 21
-563.8286022818904
 31
0.0
  0
INSERT
  5
11F9
330
3536
100
AcDbEntity
  8
NOTE
 62
     0
100
AcDbBlockReference
  2
_DOTBLANK
 10
-123.4999999999999
 20
-563.8286022818904
 30
0.0
 41
12.0
 42
12.0
 43
12.0
 50
180.0
  0
INSERT
  5
11FA
330
3536
100
AcDbEntity
  8
NOTE
 62
     0
100
AcDbBlockReference
  2
_DOTBLANK
 10
123.5
 20
-563.8286022818904
 30
0.0
 41
12.0
 42
12.0
 43
12.0
  0
INSERT
  5
11FB
330
3536
100
AcDbEntity
  8
0
100
AcDbBlockReference
  2
*U19
 10
0.0
 20
0.0
 30
0.0
  0
POINT
  5
11FC
330
3536
100
AcDbEntity
  8
DEFPOINTS
 62
     0
100
AcDbPoint
 10
-123.4999999999999
 20
-300.0
 30
0.0
  0
POINT
  5
11FD
330
3536
100
AcDbEntity
  8
DEFPOINTS
 62
     0
100
AcDbPoint
 10
123.5
 20
-300.0
 30
0.0
  0
POINT
  5
11FE
330
3536
100
AcDbEntity
  8
DEFPOINTS
 62
     0
100
AcDbPoint
 10
123.5
 20
-563.8286022818904
 30
0.0
  0
ENDBLK
  5
11F5
330
3536
100
AcDbEntity
  8
0
100
AcDbBlockEnd
  0
BLOCK
  5
3539
330
3538
100
AcDbEntity
  8
0
100
AcDbBlockBegin
  2
*U19
 70
     1
 10
0.0
 20
0.0
 30
0.0
  3
*U19
  1

  0
TEXT
  5
1EED
330
3538
100
AcDbEntity
  8
NOTE
 62
     0
100
AcDbText
 10
-74.05714285714281
 20
-553.8286022818904
 30
0.0
 40
64.0
  1
247
 41
0.9
100
AcDbText
  0
ENDBLK
  5
1EEF
330
3538
100
AcDbEntity
  8
0
100
AcDbBlockEnd
  0
BLOCK
  5
353B
330
353A
100
AcDbEntity
  8
0
100
AcDbBlockBegin
  2
*D20
 70
     1
 10
0.0
 20
0.0
 30
0.0
  3
*D20
  1

  0
LINE
  5
1284
330
353A
100
AcDbEntity
  8
NOTE
 62
     0
100
AcDbLine
 10
-123.5
 20
12.0
 30
0.0
 11
-123.5
 21
71.83630134534229
 31
0.0
  0
LINE
  5
1285
330
353A
100
AcDbEntity
  8
NOTE
 62
     0
100
AcDbLine
 10
123.5
 20
12.0
 30
0.0
 11
123.5
 21
71.83630134534229
 31
0.0
  0
LINE
  5
1286
330
353A
100
AcDbEntity
  8
NOTE
 62
     0
100
AcDbLine
 10
-111.5
 20
51.83630134534229
 30
0.0
 11
111.5
 21
51.83630134534229
 31
0.0
  0
INSERT
  5
1287
330
353A
100
AcDbEntity
  8
NOTE
 62
     0
100
AcDbBlockReference
  2
_DOTBLANK
 10
-123.5
 20
51.83630134534229
 30
0.0
 41
12.0
 42
12.0
 43
12.0
 50
180.0
  0
INSERT
  5
1288
330
353A
100
AcDbEntity
  8
NOTE
 62
     0
100
AcDbBlockReference
  2
_DOTBLANK
 10
123.5
 20
51.83630134534229
 30
0.0
 41
12.0
 42
12.0
 43
12.0
  0
INSERT
  5
1289
330
353A
100
AcDbEntity
  8
0
100
AcDbBlockReference
  2
*U21
 10
0.0
 20
0.0
 30
0.0
  0
POINT
  5
128A
330
353A
100
AcDbEntity
  8
DEFPOINTS
 62
     0
100
AcDbPoint
 10
-123.5
 20
-8.0
 30
0.0
  0
POINT
  5
128B
330
353A
100
AcDbEntity
  8
DEFPOINTS
 62
     0
100
AcDbPoint
 10
123.5
 20
-8.0
 30
0.0
  0
POINT
  5
128C
330
353A
100
AcDbEntity
  8
DEFPOINTS
 62
     0
100
AcDbPoint
 10
123.5
 20
51.83630134534229
 30
0.0
  0
ENDBLK
  5
1283
330
353A
100
AcDbEntity
  8
0
100
AcDbBlockEnd
  0
BLOCK
  5
353D
330
353C
100
AcDbEntity
  8
0
100
AcDbBlockBegin
  2
*U21
 70
     1
 10
0.0
 20
0.0
 30
0.0
  3
*U21
  1

  0
TEXT
  5
1EF1
330
353C
100
AcDbEntity
  8
NOTE
 62
     0
100
AcDbText
 10
-74.05714285714283
 20
61.83630134534229
 30
0.0
 40
64.0
  1
247
 41
0.9
100
AcDbText
  0
ENDBLK
  5
1EF3
330
353C
100
AcDbEntity
  8
0
100
AcDbBlockEnd
  0
BLOCK
  5
353F
330
353E
100
AcDbEntity
  8
0
100
AcDbBlockBegin
  2
*D22
 70
     1
 10
0.0
 20
0.0
 30
0.0
  3
*D22
  1

  0
LINE
  5
1414
330
353E
100
AcDbEntity
  8
SIZE
 62
     0
100
AcDbLine
 10
-22313.11521613997
 20
7365.702971374808
 30
0.0
 11
-22313.11521613997
 21
7217.685576144207
 31
0.0
  0
LINE
  5
1415
330
353E
100
AcDbEntity
  8
SIZE
 62
     0
100
AcDbLine
 10
-22044.11521613997
 20
7365.702971374808
 30
0.0
 11
-22044.11521613997
 21
7217.685576144207
 31
0.0
  0
LINE
  5
1416
330
353E
100
AcDbEntity
  8
SIZE
 62
     0
100
AcDbLine
 10
-22301.11521613997
 20
7237.685576144207
 30
0.0
 11
-22056.11521613997
 21
7237.685576144207
 31
0.0
  0
INSERT
  5
1417
330
353E
100
AcDbEntity
  8
SIZE
 62
     0
100
AcDbBlockReference
  2
_DOTBLANK
 10
-22313.11521613997
 20
7237.685576144207
 30
0.0
 41
12.0
 42
12.0
 43
12.0
 50
180.0
  0
INSERT
  5
1418
330
353E
100
AcDbEntity
  8
SIZE
 62
     0
100
AcDbBlockReference
  2
_DOTBLANK
 10
-22044.11521613997
 20
7237.685576144207
 30
0.0
 41
12.0
 42
12.0
 43
12.0
  0
INSERT
  5
1419
330
353E
100
AcDbEntity
  8
0
100
AcDbBlockReference
  2
*U23
 10
0.0
 20
0.0
 30
0.0
  0
POINT
  5
141A
330
353E
100
AcDbEntity
  8
DEFPOINTS
 62
     0
100
AcDbPoint
 10
-22313.11521613997
 20
7385.702971374808
 30
0.0
  0
POINT
  5
141B
330
353E
100
AcDbEntity
  8
DEFPOINTS
 62
     0
100
AcDbPoint
 10
-22044.11521613997
 20
7385.702971374808
 30
0.0
  0
POINT
  5
141C
330
353E
100
AcDbEntity
  8
DEFPOINTS
 62
     0
100
AcDbPoint
 10
-22044.11521613997
 20
7237.685576144207
 30
0.0
  0
ENDBLK
  5
141D
330
353E
100
AcDbEntity
  8
0
100
AcDbBlockEnd
  0
BLOCK
  5
3541
330
3540
100
AcDbEntity
  8
0
100
AcDbBlockBegin
  2
*U23
 70
     1
 10
0.0
 20
0.0
 30
0.0
  3
*U23
  1

  0
TEXT
  5
1EF9
330
3540
100
AcDbEntity
  8
SIZE
 62
     0
100
AcDbText
 10
-22251.30093042568
 20
7247.685576144205
 30
0.0
 40
64.0
  1
269
 41
0.9
100
AcDbText
  0
ENDBLK
  5
1EFB
330
3540
100
AcDbEntity
  8
0
100
AcDbBlockEnd
  0
BLOCK
  5
3543
330
3542
100
AcDbEntity
  8
0
100
AcDbBlockBegin
  2
*D24
 70
     1
 10
0.0
 20
0.0
 30
0.0
  3
*D24
  1

  0
LINE
  5
1420
330
3542
100
AcDbEntity
  8
SIZE
  6
Continuous
 62
     0
100
AcDbLine
 10
-22035.11521613997
 20
7385.702971374808
 30
0.0
 11
-21873.97193165959
 21
7385.702971374808
 31
0.0
  0
LINE
  5
1421
330
3542
100
AcDbEntity
  8
SIZE
  6
Continuous
 62
     0
100
AcDbLine
 10
-22001.11521613997
 20
7685.702971374808
 30
0.0
 11
-21873.97193165959
 21
7685.702971374808
 31
0.0
  0
LINE
  5
1422
330
3542
100
AcDbEntity
  8
SIZE
  6
Continuous
 62
     0
100
AcDbLine
 10
-21893.97193165959
 20
7397.702971374808
 30
0.0
 11
-21893.97193165959
 21
7673.702971374808
 31
0.0
  0
INSERT
  5
1423
330
3542
100
AcDbEntity
  8
SIZE
  6
Continuous
 62
     0
100
AcDbBlockReference
  2
_DOTBLANK
 10
-21893.97193165959
 20
7385.702971374808
 30
0.0
 41
12.0
 42
12.0
 43
12.0
 50
270.0
  0
INSERT
  5
1424
330
3542
100
AcDbEntity
  8
SIZE
  6
Continuous
 62
     0
100
AcDbBlockReference
  2
_DOTBLANK
 10
-21893.97193165959
 20
7685.702971374808
 30
0.0
 41
12.0
 42
12.0
 43
12.0
 50
90.0
  0
INSERT
  5
1425
330
3542
100
AcDbEntity
  8
0
100
AcDbBlockReference
  2
*U25
 10
0.0
 20
0.0
 30
0.0
  0
POINT
  5
1426
330
3542
100
AcDbEntity
  8
DEFPOINTS
  6
Continuous
 62
     0
100
AcDbPoint
 10
-22055.11521613997
 20
7385.702971374808
 30
0.0
  0
POINT
  5
1427
330
3542
100
AcDbEntity
  8
DEFPOINTS
  6
Continuous
 62
     0
100
AcDbPoint
 10
-22021.11521613997
 20
7685.702971374808
 30
0.0
  0
POINT
  5
1428
330
3542
100
AcDbEntity
  8
DEFPOINTS
  6
Continuous
 62
     0
100
AcDbPoint
 10
-21893.97193165959
 20
7685.702971374808
 30
0.0
  0
ENDBLK
  5
1429
330
3542
100
AcDbEntity
  8
0
100
AcDbBlockEnd
  0
BLOCK
  5
3545
330
3544
100
AcDbEntity
  8
0
100
AcDbBlockBegin
  2
*U25
 70
     1
 10
0.0
 20
0.0
 30
0.0
  3
*U25
  1

  0
TEXT
  5
1EFD
330
3544
100
AcDbEntity
  8
SIZE
 62
     0
100
AcDbText
 10
-21903.97193165959
 20
7461.645828517662
 30
0.0
 40
64.0
  1
300
 50
90.0
 41
0.9
100
AcDbText
  0
ENDBLK
  5
1EFF
330
3544
100
AcDbEntity
  8
0
100
AcDbBlockEnd
  0
BLOCK
  5
3547
330
3546
100
AcDbEntity
  8
0
100
AcDbBlockBegin
  2
*D26
 70
     1
 10
0.0
 20
0.0
 30
0.0
  3
*D26
  1

  0
LINE
  5
142C
330
3546
100
AcDbEntity
  8
SIZE
 62
     0
100
AcDbLine
 10
-22318.61521613997
 20
7718.167454177002
 30
0.0
 11
-22318.61521613997
 21
7822.154659243358
 31
0.0
  0
LINE
  5
142D
330
3546
100
AcDbEntity
  8
SIZE
 62
     0
100
AcDbLine
 10
-22038.61521613997
 20
7718.167454177002
 30
0.0
 11
-22038.61521613997
 21
7822.154659243358
 31
0.0
  0
LINE
  5
142E
330
3546
100
AcDbEntity
  8
SIZE
 62
     0
100
AcDbLine
 10
-22306.61521613997
 20
7802.154659243358
 30
0.0
 11
-22050.61521613997
 21
7802.154659243358
 31
0.0
  0
INSERT
  5
142F
330
3546
100
AcDbEntity
  8
SIZE
 62
     0
100
AcDbBlockReference
  2
_DOTBLANK
 10
-22318.61521613997
 20
7802.154659243358
 30
0.0
 41
12.0
 42
12.0
 43
12.0
 50
180.0
  0
INSERT
  5
1430
330
3546
100
AcDbEntity
  8
SIZE
 62
     0
100
AcDbBlockReference
  2
_DOTBLANK
 10
-22038.61521613997
 20
7802.154659243358
 30
0.0
 41
12.0
 42
12.0
 43
12.0
  0
INSERT
  5
1431
330
3546
100
AcDbEntity
  8
0
100
AcDbBlockReference
  2
*U27
 10
0.0
 20
0.0
 30
0.0
  0
POINT
  5
1432
330
3546
100
AcDbEntity
  8
DEFPOINTS
 62
     0
100
AcDbPoint
 10
-22318.61521613997
 20
7698.167454177002
 30
0.0
  0
POINT
  5
1433
330
3546
100
AcDbEntity
  8
DEFPOINTS
 62
     0
100
AcDbPoint
 10
-22038.61521613997
 20
7698.167454177002
 30
0.0
  0
POINT
  5
1434
330
3546
100
AcDbEntity
  8
DEFPOINTS
 62
     0
100
AcDbPoint
 10
-22038.61521613997
 20
7802.154659243358
 30
0.0
  0
ENDBLK
  5
1435
330
3546
100
AcDbEntity
  8
0
100
AcDbBlockEnd
  0
BLOCK
  5
3549
330
3548
100
AcDbEntity
  8
0
100
AcDbBlockBegin
  2
*U27
 70
     1
 10
0.0
 20
0.0
 30
0.0
  3
*U27
  1

  0
TEXT
  5
1F01
330
3548
100
AcDbEntity
  8
SIZE
 62
     0
100
AcDbText
 10
-22252.6723589971
 20
7812.154659243358
 30
0.0
 40
64.0
  1
280
 41
0.9
100
AcDbText
  0
ENDBLK
  5
1F03
330
3548
100
AcDbEntity
  8
0
100
AcDbBlockEnd
  0
BLOCK
  5
354B
330
354A
100
AcDbEntity
  8
0
100
AcDbBlockBegin
  2
*D28
 70
     1
 10
0.0
 20
0.0
 30
0.0
  3
*D28
  1

  0
LINE
  5
1438
330
354A
100
AcDbEntity
  8
SIZE
 62
     0
100
AcDbLine
 10
-22336.11521613997
 20
7705.702971374808
 30
0.0
 11
-22336.11521613997
 21
7931.282433493766
 31
0.0
  0
LINE
  5
1439
330
354A
100
AcDbEntity
  8
SIZE
 62
     0
100
AcDbLine
 10
-22021.11521613997
 20
7705.702971374808
 30
0.0
 11
-22021.11521613997
 21
7931.282433493766
 31
0.0
  0
LINE
  5
143A
330
354A
100
AcDbEntity
  8
SIZE
 62
     0
100
AcDbLine
 10
-22324.11521613997
 20
7911.282433493766
 30
0.0
 11
-22033.11521613997
 21
7911.282433493766
 31
0.0
  0
INSERT
  5
143B
330
354A
100
AcDbEntity
  8
SIZE
 62
     0
100
AcDbBlockReference
  2
_DOTBLANK
 10
-22336.11521613997
 20
7911.282433493766
 30
0.0
 41
12.0
 42
12.0
 43
12.0
 50
180.0
  0
INSERT
  5
143C
330
354A
100
AcDbEntity
  8
SIZE
 62
     0
100
AcDbBlockReference
  2
_DOTBLANK
 10
-22021.11521613997
 20
7911.282433493766
 30
0.0
 41
12.0
 42
12.0
 43
12.0
  0
INSERT
  5
143D
330
354A
100
AcDbEntity
  8
0
100
AcDbBlockReference
  2
*U29
 10
0.0
 20
0.0
 30
0.0
  0
POINT
  5
143E
330
354A
100
AcDbEntity
  8
DEFPOINTS
 62
     0
100
AcDbPoint
 10
-22336.11521613997
 20
7685.702971374808
 30
0.0
  0
POINT
  5
143F
330
354A
100
AcDbEntity
  8
DEFPOINTS
 62
     0
100
AcDbPoint
 10
-22021.11521613997
 20
7685.702971374808
 30
0.0
  0
POINT
  5
1440
330
354A
100
AcDbEntity
  8
DEFPOINTS
 62
     0
100
AcDbPoint
 10
-22021.11521613997
 20
7911.282433493766
 30
0.0
  0
ENDBLK
  5
1441
330
354A
100
AcDbEntity
  8
0
100
AcDbBlockEnd
  0
BLOCK
  5
354D
330
354C
100
AcDbEntity
  8
0
100
AcDbBlockBegin
  2
*U29
 70
     1
 10
0.0
 20
0.0
 30
0.0
  3
*U29
  1

  0
TEXT
  5
1F05
330
354C
100
AcDbEntity
  8
SIZE
 62
     0
100
AcDbText
 10
-22247.18664471139
 20
7921.282433493766
 30
0.0
 40
64.0
  1
315
 41
0.9
100
AcDbText
  0
ENDBLK
  5
1F07
330
354C
100
AcDbEntity
  8
0
100
AcDbBlockEnd
  0
BLOCK
  5
354F
330
354E
100
AcDbEntity
  8
0
100
AcDbBlockBegin
  2
*D30
 70
     1
 10
0.0
 20
0.0
 30
0.0
  3
*D30
  1

  0
LINE
  5
166B
330
354E
100
AcDbEntity
  8
SIZE
 62
     0
100
AcDbLine
 10
-134.5
 20
-320.0
 30
0.0
 11
-134.5
 21
-468.0173952306001
 31
0.0
  0
LINE
  5
166C
330
354E
100
AcDbEntity
  8
SIZE
 62
     0
100
AcDbLine
 10
134.5
 20
-320.0
 30
0.0
 11
134.5
 21
-468.0173952306001
 31
0.0
  0
LINE
  5
166D
330
354E
100
AcDbEntity
  8
SIZE
 62
     0
100
AcDbLine
 10
-122.5
 20
-448.0173952306
 30
0.0
 11
122.5
 21
-448.0173952306
 31
0.0
  0
INSERT
  5
166E
330
354E
100
AcDbEntity
  8
SIZE
 62
     0
100
AcDbBlockReference
  2
_DOTBLANK
 10
-134.5
 20
-448.0173952306
 30
0.0
 41
12.0
 42
12.0
 43
12.0
 50
180.0
  0
INSERT
  5
166F
330
354E
100
AcDbEntity
  8
SIZE
 62
     0
100
AcDbBlockReference
  2
_DOTBLANK
 10
134.5
 20
-448.0173952306
 30
0.0
 41
12.0
 42
12.0
 43
12.0
  0
INSERT
  5
1670
330
354E
100
AcDbEntity
  8
0
100
AcDbBlockReference
  2
*U31
 10
0.0
 20
0.0
 30
0.0
  0
POINT
  5
1671
330
354E
100
AcDbEntity
  8
DEFPOINTS
 62
     0
100
AcDbPoint
 10
-134.5
 20
-300.0
 30
0.0
  0
POINT
  5
1672
330
354E
100
AcDbEntity
  8
DEFPOINTS
 62
     0
100
AcDbPoint
 10
134.5
 20
-300.0
 30
0.0
  0
POINT
  5
1673
330
354E
100
AcDbEntity
  8
DEFPOINTS
 62
     0
100
AcDbPoint
 10
134.5
 20
-448.0173952306
 30
0.0
  0
ENDBLK
  5
14A7
330
354E
100
AcDbEntity
  8
0
100
AcDbBlockEnd
  0
BLOCK
  5
3551
330
3550
100
AcDbEntity
  8
0
100
AcDbBlockBegin
  2
*U31
 70
     1
 10
0.0
 20
0.0
 30
0.0
  3
*U31
  1

  0
TEXT
  5
1F09
330
3550
100
AcDbEntity
  8
SIZE
 62
     0
100
AcDbText
 10
-72.68571428571426
 20
-438.0173952306002
 30
0.0
 40
64.0
  1
269
 41
0.9
100
AcDbText
  0
ENDBLK
  5
1F0B
330
3550
100
AcDbEntity
  8
0
100
AcDbBlockEnd
  0
BLOCK
  5
3553
330
3552
100
AcDbEntity
  8
0
100
AcDbBlockBegin
  2
*D32
 70
     1
 10
0.0
 20
0.0
 30
0.0
  3
*D32
  1

  0
LINE
  5
1674
330
3552
100
AcDbEntity
  8
SIZE
  6
Continuous
 62
     0
100
AcDbLine
 10
143.5
 20
-300.0
 30
0.0
 11
304.6432844803784
 21
-300.0
 31
0.0
  0
LINE
  5
1675
330
3552
100
AcDbEntity
  8
SIZE
  6
Continuous
 62
     0
100
AcDbLine
 10
177.5
 20
-0.0000000000000057
 30
0.0
 11
304.6432844803785
 21
-0.0000000000000417
 31
0.0
  0
LINE
  5
1676
330
3552
100
AcDbEntity
  8
SIZE
  6
Continuous
 62
     0
100
AcDbLine
 10
284.6432844803784
 20
-288.0000000000001
 30
0.0
 11
284.6432844803785
 21
-12.00000000000003
 31
0.0
  0
INSERT
  5
1677
330
3552
100
AcDbEntity
  8
SIZE
  6
Continuous
 62
     0
100
AcDbBlockReference
  2
_DOTBLANK
 10
284.6432844803784
 20
-300.0
 30
0.0
 41
12.0
 42
12.0
 43
12.0
 50
270.0
  0
INSERT
  5
1678
330
3552
100
AcDbEntity
  8
SIZE
  6
Continuous
 62
     0
100
AcDbBlockReference
  2
_DOTBLANK
 10
284.6432844803785
 20
-0.000000000000036
 30
0.0
 41
12.0
 42
12.0
 43
12.0
 50
90.0
  0
INSERT
  5
1679
330
3552
100
AcDbEntity
  8
0
100
AcDbBlockReference
  2
*U33
 10
0.0
 20
0.0
 30
0.0
  0
POINT
  5
167A
330
3552
100
AcDbEntity
  8
DEFPOINTS
  6
Continuous
 62
     0
100
AcDbPoint
 10
123.5
 20
-300.0
 30
0.0
  0
POINT
  5
167B
330
3552
100
AcDbEntity
  8
DEFPOINTS
  6
Continuous
 62
     0
100
AcDbPoint
 10
157.5
 20
0.0
 30
0.0
  0
POINT
  5
167C
330
3552
100
AcDbEntity
  8
DEFPOINTS
  6
Continuous
 62
     0
100
AcDbPoint
 10
284.6432844803785
 20
-0.000000000000036
 30
0.0
  0
ENDBLK
  5
14B3
330
3552
100
AcDbEntity
  8
0
100
AcDbBlockEnd
  0
BLOCK
  5
3555
330
3554
100
AcDbEntity
  8
0
100
AcDbBlockBegin
  2
*U33
 70
     1
 10
0.0
 20
0.0
 30
0.0
  3
*U33
  1

  0
TEXT
  5
1F0D
330
3554
100
AcDbEntity
  8
SIZE
 62
     0
100
AcDbText
 10
274.6432844803785
 20
-224.0571428571429
 30
0.0
 40
64.0
  1
300
 50
90.0
 41
0.9
100
AcDbText
  0
ENDBLK
  5
1F0F
330
3554
100
AcDbEntity
  8
0
100
AcDbBlockEnd
  0
BLOCK
  5
3557
330
3556
100
AcDbEntity
  8
0
100
AcDbBlockBegin
  2
*D34
 70
     1
 10
0.0
 20
0.0
 30
0.0
  3
*D34
  1

  0
LINE
  5
167D
330
3556
100
AcDbEntity
  8
SIZE
 62
     0
100
AcDbLine
 10
-140.0
 20
32.46448280219375
 30
0.0
 11
-140.0
 21
136.4516878685507
 31
0.0
  0
LINE
  5
167E
330
3556
100
AcDbEntity
  8
SIZE
 62
     0
100
AcDbLine
 10
140.0
 20
32.46448280219375
 30
0.0
 11
140.0
 21
136.4516878685507
 31
0.0
  0
LINE
  5
167F
330
3556
100
AcDbEntity
  8
SIZE
 62
     0
100
AcDbLine
 10
-128.0
 20
116.4516878685508
 30
0.0
 11
128.0
 21
116.4516878685508
 31
0.0
  0
INSERT
  5
1680
330
3556
100
AcDbEntity
  8
SIZE
 62
     0
100
AcDbBlockReference
  2
_DOTBLANK
 10
-140.0
 20
116.4516878685508
 30
0.0
 41
12.0
 42
12.0
 43
12.0
 50
180.0
  0
INSERT
  5
1681
330
3556
100
AcDbEntity
  8
SIZE
 62
     0
100
AcDbBlockReference
  2
_DOTBLANK
 10
140.0
 20
116.4516878685508
 30
0.0
 41
12.0
 42
12.0
 43
12.0
  0
INSERT
  5
1682
330
3556
100
AcDbEntity
  8
0
100
AcDbBlockReference
  2
*U35
 10
0.0
 20
0.0
 30
0.0
  0
POINT
  5
1683
330
3556
100
AcDbEntity
  8
DEFPOINTS
 62
     0
100
AcDbPoint
 10
-140.0
 20
12.46448280219374
 30
0.0
  0
POINT
  5
1684
330
3556
100
AcDbEntity
  8
DEFPOINTS
 62
     0
100
AcDbPoint
 10
140.0
 20
12.46448280219374
 30
0.0
  0
POINT
  5
1685
330
3556
100
AcDbEntity
  8
DEFPOINTS
 62
     0
100
AcDbPoint
 10
140.0
 20
116.4516878685508
 30
0.0
  0
ENDBLK
  5
14BF
330
3556
100
AcDbEntity
  8
0
100
AcDbBlockEnd
  0
BLOCK
  5
3559
330
3558
100
AcDbEntity
  8
0
100
AcDbBlockBegin
  2
*U35
 70
     1
 10
0.0
 20
0.0
 30
0.0
  3
*U35
  1

  0
TEXT
  5
1F11
330
3558
100
AcDbEntity
  8
SIZE
 62
     0
100
AcDbText
 10
-74.05714285714283
 20
126.4516878685507
 30
0.0
 40
64.0
  1
280
 41
0.9
100
AcDbText
  0
ENDBLK
  5
1F13
330
3558
100
AcDbEntity
  8
0
100
AcDbBlockEnd
  0
BLOCK
  5
355B
330
355A
100
AcDbEntity
  8
0
100
AcDbBlockBegin
  2
*D36
 70
     1
 10
0.0
 20
0.0
 30
0.0
  3
*D36
  1

  0
LINE
  5
1686
330
355A
100
AcDbEntity
  8
SIZE
 62
     0
100
AcDbLine
 10
-157.5
 20
20.0
 30
0.0
 11
-157.5
 21
245.5794621189598
 31
0.0
  0
LINE
  5
1687
330
355A
100
AcDbEntity
  8
SIZE
 62
     0
100
AcDbLine
 10
157.5
 20
20.0
 30
0.0
 11
157.5
 21
245.5794621189598
 31
0.0
  0
LINE
  5
1688
330
355A
100
AcDbEntity
  8
SIZE
 62
     0
100
AcDbLine
 10
-145.5
 20
225.5794621189598
 30
0.0
 11
145.5
 21
225.5794621189598
 31
0.0
  0
INSERT
  5
1689
330
355A
100
AcDbEntity
  8
SIZE
 62
     0
100
AcDbBlockReference
  2
_DOTBLANK
 10
-157.5
 20
225.5794621189598
 30
0.0
 41
12.0
 42
12.0
 43
12.0
 50
180.0
  0
INSERT
  5
168A
330
355A
100
AcDbEntity
  8
SIZE
 62
     0
100
AcDbBlockReference
  2
_DOTBLANK
 10
157.5
 20
225.5794621189598
 30
0.0
 41
12.0
 42
12.0
 43
12.0
  0
INSERT
  5
168B
330
355A
100
AcDbEntity
  8
0
100
AcDbBlockReference
  2
*U37
 10
0.0
 20
0.0
 30
0.0
  0
POINT
  5
168C
330
355A
100
AcDbEntity
  8
DEFPOINTS
 62
     0
100
AcDbPoint
 10
-157.5
 20
0.0
 30
0.0
  0
POINT
  5
168D
330
355A
100
AcDbEntity
  8
DEFPOINTS
 62
     0
100
AcDbPoint
 10
157.5
 20
0.0
 30
0.0
  0
POINT
  5
168E
330
355A
100
AcDbEntity
  8
DEFPOINTS
 62
     0
100
AcDbPoint
 10
157.5
 20
225.5794621189598
 30
0.0
  0
ENDBLK
  5
14CB
330
355A
100
AcDbEntity
  8
0
100
AcDbBlockEnd
  0
BLOCK
  5
355D
330
355C
100
AcDbEntity
  8
0
100
AcDbBlockBegin
  2
*U37
 70
     1
 10
0.0
 20
0.0
 30
0.0
  3
*U37
  1

  0
TEXT
  5
1F15
330
355C
100
AcDbEntity
  8
SIZE
 62
     0
100
AcDbText
 10
-68.57142857142857
 20
235.5794621189598
 30
0.0
 40
64.0
  1
315
 41
0.9
100
AcDbText
  0
ENDBLK
  5
1F17
330
355C
100
AcDbEntity
  8
0
100
AcDbBlockEnd
  0
BLOCK
  5
355F
330
355E
100
AcDbEntity
  8
0
100
AcDbBlockBegin
  2
*U38
 70
     1
 10
0.0
 20
0.0
 30
0.0
  3
*U38
  1

  0
ENDBLK
  5
15CF
330
355E
100
AcDbEntity
  8
0
100
AcDbBlockEnd
  0
BLOCK
  5
3561
330
3560
100
AcDbEntity
  8
0
100
AcDbBlockBegin
  2
*D39
 70
     1
 10
0.0
 20
0.0
 30
0.0
  3
*D39
  1

  0
LINE
  5
1692
330
3560
100
AcDbEntity
  8
SIZE
 62
     0
100
AcDbLine
 10
-25844.51823276502
 20
7685.702971374808
 30
0.0
 11
-25981.04465488371
 21
7685.702971374808
 31
0.0
  0
LINE
  5
1693
330
3560
100
AcDbEntity
  8
SIZE
 62
     0
100
AcDbLine
 10
-25844.51823276502
 20
7677.702971374808
 30
0.0
 11
-25981.04465488371
 21
7677.702971374808
 31
0.0
  0
LINE
  5
1694
330
3560
100
AcDbEntity
  8
SIZE
 62
     0
100
AcDbLine
 10
-25961.04465488371
 20
7697.702971374808
 30
0.0
 11
-25961.04465488371
 21
7709.702971374809
 31
0.0
  0
LINE
  5
1695
330
3560
100
AcDbEntity
  8
SIZE
 62
     0
100
AcDbLine
 10
-25961.04465488371
 20
7665.70297137481
 30
0.0
 11
-25961.04465488371
 21
7595.302971374808
 31
0.0
  0
INSERT
  5
1696
330
3560
100
AcDbEntity
  8
SIZE
 62
     0
100
AcDbBlockReference
  2
_DOTBLANK
 10
-25961.04465488371
 20
7685.702971374808
 30
0.0
 41
12.0
 42
12.0
 43
12.0
 50
270.0
  0
INSERT
  5
1697
330
3560
100
AcDbEntity
  8
SIZE
 62
     0
100
AcDbBlockReference
  2
_DOTBLANK
 10
-25961.04465488371
 20
7677.702971374808
 30
0.0
 41
12.0
 42
12.0
 43
12.0
 50
90.0
  0
INSERT
  5
1698
330
3560
100
AcDbEntity
  8
0
100
AcDbBlockReference
  2
*U40
 10
0.0
 20
0.0
 30
0.0
  0
POINT
  5
1699
330
3560
100
AcDbEntity
  8
DEFPOINTS
 62
     0
100
AcDbPoint
 10
-25824.51823276501
 20
7685.702971374808
 30
0.0
  0
POINT
  5
169A
330
3560
100
AcDbEntity
  8
DEFPOINTS
 62
     0
100
AcDbPoint
 10
-25824.51823276501
 20
7677.702971374808
 30
0.0
  0
POINT
  5
169B
330
3560
100
AcDbEntity
  8
DEFPOINTS
 62
     0
100
AcDbPoint
 10
-25961.04465488371
 20
7677.702971374808
 30
0.0
  0
ENDBLK
  5
169C
330
3560
100
AcDbEntity
  8
0
100
AcDbBlockEnd
  0
BLOCK
  5
3563
330
3562
100
AcDbEntity
  8
0
100
AcDbBlockBegin
  2
*U40
 70
     1
 10
0.0
 20
0.0
 30
0.0
  3
*U40
  1

  0
TEXT
  5
1F19
330
3562
100
AcDbEntity
  8
SIZE
 62
     0
100
AcDbText
 10
-25971.04465488371
 20
7605.302971374804
 30
0.0
 40
64.0
  1
8
 50
90.0
 41
0.9
100
AcDbText
  0
ENDBLK
  5
1F1B
330
3562
100
AcDbEntity
  8
0
100
AcDbBlockEnd
  0
BLOCK
  5
3565
330
3564
100
AcDbEntity
  8
0
100
AcDbBlockBegin
  2
*D41
 70
     1
 10
0.0
 20
0.0
 30
0.0
  3
*D41
  1

  0
LINE
  5
169F
330
3564
100
AcDbEntity
  8
SIZE
 62
     0
100
AcDbLine
 10
-25512.51823276502
 20
7385.702971374808
 30
0.0
 11
-25362.37494828464
 21
7385.702971374808
 31
0.0
  0
LINE
  5
16A0
330
3564
100
AcDbEntity
  8
SIZE
 62
     0
100
AcDbLine
 10
-25523.51823276501
 20
7373.702971374808
 30
0.0
 11
-25362.37494828464
 21
7373.702971374808
 31
0.0
  0
LINE
  5
16A1
330
3564
100
AcDbEntity
  8
SIZE
 62
     0
100
AcDbLine
 10
-25382.37494828464
 20
7397.702971374808
 30
0.0
 11
-25382.37494828464
 21
7409.70297137481
 31
0.0
  0
LINE
  5
16A2
330
3564
100
AcDbEntity
  8
SIZE
 62
     0
100
AcDbLine
 10
-25382.37494828464
 20
7361.702971374808
 30
0.0
 11
-25382.37494828464
 21
7244.674399946238
 31
0.0
  0
INSERT
  5
16A3
330
3564
100
AcDbEntity
  8
SIZE
 62
     0
100
AcDbBlockReference
  2
_DOTBLANK
 10
-25382.37494828464
 20
7385.702971374808
 30
0.0
 41
12.0
 42
12.0
 43
12.0
 50
270.0
  0
INSERT
  5
16A4
330
3564
100
AcDbEntity
  8
SIZE
 62
     0
100
AcDbBlockReference
  2
_DOTBLANK
 10
-25382.37494828464
 20
7373.702971374808
 30
0.0
 41
12.0
 42
12.0
 43
12.0
 50
90.0
  0
INSERT
  5
16A5
330
3564
100
AcDbEntity
  8
0
100
AcDbBlockReference
  2
*U42
 10
0.0
 20
0.0
 30
0.0
  0
POINT
  5
16A6
330
3564
100
AcDbEntity
  8
DEFPOINTS
 62
     0
100
AcDbPoint
 10
-25532.51823276502
 20
7385.702971374808
 30
0.0
  0
POINT
  5
16A7
330
3564
100
AcDbEntity
  8
DEFPOINTS
 62
     0
100
AcDbPoint
 10
-25543.51823276502
 20
7373.702971374808
 30
0.0
  0
POINT
  5
16A8
330
3564
100
AcDbEntity
  8
DEFPOINTS
 62
     0
100
AcDbPoint
 10
-25382.37494828464
 20
7373.702971374808
 30
0.0
  0
ENDBLK
  5
16A9
330
3564
100
AcDbEntity
  8
0
100
AcDbBlockEnd
  0
BLOCK
  5
3567
330
3566
100
AcDbEntity
  8
0
100
AcDbBlockBegin
  2
*U42
 70
     1
 10
0.0
 20
0.0
 30
0.0
  3
*U42
  1

  0
TEXT
  5
1F1D
330
3566
100
AcDbEntity
  8
SIZE
 62
     0
100
AcDbText
 10
-25392.37494828464
 20
7256.045828517662
 30
0.0
 40
64.0
  1
12
 50
90.0
 41
0.9
100
AcDbText
  0
ENDBLK
  5
1F1F
330
3566
100
AcDbEntity
  8
0
100
AcDbBlockEnd
  0
BLOCK
  5
3569
330
3568
100
AcDbEntity
  8
0
100
AcDbBlockBegin
  2
*D43
 70
     1
 10
0.0
 20
0.0
 30
0.0
  3
*D43
  1

  0
LINE
  5
16AC
330
3568
100
AcDbEntity
  8
SIZE
 62
     0
100
AcDbLine
 10
-25801.51823276501
 20
7365.702971374808
 30
0.0
 11
-25801.51823276501
 21
7217.685576144207
 31
0.0
  0
LINE
  5
16AD
330
3568
100
AcDbEntity
  8
SIZE
 62
     0
100
AcDbLine
 10
-25532.51823276502
 20
7365.702971374808
 30
0.0
 11
-25532.51823276502
 21
7217.685576144207
 31
0.0
  0
LINE
  5
16AE
330
3568
100
AcDbEntity
  8
SIZE
 62
     0
100
AcDbLine
 10
-25789.51823276502
 20
7237.685576144207
 30
0.0
 11
-25544.51823276501
 21
7237.685576144207
 31
0.0
  0
INSERT
  5
16AF
330
3568
100
AcDbEntity
  8
SIZE
 62
     0
100
AcDbBlockReference
  2
_DOTBLANK
 10
-25801.51823276501
 20
7237.685576144207
 30
0.0
 41
12.0
 42
12.0
 43
12.0
 50
180.0
  0
INSERT
  5
16B0
330
3568
100
AcDbEntity
  8
SIZE
 62
     0
100
AcDbBlockReference
  2
_DOTBLANK
 10
-25532.51823276502
 20
7237.685576144207
 30
0.0
 41
12.0
 42
12.0
 43
12.0
  0
INSERT
  5
16B1
330
3568
100
AcDbEntity
  8
0
100
AcDbBlockReference
  2
*U44
 10
0.0
 20
0.0
 30
0.0
  0
POINT
  5
16B2
330
3568
100
AcDbEntity
  8
DEFPOINTS
 62
     0
100
AcDbPoint
 10
-25801.51823276501
 20
7385.702971374808
 30
0.0
  0
POINT
  5
16B3
330
3568
100
AcDbEntity
  8
DEFPOINTS
 62
     0
100
AcDbPoint
 10
-25532.51823276502
 20
7385.702971374808
 30
0.0
  0
POINT
  5
16B4
330
3568
100
AcDbEntity
  8
DEFPOINTS
 62
     0
100
AcDbPoint
 10
-25532.51823276502
 20
7237.685576144207
 30
0.0
  0
ENDBLK
  5
16B5
330
3568
100
AcDbEntity
  8
0
100
AcDbBlockEnd
  0
BLOCK
  5
356B
330
356A
100
AcDbEntity
  8
0
100
AcDbBlockBegin
  2
*U44
 70
     1
 10
0.0
 20
0.0
 30
0.0
  3
*U44
  1

  0
TEXT
  5
1F21
330
356A
100
AcDbEntity
  8
SIZE
 62
     0
100
AcDbText
 10
-25739.70394705074
 20
7247.685576144205
 30
0.0
 40
64.0
  1
269
 41
0.9
100
AcDbText
  0
ENDBLK
  5
1F23
330
356A
100
AcDbEntity
  8
0
100
AcDbBlockEnd
  0
BLOCK
  5
356D
330
356C
100
AcDbEntity
  8
0
100
AcDbBlockBegin
  2
*D45
 70
     1
 10
0.0
 20
0.0
 30
0.0
  3
*D45
  1

  0
LINE
  5
16B8
330
356C
100
AcDbEntity
  8
SIZE
 62
     0
100
AcDbLine
 10
-25512.51823276502
 20
7385.702971374808
 30
0.0
 11
-25362.37494828464
 21
7385.702971374808
 31
0.0
  0
LINE
  5
16B9
330
356C
100
AcDbEntity
  8
SIZE
 62
     0
100
AcDbLine
 10
-25489.51823276501
 20
7685.702971374808
 30
0.0
 11
-25362.37494828464
 21
7685.702971374808
 31
0.0
  0
LINE
  5
16BA
330
356C
100
AcDbEntity
  8
SIZE
 62
     0
100
AcDbLine
 10
-25382.37494828464
 20
7397.702971374808
 30
0.0
 11
-25382.37494828464
 21
7673.702971374808
 31
0.0
  0
INSERT
  5
16BB
330
356C
100
AcDbEntity
  8
SIZE
 62
     0
100
AcDbBlockReference
  2
_DOTBLANK
 10
-25382.37494828464
 20
7385.702971374808
 30
0.0
 41
12.0
 42
12.0
 43
12.0
 50
270.0
  0
INSERT
  5
16BC
330
356C
100
AcDbEntity
  8
SIZE
 62
     0
100
AcDbBlockReference
  2
_DOTBLANK
 10
-25382.37494828464
 20
7685.702971374808
 30
0.0
 41
12.0
 42
12.0
 43
12.0
 50
90.0
  0
INSERT
  5
16BD
330
356C
100
AcDbEntity
  8
0
100
AcDbBlockReference
  2
*U46
 10
0.0
 20
0.0
 30
0.0
  0
POINT
  5
16BE
330
356C
100
AcDbEntity
  8
DEFPOINTS
 62
     0
100
AcDbPoint
 10
-25532.51823276502
 20
7385.702971374808
 30
0.0
  0
POINT
  5
16BF
330
356C
100
AcDbEntity
  8
DEFPOINTS
 62
     0
100
AcDbPoint
 10
-25509.51823276502
 20
7685.702971374808
 30
0.0
  0
POINT
  5
16C0
330
356C
100
AcDbEntity
  8
DEFPOINTS
 62
     0
100
AcDbPoint
 10
-25382.37494828464
 20
7685.702971374808
 30
0.0
  0
ENDBLK
  5
16C1
330
356C
100
AcDbEntity
  8
0
100
AcDbBlockEnd
  0
BLOCK
  5
356F
330
356E
100
AcDbEntity
  8
0
100
AcDbBlockBegin
  2
*U46
 70
     1
 10
0.0
 20
0.0
 30
0.0
  3
*U46
  1

  0
TEXT
  5
1F25
330
356E
100
AcDbEntity
  8
SIZE
 62
     0
100
AcDbText
 10
-25392.37494828464
 20
7461.645828517662
 30
0.0
 40
64.0
  1
300
 50
90.0
 41
0.9
100
AcDbText
  0
ENDBLK
  5
1F27
330
356E
100
AcDbEntity
  8
0
100
AcDbBlockEnd
  0
BLOCK
  5
3571
330
3570
100
AcDbEntity
  8
0
100
AcDbBlockBegin
  2
*D47
 70
     1
 10
0.0
 20
0.0
 30
0.0
  3
*D47
  1

  0
LINE
  5
16C4
330
3570
100
AcDbEntity
  8
SIZE
 62
     0
100
AcDbLine
 10
-25807.01823276501
 20
7718.167454177002
 30
0.0
 11
-25807.01823276501
 21
7822.154659243358
 31
0.0
  0
LINE
  5
16C5
330
3570
100
AcDbEntity
  8
SIZE
 62
     0
100
AcDbLine
 10
-25527.01823276501
 20
7718.167454177002
 30
0.0
 11
-25527.01823276501
 21
7822.154659243358
 31
0.0
  0
LINE
  5
16C6
330
3570
100
AcDbEntity
  8
SIZE
 62
     0
100
AcDbLine
 10
-25795.01823276502
 20
7802.154659243358
 30
0.0
 11
-25539.01823276501
 21
7802.154659243358
 31
0.0
  0
INSERT
  5
16C7
330
3570
100
AcDbEntity
  8
SIZE
 62
     0
100
AcDbBlockReference
  2
_DOTBLANK
 10
-25807.01823276501
 20
7802.154659243358
 30
0.0
 41
12.0
 42
12.0
 43
12.0
 50
180.0
  0
INSERT
  5
16C8
330
3570
100
AcDbEntity
  8
SIZE
 62
     0
100
AcDbBlockReference
  2
_DOTBLANK
 10
-25527.01823276501
 20
7802.154659243358
 30
0.0
 41
12.0
 42
12.0
 43
12.0
  0
INSERT
  5
16C9
330
3570
100
AcDbEntity
  8
0
100
AcDbBlockReference
  2
*U48
 10
0.0
 20
0.0
 30
0.0
  0
POINT
  5
16CA
330
3570
100
AcDbEntity
  8
DEFPOINTS
 62
     0
100
AcDbPoint
 10
-25807.01823276501
 20
7698.167454177002
 30
0.0
  0
POINT
  5
16CB
330
3570
100
AcDbEntity
  8
DEFPOINTS
 62
     0
100
AcDbPoint
 10
-25527.01823276501
 20
7698.167454177002
 30
0.0
  0
POINT
  5
16CC
330
3570
100
AcDbEntity
  8
DEFPOINTS
 62
     0
100
AcDbPoint
 10
-25527.01823276501
 20
7802.154659243358
 30
0.0
  0
ENDBLK
  5
16CD
330
3570
100
AcDbEntity
  8
0
100
AcDbBlockEnd
  0
BLOCK
  5
3573
330
3572
100
AcDbEntity
  8
0
100
AcDbBlockBegin
  2
*U48
 70
     1
 10
0.0
 20
0.0
 30
0.0
  3
*U48
  1

  0
TEXT
  5
1F29
330
3572
100
AcDbEntity
  8
SIZE
 62
     0
100
AcDbText
 10
-25741.07537562216
 20
7812.154659243358
 30
0.0
 40
64.0
  1
280
 41
0.9
100
AcDbText
  0
ENDBLK
  5
1F2B
330
3572
100
AcDbEntity
  8
0
100
AcDbBlockEnd
  0
BLOCK
  5
3575
330
3574
100
AcDbEntity
  8
0
100
AcDbBlockBegin
  2
*D49
 70
     1
 10
0.0
 20
0.0
 30
0.0
  3
*D49
  1

  0
LINE
  5
16D0
330
3574
100
AcDbEntity
  8
SIZE
 62
     0
100
AcDbLine
 10
-25824.51823276501
 20
7705.702971374808
 30
0.0
 11
-25824.51823276501
 21
7931.282433493766
 31
0.0
  0
LINE
  5
16D1
330
3574
100
AcDbEntity
  8
SIZE
 62
     0
100
AcDbLine
 10
-25509.51823276502
 20
7705.702971374808
 30
0.0
 11
-25509.51823276502
 21
7931.282433493766
 31
0.0
  0
LINE
  5
16D2
330
3574
100
AcDbEntity
  8
SIZE
 62
     0
100
AcDbLine
 10
-25812.51823276502
 20
7911.282433493766
 30
0.0
 11
-25521.51823276501
 21
7911.282433493766
 31
0.0
  0
INSERT
  5
16D3
330
3574
100
AcDbEntity
  8
SIZE
 62
     0
100
AcDbBlockReference
  2
_DOTBLANK
 10
-25824.51823276501
 20
7911.282433493766
 30
0.0
 41
12.0
 42
12.0
 43
12.0
 50
180.0
  0
INSERT
  5
16D4
330
3574
100
AcDbEntity
  8
SIZE
 62
     0
100
AcDbBlockReference
  2
_DOTBLANK
 10
-25509.51823276502
 20
7911.282433493766
 30
0.0
 41
12.0
 42
12.0
 43
12.0
  0
INSERT
  5
16D5
330
3574
100
AcDbEntity
  8
0
100
AcDbBlockReference
  2
*U50
 10
0.0
 20
0.0
 30
0.0
  0
POINT
  5
16D6
330
3574
100
AcDbEntity
  8
DEFPOINTS
 62
     0
100
AcDbPoint
 10
-25824.51823276501
 20
7685.702971374808
 30
0.0
  0
POINT
  5
16D7
330
3574
100
AcDbEntity
  8
DEFPOINTS
 62
     0
100
AcDbPoint
 10
-25509.51823276502
 20
7685.702971374808
 30
0.0
  0
POINT
  5
16D8
330
3574
100
AcDbEntity
  8
DEFPOINTS
 62
     0
100
AcDbPoint
 10
-25509.51823276502
 20
7911.282433493766
 30
0.0
  0
ENDBLK
  5
16D9
330
3574
100
AcDbEntity
  8
0
100
AcDbBlockEnd
  0
BLOCK
  5
3577
330
3576
100
AcDbEntity
  8
0
100
AcDbBlockBegin
  2
*U50
 70
     1
 10
0.0
 20
0.0
 30
0.0
  3
*U50
  1

  0
TEXT
  5
1F2D
330
3576
100
AcDbEntity
  8
SIZE
 62
     0
100
AcDbText
 10
-25735.58966133645
 20
7921.282433493766
 30
0.0
 40
64.0
  1
315
 41
0.9
100
AcDbText
  0
ENDBLK
  5
1F2F
330
3576
100
AcDbEntity
  8
0
100
AcDbBlockEnd
  0
BLOCK
  5
3579
330
3578
100
AcDbEntity
  8
0
100
AcDbBlockBegin
  2
*D51
 70
     1
 10
0.0
 20
0.0
 30
0.0
  3
*D51
  1

  0
LINE
  5
1D83
330
3578
100
AcDbEntity
  8
SIZE
 62
     0
100
AcDbLine
 10
-134.5
 20
-320.0
 30
0.0
 11
-134.5
 21
-468.0173952306001
 31
0.0
  0
LINE
  5
1D84
330
3578
100
AcDbEntity
  8
SIZE
 62
     0
100
AcDbLine
 10
134.5
 20
-320.0
 30
0.0
 11
134.5
 21
-468.0173952306001
 31
0.0
  0
LINE
  5
1D85
330
3578
100
AcDbEntity
  8
SIZE
 62
     0
100
AcDbLine
 10
-122.5
 20
-448.0173952306
 30
0.0
 11
122.5
 21
-448.0173952306
 31
0.0
  0
INSERT
  5
1D86
330
3578
100
AcDbEntity
  8
SIZE
 62
     0
100
AcDbBlockReference
  2
_DOTBLANK
 10
-134.5
 20
-448.0173952306
 30
0.0
 41
12.0
 42
12.0
 43
12.0
 50
180.0
  0
INSERT
  5
1D87
330
3578
100
AcDbEntity
  8
SIZE
 62
     0
100
AcDbBlockReference
  2
_DOTBLANK
 10
134.5
 20
-448.0173952306
 30
0.0
 41
12.0
 42
12.0
 43
12.0
  0
INSERT
  5
1D88
330
3578
100
AcDbEntity
  8
0
100
AcDbBlockReference
  2
*U52
 10
0.0
 20
0.0
 30
0.0
  0
POINT
  5
1D89
330
3578
100
AcDbEntity
  8
DEFPOINTS
 62
     0
100
AcDbPoint
 10
-134.5
 20
-300.0
 30
0.0
  0
POINT
  5
1D8A
330
3578
100
AcDbEntity
  8
DEFPOINTS
 62
     0
100
AcDbPoint
 10
134.5
 20
-300.0
 30
0.0
  0
POINT
  5
1D8B
330
3578
100
AcDbEntity
  8
DEFPOINTS
 62
     0
100
AcDbPoint
 10
134.5
 20
-448.0173952306
 30
0.0
  0
ENDBLK
  5
173D
330
3578
100
AcDbEntity
  8
0
100
AcDbBlockEnd
  0
BLOCK
  5
357B
330
357A
100
AcDbEntity
  8
0
100
AcDbBlockBegin
  2
*U52
 70
     1
 10
0.0
 20
0.0
 30
0.0
  3
*U52
  1

  0
TEXT
  5
1F31
330
357A
100
AcDbEntity
  8
SIZE
 62
     0
100
AcDbText
 10
-72.68571428571426
 20
-438.0173952306003
 30
0.0
 40
64.0
  1
269
 41
0.9
100
AcDbText
  0
ENDBLK
  5
1F33
330
357A
100
AcDbEntity
  8
0
100
AcDbBlockEnd
  0
BLOCK
  5
357D
330
357C
100
AcDbEntity
  8
0
100
AcDbBlockBegin
  2
*D53
 70
     1
 10
0.0
 20
0.0
 30
0.0
  3
*D53
  1

  0
LINE
  5
1D8C
330
357C
100
AcDbEntity
  8
SIZE
 62
     0
100
AcDbLine
 10
154.5
 20
-300.0
 30
0.0
 11
304.6432844803784
 21
-300.0
 31
0.0
  0
LINE
  5
1D8D
330
357C
100
AcDbEntity
  8
SIZE
 62
     0
100
AcDbLine
 10
177.5
 20
-0.0000000000000057
 30
0.0
 11
304.6432844803785
 21
-0.0000000000000417
 31
0.0
  0
LINE
  5
1D8E
330
357C
100
AcDbEntity
  8
SIZE
 62
     0
100
AcDbLine
 10
284.6432844803784
 20
-288.0
 30
0.0
 11
284.6432844803785
 21
-12.00000000000003
 31
0.0
  0
INSERT
  5
1D8F
330
357C
100
AcDbEntity
  8
SIZE
 62
     0
100
AcDbBlockReference
  2
_DOTBLANK
 10
284.6432844803784
 20
-300.0
 30
0.0
 41
12.0
 42
12.0
 43
12.0
 50
270.0
  0
INSERT
  5
1D90
330
357C
100
AcDbEntity
  8
SIZE
 62
     0
100
AcDbBlockReference
  2
_DOTBLANK
 10
284.6432844803785
 20
-0.000000000000036
 30
0.0
 41
12.0
 42
12.0
 43
12.0
 50
90.0
  0
INSERT
  5
1D91
330
357C
100
AcDbEntity
  8
0
100
AcDbBlockReference
  2
*U54
 10
0.0
 20
0.0
 30
0.0
  0
POINT
  5
1D92
330
357C
100
AcDbEntity
  8
DEFPOINTS
 62
     0
100
AcDbPoint
 10
134.5
 20
-300.0
 30
0.0
  0
POINT
  5
1D93
330
357C
100
AcDbEntity
  8
DEFPOINTS
 62
     0
100
AcDbPoint
 10
157.5
 20
0.0
 30
0.0
  0
POINT
  5
1D94
330
357C
100
AcDbEntity
  8
DEFPOINTS
 62
     0
100
AcDbPoint
 10
284.6432844803785
 20
-0.000000000000036
 30
0.0
  0
ENDBLK
  5
1749
330
357C
100
AcDbEntity
  8
0
100
AcDbBlockEnd
  0
BLOCK
  5
357F
330
357E
100
AcDbEntity
  8
0
100
AcDbBlockBegin
  2
*U54
 70
     1
 10
0.0
 20
0.0
 30
0.0
  3
*U54
  1

  0
TEXT
  5
1F35
330
357E
100
AcDbEntity
  8
SIZE
 62
     0
100
AcDbText
 10
274.6432844803785
 20
-224.0571428571429
 30
0.0
 40
64.0
  1
300
 50
90.0
 41
0.9
100
AcDbText
  0
ENDBLK
  5
1F37
330
357E
100
AcDbEntity
  8
0
100
AcDbBlockEnd
  0
BLOCK
  5
3581
330
3580
100
AcDbEntity
  8
0
100
AcDbBlockBegin
  2
*D55
 70
     1
 10
0.0
 20
0.0
 30
0.0
  3
*D55
  1

  0
LINE
  5
1D95
330
3580
100
AcDbEntity
  8
SIZE
 62
     0
100
AcDbLine
 10
-140.0
 20
32.46448280219375
 30
0.0
 11
-140.0
 21
136.4516878685508
 31
0.0
  0
LINE
  5
1D96
330
3580
100
AcDbEntity
  8
SIZE
 62
     0
100
AcDbLine
 10
140.0
 20
32.46448280219375
 30
0.0
 11
140.0
 21
136.4516878685508
 31
0.0
  0
LINE
  5
1D97
330
3580
100
AcDbEntity
  8
SIZE
 62
     0
100
AcDbLine
 10
-128.0
 20
116.4516878685508
 30
0.0
 11
128.0
 21
116.4516878685508
 31
0.0
  0
INSERT
  5
1D98
330
3580
100
AcDbEntity
  8
SIZE
 62
     0
100
AcDbBlockReference
  2
_DOTBLANK
 10
-140.0
 20
116.4516878685508
 30
0.0
 41
12.0
 42
12.0
 43
12.0
 50
180.0
  0
INSERT
  5
1D99
330
3580
100
AcDbEntity
  8
SIZE
 62
     0
100
AcDbBlockReference
  2
_DOTBLANK
 10
140.0
 20
116.4516878685508
 30
0.0
 41
12.0
 42
12.0
 43
12.0
  0
INSERT
  5
1D9A
330
3580
100
AcDbEntity
  8
0
100
AcDbBlockReference
  2
*U56
 10
0.0
 20
0.0
 30
0.0
  0
POINT
  5
1D9B
330
3580
100
AcDbEntity
  8
DEFPOINTS
 62
     0
100
AcDbPoint
 10
-140.0
 20
12.46448280219374
 30
0.0
  0
POINT
  5
1D9C
330
3580
100
AcDbEntity
  8
DEFPOINTS
 62
     0
100
AcDbPoint
 10
140.0
 20
12.46448280219374
 30
0.0
  0
POINT
  5
1D9D
330
3580
100
AcDbEntity
  8
DEFPOINTS
 62
     0
100
AcDbPoint
 10
140.0
 20
116.4516878685508
 30
0.0
  0
ENDBLK
  5
1755
330
3580
100
AcDbEntity
  8
0
100
AcDbBlockEnd
  0
BLOCK
  5
3583
330
3582
100
AcDbEntity
  8
0
100
AcDbBlockBegin
  2
*U56
 70
     1
 10
0.0
 20
0.0
 30
0.0
  3
*U56
  1

  0
TEXT
  5
1F39
330
3582
100
AcDbEntity
  8
SIZE
 62
     0
100
AcDbText
 10
-74.05714285714283
 20
126.4516878685508
 30
0.0
 40
64.0
  1
280
 41
0.9
100
AcDbText
  0
ENDBLK
  5
1F3B
330
3582
100
AcDbEntity
  8
0
100
AcDbBlockEnd
  0
BLOCK
  5
3585
330
3584
100
AcDbEntity
  8
0
100
AcDbBlockBegin
  2
*D57
 70
     1
 10
0.0
 20
0.0
 30
0.0
  3
*D57
  1

  0
LINE
  5
1D9E
330
3584
100
AcDbEntity
  8
SIZE
 62
     0
100
AcDbLine
 10
-157.5
 20
20.0
 30
0.0
 11
-157.5
 21
245.5794621189598
 31
0.0
  0
LINE
  5
1D9F
330
3584
100
AcDbEntity
  8
SIZE
 62
     0
100
AcDbLine
 10
157.5
 20
20.0
 30
0.0
 11
157.5
 21
245.5794621189598
 31
0.0
  0
LINE
  5
1DA0
330
3584
100
AcDbEntity
  8
SIZE
 62
     0
100
AcDbLine
 10
-145.5
 20
225.5794621189598
 30
0.0
 11
145.5
 21
225.5794621189598
 31
0.0
  0
INSERT
  5
1DA1
330
3584
100
AcDbEntity
  8
SIZE
 62
     0
100
AcDbBlockReference
  2
_DOTBLANK
 10
-157.5
 20
225.5794621189598
 30
0.0
 41
12.0
 42
12.0
 43
12.0
 50
180.0
  0
INSERT
  5
1DA2
330
3584
100
AcDbEntity
  8
SIZE
 62
     0
100
AcDbBlockReference
  2
_DOTBLANK
 10
157.5
 20
225.5794621189598
 30
0.0
 41
12.0
 42
12.0
 43
12.0
  0
INSERT
  5
1DA3
330
3584
100
AcDbEntity
  8
0
100
AcDbBlockReference
  2
*U58
 10
0.0
 20
0.0
 30
0.0
  0
POINT
  5
1DA4
330
3584
100
AcDbEntity
  8
DEFPOINTS
 62
     0
100
AcDbPoint
 10
-157.5
 20
0.0
 30
0.0
  0
POINT
  5
1DA5
330
3584
100
AcDbEntity
  8
DEFPOINTS
 62
     0
100
AcDbPoint
 10
157.5
 20
0.0
 30
0.0
  0
POINT
  5
1DA6
330
3584
100
AcDbEntity
  8
DEFPOINTS
 62
     0
100
AcDbPoint
 10
157.5
 20
225.5794621189598
 30
0.0
  0
ENDBLK
  5
1761
330
3584
100
AcDbEntity
  8
0
100
AcDbBlockEnd
  0
BLOCK
  5
3587
330
3586
100
AcDbEntity
  8
0
100
AcDbBlockBegin
  2
*U58
 70
     1
 10
0.0
 20
0.0
 30
0.0
  3
*U58
  1

  0
TEXT
  5
1F3D
330
3586
100
AcDbEntity
  8
SIZE
 62
     0
100
AcDbText
 10
-68.57142857142857
 20
235.5794621189599
 30
0.0
 40
64.0
  1
315
 41
0.9
100
AcDbText
  0
ENDBLK
  5
1F3F
330
3586
100
AcDbEntity
  8
0
100
AcDbBlockEnd
  0
BLOCK
  5
3589
330
3588
100
AcDbEntity
  8
0
100
AcDbBlockBegin
  2
*D59
 70
     1
 10
0.0
 20
0.0
 30
0.0
  3
*D59
  1

  0
LINE
  5
1DA7
330
3588
100
AcDbEntity
  8
SIZE
 62
     0
100
AcDbLine
 10
-177.5
 20
0.0000000000000057
 30
0.0
 11
-314.0264221186908
 21
0.0000000000000443
 31
0.0
  0
LINE
  5
1DA8
330
3588
100
AcDbEntity
  8
SIZE
 62
     0
100
AcDbLine
 10
-177.5
 20
-7.999999999999993
 30
0.0
 11
-314.0264221186908
 21
-7.999999999999958
 31
0.0
  0
LINE
  5
1DA9
330
3588
100
AcDbEntity
  8
SIZE
 62
     0
100
AcDbLine
 10
-294.0264221186908
 20
12.00000000000003
 30
0.0
 11
-294.0264221186908
 21
24.00000000000004
 31
0.0
  0
LINE
  5
1DAA
330
3588
100
AcDbEntity
  8
SIZE
 62
     0
100
AcDbLine
 10
-294.0264221186908
 20
-19.99999999999996
 30
0.0
 11
-294.0264221186908
 21
-90.39999999999997
 31
0.0
  0
INSERT
  5
1DAB
330
3588
100
AcDbEntity
  8
SIZE
 62
     0
100
AcDbBlockReference
  2
_DOTBLANK
 10
-294.0264221186908
 20
0.0000000000000387
 30
0.0
 41
12.0
 42
12.0
 43
12.0
 50
270.0
  0
INSERT
  5
1DAC
330
3588
100
AcDbEntity
  8
SIZE
 62
     0
100
AcDbBlockReference
  2
_DOTBLANK
 10
-294.0264221186908
 20
-7.999999999999961
 30
0.0
 41
12.0
 42
12.0
 43
12.0
 50
90.0
  0
INSERT
  5
1DAD
330
3588
100
AcDbEntity
  8
0
100
AcDbBlockReference
  2
*U60
 10
0.0
 20
0.0
 30
0.0
  0
POINT
  5
1DAE
330
3588
100
AcDbEntity
  8
DEFPOINTS
 62
     0
100
AcDbPoint
 10
-157.5
 20
0.0
 30
0.0
  0
POINT
  5
1DAF
330
3588
100
AcDbEntity
  8
DEFPOINTS
 62
     0
100
AcDbPoint
 10
-157.5
 20
-8.000000000000003
 30
0.0
  0
POINT
  5
1DB0
330
3588
100
AcDbEntity
  8
DEFPOINTS
 62
     0
100
AcDbPoint
 10
-294.0264221186908
 20
-7.999999999999961
 30
0.0
  0
ENDBLK
  5
176D
330
3588
100
AcDbEntity
  8
0
100
AcDbBlockEnd
  0
BLOCK
  5
358B
330
358A
100
AcDbEntity
  8
0
100
AcDbBlockBegin
  2
*U60
 70
     1
 10
0.0
 20
0.0
 30
0.0
  3
*U60
  1

  0
TEXT
  5
1F41
330
358A
100
AcDbEntity
  8
SIZE
 62
     0
100
AcDbText
 10
-304.0264221186908
 20
-80.4
 30
0.0
 40
64.0
  1
8
 50
90.0
 41
0.9
100
AcDbText
  0
ENDBLK
  5
1F43
330
358A
100
AcDbEntity
  8
0
100
AcDbBlockEnd
  0
BLOCK
  5
358D
330
358C
100
AcDbEntity
  8
0
100
AcDbBlockBegin
  2
*D61
 70
     1
 10
0.0
 20
0.0
 30
0.0
  3
*D61
  1

  0
LINE
  5
1DB1
330
358C
100
AcDbEntity
  8
SIZE
 62
     0
100
AcDbLine
 10
154.5
 20
-300.0
 30
0.0
 11
304.6432844803785
 21
-300.0
 31
0.0
  0
LINE
  5
1DB2
330
358C
100
AcDbEntity
  8
SIZE
 62
     0
100
AcDbLine
 10
143.5
 20
-312.0
 30
0.0
 11
304.6432844803785
 21
-312.0
 31
0.0
  0
LINE
  5
1DB3
330
358C
100
AcDbEntity
  8
SIZE
 62
     0
100
AcDbLine
 10
284.6432844803785
 20
-288.0
 30
0.0
 11
284.6432844803785
 21
-276.0
 31
0.0
  0
LINE
  5
1DB4
330
358C
100
AcDbEntity
  8
SIZE
 62
     0
100
AcDbLine
 10
284.6432844803785
 20
-324.0000000000001
 30
0.0
 11
284.6432844803784
 21
-438.2857142857143
 31
0.0
  0
INSERT
  5
1DB5
330
358C
100
AcDbEntity
  8
SIZE
 62
     0
100
AcDbBlockReference
  2
_DOTBLANK
 10
284.6432844803785
 20
-300.0
 30
0.0
 41
12.0
 42
12.0
 43
12.0
 50
270.0
  0
INSERT
  5
1DB6
330
358C
100
AcDbEntity
  8
SIZE
 62
     0
100
AcDbBlockReference
  2
_DOTBLANK
 10
284.6432844803785
 20
-312.0
 30
0.0
 41
12.0
 42
12.0
 43
12.0
 50
90.0
  0
INSERT
  5
1DB7
330
358C
100
AcDbEntity
  8
0
100
AcDbBlockReference
  2
*U62
 10
0.0
 20
0.0
 30
0.0
  0
POINT
  5
1DB8
330
358C
100
AcDbEntity
  8
DEFPOINTS
 62
     0
100
AcDbPoint
 10
134.5
 20
-300.0
 30
0.0
  0
POINT
  5
1DB9
330
358C
100
AcDbEntity
  8
DEFPOINTS
 62
     0
100
AcDbPoint
 10
123.5
 20
-312.0
 30
0.0
  0
POINT
  5
1DBA
330
358C
100
AcDbEntity
  8
DEFPOINTS
 62
     0
100
AcDbPoint
 10
284.6432844803785
 20
-312.0
 30
0.0
  0
ENDBLK
  5
177B
330
358C
100
AcDbEntity
  8
0
100
AcDbBlockEnd
  0
BLOCK
  5
358F
330
358E
100
AcDbEntity
  8
0
100
AcDbBlockBegin
  2
*U62
 70
     1
 10
0.0
 20
0.0
 30
0.0
  3
*U62
  1

  0
TEXT
  5
1F45
330
358E
100
AcDbEntity
  8
SIZE
 62
     0
100
AcDbText
 10
274.6432844803785
 20
-428.2857142857142
 30
0.0
 40
64.0
  1
12
 50
90.0
 41
0.9
100
AcDbText
  0
ENDBLK
  5
1F47
330
358E
100
AcDbEntity
  8
0
100
AcDbBlockEnd
  0
BLOCK
  5
3591
330
3590
100
AcDbEntity
  8
0
100
AcDbBlockBegin
  2
*U63
 70
     1
 10
0.0
 20
0.0
 30
0.0
  3
*U63
  1

  0
ENDBLK
  5
1D57
330
3590
100
AcDbEntity
  8
0
100
AcDbBlockEnd
  0
BLOCK
  5
3593
330
3592
100
AcDbEntity
  8
0
100
AcDbBlockBegin
  2
*U64
 70
     1
 10
0.0
 20
0.0
 30
0.0
  3
*U64
  1

  0
INSERT
  5
2088
330
3592
100
AcDbEntity
  8
NOTE
100
AcDbBlockReference
  2
_OPEN30
 10
-140.0
 20
0.0
 30
0.0
 41
12.0
 42
12.0
 43
12.0
 50
312.6090116116894
  0
POLYLINE
  5
2089
330
3592
100
AcDbEntity
  8
NOTE
100
AcDb2dPolyline
 66
     1
 10
0.0
 20
0.0
 30
0.0
  0
VERTEX
  5
2124
330
2089
100
AcDbEntity
  8
NOTE
100
AcDbVertex
100
AcDb2dVertex
 10
-148.1239008361894
 20
8.831887408915472
 30
0.0
  0
VERTEX
  5
2125
330
2089
100
AcDbEntity
  8
NOTE
100
AcDbVertex
100
AcDb2dVertex
 10
-227.8693999922543
 20
95.52709505801338
 30
0.0
  0
VERTEX
  5
2126
330
2089
100
AcDbEntity
  8
NOTE
100
AcDbVertex
100
AcDb2dVertex
 10
-773.7093999922541
 20
95.52709505801338
 30
0.0
  0
SEQEND
  5
2127
330
2089
100
AcDbEntity
  8
NOTE
  0
ENDBLK
  5
208A
330
3592
100
AcDbEntity
  8
0
100
AcDbBlockEnd
  0
BLOCK
  5
3595
330
3594
100
AcDbEntity
  8
0
100
AcDbBlockBegin
  2
*U65
 70
     1
 10
0.0
 20
0.0
 30
0.0
  3
*U65
  1

  0
TEXT
  5
208D
330
3594
100
AcDbEntity
  8
NOTE
100
AcDbText
 10
-773.7093999922541
 20
113.5270950580134
 30
0.0
 40
64.0
  1
4×φ10取付穴
 41
0.9
100
AcDbText
  0
ENDBLK
  5
208E
330
3594
100
AcDbEntity
  8
0
100
AcDbBlockEnd
  0
BLOCK
  5
3597
330
3596
100
AcDbEntity
  8
0
100
AcDbBlockBegin
  2
*U66
 70
     1
 10
0.0
 20
0.0
 30
0.0
  3
*U66
  1

  0
INSERT
  5
27FE
330
3596
100
AcDbEntity
  8
NOTE
100
AcDbBlockReference
  2
_OPEN30
 10
-165.0
 20
0.0
 30
0.0
 41
12.0
 42
12.0
 43
12.0
 50
312.6090116116894
  0
POLYLINE
  5
27FF
330
3596
100
AcDbEntity
  8
NOTE
100
AcDb2dPolyline
 66
     1
 10
0.0
 20
0.0
 30
0.0
  0
VERTEX
  5
2800
330
27FF
100
AcDbEntity
  8
NOTE
100
AcDbVertex
100
AcDb2dVertex
 10
-173.1239008361894
 20
8.831887408915475
 30
0.0
  0
VERTEX
  5
2801
330
27FF
100
AcDbEntity
  8
NOTE
100
AcDbVertex
100
AcDb2dVertex
 10
-252.8693999922543
 20
95.52709505801338
 30
0.0
  0
VERTEX
  5
2802
330
27FF
100
AcDbEntity
  8
NOTE
100
AcDbVertex
100
AcDb2dVertex
 10
-798.7093999922541
 20
95.52709505801338
 30
0.0
  0
SEQEND
  5
2803
330
27FF
100
AcDbEntity
  8
NOTE
  0
ENDBLK
  5
2804
330
3596
100
AcDbEntity
  8
0
100
AcDbBlockEnd
  0
BLOCK
  5
3599
330
3598
100
AcDbEntity
  8
0
100
AcDbBlockBegin
  2
*U67
 70
     1
 10
0.0
 20
0.0
 30
0.0
  3
*U67
  1

  0
TEXT
  5
2807
330
3598
100
AcDbEntity
  8
NOTE
100
AcDbText
 10
-798.7093999922541
 20
113.5270950580134
 30
0.0
 40
64.0
  1
4×φ10取付穴
 41
0.9
100
AcDbText
  0
ENDBLK
  5
2808
330
3598
100
AcDbEntity
  8
0
100
AcDbBlockEnd
  0
BLOCK
  5
359B
330
359A
100
AcDbEntity
  8
0
100
AcDbBlockBegin
  2
*U68
 70
     1
 10
0.0
 20
0.0
 30
0.0
  3
*U68
  1

  0
INSERT
  5
2D51
330
359A
100
AcDbEntity
  8
NOTE
100
AcDbBlockReference
  2
_OPEN30
 10
-190.0
 20
0.0
 30
0.0
 41
12.0
 42
12.0
 43
12.0
 50
312.6090116116894
  0
POLYLINE
  5
2D52
330
359A
100
AcDbEntity
  8
NOTE
100
AcDb2dPolyline
 66
     1
 10
0.0
 20
0.0
 30
0.0
  0
VERTEX
  5
2D53
330
2D52
100
AcDbEntity
  8
NOTE
100
AcDbVertex
100
AcDb2dVertex
 10
-198.1239008361895
 20
8.831887408915475
 30
0.0
  0
VERTEX
  5
2D54
330
2D52
100
AcDbEntity
  8
NOTE
100
AcDbVertex
100
AcDb2dVertex
 10
-277.8693999922543
 20
95.52709505801338
 30
0.0
  0
VERTEX
  5
2D55
330
2D52
100
AcDbEntity
  8
NOTE
100
AcDbVertex
100
AcDb2dVertex
 10
-823.709399992254
 20
95.52709505801338
 30
0.0
  0
SEQEND
  5
2D56
330
2D52
100
AcDbEntity
  8
NOTE
  0
ENDBLK
  5
2D57
330
359A
100
AcDbEntity
  8
0
100
AcDbBlockEnd
  0
BLOCK
  5
359D
330
359C
100
AcDbEntity
  8
0
100
AcDbBlockBegin
  2
*U69
 70
     1
 10
0.0
 20
0.0
 30
0.0
  3
*U69
  1

  0
TEXT
  5
2D5A
330
359C
100
AcDbEntity
  8
NOTE
100
AcDbText
 10
-823.709399992254
 20
113.5270950580134
 30
0.0
 40
64.0
  1
4×φ10取付穴
 41
0.9
100
AcDbText
  0
ENDBLK
  5
2D5B
330
359C
100
AcDbEntity
  8
0
100
AcDbBlockEnd
  0
BLOCK
  5
359F
330
359E
100
AcDbEntity
  8
0
100
AcDbBlockBegin
  2
*U70
 70
     1
 10
0.0
 20
0.0
 30
0.0
  3
*U70
  1

  0
INSERT
  5
3042
330
359E
100
AcDbEntity
  8
NOTE
100
AcDbBlockReference
  2
_OPEN30
 10
-189.9999999999994
 20
0.0
 30
0.0
 41
12.0
 42
12.0
 43
12.0
 50
312.6090116116895
  0
POLYLINE
  5
3043
330
359E
100
AcDbEntity
  8
NOTE
100
AcDb2dPolyline
 66
     1
 10
0.0
 20
0.0
 30
0.0
  0
VERTEX
  5
3044
330
3043
100
AcDbEntity
  8
NOTE
100
AcDbVertex
100
AcDb2dVertex
 10
-198.1239008361892
 20
8.831887408915465
 30
0.0
  0
VERTEX
  5
3045
330
3043
100
AcDbEntity
  8
NOTE
100
AcDbVertex
100
AcDb2dVertex
 10
-277.8693999922543
 20
95.52709505801338
 30
0.0
  0
VERTEX
  5
3046
330
3043
100
AcDbEntity
  8
NOTE
100
AcDbVertex
100
AcDb2dVertex
 10
-823.709399992254
 20
95.52709505801338
 30
0.0
  0
SEQEND
  5
3047
330
3043
100
AcDbEntity
  8
NOTE
  0
ENDBLK
  5
3048
330
359E
100
AcDbEntity
  8
0
100
AcDbBlockEnd
  0
BLOCK
  5
35A1
330
35A0
100
AcDbEntity
  8
0
100
AcDbBlockBegin
  2
*U71
 70
     1
 10
0.0
 20
0.0
 30
0.0
  3
*U71
  1

  0
TEXT
  5
304B
330
35A0
100
AcDbEntity
  8
NOTE
100
AcDbText
 10
-823.709399992254
 20
113.5270950580134
 30
0.0
 40
64.0
  1
4×φ10取付穴
 41
0.9
100
AcDbText
  0
ENDBLK
  5
304C
330
35A0
100
AcDbEntity
  8
0
100
AcDbBlockEnd
  0
BLOCK
  5
35A3
330
35A2
100
AcDbEntity
  8
0
100
AcDbBlockBegin
  2
*X72
 70
     1
 10
0.0
 20
0.0
 30
0.0
  3
*X72
  1

  0
LINE
  5
304F
330
35A2
100
AcDbEntity
  8
0
 62
     0
100
AcDbLine
 10
-157.9000000000104
 20
-322.2349093942702
 30
0.0
 11
-153.3533073302768
 21
-324.4000000000014
 31
0.0
  0
LINE
  5
3050
330
35A2
100
AcDbEntity
  8
0
 62
     0
100
AcDbLine
 10
-157.9000000000123
 20
-312.2349576501356
 30
0.0
 11
-132.353397593286
 21
-324.4000000000014
 31
0.0
  0
LINE
  5
3051
330
35A2
100
AcDbEntity
  8
0
 62
     0
100
AcDbLine
 10
-157.9000000000123
 20
-302.2350059060009
 30
0.0
 11
-111.353487856295
 21
-324.4000000000014
 31
0.0
  0
LINE
  5
3052
330
35A2
100
AcDbEntity
  8
0
 62
     0
100
AcDbLine
 10
-157.9000000000123
 20
-292.235054161868
 30
0.0
 11
-90.3535781193077
 21
-324.4000000000014
 31
0.0
  0
LINE
  5
3053
330
35A2
100
AcDbEntity
  8
0
 62
     0
100
AcDbLine
 10
-157.9000000000104
 20
-282.2351024177342
 30
0.0
 11
-69.35366838231494
 21
-324.4000000000014
 31
0.0
  0
LINE
  5
3054
330
35A2
100
AcDbEntity
  8
0
 62
     0
100
AcDbLine
 10
-157.9000000000123
 20
-272.2351506735986
 30
0.0
 11
-48.35375864532578
 21
-324.4000000000005
 31
0.0
  0
LINE
  5
3055
330
35A2
100
AcDbEntity
  8
0
 62
     0
100
AcDbLine
 10
-157.9000000000086
 20
-262.2351989294648
 30
0.0
 11
-27.35384890833485
 21
-324.3999999999996
 31
0.0
  0
LINE
  5
3056
330
35A2
100
AcDbEntity
  8
0
 62
     0
100
AcDbLine
 10
-157.9000000000104
 20
-252.2352471853292
 30
0.0
 11
-6.353939171345697
 21
-324.3999999999996
 31
0.0
  0
LINE
  5
3057
330
35A2
100
AcDbEntity
  8
0
 62
     0
100
AcDbLine
 10
-157.9000000000142
 20
-242.2352954411936
 30
0.0
 11
14.64597056564526
 21
-324.3999999999987
 31
0.0
  0
LINE
  5
3058
330
35A2
100
AcDbEntity
  8
0
 62
     0
100
AcDbLine
 10
-157.9000000000104
 20
-232.2353436970616
 30
0.0
 11
35.64588030263803
 21
-324.4000000000005
 31
0.0
  0
LINE
  5
3059
330
35A2
100
AcDbEntity
  8
0
 62
     0
100
AcDbLine
 10
-157.9000000000123
 20
-222.235391952926
 30
0.0
 11
56.64579003962899
 21
-324.4000000000005
 31
0.0
  0
LINE
  5
305A
330
35A2
100
AcDbEntity
  8
0
 62
     0
100
AcDbLine
 10
-157.9000000000104
 20
-212.2354402087922
 30
0.0
 11
77.64569977661995
 21
-324.4000000000005
 31
0.0
  0
LINE
  5
305B
330
35A2
100
AcDbEntity
  8
0
 62
     0
100
AcDbLine
 10
-157.9000000000104
 20
-202.2354884646566
 30
0.0
 11
98.64560951361092
 21
-324.4000000000005
 31
0.0
  0
LINE
  5
305C
330
35A2
100
AcDbEntity
  8
0
 62
     0
100
AcDbLine
 10
-57.90000000001055
 20
-239.8545592276523
 30
0.0
 11
-48.35456934429385
 21
-244.4000000000006
 31
0.0
  0
LINE
  5
305D
330
35A2
100
AcDbEntity
  8
0
 62
     0
100
AcDbLine
 10
-48.35456934429385
 20
-244.4000000000006
 30
0.0
 11
119.6455192506018
 21
-324.4000000000005
 31
0.0
  0
LINE
  5
305E
330
35A2
100
AcDbEntity
  8
0
 62
     0
100
AcDbLine
 10
-157.9000000000104
 20
-192.2355367205227
 30
0.0
 11
-57.90000000001055
 21
-239.8545592276523
 31
0.0
  0
LINE
  5
305F
330
35A2
100
AcDbEntity
  8
0
 62
     0
100
AcDbLine
 10
-57.90000000000691
 20
-229.8546074835203
 30
0.0
 11
-27.35465960730107
 21
-244.4000000000023
 31
0.0
  0
LINE
  5
3060
330
35A2
100
AcDbEntity
  8
0
 62
     0
100
AcDbLine
 10
-27.35465960730107
 20
-244.4000000000023
 30
0.0
 11
140.6454289875928
 21
-324.4000000000024
 31
0.0
  0
LINE
  5
3061
330
35A2
100
AcDbEntity
  8
0
 62
     0
100
AcDbLine
 10
-157.9000000000123
 20
-182.2355849763889
 30
0.0
 11
-57.90000000000691
 21
-229.8546074835203
 31
0.0
  0
LINE
  5
3062
330
35A2
100
AcDbEntity
  8
0
 62
     0
100
AcDbLine
 10
-57.90000000000873
 20
-219.8546557393847
 30
0.0
 11
-6.354749870310112
 21
-244.4000000000015
 31
0.0
  0
LINE
  5
3063
330
35A2
100
AcDbEntity
  8
0
 62
     0
100
AcDbLine
 10
-6.354749870310112
 20
-244.4000000000015
 30
0.0
 11
157.8999999999923
 21
-322.6165063097696
 31
0.0
  0
LINE
  5
3064
330
35A2
100
AcDbEntity
  8
0
 62
     0
100
AcDbLine
 10
-157.9000000000086
 20
-172.2356332322551
 30
0.0
 11
-57.90000000000873
 21
-219.8546557393847
 31
0.0
  0
LINE
  5
3065
330
35A2
100
AcDbEntity
  8
0
 62
     0
100
AcDbLine
 10
-57.90000000000873
 20
-209.8547039952509
 30
0.0
 11
14.64515986667902
 21
-244.4000000000015
 31
0.0
  0
LINE
  5
3066
330
35A2
100
AcDbEntity
  8
0
 62
     0
100
AcDbLine
 10
14.64515986667902
 20
-244.4000000000015
 30
0.0
 11
157.8999999999905
 21
-312.6165545656349
 31
0.0
  0
LINE
  5
3067
330
35A2
100
AcDbEntity
  8
0
 62
     0
100
AcDbLine
 10
-157.9000000000123
 20
-162.2356814881195
 30
0.0
 11
-57.90000000000873
 21
-209.8547039952509
 31
0.0
  0
LINE
  5
3068
330
35A2
100
AcDbEntity
  8
0
 62
     0
100
AcDbLine
 10
-57.90000000000873
 20
-199.8547522511152
 30
0.0
 11
35.6450696036718
 21
-244.4000000000015
 31
0.0
  0
LINE
  5
3069
330
35A2
100
AcDbEntity
  8
0
 62
     0
100
AcDbLine
 10
35.6450696036718
 20
-244.4000000000015
 30
0.0
 11
157.8999999999887
 21
-302.6166028214993
 31
0.0
  0
LINE
  5
306A
330
35A2
100
AcDbEntity
  8
0
 62
     0
100
AcDbLine
 10
-157.9000000000123
 20
-152.2357297439839
 30
0.0
 11
-57.90000000000873
 21
-199.8547522511152
 31
0.0
  0
LINE
  5
306B
330
35A2
100
AcDbEntity
  8
0
 62
     0
100
AcDbLine
 10
-57.90000000000691
 20
-189.8548005069814
 30
0.0
 11
56.64497934066274
 21
-244.4000000000015
 31
0.0
  0
LINE
  5
306C
330
35A2
100
AcDbEntity
  8
0
 62
     0
100
AcDbLine
 10
56.64497934066274
 20
-244.4000000000015
 30
0.0
 11
157.8999999999905
 21
-292.6166510773655
 31
0.0
  0
LINE
  5
306D
330
35A2
100
AcDbEntity
  8
0
 62
     0
100
AcDbLine
 10
-157.9000000000104
 20
-142.2357779998501
 30
0.0
 11
-57.90000000000691
 21
-189.8548005069814
 31
0.0
  0
LINE
  5
306E
330
35A2
100
AcDbEntity
  8
0
 62
     0
100
AcDbLine
 10
-57.90000000000873
 20
-179.8548487628459
 30
0.0
 11
77.64488907765008
 21
-244.3999999999996
 31
0.0
  0
LINE
  5
306F
330
35A2
100
AcDbEntity
  8
0
 62
     0
100
AcDbLine
 10
77.64488907765008
 20
-244.3999999999996
 30
0.0
 11
157.8999999999887
 21
-282.6166993332299
 31
0.0
  0
LINE
  5
3070
330
35A2
100
AcDbEntity
  8
0
 62
     0
100
AcDbLine
 10
-157.9000000000142
 20
-132.2358262557145
 30
0.0
 11
-57.90000000000873
 21
-179.8548487628459
 31
0.0
  0
LINE
  5
3071
330
35A2
100
AcDbEntity
  8
0
 62
     0
100
AcDbLine
 10
-57.90000000000691
 20
-169.8548970187139
 30
0.0
 11
98.64479881464106
 21
-244.4000000000015
 31
0.0
  0
LINE
  5
3072
330
35A2
100
AcDbEntity
  8
0
 62
     0
100
AcDbLine
 10
98.64479881464106
 20
-244.4000000000015
 30
0.0
 11
157.8999999999905
 21
-272.6167475890979
 31
0.0
  0
LINE
  5
3073
330
35A2
100
AcDbEntity
  8
0
 62
     0
100
AcDbLine
 10
-157.9000000000104
 20
-122.2358745115825
 30
0.0
 11
-57.90000000001055
 21
-169.8548970187121
 31
0.0
  0
LINE
  5
3074
330
35A2
100
AcDbEntity
  8
0
 62
     0
100
AcDbLine
 10
-57.90000000000873
 20
-159.8549452745783
 30
0.0
 11
119.6447085516302
 21
-244.3999999999996
 31
0.0
  0
LINE
  5
3075
330
35A2
100
AcDbEntity
  8
0
 62
     0
100
AcDbLine
 10
119.6447085516302
 20
-244.3999999999996
 30
0.0
 11
157.8999999999905
 21
-262.6167958449624
 31
0.0
  0
LINE
  5
3076
330
35A2
100
AcDbEntity
  8
0
 62
     0
100
AcDbLine
 10
-157.9000000000123
 20
-112.2359227674468
 30
0.0
 11
-57.90000000000873
 21
-159.8549452745783
 31
0.0
  0
LINE
  5
3077
330
35A2
100
AcDbEntity
  8
0
 62
     0
100
AcDbLine
 10
-57.90000000000691
 20
-149.8549935304444
 30
0.0
 11
140.6446182886193
 21
-244.3999999999996
 31
0.0
  0
LINE
  5
3078
330
35A2
100
AcDbEntity
  8
0
 62
     0
100
AcDbLine
 10
140.6446182886193
 20
-244.3999999999996
 30
0.0
 11
157.8999999999905
 21
-252.6168441008285
 31
0.0
  0
LINE
  5
3079
330
35A2
100
AcDbEntity
  8
0
 62
     0
100
AcDbLine
 10
-157.9000000000104
 20
-102.2359710233131
 30
0.0
 11
-57.90000000001055
 21
-149.8549935304427
 31
0.0
  0
LINE
  5
307A
330
35A2
100
AcDbEntity
  8
0
 62
     0
100
AcDbLine
 10
-57.90000000000691
 20
-139.8550417863089
 30
0.0
 11
157.8999999999905
 21
-242.6168923566929
 31
0.0
  0
LINE
  5
307B
330
35A2
100
AcDbEntity
  8
0
 62
     0
100
AcDbLine
 10
-157.9000000000104
 20
-92.23601927917844
 30
0.0
 11
-57.90000000001055
 21
-139.855041786307
 31
0.0
  0
LINE
  5
307C
330
35A2
100
AcDbEntity
  8
0
 62
     0
100
AcDbLine
 10
-57.90000000000873
 20
-129.8550900421733
 30
0.0
 11
157.8999999999887
 21
-232.6169406125573
 31
0.0
  0
LINE
  5
307D
330
35A2
100
AcDbEntity
  8
0
 62
     0
100
AcDbLine
 10
-157.9000000000104
 20
-82.23606753504373
 30
0.0
 11
-57.90000000001237
 21
-129.8550900421723
 31
0.0
  0
LINE
  5
307E
330
35A2
100
AcDbEntity
  8
0
 62
     0
100
AcDbLine
 10
-57.90000000000873
 20
-119.8551382980413
 30
0.0
 11
157.8999999999887
 21
-222.6169888684253
 31
0.0
  0
LINE
  5
307F
330
35A2
100
AcDbEntity
  8
0
 62
     0
100
AcDbLine
 10
-157.9000000000123
 20
-72.23611579091084
 30
0.0
 11
-57.90000000001237
 21
-119.8551382980395
 31
0.0
  0
LINE
  5
3080
330
35A2
100
AcDbEntity
  8
0
 62
     0
100
AcDbLine
 10
-57.90000000000873
 20
-109.8551865539057
 30
0.0
 11
157.8999999999905
 21
-212.6170371242897
 31
0.0
  0
LINE
  5
3081
330
35A2
100
AcDbEntity
  8
0
 62
     0
100
AcDbLine
 10
-157.9000000000086
 20
-62.23616404677613
 30
0.0
 11
-57.90000000001055
 21
-109.8551865539048
 31
0.0
  0
LINE
  5
3082
330
35A2
100
AcDbEntity
  8
0
 62
     0
100
AcDbLine
 10
-57.90000000000691
 20
-99.85523480977192
 30
0.0
 11
157.8999999999905
 21
-202.6170853801559
 31
0.0
  0
LINE
  5
3083
330
35A2
100
AcDbEntity
  8
0
 62
     0
100
AcDbLine
 10
-157.9000000000104
 20
-52.23621230264143
 30
0.0
 11
-57.90000000001055
 21
-99.855234809771
 31
0.0
  0
LINE
  5
3084
330
35A2
100
AcDbEntity
  8
0
 62
     0
100
AcDbLine
 10
-57.90000000000873
 20
-89.85528306563628
 30
0.0
 11
157.8999999999887
 21
-192.6171336360203
 31
0.0
  0
LINE
  5
3085
330
35A2
100
AcDbEntity
  8
0
 62
     0
100
AcDbLine
 10
-140.3361379105699
 20
-50.59999999999853
 30
0.0
 11
-57.90000000001237
 21
-89.85528306563537
 31
0.0
  0
LINE
  5
3086
330
35A2
100
AcDbEntity
  8
0
 62
     0
100
AcDbLine
 10
-57.90000000000509
 20
-79.85533132150249
 30
0.0
 11
157.8999999999923
 21
-182.6171818918864
 31
0.0
  0
LINE
  5
3087
330
35A2
100
AcDbEntity
  8
0
 62
     0
100
AcDbLine
 10
-119.3362281735772
 20
-50.59999999999853
 30
0.0
 11
-57.90000000001237
 21
-79.85533132149976
 31
0.0
  0
LINE
  5
3088
330
35A2
100
AcDbEntity
  8
0
 62
     0
100
AcDbLine
 10
-57.90000000000873
 20
-69.8553795773687
 30
0.0
 11
157.8999999999887
 21
-172.6172301477527
 31
0.0
  0
LINE
  5
3089
330
35A2
100
AcDbEntity
  8
0
 62
     0
100
AcDbLine
 10
-98.33631843658805
 20
-50.60000000000036
 30
0.0
 11
-57.90000000001237
 21
-69.85537957736778
 31
0.0
  0
LINE
  5
308A
330
35A2
100
AcDbEntity
  8
0
 62
     0
100
AcDbLine
 10
-57.90000000000691
 20
-59.8554278332349
 30
0.0
 11
157.8999999999923
 21
-162.6172784036189
 31
0.0
  0
LINE
  5
308B
330
35A2
100
AcDbEntity
  8
0
 62
     0
100
AcDbLine
 10
-77.33640869959709
 20
-50.60000000000036
 30
0.0
 11
-57.90000000001237
 21
-59.85542783323218
 31
0.0
  0
LINE
  5
308C
330
35A2
100
AcDbEntity
  8
0
 62
     0
100
AcDbLine
 10
-56.33649896260793
 20
-50.59999999999853
 30
0.0
 11
157.8999999999905
 21
-152.6173266594833
 31
0.0
  0
LINE
  5
308D
330
35A2
100
AcDbEntity
  8
0
 62
     0
100
AcDbLine
 10
-35.336589225617
 20
-50.59999999999853
 30
0.0
 11
157.8999999999887
 21
-142.6173749153486
 31
0.0
  0
LINE
  5
308E
330
35A2
100
AcDbEntity
  8
0
 62
     0
100
AcDbLine
 10
-14.33667948862603
 20
-50.59999999999764
 30
0.0
 11
157.8999999999905
 21
-132.6174231712139
 31
0.0
  0
LINE
  5
308F
330
35A2
100
AcDbEntity
  8
0
 62
     0
100
AcDbLine
 10
6.663230248364922
 20
-50.59999999999764
 30
0.0
 11
157.8999999999887
 21
-122.6174714270792
 31
0.0
  0
LINE
  5
3090
330
35A2
100
AcDbEntity
  8
0
 62
     0
100
AcDbLine
 10
27.6631399853559
 20
-50.59999999999945
 30
0.0
 11
157.8999999999905
 21
-112.6175196829463
 31
0.0
  0
LINE
  5
3091
330
35A2
100
AcDbEntity
  8
0
 62
     0
100
AcDbLine
 10
48.66304972234684
 20
-50.59999999999945
 30
0.0
 11
157.8999999999887
 21
-102.6175679388116
 31
0.0
  0
LINE
  5
3092
330
35A2
100
AcDbEntity
  8
0
 62
     0
100
AcDbLine
 10
69.66295945933961
 20
-50.59999999999945
 30
0.0
 11
157.8999999999905
 21
-92.6176161946778
 31
0.0
  0
LINE
  5
3093
330
35A2
100
AcDbEntity
  8
0
 62
     0
100
AcDbLine
 10
90.66286919632878
 20
-50.59999999999945
 30
0.0
 11
157.8999999999887
 21
-82.61766445054218
 31
0.0
  0
LINE
  5
3094
330
35A2
100
AcDbEntity
  8
0
 62
     0
100
AcDbLine
 10
111.6627789333215
 20
-50.59999999999945
 30
0.0
 11
157.8999999999887
 21
-72.61771270640656
 31
0.0
  0
LINE
  5
3095
330
35A2
100
AcDbEntity
  8
0
 62
     0
100
AcDbLine
 10
132.6626886703125
 20
-50.60000000000128
 30
0.0
 11
157.8999999999905
 21
-62.61776096227458
 31
0.0
  0
LINE
  5
3096
330
35A2
100
AcDbEntity
  8
0
 62
     0
100
AcDbLine
 10
153.6625984073034
 20
-50.60000000000036
 30
0.0
 11
157.8999999999887
 21
-52.61780921813898
 31
0.0
  0
ENDBLK
  5
3097
330
35A2
100
AcDbEntity
  8
0
100
AcDbBlockEnd
  0
BLOCK
  5
35A5
330
35A4
100
AcDbEntity
  8
0
100
AcDbBlockBegin
  2
*X73
 70
     1
 10
0.0
 20
0.0
 30
0.0
  3
*X73
  1

  0
LINE
  5
309A
330
35A4
100
AcDbEntity
  8
0
 62
     0
100
AcDbLine
 10
143.5820966436877
 20
-324.4000000000005
 30
0.0
 11
157.8999999999978
 21
-317.5819543782099
 31
0.0
  0
LINE
  5
309B
330
35A4
100
AcDbEntity
  8
0
 62
     0
100
AcDbLine
 10
122.5821869066967
 20
-324.4000000000005
 30
0.0
 11
157.8999999999978
 21
-307.5820026340762
 31
0.0
  0
LINE
  5
309C
330
35A4
100
AcDbEntity
  8
0
 62
     0
100
AcDbLine
 10
101.5822771697021
 20
-324.4000000000005
 30
0.0
 11
157.8999999999942
 21
-297.5820508899405
 31
0.0
  0
LINE
  5
309D
330
35A4
100
AcDbEntity
  8
0
 62
     0
100
AcDbLine
 10
80.58236743271482
 20
-324.4000000000014
 30
0.0
 11
157.8999999999978
 21
-287.5820991458057
 31
0.0
  0
LINE
  5
309E
330
35A4
100
AcDbEntity
  8
0
 62
     0
100
AcDbLine
 10
59.58245769572386
 20
-324.4000000000014
 30
0.0
 11
157.8999999999978
 21
-277.5821474016721
 31
0.0
  0
LINE
  5
309F
330
35A4
100
AcDbEntity
  8
0
 62
     0
100
AcDbLine
 10
38.58254795872927
 20
-324.3999999999996
 30
0.0
 11
157.8999999999978
 21
-267.5821956575364
 31
0.0
  0
LINE
  5
30A0
330
35A4
100
AcDbEntity
  8
0
 62
     0
100
AcDbLine
 10
17.58263822174194
 20
-324.4000000000005
 30
0.0
 11
157.8999999999978
 21
-257.5822439134035
 31
0.0
  0
LINE
  5
30A1
330
35A4
100
AcDbEntity
  8
0
 62
     0
100
AcDbLine
 10
-3.417271515249011
 20
-324.4000000000005
 30
0.0
 11
157.8999999999978
 21
-247.5822921692679
 31
0.0
  0
LINE
  5
30A2
330
35A4
100
AcDbEntity
  8
0
 62
     0
100
AcDbLine
 10
143.5829073426539
 20
-244.3999999999996
 30
0.0
 11
157.8999999999942
 21
-237.5823404251351
 31
0.0
  0
LINE
  5
30A3
330
35A4
100
AcDbEntity
  8
0
 62
     0
100
AcDbLine
 10
-24.41718125224361
 20
-324.4000000000014
 30
0.0
 11
143.5829073426539
 21
-244.3999999999996
 31
0.0
  0
LINE
  5
30A4
330
35A4
100
AcDbEntity
  8
0
 62
     0
100
AcDbLine
 10
122.5829976056666
 20
-244.3999999999996
 30
0.0
 11
157.8999999999978
 21
-227.5823886809994
 31
0.0
  0
LINE
  5
30A5
330
35A4
100
AcDbEntity
  8
0
 62
     0
100
AcDbLine
 10
-45.4170909892309
 20
-324.3999999999996
 30
0.0
 11
122.5829976056666
 21
-244.3999999999996
 31
0.0
  0
LINE
  5
30A6
330
35A4
100
AcDbEntity
  8
0
 62
     0
100
AcDbLine
 10
101.583087868672
 20
-244.3999999999996
 30
0.0
 11
157.8999999999978
 21
-217.5824369368637
 31
0.0
  0
LINE
  5
30A7
330
35A4
100
AcDbEntity
  8
0
 62
     0
100
AcDbLine
 10
-66.4170007262219
 20
-324.3999999999996
 30
0.0
 11
101.583087868672
 21
-244.3999999999996
 31
0.0
  0
LINE
  5
30A8
330
35A4
100
AcDbEntity
  8
0
 62
     0
100
AcDbLine
 10
80.58317813168107
 20
-244.4000000000006
 30
0.0
 11
157.8999999999978
 21
-207.5824851927309
 31
0.0
  0
LINE
  5
30A9
330
35A4
100
AcDbEntity
  8
0
 62
     0
100
AcDbLine
 10
-87.41691046321284
 20
-324.4000000000005
 30
0.0
 11
80.58317813168107
 21
-244.4000000000006
 31
0.0
  0
LINE
  5
30AA
330
35A4
100
AcDbEntity
  8
0
 62
     0
100
AcDbLine
 10
59.58326839469371
 20
-244.4000000000006
 30
0.0
 11
157.8999999999978
 21
-197.5825334485953
 31
0.0
  0
LINE
  5
30AB
330
35A4
100
AcDbEntity
  8
0
 62
     0
100
AcDbLine
 10
-108.4168202002038
 20
-324.4000000000005
 30
0.0
 11
59.58326839469371
 21
-244.4000000000006
 31
0.0
  0
LINE
  5
30AC
330
35A4
100
AcDbEntity
  8
0
 62
     0
100
AcDbLine
 10
38.58335865770277
 20
-244.4000000000006
 30
0.0
 11
157.8999999999978
 21
-187.5825817044615
 31
0.0
  0
LINE
  5
30AD
330
35A4
100
AcDbEntity
  8
0
 62
     0
100
AcDbLine
 10
-129.4167299371911
 20
-324.3999999999987
 30
0.0
 11
38.58335865770277
 21
-244.4000000000006
 31
0.0
  0
LINE
  5
30AE
330
35A4
100
AcDbEntity
  8
0
 62
     0
100
AcDbLine
 10
17.58344892071181
 20
-244.3999999999996
 30
0.0
 11
157.8999999999978
 21
-177.5826299603268
 31
0.0
  0
LINE
  5
30AF
330
35A4
100
AcDbEntity
  8
0
 62
     0
100
AcDbLine
 10
-150.4166396741821
 20
-324.3999999999996
 30
0.0
 11
17.58344892071181
 21
-244.3999999999996
 31
0.0
  0
LINE
  5
30B0
330
35A4
100
AcDbEntity
  8
0
 62
     0
100
AcDbLine
 10
-3.41646081627914
 20
-244.3999999999996
 30
0.0
 11
157.8999999999978
 21
-167.582678216193
 31
0.0
  0
LINE
  5
30B1
330
35A4
100
AcDbEntity
  8
0
 62
     0
100
AcDbLine
 10
-157.9000000000051
 20
-317.9635512937075
 30
0.0
 11
-3.41646081627914
 21
-244.3999999999996
 31
0.0
  0
LINE
  5
30B2
330
35A4
100
AcDbEntity
  8
0
 62
     0
100
AcDbLine
 10
-24.41637055327009
 20
-244.4000000000006
 30
0.0
 11
157.8999999999978
 21
-157.5827264720583
 31
0.0
  0
LINE
  5
30B3
330
35A4
100
AcDbEntity
  8
0
 62
     0
100
AcDbLine
 10
-157.9000000000051
 20
-307.9635995495746
 30
0.0
 11
-24.41637055327009
 21
-244.4000000000006
 31
0.0
  0
LINE
  5
30B4
330
35A4
100
AcDbEntity
  8
0
 62
     0
100
AcDbLine
 10
-45.41628029026106
 20
-244.4000000000006
 30
0.0
 11
157.8999999999942
 21
-147.5827747279244
 31
0.0
  0
LINE
  5
30B5
330
35A4
100
AcDbEntity
  8
0
 62
     0
100
AcDbLine
 10
-157.9000000000014
 20
-297.963647805439
 30
0.0
 11
-45.41628029026106
 21
-244.4000000000006
 31
0.0
  0
LINE
  5
30B6
330
35A4
100
AcDbEntity
  8
0
 62
     0
100
AcDbLine
 10
-57.89999999999782
 20
-240.3446735541738
 30
0.0
 11
157.8999999999978
 21
-137.5828229837889
 31
0.0
  0
LINE
  5
30B7
330
35A4
100
AcDbEntity
  8
0
 62
     0
100
AcDbLine
 10
-157.9000000000014
 20
-287.9636960613052
 30
0.0
 11
-57.89999999999782
 21
-240.3446735541738
 31
0.0
  0
LINE
  5
30B8
330
35A4
100
AcDbEntity
  8
0
 62
     0
100
AcDbLine
 10
-57.90000000000509
 20
-230.3447218100409
 30
0.0
 11
157.8999999999978
 21
-127.5828712396542
 31
0.0
  0
LINE
  5
30B9
330
35A4
100
AcDbEntity
  8
0
 62
     0
100
AcDbLine
 10
-157.9000000000051
 20
-277.9637443171705
 30
0.0
 11
-57.90000000000509
 21
-230.3447218100409
 31
0.0
  0
LINE
  5
30BA
330
35A4
100
AcDbEntity
  8
0
 62
     0
100
AcDbLine
 10
-57.90000000000144
 20
-220.3447700659053
 30
0.0
 11
157.8999999999978
 21
-117.5829194955204
 31
0.0
  0
LINE
  5
30BB
330
35A4
100
AcDbEntity
  8
0
 62
     0
100
AcDbLine
 10
-157.9000000000051
 20
-267.9637925730367
 30
0.0
 11
-57.90000000000144
 21
-220.3447700659053
 31
0.0
  0
LINE
  5
30BC
330
35A4
100
AcDbEntity
  8
0
 62
     0
100
AcDbLine
 10
-57.89999999999782
 20
-210.3448183217697
 30
0.0
 11
157.9000000000014
 21
-107.5829677513848
 31
0.0
  0
LINE
  5
30BD
330
35A4
100
AcDbEntity
  8
0
 62
     0
100
AcDbLine
 10
-157.9000000000014
 20
-257.9638408289011
 30
0.0
 11
-57.89999999999782
 21
-210.3448183217697
 31
0.0
  0
LINE
  5
30BE
330
35A4
100
AcDbEntity
  8
0
 62
     0
100
AcDbLine
 10
-57.90000000000144
 20
-200.3448665776377
 30
0.0
 11
157.8999999999942
 21
-97.58301600725282
 31
0.0
  0
LINE
  5
30BF
330
35A4
100
AcDbEntity
  8
0
 62
     0
100
AcDbLine
 10
-157.9000000000051
 20
-247.9638890847692
 30
0.0
 11
-57.90000000000144
 21
-200.3448665776377
 31
0.0
  0
LINE
  5
30C0
330
35A4
100
AcDbEntity
  8
0
 62
     0
100
AcDbLine
 10
-57.89999999999782
 20
-190.3449148335021
 30
0.0
 11
157.8999999999978
 21
-87.58306426311717
 31
0.0
  0
LINE
  5
30C1
330
35A4
100
AcDbEntity
  8
0
 62
     0
100
AcDbLine
 10
-157.9000000000014
 20
-237.9639373406335
 30
0.0
 11
-57.89999999999782
 21
-190.3449148335021
 31
0.0
  0
LINE
  5
30C2
330
35A4
100
AcDbEntity
  8
0
 62
     0
100
AcDbLine
 10
-57.90000000000144
 20
-180.3449630893683
 30
0.0
 11
157.8999999999978
 21
-77.5831125189834
 31
0.0
  0
LINE
  5
30C3
330
35A4
100
AcDbEntity
  8
0
 62
     0
100
AcDbLine
 10
-157.9000000000051
 20
-227.9639855964997
 30
0.0
 11
-57.90000000000144
 21
-180.3449630893683
 31
0.0
  0
LINE
  5
30C4
330
35A4
100
AcDbEntity
  8
0
 62
     0
100
AcDbLine
 10
-57.90000000000144
 20
-170.3450113452327
 30
0.0
 11
157.8999999999978
 21
-67.58316077484778
 31
0.0
  0
LINE
  5
30C5
330
35A4
100
AcDbEntity
  8
0
 62
     0
100
AcDbLine
 10
-157.9000000000051
 20
-217.9640338523641
 30
0.0
 11
-57.90000000000144
 21
-170.3450113452327
 31
0.0
  0
LINE
  5
30C6
330
35A4
100
AcDbEntity
  8
0
 62
     0
100
AcDbLine
 10
-57.90000000000144
 20
-160.3450596010989
 30
0.0
 11
157.9000000000014
 21
-57.583209030714
 31
0.0
  0
LINE
  5
30C7
330
35A4
100
AcDbEntity
  8
0
 62
     0
100
AcDbLine
 10
-157.9000000000051
 20
-207.9640821082303
 30
0.0
 11
-57.90000000000144
 21
-160.3450596010989
 31
0.0
  0
LINE
  5
30C8
330
35A4
100
AcDbEntity
  8
0
 62
     0
100
AcDbLine
 10
-57.90000000000144
 20
-150.3451078569633
 30
0.0
 11
151.5648369609662
 21
-50.59999999999853
 31
0.0
  0
LINE
  5
30C9
330
35A4
100
AcDbEntity
  8
0
 62
     0
100
AcDbLine
 10
-157.9000000000051
 20
-197.9641303640947
 30
0.0
 11
-57.90000000000144
 21
-150.3451078569633
 31
0.0
  0
LINE
  5
30CA
330
35A4
100
AcDbEntity
  8
0
 62
     0
100
AcDbLine
 10
-57.90000000000144
 20
-140.3451561128295
 30
0.0
 11
130.5649272239752
 21
-50.59999999999853
 31
0.0
  0
LINE
  5
30CB
330
35A4
100
AcDbEntity
  8
0
 62
     0
100
AcDbLine
 10
-157.9000000000014
 20
-187.964178619959
 30
0.0
 11
-57.90000000000144
 21
-140.3451561128295
 31
0.0
  0
LINE
  5
30CC
330
35A4
100
AcDbEntity
  8
0
 62
     0
100
AcDbLine
 10
-57.90000000000144
 20
-130.3452043686939
 30
0.0
 11
109.5650174869879
 21
-50.59999999999853
 31
0.0
  0
LINE
  5
30CD
330
35A4
100
AcDbEntity
  8
0
 62
     0
100
AcDbLine
 10
-157.9000000000051
 20
-177.9642268758252
 30
0.0
 11
-57.90000000000144
 21
-130.3452043686939
 31
0.0
  0
LINE
  5
30CE
330
35A4
100
AcDbEntity
  8
0
 62
     0
100
AcDbLine
 10
-57.90000000000144
 20
-120.3452526245601
 30
0.0
 11
88.56510774999334
 21
-50.59999999999853
 31
0.0
  0
LINE
  5
30CF
330
35A4
100
AcDbEntity
  8
0
 62
     0
100
AcDbLine
 10
-157.9000000000051
 20
-167.9642751316914
 30
0.0
 11
-57.90000000000144
 21
-120.3452526245601
 31
0.0
  0
LINE
  5
30D0
330
35A4
100
AcDbEntity
  8
0
 62
     0
100
AcDbLine
 10
-57.90000000000144
 20
-110.3453008804263
 30
0.0
 11
67.56519801300237
 21
-50.59999999999853
 31
0.0
  0
LINE
  5
30D1
330
35A4
100
AcDbEntity
  8
0
 62
     0
100
AcDbLine
 10
-157.9000000000051
 20
-157.9643233875577
 30
0.0
 11
-57.90000000000144
 21
-110.3453008804263
 31
0.0
  0
LINE
  5
30D2
330
35A4
100
AcDbEntity
  8
0
 62
     0
100
AcDbLine
 10
-57.89999999999782
 20
-100.3453491362925
 30
0.0
 11
46.56528827601504
 21
-50.60000000000036
 31
0.0
  0
LINE
  5
30D3
330
35A4
100
AcDbEntity
  8
0
 62
     0
100
AcDbLine
 10
-157.9000000000014
 20
-147.9643716434239
 30
0.0
 11
-57.89999999999782
 21
-100.3453491362925
 31
0.0
  0
LINE
  5
30D4
330
35A4
100
AcDbEntity
  8
0
 62
     0
100
AcDbLine
 10
-57.90000000000144
 20
-90.34539739215871
 30
0.0
 11
25.5653785390241
 21
-50.59999999999853
 31
0.0
  0
LINE
  5
30D5
330
35A4
100
AcDbEntity
  8
0
 62
     0
100
AcDbLine
 10
-157.9000000000051
 20
-137.9644198992901
 30
0.0
 11
-57.90000000000144
 21
-90.34539739215871
 31
0.0
  0
LINE
  5
30D6
330
35A4
100
AcDbEntity
  8
0
 62
     0
100
AcDbLine
 10
-57.90000000000144
 20
-80.34544564802306
 30
0.0
 11
4.565468802033136
 21
-50.59999999999853
 31
0.0
  0
LINE
  5
30D7
330
35A4
100
AcDbEntity
  8
0
 62
     0
100
AcDbLine
 10
-157.9000000000051
 20
-127.9644681551544
 30
0.0
 11
-57.90000000000144
 21
-80.34544564802306
 31
0.0
  0
LINE
  5
30D8
330
35A4
100
AcDbEntity
  8
0
 62
     0
100
AcDbLine
 10
-57.90000000000144
 20
-70.34549390388929
 30
0.0
 11
-16.43444093495782
 21
-50.59999999999853
 31
0.0
  0
LINE
  5
30D9
330
35A4
100
AcDbEntity
  8
0
 62
     0
100
AcDbLine
 10
-157.9000000000051
 20
-117.9645164110207
 30
0.0
 11
-57.90000000000144
 21
-70.34549390388929
 31
0.0
  0
LINE
  5
30DA
330
35A4
100
AcDbEntity
  8
0
 62
     0
100
AcDbLine
 10
-57.90000000000144
 20
-60.34554215975368
 30
0.0
 11
-37.43435067194877
 21
-50.59999999999853
 31
0.0
  0
LINE
  5
30DB
330
35A4
100
AcDbEntity
  8
0
 62
     0
100
AcDbLine
 10
-157.9000000000051
 20
-107.964564666885
 30
0.0
 11
-57.90000000000144
 21
-60.34554215975368
 31
0.0
  0
LINE
  5
30DC
330
35A4
100
AcDbEntity
  8
0
 62
     0
100
AcDbLine
 10
-157.9000000000014
 20
-97.96461292274944
 30
0.0
 11
-58.4342604089397
 21
-50.59999999999853
 31
0.0
  0
LINE
  5
30DD
330
35A4
100
AcDbEntity
  8
0
 62
     0
100
AcDbLine
 10
-157.9000000000014
 20
-87.96466117861568
 30
0.0
 11
-79.4341701459307
 21
-50.59999999999853
 31
0.0
  0
LINE
  5
30DE
330
35A4
100
AcDbEntity
  8
0
 62
     0
100
AcDbLine
 10
-157.9000000000051
 20
-77.96470943448003
 30
0.0
 11
-100.4340798829216
 21
-50.59999999999671
 31
0.0
  0
LINE
  5
30DF
330
35A4
100
AcDbEntity
  8
0
 62
     0
100
AcDbLine
 10
-157.9000000000051
 20
-67.96475769034803
 30
0.0
 11
-121.4339896199089
 21
-50.59999999999853
 31
0.0
  0
LINE
  5
30E0
330
35A4
100
AcDbEntity
  8
0
 62
     0
100
AcDbLine
 10
-157.9000000000014
 20
-57.96480594621242
 30
0.0
 11
-142.4338993568999
 21
-50.59999999999853
 31
0.0
  0
ENDBLK
  5
30E1
330
35A4
100
AcDbEntity
  8
0
100
AcDbBlockEnd
  0
ENDSEC
  0
SECTION
  2
ENTITIES
  0
TEXT
  5
953
330
34C4
100
AcDbEntity
  8
OUTLINE
  6
Continuous
 62
     3
100
AcDbText
 10
-418.231467
 20
13.715189
 30
0.0
 40
64.0
  1
 
 41
0.9
100
AcDbText
  0
TEXT
  5
954
330
34C4
100
AcDbEntity
  8
OUTLINE
  6
Continuous
 62
     3
100
AcDbText
 10
-418.231467
 20
13.715189
 30
0.0
 40
64.0
  1
 
 41
0.9
100
AcDbText
  0
TEXT
  5
955
330
34C4
100
AcDbEntity
  8
OUTLINE
  6
Continuous
 62
     3
100
AcDbText
 10
1341.41903
 20
-706.0588199999997
 30
0.0
 40
64.0
  1
 
 41
0.9
100
AcDbText
  0
TEXT
  5
956
330
34C4
100
AcDbEntity
  8
OUTLINE
  6
Continuous
 62
     3
100
AcDbText
 10
1341.41903
 20
-706.0588199999997
 30
0.0
 40
64.0
  1
 
 41
0.9
100
AcDbText
  0
TEXT
  5
957
330
34C4
100
AcDbEntity
  8
OUTLINE
  6
Continuous
 62
     3
100
AcDbText
 10
1341.41903
 20
-706.0588199999997
 30
0.0
 40
64.0
  1
 
 41
0.9
100
AcDbText
  0
TEXT
  5
958
330
34C4
100
AcDbEntity
  8
OUTLINE
  6
Continuous
 62
     3
100
AcDbText
 10
1341.41903
 20
-706.0588199999997
 30
0.0
 40
64.0
  1
 
 41
0.9
100
AcDbText
  0
TEXT
  5
3149
330
34C4
100
AcDbEntity
  8
ETC
100
AcDbText
 10
256.2468308916468
 20
417.5302363732356
 30
0.0
 40
64.0
  1
システム部材
 41
0.9
100
AcDbText
  0
TEXT
  5
314A
330
34C4
100
AcDbEntity
  8
ETC
100
AcDbText
 10
262.4548288916449
 20
518.4135623732356
 30
0.0
 40
64.0
  1
W-30TA_6
 41
0.9
100
AcDbText
  0
TEXT
  5
314B
330
34C4
100
AcDbEntity
  8
ETC
100
AcDbText
 10
256.2468308916468
 20
317.5302363732359
 30
0.0
 40
64.0
  1
W-30TA
 41
0.9
100
AcDbText
  0
LINE
  5
314C
330
34C4
100
AcDbEntity
  8
DETAIL
100
AcDbLine
 10
-173.4999999999994
 20
-0.5999999999999126
 30
0.0
 11
-173.4999999999994
 21
-340.0
 31
0.0
  0
LINE
  5
314D
330
34C4
100
AcDbEntity
  8
OUTLINE
100
AcDbLine
 10
173.5
 20
-0.5999999999999126
 30
0.0
 11
173.5
 21
-340.0
 31
0.0
  0
LINE
  5
314E
330
34C4
100
AcDbEntity
  8
DETAIL
100
AcDbLine
 10
173.5
 20
-0.5999999999999126
 30
0.0
 11
173.5
 21
-340.0
 31
0.0
  0
POLYLINE
  5
314F
330
34C4
100
AcDbEntity
  8
DETAIL
100
AcDb2dPolyline
 66
     1
 10
0.0
 20
0.0
 30
0.0
  0
VERTEX
  5
3150
330
314F
100
AcDbEntity
  8
DETAIL
100
AcDbVertex
100
AcDb2dVertex
 10
-173.4999999999994
 20
-35.0
 30
0.0
  0
VERTEX
  5
3151
330
314F
100
AcDbEntity
  8
DETAIL
100
AcDbVertex
100
AcDb2dVertex
 10
173.4999999999963
 20
-35.0
 30
0.0
  0
SEQEND
  5
3152
330
314F
100
AcDbEntity
  8
DETAIL
  0
POLYLINE
  5
3153
330
34C4
100
AcDbEntity
  8
DETAIL
100
AcDb2dPolyline
 66
     1
 10
0.0
 20
0.0
 30
0.0
  0
VERTEX
  5
3154
330
3153
100
AcDbEntity
  8
DETAIL
100
AcDbVertex
100
AcDb2dVertex
 10
-207.4999999999998
 20
-0.5999999999999126
 30
0.0
  0
VERTEX
  5
3155
330
3153
100
AcDbEntity
  8
DETAIL
100
AcDbVertex
100
AcDb2dVertex
 10
207.5
 20
-0.5999999999999126
 30
0.0
  0
SEQEND
  5
3156
330
3153
100
AcDbEntity
  8
DETAIL
  0
POLYLINE
  5
3157
330
34C4
100
AcDbEntity
  8
DETAIL
100
AcDb2dPolyline
 66
     1
 10
0.0
 20
0.0
 30
0.0
  0
VERTEX
  5
3158
330
3157
100
AcDbEntity
  8
DETAIL
100
AcDbVertex
100
AcDb2dVertex
 10
-207.4999999999998
 20
-0.0000000000000036
 30
0.0
  0
VERTEX
  5
3159
330
3157
100
AcDbEntity
  8
DETAIL
100
AcDbVertex
100
AcDb2dVertex
 10
207.5
 20
-0.0000000000000036
 30
0.0
  0
SEQEND
  5
315A
330
3157
100
AcDbEntity
  8
DETAIL
  0
LINE
  5
315B
330
34C4
100
AcDbEntity
  8
DETAIL
100
AcDbLine
 10
-207.4999999999998
 20
-0.5999999999999126
 30
0.0
 11
-207.4999999999998
 21
-0.0000000000000036
 31
0.0
  0
LINE
  5
315C
330
34C4
100
AcDbEntity
  8
NOTE
100
AcDbLine
 10
-189.9999999999994
 20
12.5
 30
0.0
 11
-189.9999999999994
 21
-12.5
 31
0.0
  0
LINE
  5
315D
330
34C4
100
AcDbEntity
  8
NOTE
100
AcDbLine
 10
190.0
 20
-12.5
 30
0.0
 11
190.0
 21
12.5
 31
0.0
  0
LINE
  5
315E
330
34C4
100
AcDbEntity
  8
DETAIL
100
AcDbLine
 10
207.5
 20
-0.5999999999999126
 30
0.0
 11
207.5
 21
-0.0000000000000036
 31
0.0
  0
LINE
  5
315F
330
34C4
100
AcDbEntity
  8
DETAIL
100
AcDbLine
 10
-173.4999999999994
 20
-340.0
 30
0.0
 11
173.5
 21
-340.0
 31
0.0
  0
CIRCLE
  5
3160
330
34C4
100
AcDbEntity
  8
ARRANGE
100
AcDbCircle
 10
0.0
 20
-0.0000000000000036
 30
0.0
 40
40.0
  0
POINT
  5
3161
330
34C4
100
AcDbEntity
  8
ARRANGE
100
AcDbPoint
 10
0.0
 20
-0.0000000000000036
 30
0.0
 39
50.0
  0
LINE
  5
3162
330
34C4
100
AcDbEntity
  8
BASIS
100
AcDbLine
 10
0.0
 20
25.0
 30
0.0
 11
0.0
 21
-365.0
 31
0.0
  0
LINE
  5
3163
330
34C4
100
AcDbEntity
  8
DETAIL
100
AcDbLine
 10
-157.900000000001
 20
-50.59999999999989
 30
0.0
 11
-157.900000000001
 21
-324.3999999999996
 31
0.0
  0
LINE
  5
3164
330
34C4
100
AcDbEntity
  8
DETAIL
100
AcDbLine
 10
157.8999999999978
 20
-50.59999999999989
 30
0.0
 11
157.8999999999978
 21
-324.4000000000001
 31
0.0
  0
POLYLINE
  5
3165
330
34C4
100
AcDbEntity
  8
DETAIL
100
AcDb2dPolyline
 66
     1
 10
0.0
 20
0.0
 30
0.0
  0
VERTEX
  5
3166
330
3165
100
AcDbEntity
  8
DETAIL
100
AcDbVertex
100
AcDb2dVertex
 10
-157.900000000001
 20
-50.59999999999989
 30
0.0
  0
VERTEX
  5
3167
330
3165
100
AcDbEntity
  8
DETAIL
100
AcDbVertex
100
AcDb2dVertex
 10
157.8999999999978
 20
-50.59999999999989
 30
0.0
  0
SEQEND
  5
3168
330
3165
100
AcDbEntity
  8
DETAIL
  0
LINE
  5
3169
330
34C4
100
AcDbEntity
  8
DETAIL
100
AcDbLine
 10
-157.900000000001
 20
-324.3999999999996
 30
0.0
 11
157.8999999999978
 21
-324.4000000000001
 31
0.0
  0
INSERT
  5
316A
330
34C4
100
AcDbEntity
  8
0
100
AcDbBlockReference
  2
*U70
 10
0.0
 20
-0.0000000000000036
 30
0.0
1001
ACAD
1000
DSTYLE
1002
{
1070
    41
1040
12.0
1070
    42
1040
20.0
1070
    43
1040
200.0
1070
    44
1040
20.0
1070
    73
1070
     0
1070
    74
1070
     0
1070
    77
1070
     1
1070
    78
1070
     8
1070
   140
1040
64.0
1070
   147
1040
50.0
1070
   172
1070
     1
1070
   174
1070
     1
1070
   275
1070
     0
1070
   284
1070
     0
1070
   285
1070
     0
1070
   286
1070
     0
1070
   341
1005
0
1070
   342
1005
0
1002
}
  0
INSERT
  5
316B
330
34C4
100
AcDbEntity
  8
0
100
AcDbBlockReference
  2
*U71
 10
0.0
 20
-0.0000000000000036
 30
0.0
  0
LINE
  5
316C
330
34C4
100
AcDbEntity
  8
NOTE
100
AcDbLine
 39
50.0
 10
177.5
 20
-0.0000000000000036
 30
0.0
 11
202.5
 21
-0.0000000000000036
 31
0.0
  0
LINE
  5
316D
330
34C4
100
AcDbEntity
  8
NOTE
100
AcDbLine
 39
50.0
 10
-202.4999999999998
 20
-0.0000000000000036
 30
0.0
 11
-177.4999999999994
 21
-0.0000000000000036
 31
0.0
  0
LINE
  5
316E
330
34C4
100
AcDbEntity
  8
OUTLINE
100
AcDbLine
 39
50.0
 10
-207.4999999999998
 20
-0.0000000000000036
 30
0.0
 11
207.5
 21
-0.0000000000000036
 31
0.0
  0
LINE
  5
316F
330
34C4
100
AcDbEntity
  8
OUTLINE
100
AcDbLine
 10
-173.4999999999994
 20
-0.5999999999999126
 30
0.0
 11
-173.4999999999994
 21
-340.0
 31
0.0
  0
LINE
  5
3170
330
34C4
100
AcDbEntity
  8
OUTLINE
100
AcDbLine
 10
173.5
 20
-0.5999999999999126
 30
0.0
 11
173.5
 21
-340.0
 31
0.0
  0
POLYLINE
  5
3171
330
34C4
100
AcDbEntity
  8
OUTLINE
100
AcDb2dPolyline
 66
     1
 10
0.0
 20
0.0
 30
0.0
  0
VERTEX
  5
3172
330
3171
100
AcDbEntity
  8
OUTLINE
100
AcDbVertex
100
AcDb2dVertex
 10
-173.4999999999994
 20
-35.0
 30
0.0
  0
VERTEX
  5
3173
330
3171
100
AcDbEntity
  8
OUTLINE
100
AcDbVertex
100
AcDb2dVertex
 10
173.4999999999963
 20
-35.0
 30
0.0
  0
SEQEND
  5
3174
330
3171
100
AcDbEntity
  8
OUTLINE
  0
POLYLINE
  5
3175
330
34C4
100
AcDbEntity
  8
OUTLINE
100
AcDb2dPolyline
 66
     1
 10
0.0
 20
0.0
 30
0.0
  0
VERTEX
  5
3176
330
3175
100
AcDbEntity
  8
OUTLINE
100
AcDbVertex
100
AcDb2dVertex
 10
-207.4999999999998
 20
-0.5999999999999126
 30
0.0
  0
VERTEX
  5
3177
330
3175
100
AcDbEntity
  8
OUTLINE
100
AcDbVertex
100
AcDb2dVertex
 10
207.5
 20
-0.5999999999999126
 30
0.0
  0
SEQEND
  5
3178
330
3175
100
AcDbEntity
  8
OUTLINE
  0
LINE
  5
3179
330
34C4
100
AcDbEntity
  8
OUTLINE
100
AcDbLine
 10
-207.4999999999998
 20
-0.5999999999999126
 30
0.0
 11
-207.4999999999998
 21
-0.0000000000000036
 31
0.0
  0
LINE
  5
317A
330
34C4
100
AcDbEntity
  8
OUTLINE
100
AcDbLine
 10
207.5
 20
-0.5999999999999126
 30
0.0
 11
207.5
 21
-0.0000000000000036
 31
0.0
  0
LINE
  5
317B
330
34C4
100
AcDbEntity
  8
OUTLINE
100
AcDbLine
 10
-173.4999999999994
 20
-340.0
 30
0.0
 11
173.5
 21
-340.0
 31
0.0
  0
LINE
  5
317C
330
34C4
100
AcDbEntity
  8
DETAIL
100
AcDbLine
 10
157.8999999999978
 20
-50.59999999999989
 30
0.0
 11
157.8999999999978
 21
-324.4000000000001
 31
0.0
  0
LINE
  5
317D
330
34C4
100
AcDbEntity
  8
DETAIL
100
AcDbLine
 10
-157.9000000000046
 20
-50.59999999999989
 30
0.0
 11
-157.9000000000046
 21
-324.4000000000001
 31
0.0
  0
POLYLINE
  5
317E
330
34C4
100
AcDbEntity
  8
DETAIL
100
AcDb2dPolyline
 66
     1
 10
0.0
 20
0.0
 30
0.0
  0
VERTEX
  5
317F
330
317E
100
AcDbEntity
  8
DETAIL
100
AcDbVertex
100
AcDb2dVertex
 10
-157.9000000000046
 20
-50.59999999999989
 30
0.0
  0
VERTEX
  5
3180
330
317E
100
AcDbEntity
  8
DETAIL
100
AcDbVertex
100
AcDb2dVertex
 10
157.8999999999978
 20
-50.59999999999989
 30
0.0
  0
SEQEND
  5
3181
330
317E
100
AcDbEntity
  8
DETAIL
  0
LINE
  5
3182
330
34C4
100
AcDbEntity
  8
DETAIL
100
AcDbLine
 10
-157.9000000000046
 20
-324.4000000000001
 30
0.0
 11
157.8999999999978
 21
-324.4000000000001
 31
0.0
  0
LINE
  5
3183
330
34C4
100
AcDbEntity
  8
DETAIL
100
AcDbLine
 10
157.8999999999978
 20
-50.59999999999989
 30
0.0
 11
157.8999999999978
 21
-324.4000000000001
 31
0.0
  0
LINE
  5
3184
330
34C4
100
AcDbEntity
  8
DETAIL
100
AcDbLine
 10
-157.9000000000046
 20
-50.59999999999989
 30
0.0
 11
-157.9000000000046
 21
-324.4000000000001
 31
0.0
  0
POLYLINE
  5
3185
330
34C4
100
AcDbEntity
  8
DETAIL
100
AcDb2dPolyline
 66
     1
 10
0.0
 20
0.0
 30
0.0
  0
VERTEX
  5
3186
330
3185
100
AcDbEntity
  8
DETAIL
100
AcDbVertex
100
AcDb2dVertex
 10
-157.9000000000046
 20
-50.59999999999989
 30
0.0
  0
VERTEX
  5
3187
330
3185
100
AcDbEntity
  8
DETAIL
100
AcDbVertex
100
AcDb2dVertex
 10
157.8999999999978
 20
-50.59999999999989
 30
0.0
  0
SEQEND
  5
3188
330
3185
100
AcDbEntity
  8
DETAIL
  0
LINE
  5
3189
330
34C4
100
AcDbEntity
  8
DETAIL
100
AcDbLine
 10
-157.9000000000046
 20
-324.4000000000001
 30
0.0
 11
157.8999999999978
 21
-324.4000000000001
 31
0.0
  0
INSERT
  5
318A
330
34C4
100
AcDbEntity
  8
DETAIL
100
AcDbBlockReference
  2
*X72
 10
0.0
 20
-0.0000000000000036
 30
0.0
1001
ACADANNOTATIVE
1000
AnnotativeData
1002
{
1070
     1
1070
     0
1002
}
1001
ACAD
1000
HATCH
1002
{
1070
    19
1000
LINE
1040
72.22849999999998
1040
5.838766301980094
1000
R14_HATCH_DATA
1000
7DD5
1011
1.0
1021
-0.0000000000000036
1031
0.0
1011
0.0
1021
0.9999999999999964
1031
0.0
1011
0.0
1021
-0.0000000000000036
1031
1.0
1040
0.0
1010
0.0
1020
0.0
1030
1.0
1000
LINE
1070
     0
1070
     0
1071
        2
1071
        7
1070
     0
1070
     1
1071
        6
1040
-57.90000000000509
1040
-50.60000000000036
1040
-157.9000000000048
1040
-50.59999999999989
1040
-157.9000000000048
1040
-324.4000000000001
1040
157.8999999999978
1040
-324.4000000000001
1040
157.8999999999978
1040
-244.3999999999996
1040
-57.90000000000144
1040
-244.4000000000001
1071
        0
1071
       23
1070
     0
1070
     1
1071
        4
1040
157.8999999999978
1040
-244.3999999999996
1040
157.8999999999978
1040
-50.59999999999989
1040
-57.90000000000144
1040
-50.59999999999989
1040
-57.90000000000144
1040
-244.4000000000001
1071
        0
1070
     0
1070
     1
1040
5.838766301980094
1040
72.22849999999998
1070
     0
1070
     1
1040
5.838766301980094
1040
20491.02629795963
1040
2134.888922841017
1040
3.881680532789153
1040
8.151533417570705
1070
     0
1040
0.7609844465980295
1071
        2
1040
-112.6534514698287
1040
-129.1520792676106
1040
0.0
1040
56.2751664770949
1040
-167.3013186024036
1040
0.0
1002
}
  0
INSERT
  5
318B
330
34C4
100
AcDbEntity
  8
DETAIL
100
AcDbBlockReference
  2
*X73
 10
0.0
 20
-0.0000000000000036
 30
0.0
1001
ACADANNOTATIVE
1000
AnnotativeData
1002
{
1070
     1
1070
     0
1002
}
1001
ACAD
1000
HATCH
1002
{
1070
    19
1000
LINE
1040
72.22849999999998
1040
0.4444190051994898
1000
R14_HATCH_DATA
1000
7DDB
1011
1.0
1021
-0.0000000000000036
1031
0.0
1011
0.0
1021
0.9999999999999964
1031
0.0
1011
0.0
1021
-0.0000000000000036
1031
1.0
1040
0.0
1010
0.0
1020
0.0
1030
1.0
1000
LINE
1070
     0
1070
     0
1071
        2
1071
        7
1070
     0
1070
     1
1071
        6
1040
-57.90000000000144
1040
-50.59999999999989
1040
-157.9000000000048
1040
-50.59999999999989
1040
-157.9000000000048
1040
-324.4000000000001
1040
157.8999999999978
1040
-324.4000000000001
1040
157.8999999999978
1040
-244.3999999999996
1040
-57.90000000000144
1040
-244.4000000000001
1071
        0
1071
       23
1070
     0
1070
     1
1071
        4
1040
157.8999999999978
1040
-50.59999999999989
1040
-57.90000000000144
1040
-50.59999999999989
1040
-57.90000000000144
1040
-244.4000000000001
1040
157.8999999999978
1040
-244.3999999999996
1071
        0
1070
     0
1070
     1
1040
0.4444190051994898
1040
72.22849999999998
1070
     0
1070
     1
1040
0.4444190051994898
1040
20491.02629795963
1040
2134.888922841017
1040
-3.881680532789157
1040
8.151533417570702
1070
     0
1040
1.338613578871922
1071
        3
1040
-124.3864905705122
1040
-135.4640307035856
1040
0.0
1040
-99.17505417876236
1040
-176.2170602760502
1040
0.0
1040
81.26755731206868
1040
-166.9238295722171
1040
0.0
1002
}
  0
LINE
  5
318C
330
34C4
100
AcDbEntity
  8
SIZE
100
AcDbLine
 10
190.0
 20
32.5
 30
0.0
 11
190.0
 21
180.9320910096174
 31
0.0
  0
LINE
  5
318D
330
34C4
100
AcDbEntity
  8
SIZE
100
AcDbLine
 10
-189.9999999999994
 20
32.5
 30
0.0
 11
-189.9999999999994
 21
180.9320910096174
 31
0.0
  0
LINE
  5
318E
330
34C4
100
AcDbEntity
  8
SIZE
100
AcDbLine
 10
178.0
 20
160.9320910096176
 30
0.0
 11
-177.9999999999998
 21
160.9320910096176
 31
0.0
  0
INSERT
  5
318F
330
34C4
100
AcDbEntity
  8
SIZE
100
AcDbBlockReference
  2
_DOTBLANK
 10
190.0
 20
160.9320910096176
 30
0.0
 41
12.0
 42
12.0
 43
12.0
  0
INSERT
  5
3190
330
34C4
100
AcDbEntity
  8
SIZE
100
AcDbBlockReference
  2
_DOTBLANK
 10
-189.9999999999994
 20
160.9320910096176
 30
0.0
 41
12.0
 42
12.0
 43
12.0
 50
180.0
  0
LINE
  5
3191
330
34C4
100
AcDbEntity
  8
SIZE
100
AcDbLine
 10
207.5
 20
20.0
 30
0.0
 11
207.5
 21
299.4865929365169
 31
0.0
  0
LINE
  5
3192
330
34C4
100
AcDbEntity
  8
SIZE
100
AcDbLine
 10
-207.4999999999998
 20
20.0
 30
0.0
 11
-207.4999999999995
 21
299.4865929365169
 31
0.0
  0
LINE
  5
3193
330
34C4
100
AcDbEntity
  8
SIZE
100
AcDbLine
 10
195.5
 20
279.4865929365169
 30
0.0
 11
-195.4999999999994
 21
279.4865929365169
 31
0.0
  0
INSERT
  5
3194
330
34C4
100
AcDbEntity
  8
SIZE
100
AcDbBlockReference
  2
_DOTBLANK
 10
207.5
 20
279.4865929365169
 30
0.0
 41
12.0
 42
12.0
 43
12.0
  0
INSERT
  5
3195
330
34C4
100
AcDbEntity
  8
SIZE
100
AcDbBlockReference
  2
_DOTBLANK
 10
-207.4999999999995
 20
279.4865929365169
 30
0.0
 41
12.0
 42
12.0
 43
12.0
 50
180.0
  0
LINE
  5
3196
330
34C4
100
AcDbEntity
  8
SIZE
100
AcDbLine
 10
-193.4999999999998
 20
-340.0
 30
0.0
 11
-345.3170819897092
 21
-340.0
 31
0.0
  0
LINE
  5
3197
330
34C4
100
AcDbEntity
  8
SIZE
100
AcDbLine
 10
-227.4999999999998
 20
-0.0000000000000036
 30
0.0
 11
-345.3170819897092
 21
-0.0000000000000036
 31
0.0
  0
LINE
  5
3198
330
34C4
100
AcDbEntity
  8
SIZE
100
AcDbLine
 10
-325.3170819897093
 20
-328.0
 30
0.0
 11
-325.3170819897093
 21
-11.99999999999994
 31
0.0
  0
INSERT
  5
3199
330
34C4
100
AcDbEntity
  8
SIZE
100
AcDbBlockReference
  2
_DOTBLANK
 10
-325.3170819897093
 20
-340.0
 30
0.0
 41
12.0
 42
12.0
 43
12.0
 50
270.0
  0
INSERT
  5
319A
330
34C4
100
AcDbEntity
  8
SIZE
100
AcDbBlockReference
  2
_DOTBLANK
 10
-325.3170819897093
 20
-0.0000000000000036
 30
0.0
 41
12.0
 42
12.0
 43
12.0
 50
90.0
  0
LINE
  5
319B
330
34C4
100
AcDbEntity
  8
SIZE
100
AcDbLine
 10
173.5
 20
-360.0
 30
0.0
 11
173.5
 21
-519.8785026932937
 31
0.0
  0
LINE
  5
319C
330
34C4
100
AcDbEntity
  8
SIZE
100
AcDbLine
 10
-173.4999999999994
 20
-360.0
 30
0.0
 11
-173.4999999999994
 21
-519.8785026932937
 31
0.0
  0
LINE
  5
319D
330
34C4
100
AcDbEntity
  8
SIZE
100
AcDbLine
 10
161.5
 20
-499.8785026932936
 30
0.0
 11
-161.4999999999994
 21
-499.8785026932936
 31
0.0
  0
INSERT
  5
319E
330
34C4
100
AcDbEntity
  8
SIZE
100
AcDbBlockReference
  2
_DOTBLANK
 10
173.5
 20
-499.8785026932936
 30
0.0
 41
12.0
 42
12.0
 43
12.0
  0
INSERT
  5
319F
330
34C4
100
AcDbEntity
  8
SIZE
100
AcDbBlockReference
  2
_DOTBLANK
 10
-173.4999999999994
 20
-499.8785026932936
 30
0.0
 41
12.0
 42
12.0
 43
12.0
 50
180.0
  0
TEXT
  5
31A0
330
34C4
100
AcDbEntity
  8
SIZE
100
AcDbText
 10
-68.57142857142844
 20
289.4865929365169
 30
0.0
 40
64.0
  1
415
 41
0.9
100
AcDbText
  0
TEXT
  5
31A1
330
34C4
100
AcDbEntity
  8
SIZE
100
AcDbText
 10
-74.61302049113601
 20
170.9320910096176
 30
0.0
 40
64.0
  1
380
 41
0.9
100
AcDbText
  0
TEXT
  5
31A2
330
34C4
100
AcDbEntity
  8
SIZE
100
AcDbText
 10
-335.3170819897093
 20
-236.9832365731448
 30
0.0
 40
64.0
  1
340
 50
90.0
 41
0.9
100
AcDbText
  0
TEXT
  5
31A3
330
34C4
100
AcDbEntity
  8
SIZE
100
AcDbText
 10
-74.05714285714293
 20
-489.8785026932936
 30
0.0
 40
64.0
  1
347
 41
0.9
100
AcDbText
  0
ENDSEC
  0
SECTION
  2
OBJECTS
  0
DICTIONARY
  5
345C
330
0
100
AcDbDictionary
281
     1
  3
ACAD_2007HEADERVARS_RT
350
36B1
  3
ACAD_COLOR
350
34BA
  3
ACAD_GROUP
350
345D
  3
ACAD_LAYOUT
350
34B9
  3
ACAD_MATERIAL
350
3460
  3
ACAD_MLEADERSTYLE
350
34BD
  3
ACAD_MLINESTYLE
350
34B6
  3
ACAD_PLOTSETTINGS
350
34B8
  3
ACAD_PLOTSTYLENAME
350
345E
  3
ACAD_SCALELIST
350
348A
  3
ACAD_TABLESTYLE
350
34BB
  3
ACAD_VISUALSTYLE
350
3479
  3
ACDB_RECOMPOSE_DATA
350
36AF
  3
AcDbVariableDictionary
350
36A6
  3
AcmDictionary
350
3659
  3
AMG
350
35A6
  3
DWGPROPS
350
36B0
  3
MAPISURF_MODULE
350
3626
  0
DICTIONARY
  5
3681
330
34AC
100
AcDbDictionary
280
     1
281
     1
  3
ADSK_XREC_LAYER_RECONCILED
360
3682
  0
DICTIONARY
  5
3683
330
34DB
100
AcDbDictionary
280
     1
281
     1
  3
ADSK_XREC_LAYER_RECONCILED
360
3684
  0
DICTIONARY
  5
3685
330
34DC
100
AcDbDictionary
280
     1
281
     1
  3
ADSK_XREC_LAYER_RECONCILED
360
3686
  0
DICTIONARY
  5
3687
330
34DD
100
AcDbDictionary
280
     1
281
     1
  3
ADSK_XREC_LAYER_RECONCILED
360
3688
  0
DICTIONARY
  5
3689
330
34DE
100
AcDbDictionary
280
     1
281
     1
  3
ADSK_XREC_LAYER_RECONCILED
360
368A
  0
DICTIONARY
  5
368B
330
34DF
100
AcDbDictionary
280
     1
281
     1
  3
ADSK_XREC_LAYER_RECONCILED
360
368C
  0
DICTIONARY
  5
368D
330
34E1
100
AcDbDictionary
280
     1
281
     1
  3
ADSK_XREC_LAYER_RECONCILED
360
368E
  0
DICTIONARY
  5
368F
330
34E2
100
AcDbDictionary
280
     1
281
     1
  3
ADSK_XREC_LAYER_RECONCILED
360
3690
  0
DICTIONARY
  5
3691
330
34E3
100
AcDbDictionary
280
     1
281
     1
  3
ADSK_XREC_LAYER_RECONCILED
360
3692
  0
DICTIONARY
  5
3693
330
34E4
100
AcDbDictionary
280
     1
281
     1
  3
ADSK_XREC_LAYER_RECONCILED
360
3694
  0
DICTIONARY
  5
3695
330
34E5
100
AcDbDictionary
280
     1
281
     1
  3
ADSK_XREC_LAYER_RECONCILED
360
3696
  0
DICTIONARY
  5
3697
330
34C4
100
AcDbDictionary
280
     1
281
     1
  3
ACAD_INDEX
360
3698
  0
DICTIONARY
  5
36B1
102
{ACAD_REACTORS
330
345C
102
}
330
345C
100
AcDbDictionary
281
     1
  3
DIMARCSYM
350
36B2
  3
DIMLTEX1
350
36B4
  3
DIMLTEX2
350
36B5
  3
DIMLTYPE
350
36B3
  0
DICTIONARY
  5
34BA
102
{ACAD_REACTORS
330
345C
102
}
330
345C
100
AcDbDictionary
281
     1
  0
DICTIONARY
  5
345D
102
{ACAD_REACTORS
330
345C
102
}
330
345C
100
AcDbDictionary
281
     1
  0
DICTIONARY
  5
34B9
102
{ACAD_REACTORS
330
345C
102
}
330
345C
100
AcDbDictionary
281
     1
  3
Model
350
34C7
  3
レイアウト1
350
34C3
  0
DICTIONARY
  5
3460
102
{ACAD_REACTORS
330
345C
102
}
330
345C
100
AcDbDictionary
281
     1
  3
ByBlock
350
3469
  3
ByLayer
350
3461
  3
Global
350
3471
  0
DICTIONARY
  5
34BD
102
{ACAD_REACTORS
330
345C
102
}
330
345C
100
AcDbDictionary
281
     1
  3
Standard
350
34BE
  0
DICTIONARY
  5
34B6
102
{ACAD_REACTORS
330
345C
102
}
330
345C
100
AcDbDictionary
281
     1
  3
Standard
350
34B7
  0
DICTIONARY
  5
34B8
102
{ACAD_REACTORS
330
345C
102
}
330
345C
100
AcDbDictionary
281
     1
  0
ACDBDICTIONARYWDFLT
  5
345E
102
{ACAD_REACTORS
330
345C
102
}
330
345C
100
AcDbDictionary
281
     1
  3
Normal
350
345F
100
AcDbDictionaryWithDefault
340
345F
  0
DICTIONARY
  5
348A
102
{ACAD_REACTORS
330
345C
102
}
330
345C
100
AcDbDictionary
281
     1
  3
A0
350
348B
  3
A1
350
348C
  3
A2
350
348D
  3
A3
350
348E
  3
A4
350
348F
  3
A5
350
3490
  3
A6
350
3491
  3
A7
350
3492
  3
A8
350
3493
  3
A9
350
3494
  3
B0
350
3495
  3
B1
350
3496
  3
B2
350
3497
  3
B3
350
3498
  3
B4
350
3499
  3
B5
350
349A
  3
B6
350
349B
  3
B7
350
349C
  3
B8
350
349D
  3
B9
350
349E
  3
C0
350
349F
  3
C1
350
34A0
  3
C2
350
34A1
  3
C3
350
34A2
  3
C4
350
34A3
  3
C5
350
34A4
  3
C6
350
34A5
  3
C7
350
34A6
  3
C8
350
34A7
  3
C9
350
34A8
  3
D0
350
34A9
  3
D1
350
34AA
  3
D2
350
34AB
  0
DICTIONARY
  5
34BB
102
{ACAD_REACTORS
330
345C
102
}
330
345C
100
AcDbDictionary
281
     1
  3
Standard
350
34BC
  0
DICTIONARY
  5
3479
102
{ACAD_REACTORS
330
345C
102
}
330
345C
100
AcDbDictionary
281
     1
  3
2dWireframe
350
347F
  3
3D Hidden
350
3481
  3
3dWireframe
350
3480
  3
Basic
350
347E
  3
Brighten
350
3485
  3
ColorChange
350
3489
  3
Conceptual
350
3482
  3
Dim
350
3484
  3
Facepattern
350
3488
  3
Flat
350
347A
  3
FlatWithEdges
350
347B
  3
Gouraud
350
347C
  3
GouraudWithEdges
350
347D
  3
Linepattern
350
3487
  3
Realistic
350
3483
  3
Thicken
350
3486
  0
XRECORD
  5
36AF
102
{ACAD_REACTORS
330
345C
102
}
330
345C
100
AcDbXrecord
280
     1
 90
        1
330
34BC
  0
DICTIONARY
  5
36A6
102
{ACAD_REACTORS
330
345C
102
}
330
345C
100
AcDbDictionary
281
     1
  3
CANNOSCALE
350
36A9
  3
CMLEADERSTYLE
350
36A8
  3
CTABLESTYLE
350
36A7
  3
DIMASSOC
350
36AC
  3
INDEXCTL
350
36AB
  3
SORTENTS
350
36AA
  0
DICTIONARY
  5
3659
102
{ACAD_REACTORS
330
345C
102
}
330
345C
100
AcDbDictionary
281
     1
  3
AcmStdDictionary
350
3667
  0
DICTIONARY
  5
35A6
102
{ACAD_REACTORS
330
345C
102
}
330
345C
100
AcDbDictionary
281
     1
  3
AcMgSettings
350
35A7
  0
XRECORD
  5
36B0
102
{ACAD_REACTORS
330
345C
102
}
330
345C
100
AcDbXrecord
280
     1
  1
DWGPROPS COOKIE
  2

  3

  4

  6

  7

  8
A090053
  9

300
AmdtFileType=84
301
=
302
=
303
=
304
=
305
=
306
=
307
=
308
=
309
=
 40
1.042873668981481
 41
2452321.396199653
 42
2456210.787236817
  1

 90
        1
  0
XRECORD
  5
3682
102
{ACAD_REACTORS
330
3681
102
}
330
3681
100
AcDbXrecord
280
     1
290
     1
  0
XRECORD
  5
3684
102
{ACAD_REACTORS
330
3683
102
}
330
3683
100
AcDbXrecord
280
     1
290
     1
  0
XRECORD
  5
3686
102
{ACAD_REACTORS
330
3685
102
}
330
3685
100
AcDbXrecord
280
     1
290
     1
  0
XRECORD
  5
3688
102
{ACAD_REACTORS
330
3687
102
}
330
3687
100
AcDbXrecord
280
     1
290
     1
  0
XRECORD
  5
368A
102
{ACAD_REACTORS
330
3689
102
}
330
3689
100
AcDbXrecord
280
     1
290
     1
  0
XRECORD
  5
368C
102
{ACAD_REACTORS
330
368B
102
}
330
368B
100
AcDbXrecord
280
     1
290
     1
  0
XRECORD
  5
368E
102
{ACAD_REACTORS
330
368D
102
}
330
368D
100
AcDbXrecord
280
     1
290
     1
  0
XRECORD
  5
3690
102
{ACAD_REACTORS
330
368F
102
}
330
368F
100
AcDbXrecord
280
     1
290
     1
  0
XRECORD
  5
3692
102
{ACAD_REACTORS
330
3691
102
}
330
3691
100
AcDbXrecord
280
     1
290
     1
  0
XRECORD
  5
3694
102
{ACAD_REACTORS
330
3693
102
}
330
3693
100
AcDbXrecord
280
     1
290
     1
  0
XRECORD
  5
3696
102
{ACAD_REACTORS
330
3695
102
}
330
3695
100
AcDbXrecord
280
     1
290
     1
  0
DICTIONARY
  5
3698
102
{ACAD_REACTORS
330
3697
102
}
330
3697
100
AcDbDictionary
281
     1
  3
*A1
350
3699
  0
XRECORD
  5
36B2
102
{ACAD_REACTORS
330
36B1
102
}
330
36B1
100
AcDbXrecord
280
     1
 70
     1
  0
XRECORD
  5
36B4
102
{ACAD_REACTORS
330
36B1
102
}
330
36B1
100
AcDbXrecord
280
     1
340
34B2
  0
XRECORD
  5
36B5
102
{ACAD_REACTORS
330
36B1
102
}
330
36B1
100
AcDbXrecord
280
     1
340
34B2
  0
XRECORD
  5
36B3
102
{ACAD_REACTORS
330
36B1
102
}
330
36B1
100
AcDbXrecord
280
     1
340
34B2
  0
LAYOUT
  5
34C7
102
{ACAD_XDICTIONARY
360
36BC
102
}
102
{ACAD_REACTORS
330
34B9
102
}
330
34B9
100
AcDbPlotSettings
  1

  2
自動 EPSON LP-9600S (W2450527 上)
  4

  6

 40
0.0
 41
0.0
 42
0.0
 43
0.0
 44
0.0
 45
0.0
 46
0.0
 47
0.0
 48
0.0
 49
0.0
140
0.0
141
0.0
142
1.0
143
1.0
 70
  1712
 72
     0
 73
     0
 74
     0
  7

 75
     0
147
1.0
148
0.0
149
0.0
100
AcDbLayout
  1
Model
 70
     1
 71
     0
 10
0.0
 20
0.0
 11
12.0
 21
9.0
 12
0.0
 22
0.0
 32
0.0
 14
0.0
 24
0.0
 34
0.0
 15
0.0
 25
0.0
 35
0.0
146
0.0
 13
0.0
 23
0.0
 33
0.0
 16
1.0
 26
0.0
 36
0.0
 17
0.0
 27
1.0
 37
0.0
 76
     0
330
34C4
331
34C8
  0
LAYOUT
  5
34C3
102
{ACAD_XDICTIONARY
360
36BA
102
}
102
{ACAD_REACTORS
330
34B9
102
}
330
34B9
100
AcDbPlotSettings
  1

  2
自動 EPSON LP-9600S (W2450527 上)
  4

  6

 40
0.0
 41
0.0
 42
0.0
 43
0.0
 44
0.0
 45
0.0
 46
0.0
 47
0.0
 48
0.0
 49
0.0
140
0.0
141
0.0
142
1.0
143
1.0
 70
   688
 72
     0
 73
     0
 74
     5
  7

 75
    16
147
1.0
148
0.0
149
0.0
100
AcDbLayout
  1
レイアウト1
 70
     1
 71
     1
 10
0.0
 20
0.0
 11
12.0
 21
9.0
 12
0.0
 22
0.0
 32
0.0
 14
1.000000000000000E+20
 24
1.000000000000000E+20
 34
1.000000000000000E+20
 15
-1.000000000000000E+20
 25
-1.000000000000000E+20
 35
-1.000000000000000E+20
146
0.0
 13
0.0
 23
0.0
 33
0.0
 16
1.0
 26
0.0
 36
0.0
 17
0.0
 27
1.0
 37
0.0
 76
     0
330
34C0
  0
MATERIAL
  5
3469
102
{ACAD_XDICTIONARY
360
346A
102
}
102
{ACAD_REACTORS
330
3460
102
}
330
3460
100
AcDbMaterial
  1
ByBlock
 72
     0
 43
0.0208333333333333
 43
0.0
 43
0.0
 43
0.0
 43
0.0
 43
0.0208333333333333
 43
0.0
 43
0.0
 43
0.0
 43
0.0
 43
1.0
 43
0.0
 43
0.0
 43
0.0
 43
0.0
 43
1.0
 77
     0
 47
0.0208333333333333
 47
0.0
 47
0.0
 47
0.0
 47
0.0
 47
0.0208333333333333
 47
0.0
 47
0.0
 47
0.0
 47
0.0
 47
1.0
 47
0.0
 47
0.0
 47
0.0
 47
0.0
 47
1.0
171
     0
 49
0.0208333333333333
 49
0.0
 49
0.0
 49
0.0
 49
0.0
 49
0.0208333333333333
 49
0.0
 49
0.0
 49
0.0
 49
0.0
 49
1.0
 49
0.0
 49
0.0
 49
0.0
 49
0.0
 49
1.0
175
     0
142
0.0208333333333333
142
0.0
142
0.0
142
0.0
142
0.0
142
0.0208333333333333
142
0.0
142
0.0
142
0.0
142
0.0
142
1.0
142
0.0
142
0.0
142
0.0
142
0.0
142
1.0
179
     0
144
0.0208333333333333
144
0.0
144
0.0
144
0.0
144
0.0
144
0.0208333333333333
144
0.0
144
0.0
144
0.0
144
0.0
144
1.0
144
0.0
144
0.0
144
0.0
144
0.0
144
1.0
147
0.0208333333333333
147
0.0
147
0.0
147
0.0
147
0.0
147
0.0208333333333333
147
0.0
147
0.0
147
0.0
147
0.0
147
1.0
147
0.0
147
0.0
147
0.0
147
0.0
147
1.0
  0
MATERIAL
  5
3461
102
{ACAD_XDICTIONARY
360
3462
102
}
102
{ACAD_REACTORS
330
3460
102
}
330
3460
100
AcDbMaterial
  1
ByLayer
 72
     0
 43
0.0208333333333333
 43
0.0
 43
0.0
 43
0.0
 43
0.0
 43
0.0208333333333333
 43
0.0
 43
0.0
 43
0.0
 43
0.0
 43
1.0
 43
0.0
 43
0.0
 43
0.0
 43
0.0
 43
1.0
 77
     0
 47
0.0208333333333333
 47
0.0
 47
0.0
 47
0.0
 47
0.0
 47
0.0208333333333333
 47
0.0
 47
0.0
 47
0.0
 47
0.0
 47
1.0
 47
0.0
 47
0.0
 47
0.0
 47
0.0
 47
1.0
171
     0
 49
0.0208333333333333
 49
0.0
 49
0.0
 49
0.0
 49
0.0
 49
0.0208333333333333
 49
0.0
 49
0.0
 49
0.0
 49
0.0
 49
1.0
 49
0.0
 49
0.0
 49
0.0
 49
0.0
 49
1.0
175
     0
142
0.0208333333333333
142
0.0
142
0.0
142
0.0
142
0.0
142
0.0208333333333333
142
0.0
142
0.0
142
0.0
142
0.0
142
1.0
142
0.0
142
0.0
142
0.0
142
0.0
142
1.0
179
     0
144
0.0208333333333333
144
0.0
144
0.0
144
0.0
144
0.0
144
0.0208333333333333
144
0.0
144
0.0
144
0.0
144
0.0
144
1.0
144
0.0
144
0.0
144
0.0
144
0.0
144
1.0
147
0.0208333333333333
147
0.0
147
0.0
147
0.0
147
0.0
147
0.0208333333333333
147
0.0
147
0.0
147
0.0
147
0.0
147
1.0
147
0.0
147
0.0
147
0.0
147
0.0
147
1.0
  0
MATERIAL
  5
3471
102
{ACAD_XDICTIONARY
360
3472
102
}
102
{ACAD_REACTORS
330
3460
102
}
330
3460
100
AcDbMaterial
  1
Global
 72
     0
 43
0.0208333333333333
 43
0.0
 43
0.0
 43
0.0
 43
0.0
 43
0.0208333333333333
 43
0.0
 43
0.0
 43
0.0
 43
0.0
 43
1.0
 43
0.0
 43
0.0
 43
0.0
 43
0.0
 43
1.0
 77
     0
 47
0.0208333333333333
 47
0.0
 47
0.0
 47
0.0
 47
0.0
 47
0.0208333333333333
 47
0.0
 47
0.0
 47
0.0
 47
0.0
 47
1.0
 47
0.0
 47
0.0
 47
0.0
 47
0.0
 47
1.0
171
     0
 49
0.0208333333333333
 49
0.0
 49
0.0
 49
0.0
 49
0.0
 49
0.0208333333333333
 49
0.0
 49
0.0
 49
0.0
 49
0.0
 49
1.0
 49
0.0
 49
0.0
 49
0.0
 49
0.0
 49
1.0
175
     0
142
0.0208333333333333
142
0.0
142
0.0
142
0.0
142
0.0
142
0.0208333333333333
142
0.0
142
0.0
142
0.0
142
0.0
142
1.0
142
0.0
142
0.0
142
0.0
142
0.0
142
1.0
179
     0
144
0.0208333333333333
144
0.0
144
0.0
144
0.0
144
0.0
144
0.0208333333333333
144
0.0
144
0.0
144
0.0
144
0.0
144
1.0
144
0.0
144
0.0
144
0.0
144
0.0
144
1.0
147
0.0208333333333333
147
0.0
147
0.0
147
0.0
147
0.0
147
0.0208333333333333
147
0.0
147
0.0
147
0.0
147
0.0
147
1.0
147
0.0
147
0.0
147
0.0
147
0.0
147
1.0
  0
MLEADERSTYLE
  5
34BE
102
{ACAD_REACTORS
330
34BD
102
}
330
34BD
100
AcDbMLeaderStyle
170
     2
171
     1
172
     0
 90
        2
 40
0.0
 41
0.0
173
     1
 91
-1056964608
340
34B2
 92
       -2
290
     1
 42
0.09
291
     1
 43
0.36
  3
Standard
 44
0.18
300

342
34AD
174
     1
178
     6
175
     1
176
     0
 93
-1056964608
 45
0.18
292
     0
297
     0
 46
0.18
 94
-1056964608
 47
1.0
 49
1.0
140
1.0
293
     1
141
0.0
294
     1
177
     0
142
1.0
295
     0
296
     0
143
0.125
1001
ACAD_MLEADERVER
1070
     2
  0
MLINESTYLE
  5
34B7
102
{ACAD_REACTORS
330
34B6
102
}
330
34B6
100
AcDbMlineStyle
  2
STANDARD
 70
     0
  3

 62
   256
 51
90.0
 52
90.0
 71
     2
 49
0.5
 62
   256
  6
BYLAYER
 49
-0.5
 62
   256
  6
BYLAYER
  0
ACDBPLACEHOLDER
  5
345F
102
{ACAD_REACTORS
330
345E
102
}
330
345E
  0
SCALE
  5
348B
102
{ACAD_REACTORS
330
348A
102
}
330
348A
100
AcDbScale
 70
     0
300
1:1
140
1.0
141
1.0
290
     1
  0
SCALE
  5
348C
102
{ACAD_REACTORS
330
348A
102
}
330
348A
100
AcDbScale
 70
     0
300
1:2
140
1.0
141
2.0
290
     0
  0
SCALE
  5
348D
102
{ACAD_REACTORS
330
348A
102
}
330
348A
100
AcDbScale
 70
     0
300
1:4
140
1.0
141
4.0
290
     0
  0
SCALE
  5
348E
102
{ACAD_REACTORS
330
348A
102
}
330
348A
100
AcDbScale
 70
     0
300
1:5
140
1.0
141
5.0
290
     0
  0
SCALE
  5
348F
102
{ACAD_REACTORS
330
348A
102
}
330
348A
100
AcDbScale
 70
     0
300
1:8
140
1.0
141
8.0
290
     0
  0
SCALE
  5
3490
102
{ACAD_REACTORS
330
348A
102
}
330
348A
100
AcDbScale
 70
     0
300
1:10
140
1.0
141
10.0
290
     0
  0
SCALE
  5
3491
102
{ACAD_REACTORS
330
348A
102
}
330
348A
100
AcDbScale
 70
     0
300
1:16
140
1.0
141
16.0
290
     0
  0
SCALE
  5
3492
102
{ACAD_REACTORS
330
348A
102
}
330
348A
100
AcDbScale
 70
     0
300
1:20
140
1.0
141
20.0
290
     0
  0
SCALE
  5
3493
102
{ACAD_REACTORS
330
348A
102
}
330
348A
100
AcDbScale
 70
     0
300
1:30
140
1.0
141
30.0
290
     0
  0
SCALE
  5
3494
102
{ACAD_REACTORS
330
348A
102
}
330
348A
100
AcDbScale
 70
     0
300
1:40
140
1.0
141
40.0
290
     0
  0
SCALE
  5
3495
102
{ACAD_REACTORS
330
348A
102
}
330
348A
100
AcDbScale
 70
     0
300
1:50
140
1.0
141
50.0
290
     0
  0
SCALE
  5
3496
102
{ACAD_REACTORS
330
348A
102
}
330
348A
100
AcDbScale
 70
     0
300
1:100
140
1.0
141
100.0
290
     0
  0
SCALE
  5
3497
102
{ACAD_REACTORS
330
348A
102
}
330
348A
100
AcDbScale
 70
     0
300
2:1
140
2.0
141
1.0
290
     0
  0
SCALE
  5
3498
102
{ACAD_REACTORS
330
348A
102
}
330
348A
100
AcDbScale
 70
     0
300
4:1
140
4.0
141
1.0
290
     0
  0
SCALE
  5
3499
102
{ACAD_REACTORS
330
348A
102
}
330
348A
100
AcDbScale
 70
     0
300
8:1
140
8.0
141
1.0
290
     0
  0
SCALE
  5
349A
102
{ACAD_REACTORS
330
348A
102
}
330
348A
100
AcDbScale
 70
     0
300
10:1
140
10.0
141
1.0
290
     0
  0
SCALE
  5
349B
102
{ACAD_REACTORS
330
348A
102
}
330
348A
100
AcDbScale
 70
     0
300
100:1
140
100.0
141
1.0
290
     0
  0
SCALE
  5
349C
102
{ACAD_REACTORS
330
348A
102
}
330
348A
100
AcDbScale
 70
     0
300
1/128" = 1'-0"
140
0.0078125
141
12.0
290
     0
  0
SCALE
  5
349D
102
{ACAD_REACTORS
330
348A
102
}
330
348A
100
AcDbScale
 70
     0
300
1/64" = 1'-0"
140
0.015625
141
12.0
290
     0
  0
SCALE
  5
349E
102
{ACAD_REACTORS
330
348A
102
}
330
348A
100
AcDbScale
 70
     0
300
1/32" = 1'-0"
140
0.03125
141
12.0
290
     0
  0
SCALE
  5
349F
102
{ACAD_REACTORS
330
348A
102
}
330
348A
100
AcDbScale
 70
     0
300
1/16" = 1'-0"
140
0.0625
141
12.0
290
     0
  0
SCALE
  5
34A0
102
{ACAD_REACTORS
330
348A
102
}
330
348A
100
AcDbScale
 70
     0
300
3/32" = 1'-0"
140
0.09375
141
12.0
290
     0
  0
SCALE
  5
34A1
102
{ACAD_REACTORS
330
348A
102
}
330
348A
100
AcDbScale
 70
     0
300
1/8" = 1'-0"
140
0.125
141
12.0
290
     0
  0
SCALE
  5
34A2
102
{ACAD_REACTORS
330
348A
102
}
330
348A
100
AcDbScale
 70
     0
300
3/16" = 1'-0"
140
0.1875
141
12.0
290
     0
  0
SCALE
  5
34A3
102
{ACAD_REACTORS
330
348A
102
}
330
348A
100
AcDbScale
 70
     0
300
1/4" = 1'-0"
140
0.25
141
12.0
290
     0
  0
SCALE
  5
34A4
102
{ACAD_REACTORS
330
348A
102
}
330
348A
100
AcDbScale
 70
     0
300
3/8" = 1'-0"
140
0.375
141
12.0
290
     0
  0
SCALE
  5
34A5
102
{ACAD_REACTORS
330
348A
102
}
330
348A
100
AcDbScale
 70
     0
300
1/2" = 1'-0"
140
0.5
141
12.0
290
     0
  0
SCALE
  5
34A6
102
{ACAD_REACTORS
330
348A
102
}
330
348A
100
AcDbScale
 70
     0
300
3/4" = 1'-0"
140
0.75
141
12.0
290
     0
  0
SCALE
  5
34A7
102
{ACAD_REACTORS
330
348A
102
}
330
348A
100
AcDbScale
 70
     0
300
1" = 1'-0"
140
1.0
141
12.0
290
     0
  0
SCALE
  5
34A8
102
{ACAD_REACTORS
330
348A
102
}
330
348A
100
AcDbScale
 70
     0
300
1-1/2" = 1'-0"
140
1.5
141
12.0
290
     0
  0
SCALE
  5
34A9
102
{ACAD_REACTORS
330
348A
102
}
330
348A
100
AcDbScale
 70
     0
300
3" = 1'-0"
140
3.0
141
12.0
290
     0
  0
SCALE
  5
34AA
102
{ACAD_REACTORS
330
348A
102
}
330
348A
100
AcDbScale
 70
     0
300
6" = 1'-0"
140
6.0
141
12.0
290
     0
  0
SCALE
  5
34AB
102
{ACAD_REACTORS
330
348A
102
}
330
348A
100
AcDbScale
 70
     0
300
1'-0" = 1'-0"
140
12.0
141
12.0
290
     0
  0
TABLESTYLE
  5
34BC
102
{ACAD_XDICTIONARY
360
36AD
102
}
102
{ACAD_REACTORS
330
34BB
102
}
330
34BB
100
AcDbTableStyle
  3
Standard
 70
     0
 71
     0
 40
0.06
 41
0.06
280
     0
281
     0
  7
STANDARD
140
0.18
170
     2
 62
     0
 63
     7
283
     0
274
    -2
284
     1
 64
     0
275
    -2
285
     1
 65
     0
276
    -2
286
     1
 66
     0
277
    -2
287
     1
 67
     0
278
    -2
288
     1
 68
     0
279
    -2
289
     1
 69
     0
  7
STANDARD
140
0.25
170
     5
 62
     0
 63
     7
283
     0
274
    -2
284
     1
 64
     0
275
    -2
285
     1
 65
     0
276
    -2
286
     1
 66
     0
277
    -2
287
     1
 67
     0
278
    -2
288
     1
 68
     0
279
    -2
289
     1
 69
     0
  7
STANDARD
140
0.18
170
     5
 62
     0
 63
     7
283
     0
274
    -2
284
     1
 64
     0
275
    -2
285
     1
 65
     0
276
    -2
286
     1
 66
     0
277
    -2
287
     1
 67
     0
278
    -2
288
     1
 68
     0
279
    -2
289
     1
 69
     0
  0
VISUALSTYLE
  5
347F
102
{ACAD_REACTORS
330
3479
102
}
330
3479
100
AcDbVisualStyle
  2
2dWireframe
 70
     4
 71
     0
 72
     2
 73
     0
 90
        0
 40
-0.6
 41
-30.0
 62
     5
 63
     7
 74
     1
 91
        4
 64
     7
 65
   257
 75
     1
175
     1
 42
1.0
 92
        0
 66
   257
 43
1.0
 76
     1
 77
     6
 78
     2
 67
     7
 79
     5
170
     0
171
     0
290
     0
174
     0
 93
        1
 44
0.0
173
     0
291
     0
 45
0.0
1001
ACAD
1000
AcDbSavedByObjectVersion
1070
     0
  0
VISUALSTYLE
  5
3481
102
{ACAD_REACTORS
330
3479
102
}
330
3479
100
AcDbVisualStyle
  2
3D Hidden
 70
     6
 71
     1
 72
     2
 73
     2
 90
        0
 40
-0.6
 41
-30.0
 62
     5
 63
     7
 74
     2
 91
        2
 64
     7
 65
   257
 75
     2
175
     1
 42
40.0
 92
        0
 66
   257
 43
1.0
 76
     1
 77
     6
 78
     2
 67
     7
 79
     3
170
     0
171
     0
290
     0
174
     0
 93
        1
 44
0.0
173
     0
291
     0
 45
0.0
1001
ACAD
1000
AcDbSavedByObjectVersion
1070
     0
  0
VISUALSTYLE
  5
3480
102
{ACAD_REACTORS
330
3479
102
}
330
3479
100
AcDbVisualStyle
  2
3dWireframe
 70
     5
 71
     0
 72
     2
 73
     0
 90
        0
 40
-0.6
 41
-30.0
 62
     5
 63
     7
 74
     1
 91
        4
 64
     7
 65
   257
 75
     1
175
     1
 42
1.0
 92
        0
 66
   257
 43
1.0
 76
     1
 77
     6
 78
     2
 67
     7
 79
     5
170
     0
171
     0
290
     0
174
     0
 93
        1
 44
0.0
173
     0
291
     0
 45
0.0
1001
ACAD
1000
AcDbSavedByObjectVersion
1070
     0
  0
VISUALSTYLE
  5
347E
102
{ACAD_REACTORS
330
3479
102
}
330
3479
100
AcDbVisualStyle
  2
Basic
 70
     7
 71
     1
 72
     0
 73
     1
 90
        0
 40
-0.6
 41
-30.0
 62
     5
 63
     7
 74
     0
 91
        4
 64
     7
 65
   257
 75
     1
175
     1
 42
1.0
 92
        8
 66
     7
 43
1.0
 76
     1
 77
     6
 78
     2
 67
     7
 79
     5
170
     0
171
     0
290
     0
174
     0
 93
        1
 44
0.0
173
     0
291
     1
 45
0.0
1001
ACAD
1000
AcDbSavedByObjectVersion
1070
     0
  0
VISUALSTYLE
  5
3485
102
{ACAD_REACTORS
330
3479
102
}
330
3479
100
AcDbVisualStyle
  2
Brighten
 70
    12
 71
     2
 72
     2
 73
     0
 90
        0
 40
-0.6
 41
-30.0
 62
     5
 63
     7
 74
     1
 91
        4
 64
     7
 65
   257
 75
     1
175
     1
 42
1.0
 92
        8
 66
     7
 43
1.0
 76
     1
 77
     6
 78
     2
 67
     7
 79
     5
170
     0
171
     0
290
     0
174
     0
 93
        1
 44
50.0
173
     0
291
     1
 45
0.0
1001
ACAD
1000
AcDbSavedByObjectVersion
1070
     0
  0
VISUALSTYLE
  5
3489
102
{ACAD_REACTORS
330
3479
102
}
330
3479
100
AcDbVisualStyle
  2
ColorChange
 70
    16
 71
     2
 72
     2
 73
     3
 90
        0
 40
-0.6
 41
-30.0
 62
     5
 63
     8
 74
     1
 91
        4
 64
     7
 65
   257
 75
     1
175
     1
 42
1.0
 92
        8
 66
     8
 43
1.0
 76
     1
 77
     6
 78
     2
 67
     7
 79
     5
170
     0
171
     0
290
     0
174
     0
 93
        1
 44
0.0
173
     0
291
     1
 45
0.0
1001
ACAD
1000
AcDbSavedByObjectVersion
1070
     0
  0
VISUALSTYLE
  5
3482
102
{ACAD_REACTORS
330
3479
102
}
330
3479
100
AcDbVisualStyle
  2
Conceptual
 70
     9
 71
     3
 72
     2
 73
     0
 90
        0
 40
-0.6
 41
-30.0
 62
     5
 63
     7
 74
     2
 91
        2
 64
     7
 65
   257
 75
     1
175
     1
 42
40.0
 92
        8
 66
     7
 43
1.0
 76
     1
 77
     6
 78
     2
 67
     7
 79
     3
170
     0
171
     0
290
     0
174
     0
 93
        1
 44
0.0
173
     0
291
     0
 45
0.0
1001
ACAD
1000
AcDbSavedByObjectVersion
1070
     0
  0
VISUALSTYLE
  5
3484
102
{ACAD_REACTORS
330
3479
102
}
330
3479
100
AcDbVisualStyle
  2
Dim
 70
    11
 71
     2
 72
     2
 73
     0
 90
        0
 40
-0.6
 41
-30.0
 62
     5
 63
     7
 74
     1
 91
        4
 64
     7
 65
   257
 75
     1
175
     1
 42
1.0
 92
        8
 66
     7
 43
1.0
 76
     1
 77
     6
 78
     2
 67
     7
 79
     5
170
     0
171
     0
290
     0
174
     0
 93
        1
 44
-50.0
173
     0
291
     1
 45
0.0
1001
ACAD
1000
AcDbSavedByObjectVersion
1070
     0
  0
VISUALSTYLE
  5
3488
102
{ACAD_REACTORS
330
3479
102
}
330
3479
100
AcDbVisualStyle
  2
Facepattern
 70
    15
 71
     2
 72
     2
 73
     0
 90
        0
 40
-0.6
 41
-30.0
 62
     5
 63
     7
 74
     1
 91
        4
 64
     7
 65
   257
 75
     1
175
     1
 42
1.0
 92
        8
 66
     7
 43
1.0
 76
     1
 77
     6
 78
     2
 67
     7
 79
     5
170
     0
171
     0
290
     0
174
     0
 93
        1
 44
0.0
173
     0
291
     1
 45
0.0
1001
ACAD
1000
AcDbSavedByObjectVersion
1070
     0
  0
VISUALSTYLE
  5
347A
102
{ACAD_REACTORS
330
3479
102
}
330
3479
100
AcDbVisualStyle
  2
Flat
 70
     0
 71
     2
 72
     1
 73
     1
 90
        2
 40
-0.6
 41
30.0
 62
     5
 63
     7
 74
     0
 91
        4
 64
     7
 65
   257
 75
     1
175
     1
 42
1.0
 92
        8
 66
     7
 43
1.0
 76
     1
 77
     6
 78
     2
 67
     7
 79
     5
170
     0
171
     0
290
     0
174
     0
 93
       13
 44
0.0
173
     0
291
     1
 45
0.0
1001
ACAD
1000
AcDbSavedByObjectVersion
1070
     0
  0
VISUALSTYLE
  5
347B
102
{ACAD_REACTORS
330
3479
102
}
330
3479
100
AcDbVisualStyle
  2
FlatWithEdges
 70
     1
 71
     2
 72
     1
 73
     1
 90
        2
 40
-0.6
 41
30.0
 62
     5
 63
     7
 74
     1
 91
        4
 64
     7
 65
   257
 75
     1
175
     1
 42
1.0
 92
        0
 66
   257
 43
1.0
 76
     1
 77
     6
 78
     2
 67
     7
 79
     5
170
     0
171
     0
290
     0
174
     0
 93
       13
 44
0.0
173
     0
291
     1
 45
0.0
1001
ACAD
1000
AcDbSavedByObjectVersion
1070
     0
  0
VISUALSTYLE
  5
347C
102
{ACAD_REACTORS
330
3479
102
}
330
3479
100
AcDbVisualStyle
  2
Gouraud
 70
     2
 71
     2
 72
     2
 73
     1
 90
        2
 40
-0.6
 41
30.0
 62
     5
 63
     7
 74
     0
 91
        4
 64
     7
 65
   257
 75
     1
175
     1
 42
1.0
 92
        0
 66
     7
 43
1.0
 76
     1
 77
     6
 78
     2
 67
     7
 79
     5
170
     0
171
     0
290
     0
174
     0
 93
       13
 44
0.0
173
     0
291
     1
 45
0.0
1001
ACAD
1000
AcDbSavedByObjectVersion
1070
     0
  0
VISUALSTYLE
  5
347D
102
{ACAD_REACTORS
330
3479
102
}
330
3479
100
AcDbVisualStyle
  2
GouraudWithEdges
 70
     3
 71
     2
 72
     2
 73
     1
 90
        2
 40
-0.6
 41
30.0
 62
     5
 63
     7
 74
     1
 91
        4
 64
     7
 65
   257
 75
     1
175
     1
 42
1.0
 92
        0
 66
   257
 43
1.0
 76
     1
 77
     6
 78
     2
 67
     7
 79
     5
170
     0
171
     0
290
     0
174
     0
 93
       13
 44
0.0
173
     0
291
     1
 45
0.0
1001
ACAD
1000
AcDbSavedByObjectVersion
1070
     0
  0
VISUALSTYLE
  5
3487
102
{ACAD_REACTORS
330
3479
102
}
330
3479
100
AcDbVisualStyle
  2
Linepattern
 70
    14
 71
     2
 72
     2
 73
     0
 90
        0
 40
-0.6
 41
-30.0
 62
     5
 63
     7
 74
     1
 91
        4
 64
     7
 65
   257
 75
     7
175
     7
 42
1.0
 92
        8
 66
     7
 43
1.0
 76
     1
 77
     6
 78
     2
 67
     7
 79
     5
170
     0
171
     0
290
     0
174
     0
 93
        1
 44
0.0
173
     0
291
     1
 45
0.0
1001
ACAD
1000
AcDbSavedByObjectVersion
1070
     0
  0
VISUALSTYLE
  5
3483
102
{ACAD_REACTORS
330
3479
102
}
330
3479
100
AcDbVisualStyle
  2
Realistic
 70
     8
 71
     2
 72
     2
 73
     0
 90
        0
 40
-0.6
 41
-30.0
 62
     5
 63
     7
 74
     1
 91
        0
 64
     7
 65
   257
 75
     1
175
     1
 42
1.0
 92
        8
 66
     8
 43
1.0
 76
     1
 77
     6
 78
     2
 67
     7
 79
     5
170
     0
171
     0
290
     0
174
     0
 93
       13
 44
0.0
173
     0
291
     0
 45
0.0
1001
ACAD
1000
AcDbSavedByObjectVersion
1070
     0
  0
VISUALSTYLE
  5
3486
102
{ACAD_REACTORS
330
3479
102
}
330
3479
100
AcDbVisualStyle
  2
Thicken
 70
    13
 71
     2
 72
     2
 73
     0
 90
        0
 40
-0.6
 41
-30.0
 62
     5
 63
     7
 74
     1
 91
        4
 64
     7
 65
   257
 75
     1
175
     1
 42
1.0
 92
       12
 66
     7
 43
1.0
 76
     1
 77
     6
 78
     2
 67
     7
 79
     5
170
     0
171
     0
290
     0
174
     0
 93
        1
 44
0.0
173
     0
291
     1
 45
0.0
1001
ACAD
1000
AcDbSavedByObjectVersion
1070
     0
  0
DICTIONARYVAR
  5
36A9
102
{ACAD_REACTORS
330
36A6
102
}
330
36A6
100
DictionaryVariables
280
     0
  1
1:1
  0
DICTIONARYVAR
  5
36A8
102
{ACAD_REACTORS
330
36A6
102
}
330
36A6
100
DictionaryVariables
280
     0
  1
STANDARD
  0
DICTIONARYVAR
  5
36A7
102
{ACAD_REACTORS
330
36A6
102
}
330
36A6
100
DictionaryVariables
280
     0
  1
STANDARD
  0
DICTIONARYVAR
  5
36AC
102
{ACAD_REACTORS
330
36A6
102
}
330
36A6
100
DictionaryVariables
280
     0
  1
1
  0
DICTIONARYVAR
  5
36AB
102
{ACAD_REACTORS
330
36A6
102
}
330
36A6
100
DictionaryVariables
280
     0
  1
1
  0
DICTIONARYVAR
  5
36AA
102
{ACAD_REACTORS
330
36A6
102
}
330
36A6
100
DictionaryVariables
280
     0
  1
127
  0
DICTIONARY
  5
3667
102
{ACAD_REACTORS
330
3659
102
}
330
3659
100
AcDbDictionary
281
     1
  0
DICTIONARY
  5
35A7
102
{ACAD_REACTORS
330
35A6
102
}
330
35A6
100
AcDbDictionary
281
     1
  3
DWGSETTINGS
350
35A8
  3
TRANSSETTINGS
350
35A9
  0
LAYER_INDEX
  5
3699
102
{ACAD_REACTORS
330
3698
102
}
330
3698
100
AcDbIndex
 40
2456210.787236817
100
AcDbLayerIndex
  8
0
360
369A
 90
        2
  8
OUTLINE
360
369B
 90
       15
  8
SIZE
360
369C
 90
       24
  8
BASIS
360
369D
 90
        1
  8
DETAIL
360
369E
 90
       22
  8
ARRANGE
360
369F
 90
        2
  8
DEFPOINTS
360
36A0
 90
        0
  8
ETC
360
36A1
 90
        3
  8
FIX
360
36A2
 90
        0
  8
NOTE
360
36A3
 90
        4
  8
SERVICESPACE
360
36A4
 90
        0
  8
SYMBOLLINE
360
36A5
 90
        0
  0
DICTIONARY
  5
36BC
330
34C7
100
AcDbDictionary
280
     1
281
     1
  3
ACAD_XREC_ROUNDTRIP
360
36BD
  0
DICTIONARY
  5
36BA
330
34C3
100
AcDbDictionary
280
     1
281
     1
  3
ACAD_XREC_ROUNDTRIP
360
36BB
  0
DICTIONARY
  5
346A
330
3469
100
AcDbDictionary
280
     1
281
     1
  3
ACAD_XREC_ROUNDTRIP
360
36B7
  3
BUMPTILE
360
346C
  3
DIFFUSETILE
360
346B
  3
OPACITYTILE
360
346F
  3
REFLECTIONTILE
360
346E
  3
REFRACTIONTILE
360
3470
  3
SPECULARTILE
360
346D
  0
DICTIONARY
  5
3462
330
3461
100
AcDbDictionary
280
     1
281
     1
  3
ACAD_XREC_ROUNDTRIP
360
36B6
  3
BUMPTILE
360
3464
  3
DIFFUSETILE
360
3463
  3
OPACITYTILE
360
3467
  3
REFLECTIONTILE
360
3466
  3
REFRACTIONTILE
360
3468
  3
SPECULARTILE
360
3465
  0
DICTIONARY
  5
3472
330
3471
100
AcDbDictionary
280
     1
281
     1
  3
ACAD_XREC_ROUNDTRIP
360
36B8
  3
BUMPTILE
360
3474
  3
DIFFUSETILE
360
3473
  3
OPACITYTILE
360
3477
  3
REFLECTIONTILE
360
3476
  3
REFRACTIONTILE
360
3478
  3
SPECULARTILE
360
3475
  0
DICTIONARY
  5
36AD
330
34BC
100
AcDbDictionary
280
     1
281
     1
  3
ACAD_ROUNDTRIP_2008_TABLESTYLE_CELLSTYLEMAP
360
36AE
  3
ACAD_XREC_ROUNDTRIP
360
36B9
  0
IDBUFFER
  5
369A
330
0
100
AcDbIdBuffer
330
316A
330
316B
  0
IDBUFFER
  5
369B
330
0
100
AcDbIdBuffer
330
953
330
954
330
955
330
956
330
957
330
958
330
314D
330
316E
330
316F
330
3170
330
3171
330
3175
330
3179
330
317A
330
317B
  0
IDBUFFER
  5
369C
330
0
100
AcDbIdBuffer
330
319C
330
319D
330
319E
330
319F
330
31A0
330
31A1
330
31A2
330
31A3
330
318C
330
318D
330
318E
330
318F
330
3190
330
3191
330
3192
330
3193
330
3194
330
3195
330
3196
330
3197
330
3198
330
3199
330
319A
330
319B
  0
IDBUFFER
  5
369D
330
0
100
AcDbIdBuffer
330
3162
  0
IDBUFFER
  5
369E
330
0
100
AcDbIdBuffer
330
3183
330
3184
330
3185
330
3189
330
318A
330
318B
330
314C
330
314E
330
314F
330
3153
330
3157
330
315B
330
315E
330
315F
330
3163
330
3164
330
3165
330
3169
330
317C
330
317D
330
317E
330
3182
  0
IDBUFFER
  5
369F
330
0
100
AcDbIdBuffer
330
3160
330
3161
  0
IDBUFFER
  5
36A0
330
0
100
AcDbIdBuffer
  0
IDBUFFER
  5
36A1
330
0
100
AcDbIdBuffer
330
3149
330
314A
330
314B
  0
IDBUFFER
  5
36A2
330
0
100
AcDbIdBuffer
  0
IDBUFFER
  5
36A3
330
0
100
AcDbIdBuffer
330
315C
330
315D
330
316C
330
316D
  0
IDBUFFER
  5
36A4
330
0
100
AcDbIdBuffer
  0
IDBUFFER
  5
36A5
330
0
100
AcDbIdBuffer
  0
XRECORD
  5
36BD
102
{ACAD_REACTORS
330
36BC
102
}
330
36BC
100
AcDbXrecord
280
     1
102
SHADEPLOT
 70
     0
102
SHADEPLOTRESLEVEL
 70
     2
102
SHADEPLOTCUSTOMDPI
 70
   300
  0
XRECORD
  5
36BB
102
{ACAD_REACTORS
330
36BA
102
}
330
36BA
100
AcDbXrecord
280
     1
102
SHADEPLOT
 70
     0
102
SHADEPLOTRESLEVEL
 70
     2
102
SHADEPLOTCUSTOMDPI
 70
   300
  0
XRECORD
  5
36B7
102
{ACAD_REACTORS
330
346A
102
}
330
346A
100
AcDbXrecord
280
     1
102
MATERIAL
148
0.0
149
0.0
149
0.0
 93
        0
 94
      127
282
     0
 72
     0
 77
     0
171
     0
175
     0
179
     0
273
     0
  0
XRECORD
  5
346C
102
{ACAD_REACTORS
330
346A
102
}
330
346A
100
AcDbXrecord
280
     1
270
     1
271
     1
  0
XRECORD
  5
346B
102
{ACAD_REACTORS
330
346A
102
}
330
346A
100
AcDbXrecord
280
     1
270
     1
271
     1
  0
XRECORD
  5
346F
102
{ACAD_REACTORS
330
346A
102
}
330
346A
100
AcDbXrecord
280
     1
270
     1
271
     1
  0
XRECORD
  5
346E
102
{ACAD_REACTORS
330
346A
102
}
330
346A
100
AcDbXrecord
280
     1
270
     1
271
     1
  0
XRECORD
  5
3470
102
{ACAD_REACTORS
330
346A
102
}
330
346A
100
AcDbXrecord
280
     1
270
     1
271
     1
  0
XRECORD
  5
346D
102
{ACAD_REACTORS
330
346A
102
}
330
346A
100
AcDbXrecord
280
     1
270
     1
271
     1
  0
XRECORD
  5
36B6
102
{ACAD_REACTORS
330
3462
102
}
330
3462
100
AcDbXrecord
280
     1
102
MATERIAL
148
0.0
149
0.0
149
0.0
 93
        0
 94
      127
282
     0
 72
     0
 77
     0
171
     0
175
     0
179
     0
273
     0
  0
XRECORD
  5
3464
102
{ACAD_REACTORS
330
3462
102
}
330
3462
100
AcDbXrecord
280
     1
270
     1
271
     1
  0
XRECORD
  5
3463
102
{ACAD_REACTORS
330
3462
102
}
330
3462
100
AcDbXrecord
280
     1
270
     1
271
     1
  0
XRECORD
  5
3467
102
{ACAD_REACTORS
330
3462
102
}
330
3462
100
AcDbXrecord
280
     1
270
     1
271
     1
  0
XRECORD
  5
3466
102
{ACAD_REACTORS
330
3462
102
}
330
3462
100
AcDbXrecord
280
     1
270
     1
271
     1
  0
XRECORD
  5
3468
102
{ACAD_REACTORS
330
3462
102
}
330
3462
100
AcDbXrecord
280
     1
270
     1
271
     1
  0
XRECORD
  5
3465
102
{ACAD_REACTORS
330
3462
102
}
330
3462
100
AcDbXrecord
280
     1
270
     1
271
     1
  0
XRECORD
  5
36B8
102
{ACAD_REACTORS
330
3472
102
}
330
3472
100
AcDbXrecord
280
     1
102
MATERIAL
148
0.0
149
0.0
149
0.0
 93
        0
 94
      127
282
     0
 72
     0
 77
     0
171
     0
175
     0
179
     0
273
     0
  0
XRECORD
  5
3474
102
{ACAD_REACTORS
330
3472
102
}
330
3472
100
AcDbXrecord
280
     1
270
     1
271
     1
  0
XRECORD
  5
3473
102
{ACAD_REACTORS
330
3472
102
}
330
3472
100
AcDbXrecord
280
     1
270
     1
271
     1
  0
XRECORD
  5
3477
102
{ACAD_REACTORS
330
3472
102
}
330
3472
100
AcDbXrecord
280
     1
270
     1
271
     1
  0
XRECORD
  5
3476
102
{ACAD_REACTORS
330
3472
102
}
330
3472
100
AcDbXrecord
280
     1
270
     1
271
     1
  0
XRECORD
  5
3478
102
{ACAD_REACTORS
330
3472
102
}
330
3472
100
AcDbXrecord
280
     1
270
     1
271
     1
  0
XRECORD
  5
3475
102
{ACAD_REACTORS
330
3472
102
}
330
3472
100
AcDbXrecord
280
     1
270
     1
271
     1
  0
CELLSTYLEMAP
  5
36AE
102
{ACAD_REACTORS
330
36AD
102
}
330
36AD
100
AcDbCellStyleMap
 90
        3
300
CELLSTYLE
  1
TABLEFORMAT_BEGIN
 90
        5
170
     1
 91
        0
 92
    32768
 62
   257
 93
        1
300
CONTENTFORMAT
  1
CONTENTFORMAT_BEGIN
 90
        0
 91
        0
 92
      512
 93
        0
300

 40
0.0
140
1.0
 94
        5
 62
     0
340
34AD
144
0.25
309
CONTENTFORMAT_END
171
     0
 94
        0
309
TABLEFORMAT_END
  1
CELLSTYLE_BEGIN
 90
        1
 91
        1
300
_TITLE
309
CELLSTYLE_END
300
CELLSTYLE
  1
TABLEFORMAT_BEGIN
 90
        5
170
     1
 91
        0
 92
        0
 62
   257
 93
        1
300
CONTENTFORMAT
  1
CONTENTFORMAT_BEGIN
 90
        0
 91
        0
 92
      512
 93
        0
300

 40
0.0
140
1.0
 94
        5
 62
     0
340
34AD
144
0.18
309
CONTENTFORMAT_END
171
     0
 94
        0
309
TABLEFORMAT_END
  1
CELLSTYLE_BEGIN
 90
        2
 91
        1
300
_HEADER
309
CELLSTYLE_END
300
CELLSTYLE
  1
TABLEFORMAT_BEGIN
 90
        5
170
     1
 91
        0
 92
        0
 62
   257
 93
        1
300
CONTENTFORMAT
  1
CONTENTFORMAT_BEGIN
 90
        0
 91
        0
 92
      512
 93
        0
300

 40
0.0
140
1.0
 94
        2
 62
     0
340
34AD
144
0.18
309
CONTENTFORMAT_END
171
     0
 94
        0
309
TABLEFORMAT_END
  1
CELLSTYLE_BEGIN
 90
        3
 91
        2
300
_DATA
309
CELLSTYLE_END
  0
XRECORD
  5
36B9
102
{ACAD_REACTORS
330
36AD
102
}
330
36AD
100
AcDbXrecord
280
     1
102
ACAD_ROUNDTRIP_PRE2007_TABLESTYLE
 90
      512
 91
        0
  1

 92
      512
 93
        0
  2

 94
      512
 95
        0
  3

  0
ENDSEC
  0
EOF
