  0
SECTION
  2
HEADER
  9
$ACADVER
  1
AC1015
  9
$ACADMAINTVER
 70
    20
  9
$DWGCODEPAGE
  3
ANSI_932
  9
$INSBASE
 10
0.0
 20
0.0
 30
0.0
  9
$EXTMIN
 10
-856.0684041190761
 20
-1024.749744828732
 30
-0.0015257624927045
  9
$EXTMAX
 10
900.9338493120539
 20
672.5921712031031
 30
50.00152599532333
  9
$LIMMIN
 10
-2970.0
 20
-2100.0
  9
$LIMMAX
 10
2970.0
 20
2100.0
  9
$ORTHOMODE
 70
     1
  9
$REGENMODE
 70
     0
  9
$FILLMODE
 70
     1
  9
$QTEXTMODE
 70
     0
  9
$MIRRTEXT
 70
     0
  9
$LTSCALE
 40
20.0
  9
$ATTMODE
 70
     1
  9
$TEXTSIZE
 40
64.0
  9
$TRACEWID
 40
0.05
  9
$TEXTSTYLE
  7
STANDARD
  9
$CLAYER
  8
0
  9
$CELTYPE
  6
ByLayer
  9
$CECOLOR
 62
   256
  9
$CELTSCALE
 40
1.0
  9
$DISPSILH
 70
     0
  9
$DIMSCALE
 40
1.0
  9
$DIMASZ
 40
0.12
  9
$DIMEXO
 40
0.05
  9
$DIMDLI
 40
0.5
  9
$DIMRND
 40
0.0
  9
$DIMDLE
 40
0.0
  9
$DIMEXE
 40
0.1
  9
$DIMTP
 40
0.1
  9
$DIMTM
 40
0.1
  9
$DIMTXT
 40
0.12
  9
$DIMCEN
 40
0.0
  9
$DIMTSZ
 40
0.0
  9
$DIMTOL
 70
     0
  9
$DIMLIM
 70
     0
  9
$DIMTIH
 70
     1
  9
$DIMTOH
 70
     1
  9
$DIMSE1
 70
     0
  9
$DIMSE2
 70
     0
  9
$DIMTAD
 70
     0
  9
$DIMZIN
 70
     7
  9
$DIMBLK
  1

  9
$DIMASO
 70
     1
  9
$DIMSHO
 70
     0
  9
$DIMPOST
  1

  9
$DIMAPOST
  1
mm
  9
$DIMALT
 70
     0
  9
$DIMALTD
 70
     2
  9
$DIMALTF
 40
25.4
  9
$DIMLFAC
 40
1.0
  9
$DIMTOFL
 70
     0
  9
$DIMTVP
 40
0.0
  9
$DIMTIX
 70
     0
  9
$DIMSOXD
 70
     0
  9
$DIMSAH
 70
     0
  9
$DIMBLK1
  1

  9
$DIMBLK2
  1

  9
$DIMSTYLE
  2
AM_ANSI
  9
$DIMCLRD
 70
   256
  9
$DIMCLRE
 70
   256
  9
$DIMCLRT
 70
     2
  9
$DIMTFAC
 40
0.71
  9
$DIMGAP
 40
0.06
  9
$DIMJUST
 70
     0
  9
$DIMSD1
 70
     0
  9
$DIMSD2
 70
     0
  9
$DIMTOLJ
 70
     1
  9
$DIMTZIN
 70
     7
  9
$DIMALTZ
 70
     0
  9
$DIMALTTZ
 70
     0
  9
$DIMUPT
 70
     0
  9
$DIMDEC
 70
     4
  9
$DIMTDEC
 70
     4
  9
$DIMALTU
 70
     2
  9
$DIMALTTD
 70
     4
  9
$DIMTXSTY
  7
STANDARD
  9
$DIMAUNIT
 70
     0
  9
$DIMADEC
 70
     0
  9
$DIMALTRND
 40
0.0
  9
$DIMAZIN
 70
     2
  9
$DIMDSEP
 70
    46
  9
$DIMATFIT
 70
     3
  9
$DIMFRAC
 70
     0
  9
$DIMLDRBLK
  1

  9
$DIMLUNIT
 70
     2
  9
$DIMLWD
 70
    -1
  9
$DIMLWE
 70
    -1
  9
$DIMTMOVE
 70
     0
  9
$LUNITS
 70
     2
  9
$LUPREC
 70
     4
  9
$SKETCHINC
 40
0.1
  9
$FILLETRAD
 40
4.0
  9
$AUNITS
 70
     1
  9
$AUPREC
 70
     3
  9
$MENU
  1
ACAD
  9
$ELEVATION
 40
0.0
  9
$PELEVATION
 40
0.0
  9
$THICKNESS
 40
50.0
  9
$LIMCHECK
 70
     0
  9
$CHAMFERA
 40
0.0
  9
$CHAMFERB
 40
0.0
  9
$CHAMFERC
 40
0.0
  9
$CHAMFERD
 40
0.0
  9
$SKPOLY
 70
     0
  9
$TDCREATE
 40
2452321.396199653
  9
$TDUCREATE
 40
2452321.021199653
  9
$TDUPDATE
 40
2456217.591720683
  9
$TDUUPDATE
 40
2456217.216720683
  9
$TDINDWG
 40
1.0421470718
  9
$TDUSRTIMER
 40
1.0421413079
  9
$USRTIMER
 70
     1
  9
$ANGBASE
 50
0.0
  9
$ANGDIR
 70
     0
  9
$PDMODE
 70
     3
  9
$PDSIZE
 40
-2.0
  9
$PLINEWID
 40
0.0
  9
$SPLFRAME
 70
     0
  9
$SPLINETYPE
 70
     6
  9
$SPLINESEGS
 70
     8
  9
$HANDSEED
  5
30C4
  9
$SURFTAB1
 70
     6
  9
$SURFTAB2
 70
     6
  9
$SURFTYPE
 70
     6
  9
$SURFU
 70
     6
  9
$SURFV
 70
     6
  9
$UCSBASE
  2

  9
$UCSNAME
  2

  9
$UCSORG
 10
0.0
 20
0.0
 30
0.0
  9
$UCSXDIR
 10
1.0
 20
0.0
 30
0.0
  9
$UCSYDIR
 10
0.0
 20
1.0
 30
0.0
  9
$UCSORTHOREF
  2

  9
$UCSORTHOVIEW
 70
     0
  9
$UCSORGTOP
 10
0.0
 20
0.0
 30
0.0
  9
$UCSORGBOTTOM
 10
0.0
 20
0.0
 30
0.0
  9
$UCSORGLEFT
 10
0.0
 20
0.0
 30
0.0
  9
$UCSORGRIGHT
 10
0.0
 20
0.0
 30
0.0
  9
$UCSORGFRONT
 10
0.0
 20
0.0
 30
0.0
  9
$UCSORGBACK
 10
0.0
 20
0.0
 30
0.0
  9
$PUCSBASE
  2

  9
$PUCSNAME
  2

  9
$PUCSORG
 10
0.0
 20
0.0
 30
0.0
  9
$PUCSXDIR
 10
1.0
 20
0.0
 30
0.0
  9
$PUCSYDIR
 10
0.0
 20
1.0
 30
0.0
  9
$PUCSORTHOREF
  2

  9
$PUCSORTHOVIEW
 70
     0
  9
$PUCSORGTOP
 10
0.0
 20
0.0
 30
0.0
  9
$PUCSORGBOTTOM
 10
0.0
 20
0.0
 30
0.0
  9
$PUCSORGLEFT
 10
0.0
 20
0.0
 30
0.0
  9
$PUCSORGRIGHT
 10
0.0
 20
0.0
 30
0.0
  9
$PUCSORGFRONT
 10
0.0
 20
0.0
 30
0.0
  9
$PUCSORGBACK
 10
0.0
 20
0.0
 30
0.0
  9
$USERI1
 70
     0
  9
$USERI2
 70
     0
  9
$USERI3
 70
     0
  9
$USERI4
 70
     0
  9
$USERI5
 70
     0
  9
$USERR1
 40
20.0
  9
$USERR2
 40
0.0
  9
$USERR3
 40
0.0
  9
$USERR4
 40
0.0
  9
$USERR5
 40
0.0
  9
$WORLDVIEW
 70
     1
  9
$SHADEDGE
 70
     3
  9
$SHADEDIF
 70
    70
  9
$TILEMODE
 70
     1
  9
$MAXACTVP
 70
    64
  9
$PINSBASE
 10
0.0
 20
0.0
 30
0.0
  9
$PLIMCHECK
 70
     0
  9
$PEXTMIN
 10
1.000000000000000E+20
 20
1.000000000000000E+20
 30
1.000000000000000E+20
  9
$PEXTMAX
 10
-1.000000000000000E+20
 20
-1.000000000000000E+20
 30
-1.000000000000000E+20
  9
$PLIMMIN
 10
0.0
 20
0.0
  9
$PLIMMAX
 10
12.0
 20
9.0
  9
$UNITMODE
 70
     0
  9
$VISRETAIN
 70
     1
  9
$PLINEGEN
 70
     0
  9
$PSLTSCALE
 70
     1
  9
$TREEDEPTH
 70
  3020
  9
$CMLSTYLE
  2
Standard
  9
$CMLJUST
 70
     0
  9
$CMLSCALE
 40
1.0
  9
$PROXYGRAPHICS
 70
     1
  9
$MEASUREMENT
 70
     0
  9
$CELWEIGHT
370
    -1
  9
$ENDCAPS
280
     0
  9
$JOINSTYLE
280
     0
  9
$LWDISPLAY
290
     0
  9
$INSUNITS
 70
     0
  9
$HYPERLINKBASE
  1

  9
$STYLESHEET
  1

  9
$XEDIT
290
     1
  9
$CEPSNTYPE
380
     0
  9
$PSTYLEMODE
290
     1
  9
$FINGERPRINTGUID
  2
{5EE11ABD-6F65-4AF8-8187-ADAA8A2CDEE0}
  9
$VERSIONGUID
  2
{F4B24EC3-822A-4088-A4B7-A30AC5719B6D}
  9
$EXTNAMES
290
     1
  9
$PSVPSCALE
 40
0.0
  9
$OLESTARTUP
290
     0
  0
ENDSEC
  0
SECTION
  2
CLASSES
  0
CLASS
  1
ACDBDICTIONARYWDFLT
  2
AcDbDictionaryWithDefault
  3
ObjectDBX Classes
 90
        0
280
     0
281
     0
  0
CLASS
  1
MATERIAL
  2
AcDbMaterial
  3
ObjectDBX Classes
 90
     1153
280
     0
281
     0
  0
CLASS
  1
VISUALSTYLE
  2
AcDbVisualStyle
  3
ObjectDBX Classes
 90
     4095
280
     0
281
     0
  0
CLASS
  1
SCALE
  2
AcDbScale
  3
ObjectDBX Classes
 90
     1153
280
     0
281
     0
  0
CLASS
  1
TABLESTYLE
  2
AcDbTableStyle
  3
ObjectDBX Classes
 90
     4095
280
     0
281
     0
  0
CLASS
  1
MLEADERSTYLE
  2
AcDbMLeaderStyle
  3
ACDB_MLEADERSTYLE_CLASS
 90
     4095
280
     0
281
     0
  0
CLASS
  1
AMGSETTINGSOBJ
  2
AmgSettingsObj
  3
"AcadM|Product Description: AutoCAD Mechanical|Company: Autodesk, Inc."
 90
     1024
280
     0
281
     0
  0
CLASS
  1
ACME_DOCUMENT
  2
AcMeDbDoc
  3
AcMeServices
 90
     1024
280
     0
281
     0
  0
CLASS
  1
ACMESCOPE
  2
AcMeScope
  3
AcMeServices
 90
     1024
280
     0
281
     0
  0
CLASS
  1
ACMECOMMANDHISTORY
  2
AcMeCommandHistory
  3
AcMeServices
 90
     1024
280
     0
281
     0
  0
CLASS
  1
ACIMSYSVARMAN
  2
AcImSysVarManager
  3
AcMeServices
 90
     1024
280
     0
281
     0
  0
CLASS
  1
ACIMREALSYSVAR
  2
AcImRealSysVar
  3
AcMeServices
 90
     1024
280
     0
281
     0
  0
CLASS
  1
ACIMINTSYSVAR
  2
AcImIntSysVar
  3
AcMeServices
 90
     1024
280
     0
281
     0
  0
CLASS
  1
ACMEDRAWINGMAN
  2
AcMeDrawingMan
  3
AcMeServices
 90
     1024
280
     0
281
     0
  0
CLASS
  1
ACMEVIEW
  2
AcMeView
  3
AcMeServices
 90
     1024
280
     0
281
     0
  0
CLASS
  1
ACDBENTITYCACHE
  2
AcMeEntityCache
  3
AcMeServices
 90
     1024
280
     0
281
     0
  0
CLASS
  1
GSMANAGER
  2
AcMeGSManager
  3
AcMeServices
 90
     1024
280
     0
281
     0
  0
CLASS
  1
AMDTINTERNALREACTOR
  2
AmdtInternalReactor
  3
AcMeServices
 90
     1024
280
     0
281
     0
  0
CLASS
  1
ACMESTATEMGR
  2
AcMeStateMgr
  3
AcMeServices
 90
     1024
280
     0
281
     0
  0
CLASS
  1
ACGREFMASTER
  2
AcGrefMaster
  3
AcAttribServices
 90
     1024
280
     0
281
     0
  0
CLASS
  1
AM_DRAWING_MGR
  2
AcDmDwgMgr
  3
AcMechDwgViewMgmt
 90
     1024
280
     0
281
     0
  0
CLASS
  1
AM_DWG_DOCUMENT
  2
AcDmDwgDocument
  3
AcMechDwgViewMgmt
 90
     1024
280
     0
281
     0
  0
CLASS
  1
AM_DWG_SHEET
  2
AcDmSheet
  3
AcMechDwgViewMgmt
 90
     1024
280
     0
281
     0
  0
CLASS
  1
AM_VIEWDIMPARMAP
  2
AcDmViewDimParMap
  3
AcMechDwgViewMgmt
 90
     1024
280
     0
281
     0
  0
CLASS
  1
AM_DWGMGR_NAME
  2
AcDmDwgMgrName
  3
AcMechDwgViewMgmt
 90
     1024
280
     0
281
     0
  0
CLASS
  1
ACME_DATABASE
  2
AcMeDbDatabase
  3
AcMeServices
 90
     1024
280
     0
281
     0
  0
CLASS
  1
ACRFINSADJUSTERMGR
  2
AcRfInsAdjusterMgr
  3
AcMeServices
 90
     1024
280
     0
281
     0
  0
CLASS
  1
ACGREFACADMASTER
  2
AcGrefacadMaster
  3
AcGrefServices
 90
     1024
280
     0
281
     0
  0
CLASS
  1
AMDTMENUSTATEMGR
  2
AmdtMenuStateMgr
  3
McadcomServices
 90
     1024
280
     0
281
     0
  0
CLASS
  1
AMDTMCOMMENUSTATE
  2
AmdtMcomMenuState
  3
McadcomServices
 90
     1024
280
     0
281
     0
  0
CLASS
  1
AMIMASTER
  2
AmiMaster
  3
AmiServices
 90
     1024
280
     0
281
     0
  0
CLASS
  1
ASAPP
  2
AcAsAppObject
  3
AutoSurfServices
 90
     1024
280
     0
281
     0
  0
CLASS
  1
IM_STATIC_MAN
  2
AcImStaticVarManager
  3
AcMeServices
 90
     1024
280
     0
281
     0
  0
CLASS
  1
ACIMSTRSYSVAR
  2
AcImStrSysVar
  3
AcMeServices
 90
     1024
280
     0
281
     0
  0
CLASS
  1
ACIMDBLSTATICVAR
  2
AcImDblStaticVar
  3
AcMeServices
 90
     1024
280
     0
281
     0
  0
CLASS
  1
ACIMSTRSTATICVAR
  2
AcImStrStaticVar
  3
AcMeServices
 90
     1024
280
     0
281
     0
  0
CLASS
  1
ACIMINTSTATICVAR
  2
AcImIntStaticVar
  3
AcMeServices
 90
     1024
280
     0
281
     0
  0
CLASS
  1
ACASGREFMASTER
  2
AcAsGrefMaster
  3
AutoSurfResolverServices
 90
     1024
280
     0
281
     0
  0
CLASS
  1
ACADGREFMODULE
  2
AcAdGrefModule
  3
AdGrefServices
 90
     1024
280
     0
281
     0
  0
CLASS
  1
AMDTMAPISURFMOUDULE
  2
AmdtMApiSurfModule
  3
MApiSurfServices
 90
    33792
280
     0
281
     0
  0
CLASS
  1
MAPIAMMOUDLE
  2
MApiAmModule
  3
MApiAmServices
 90
     1024
280
     0
281
     0
  0
CLASS
  1
AMDTADMENUSTATE
  2
AmdtAdMenuState
  3
DesignerServices
 90
     1024
280
     0
281
     0
  0
CLASS
  1
ADAPPL
  2
AcAdAppl
  3
DesignerServices
 90
     1024
280
     0
281
     0
  0
CLASS
  1
DEPMGR
  2
AcAdDepMgr
  3
DesignerServices
 90
     1024
280
     0
281
     0
  0
CLASS
  1
PARAMMGR
  2
AcAdParamMgr
  3
DesignerServices
 90
     1024
280
     0
281
     0
  0
CLASS
  1
PARAMSCOPE
  2
AcAdParamScope
  3
DesignerServices
 90
     1024
280
     0
281
     0
  0
CLASS
  1
NAMEDAPPL
  2
AcAdNamedAppl
  3
DesignerServices
 90
     1024
280
     0
281
     0
  0
CLASS
  1
AMDTDMMENUSTATE
  2
AmdtDmMenuState
  3
AcMechDwgViewMgmt
 90
     1024
280
     0
281
     0
  0
CLASS
  1
MAPIADMODULE
  2
MApiAdModule
  3
MApiAdServices
 90
     1024
280
     0
281
     0
  0
CLASS
  1
AMDTAMMENUSTATE
  2
AmdtAmMenuState
  3
DesignerAssemblies
 90
     1024
280
     0
281
     0
  0
CLASS
  1
ACAMPROJECT
  2
AcAmProject
  3
DesignerAssemblies
 90
     1024
280
     0
281
     0
  0
CLASS
  1
ACAMGRCOMPDEF
  2
AcAmGrCompDef
  3
DesignerAssemblies
 90
     1024
280
     0
281
     0
  0
CLASS
  1
ACCMCONTEXT
  2
AcCmContext
  3
DesignerAssemblies
 90
     1024
280
     0
281
     0
  0
CLASS
  1
ACAMCOMPDEF
  2
AcAmCompDef
  3
DesignerAssemblies
 90
     1024
280
     0
281
     0
  0
CLASS
  1
ACAMCOMPDEFMGR
  2
AcAmCompDefMgr
  3
DesignerAssemblies
 90
     1024
280
     0
281
     0
  0
CLASS
  1
AMCONTEXTMGR
  2
AcAmContextMgr
  3
DesignerAssemblies
 90
     1024
280
     0
281
     0
  0
CLASS
  1
ACAMCONTEXTMODELER
  2
AcAmContextModeler
  3
DesignerAssemblies
 90
     1024
280
     0
281
     0
  0
CLASS
  1
ACMDATADICTIONARY
  2
AcmDataDictionary
  3
"AcmSymBB|Product Description: AutoCAD Mechanical|Company: Autodesk, Inc."
 90
     1024
280
     0
281
     0
  0
CLASS
  1
ACMDATAENTRYBLOCK
  2
AcmDataEntryBlock
  3
AcmSymBB|Product Description: AutoCAD Mechanical|Company: Autodesk, Inc.
 90
     1024
280
     0
281
     0
  0
CLASS
  1
ACRFATTGENMGR
  2
AcRfAttGeneralMgr
  3
AcAttribServices
 90
     1024
280
     0
281
     0
  0
CLASS
  1
ACRFOBJATTMGR
  2
AcRfObjAttGroupMgr
  3
AcAttribServices
 90
     1024
280
     0
281
     0
  0
CLASS
  1
ACRFMCADAPIATTHOLDER
  2
AcRfMCADAPIAttHolder
  3
AcAttribServices
 90
     1024
280
     0
281
     0
  0
CLASS
  1
AMDTSYSATTR
  2
AmdtSystemAttribute
  3
AcAttribServices
 90
     1024
280
     0
281
     0
  0
CLASS
  1
CATALOGSTATE
  2
AcAmCatalogState
  3
DesignerAssemblies
 90
     1024
280
     0
281
     0
  0
CLASS
  1
ACAMGRCOMPDEFSET
  2
AcAmGrCompDefSet
  3
DesignerAssemblies
 90
     1024
280
     0
281
     0
  0
CLASS
  1
AMDTBROWSERDBTAB
  2
AmdtBrowserDbTab
  3
McadcomServices
 90
     1024
280
     0
281
     0
  0
CLASS
  1
CBROWSERAPPOBJECT
  2
CBrowserAppObject
  3
McadcomServices
 90
     1024
280
     0
281
     0
  0
CLASS
  1
DM_PLACEHOLDER
  2
AcDmSelsetPlaceholder
  3
AcMechDwgViewMgmt
 90
     1024
280
     0
281
     0
  0
CLASS
  1
ACMSTANDARDANSI
  2
AcmStandardANSI
  3
"Amdt_StdImp|Product Description: AutoCAD Mechanical|Company: Autodesk, Inc."
 90
     1024
280
     0
281
     0
  0
CLASS
  1
ACMSURFSTANDARDANSI
  2
AcmSurfTextStdANSI
  3
"Amdt_StdImp|Product Description: AutoCAD Mechanical|Company: Autodesk, Inc."
 90
     1024
280
     0
281
     0
  0
CLASS
  1
ACMFCFSTANDARDANSI
  2
AcmFCFStdANSI
  3
"Amdt_StdImp|Product Description: AutoCAD Mechanical|Company: Autodesk, Inc."
 90
     1024
280
     0
281
     0
  0
CLASS
  1
ACMWELDSTANDARDANSI
  2
AcmWeldingStdANSI
  3
"Amdt_StdImp|Product Description: AutoCAD Mechanical|Company: Autodesk, Inc."
 90
     1024
280
     0
281
     0
  0
CLASS
  1
ACMIDSTANDARDANSI
  2
AcmIdStdANSI
  3
"Amdt_StdImp|Product Description: AutoCAD Mechanical|Company: Autodesk, Inc."
 90
     1024
280
     0
281
     0
  0
CLASS
  1
ACMDATUMSTANDARDANSI
  2
AcmDatumStdANSI
  3
"Amdt_StdImp|Product Description: AutoCAD Mechanical|Company: Autodesk, Inc."
 90
     1024
280
     0
281
     0
  0
CLASS
  1
ACMBOMSTANDARDANSI
  2
AcmBOMStdANSI
  3
"Amdt_StdImp|Product Description: AutoCAD Mechanical|Company: Autodesk, Inc."
 90
     1024
280
     0
281
     0
  0
CLASS
  1
ACMDETAILSTANDARDANSI
  2
AmdtDetailSymStdANSI
  3
"Amdt_StdImp|Product Description: AutoCAD Mechanical|Company: Autodesk, Inc."
 90
     1024
280
     0
281
     0
  0
CLASS
  1
ACMSECTIONSTANDARDANSI
  2
AmdtSectionSymStdANSI
  3
"Amdt_StdImp|Product Description: AutoCAD Mechanical|Company: Autodesk, Inc."
 90
     1024
280
     0
281
     0
  0
CLASS
  1
ACMCENTERLINESTANDARDANSI
  2
AmdtCenterLineStdANSI
  3
"Amdt_StdImp|Product Description: AutoCAD Mechanical|Company: Autodesk, Inc."
 90
     1024
280
     0
281
     0
  0
CLASS
  1
ACMTHREADLINESTANDARDANSI
  2
AmdtThreadLineStdANSI
  3
"Amdt_StdImp|Product Description: AutoCAD Mechanical|Company: Autodesk, Inc."
 90
     1024
280
     0
281
     0
  0
CLASS
  1
ACMNOTESTANDARDANSI
  2
AmdtNoteStdANSI
  3
"Amdt_StdImp|Product Description: AutoCAD Mechanical|Company: Autodesk, Inc."
 90
     1024
280
     0
281
     0
  0
CLASS
  1
ACMTAPERSTANDARDANSI
  2
AcmTaperStdANSI
  3
"Amdt_StdImp|Product Description: AutoCAD Mechanical|Company: Autodesk, Inc."
 90
     1024
280
     0
281
     0
  0
CLASS
  1
ACMANOOTATIONVIEWSTANDARDANSI
  2
AmdtAnViewStdANSI
  3
"Amdt_StdImp|Product Description: AutoCAD Mechanical|Company: Autodesk, Inc."
 90
     1024
280
     0
281
     0
  0
CLASS
  1
ACAMGLAYSTD
  2
AcAmgLayStd
  3
"AmgLay|Product Description: AutoCAD Mechanical|Company: Autodesk, Inc."
 90
     1024
280
     0
281
     0
  0
CLASS
  1
ACAMGDIMSTD
  2
AcAmgDimStd
  3
"AmgDim|Product Description: AutoCAD Mechanical|Company: Autodesk, Inc."
 90
     1024
280
     0
281
     0
  0
CLASS
  1
ACAMGHOLECHARTSTDANSI
  2
AcAmgHoleChartStdANSI
  3
AmgDim|Product Description: AutoCAD Mechanical|Company: Autodesk, Inc.
 90
     1024
280
     0
281
     0
  0
CLASS
  1
AMGOBJPROPCFG
  2
AmgObjPropCfg
  3
"AmgLay|Product Description: AutoCAD Mechanical|Company: Autodesk, Inc."
 90
     1025
280
     0
281
     0
  0
CLASS
  1
ACAMGTITLESTD
  2
AcAmgTitleStd
  3
"AmgTitle|Product Description: AutoCAD Mechanical|Company: Autodesk, Inc."
 90
     4095
280
     0
281
     0
  0
CLASS
  1
AMDTNOTETEMPLATEDB
  2
AmdtNoteTemplateDB
  3
AcmSymBB|Product Description: AutoCAD Mechanical|Company: Autodesk, Inc.
 90
     1024
280
     0
281
     0
  0
CLASS
  1
LAYER_INDEX
  2
AcDbLayerIndex
  3
ObjectDBX Classes
 90
        0
280
     0
281
     0
  0
CLASS
  1
IDBUFFER
  2
AcDbIdBuffer
  3
ObjectDBX Classes
 90
        0
280
     0
281
     0
  0
CLASS
  1
DICTIONARYVAR
  2
AcDbDictionaryVar
  3
ObjectDBX Classes
 90
        0
280
     0
281
     0
  0
CLASS
  1
CELLSTYLEMAP
  2
AcDbCellStyleMap
  3
ObjectDBX Classes
 90
     1152
280
     0
281
     0
  0
CLASS
  1
ACDBPLACEHOLDER
  2
AcDbPlaceHolder
  3
ObjectDBX Classes
 90
        0
280
     0
281
     0
  0
CLASS
  1
LAYOUT
  2
AcDbLayout
  3
ObjectDBX Classes
 90
        0
280
     0
281
     0
  0
CLASS
  1
ACDB_HATCHSCALECONTEXTDATA_CLASS
  2
AcDbHatchScaleContextData
  3
ObjectDBX Classes
 90
     1153
280
     0
281
     0
  0
CLASS
  1
SORTENTSTABLE
  2
AcDbSortentsTable
  3
ObjectDBX Classes
 90
        0
280
     0
281
     0
  0
CLASS
  1
ACAMGFILTERDAT
  2
AcAmgFilterDat
  3
"AcadM|Product Description: AutoCAD Mechanical|Company: Autodesk, Inc."
 90
     1024
280
     0
281
     0
  0
CLASS
  1
ACDB_HATCHVIEWCONTEXTDATA_CLASS
  2
AcDbHatchViewContextData
  3
ObjectDBX Classes
 90
     1153
280
     0
281
     0
  0
ENDSEC
  0
SECTION
  2
TABLES
  0
TABLE
  2
VPORT
  5
2C33
330
0
100
AcDbSymbolTable
 70
     1
  0
VPORT
  5
2CA3
330
2C33
100
AcDbSymbolTableRecord
100
AcDbViewportTableRecord
  2
*ACTIVE
 70
     0
 10
0.0
 20
0.0
 11
1.0
 21
1.0
 12
-0.0000000000005684
 22
-59.92126471819483
 13
0.0
 23
0.0
 14
1.0
 24
1.0
 15
0.0
 25
0.0
 16
0.0
 26
0.0
 36
1.0
 17
22.4327225964895
 27
-116.1575220946197
 37
0.0
 40
1708.545493035346
 41
1.712555066079295
 42
50.0
 43
0.0
 44
0.0
 50
0.0
 51
0.0
 71
     0
 72
   100
 73
     1
 74
     0
 75
     0
 76
     0
 77
     0
 78
     0
281
     0
 65
     0
110
0.0
120
0.0
130
0.0
111
1.0
121
0.0
131
0.0
112
0.0
122
1.0
132
0.0
 79
     0
146
0.0
  0
ENDTAB
  0
TABLE
  2
LTYPE
  5
2C30
330
0
100
AcDbSymbolTable
 70
    20
  0
LTYPE
  5
2C8D
330
2C30
100
AcDbSymbolTableRecord
100
AcDbLinetypeTableRecord
  2
ByBlock
 70
     0
  3

 72
    65
 73
     0
 40
0.0
  0
LTYPE
  5
2C8E
330
2C30
100
AcDbSymbolTableRecord
100
AcDbLinetypeTableRecord
  2
ByLayer
 70
     0
  3

 72
    65
 73
     0
 40
0.0
  0
LTYPE
  5
2C8F
330
2C30
100
AcDbSymbolTableRecord
100
AcDbLinetypeTableRecord
  2
CONTINUOUS
 70
     0
  3
実線
 72
    65
 73
     0
 40
0.0
  0
LTYPE
  5
2CA4
330
2C30
100
AcDbSymbolTableRecord
100
AcDbLinetypeTableRecord
  2
DASHDOT
 70
     0
  3
____ _ ____ _ ____ _ ____ _ ____ _ ____ _ ____
 72
    65
 73
     4
 40
5.5
 49
4.0
 74
     0
 49
-0.6
 74
     0
 49
0.3
 74
     0
 49
-0.6
 74
     0
  0
LTYPE
  5
2CA5
330
2C30
100
AcDbSymbolTableRecord
100
AcDbLinetypeTableRecord
  2
HIDDEN
 70
     0
  3
Hidden __ __ __ __ __ __ __ __ __ __ __ __ __ _
 72
    65
 73
     2
 40
0.375
 49
0.25
 74
     0
 49
-0.125
 74
     0
  0
LTYPE
  5
2CA6
330
2C30
100
AcDbSymbolTableRecord
100
AcDbLinetypeTableRecord
  2
PHANTOM2
 70
     0
  3
Phantom (.5x) ___ _ _ ___ _ _ ___ _ _ ___ _ _
 72
    65
 73
     6
 40
1.25
 49
0.625
 74
     0
 49
-0.125
 74
     0
 49
0.125
 74
     0
 49
-0.125
 74
     0
 49
0.125
 74
     0
 49
-0.125
 74
     0
  0
LTYPE
  5
2CA7
330
2C30
100
AcDbSymbolTableRecord
100
AcDbLinetypeTableRecord
  2
CENTER
 70
     0
  3
Center ____ _ ____ _ ____ _ ____ _ ____ _ ____
 72
    65
 73
     4
 40
2.0
 49
1.25
 74
     0
 49
-0.25
 74
     0
 49
0.25
 74
     0
 49
-0.25
 74
     0
  0
LTYPE
  5
2CA8
330
2C30
100
AcDbSymbolTableRecord
100
AcDbLinetypeTableRecord
  2
ASULTYPE
 70
     0
  3
実線
 72
    65
 73
     2
 40
3.0
 49
2.5
 74
     0
 49
0.5
 74
     0
  0
LTYPE
  5
2CA9
330
2C30
100
AcDbSymbolTableRecord
100
AcDbLinetypeTableRecord
  2
ASVLTYPE
 70
     0
  3
__ __ __ __ __ __ __ __ __ __ __ __ __ __ __ __ __ __ __ __ __
 72
    65
 73
     2
 40
0.75
 49
0.5
 74
     0
 49
-0.25
 74
     0
  0
LTYPE
  5
2CAA
330
2C30
100
AcDbSymbolTableRecord
100
AcDbLinetypeTableRecord
  2
AM_ISO02W050
 70
     0
  3
__ __ __ __ __ __ __ __ __ __ __ __ __ __ __
 72
    65
 73
     2
 40
7.5
 49
6.0
 74
     0
 49
-1.5
 74
     0
  0
LTYPE
  5
2CAB
330
2C30
100
AcDbSymbolTableRecord
100
AcDbLinetypeTableRecord
  2
AM_ISO08W050
 70
     0
  3
____ . ____ . ____ . ____ . ____ . ____ . ____
 72
    65
 73
     4
 40
18.0
 49
12.0
 74
     0
 49
-1.5
 74
     0
 49
3.0
 74
     0
 49
-1.5
 74
     0
  0
LTYPE
  5
2CAC
330
2C30
100
AcDbSymbolTableRecord
100
AcDbLinetypeTableRecord
  2
AM_ISO09W050
 70
     0
  3
_____ . . _____ . . _____ . . ____ .. ____
 72
    65
 73
     6
 40
22.5
 49
12.0
 74
     0
 49
-1.5
 74
     0
 49
3.0
 74
     0
 49
-1.5
 74
     0
 49
3.0
 74
     0
 49
-1.5
 74
     0
  0
LTYPE
  5
2CAD
330
2C30
100
AcDbSymbolTableRecord
100
AcDbLinetypeTableRecord
  2
AMCONSTR
 70
     0
  3
_______________________
 72
    65
 73
     2
 40
9999.0
 49
9999.0
 74
     0
 49
0.0
 74
     0
  0
LTYPE
  5
2CAE
330
2C30
100
AcDbSymbolTableRecord
100
AcDbLinetypeTableRecord
  2
AM_ISO08W050X2
 70
     0
  3
__ . __ . __ . __ . __ . __
 72
    65
 73
     4
 40
9.0
 49
6.0
 74
     0
 49
-0.75
 74
     0
 49
1.5
 74
     0
 49
-0.75
 74
     0
  0
LTYPE
  5
2CAF
330
2C30
100
AcDbSymbolTableRecord
100
AcDbLinetypeTableRecord
  2
AM_ISO02W050X2
 70
     0
  3
 _ _ _ _ _ _ _ _ _ _ _ _
 72
    65
 73
     2
 40
3.75
 49
3.0
 74
     0
 49
-0.75
 74
     0
  0
LTYPE
  5
2CB0
330
2C30
100
AcDbSymbolTableRecord
100
AcDbLinetypeTableRecord
  2
AMZIGZAG
 70
     0
  3
/\/-/\/-/\/-/\/-/\/-/\/
 72
    65
 73
     2
 40
11.0001
 49
0.0001
 74
     0
 49
-11.0
 74
     0
  0
LTYPE
  5
2CB1
330
2C30
100
AcDbSymbolTableRecord
100
AcDbLinetypeTableRecord
  2
CENTER2
 70
     0
  3
Center (.5x) ___ _ ___ _ ___ _ ___ _ ___ _ ___
 72
    65
 73
     4
 40
1.125
 49
0.75
 74
     0
 49
-0.125
 74
     0
 49
0.125
 74
     0
 49
-0.125
 74
     0
  0
LTYPE
  5
2CB2
330
2C30
100
AcDbSymbolTableRecord
100
AcDbLinetypeTableRecord
  2
HIDDEN2
 70
     0
  3
Hidden (.5x) _ _ _ _ _ _ _ _ _ _ _ _ _ _ _ _ _
 72
    65
 73
     2
 40
0.1875
 49
0.125
 74
     0
 49
-0.0625
 74
     0
  0
LTYPE
  5
2CB3
330
2C30
100
AcDbSymbolTableRecord
100
AcDbLinetypeTableRecord
  2
AMZIGZAG2
 70
     0
  3
/\/-/\/-/\/-/\/-/\/-/\/
 72
    65
 73
     2
 40
0.4401
 49
0.0001
 74
     0
 49
-0.4400000000000003
 74
     0
  0
LTYPE
  5
2CB4
330
2C30
100
AcDbSymbolTableRecord
100
AcDbLinetypeTableRecord
  2
ACANSTGB
 70
     0
  3
__ . . __ . .
 72
    65
 73
     6
 40
0.35433070866
 49
0.15748031496
 74
     0
 49
-0.03937007874
 74
     0
 49
0.03937007874
 74
     0
 49
-0.03937007874
 74
     0
 49
0.03937007874
 74
     0
 49
-0.03937007874
 74
     0
  0
LTYPE
  5
2CB5
330
2C30
100
AcDbSymbolTableRecord
100
AcDbLinetypeTableRecord
  2
ACANSTGL
 70
     0
  3
_ _ _ _ _
 72
    65
 73
     2
 40
0.11811023622
 49
0.07874015748
 74
     0
 49
-0.03937007874
 74
     0
  0
LTYPE
  5
2F78
330
2C30
100
AcDbSymbolTableRecord
100
AcDbLinetypeTableRecord
  2
DASHED
 70
     0
  3
_ _ _ _ _ _ _ _ _ _ _ _ _ _ _ _ _ _ _ _ _ _ _
 72
    65
 73
     2
 40
2.0
 49
1.199999999999999
 74
     0
 49
-0.8
 74
     0
  0
ENDTAB
  0
TABLE
  2
LAYER
  5
2C2D
102
{ACAD_XDICTIONARY
360
2F7B
102
}
330
0
100
AcDbSymbolTable
 70
    14
  0
LAYER
  5
2C87
102
{ACAD_XDICTIONARY
360
2E55
102
}
330
2C2D
100
AcDbSymbolTableRecord
100
AcDbLayerTableRecord
  2
0
 70
     0
 62
     7
  6
CONTINUOUS
370
    -3
390
2C3A
  0
LAYER
  5
2CB6
102
{ACAD_XDICTIONARY
360
2E57
102
}
330
2C2D
100
AcDbSymbolTableRecord
100
AcDbLayerTableRecord
  2
OUTLINE
 70
     0
 62
     3
  6
CONTINUOUS
370
    -3
390
2C3A
  0
LAYER
  5
2CB7
102
{ACAD_XDICTIONARY
360
2E59
102
}
330
2C2D
100
AcDbSymbolTableRecord
100
AcDbLayerTableRecord
  2
SIZE
 70
     0
 62
    30
  6
CONTINUOUS
370
    -3
390
2C3A
  0
LAYER
  5
2CB8
102
{ACAD_XDICTIONARY
360
2E5B
102
}
330
2C2D
100
AcDbSymbolTableRecord
100
AcDbLayerTableRecord
  2
BASIS
 70
     0
 62
     6
  6
DASHDOT
370
    -3
390
2C3A
  0
LAYER
  5
2CB9
102
{ACAD_XDICTIONARY
360
2E5D
102
}
330
2C2D
100
AcDbSymbolTableRecord
100
AcDbLayerTableRecord
  2
DETAIL
 70
     0
 62
     5
  6
CONTINUOUS
370
    -3
390
2C3A
  0
LAYER
  5
2CBA
102
{ACAD_XDICTIONARY
360
2E5F
102
}
330
2C2D
100
AcDbSymbolTableRecord
100
AcDbLayerTableRecord
  2
ARRANGE
 70
     0
 62
     1
  6
CONTINUOUS
370
    -3
390
2C3A
  0
LAYER
  5
2CBB
330
2C2D
100
AcDbSymbolTableRecord
100
AcDbLayerTableRecord
  2
DEFPOINTS
 70
     0
 62
     7
  6
CONTINUOUS
290
     0
370
    -3
390
2C3A
  0
LAYER
  5
2CBC
102
{ACAD_XDICTIONARY
360
2E61
102
}
330
2C2D
100
AcDbSymbolTableRecord
100
AcDbLayerTableRecord
  2
ETC
 70
     0
 62
    61
  6
CONTINUOUS
370
    -3
390
2C3A
  0
LAYER
  5
2CBD
102
{ACAD_XDICTIONARY
360
2E63
102
}
330
2C2D
100
AcDbSymbolTableRecord
100
AcDbLayerTableRecord
  2
FIX
 70
     0
 62
    11
  6
CONTINUOUS
370
    -3
390
2C3A
  0
LAYER
  5
2CBE
102
{ACAD_XDICTIONARY
360
2E65
102
}
330
2C2D
100
AcDbSymbolTableRecord
100
AcDbLayerTableRecord
  2
NOTE
 70
     0
 62
     4
  6
CONTINUOUS
370
    -3
390
2C3A
  0
LAYER
  5
2CBF
102
{ACAD_XDICTIONARY
360
2E67
102
}
330
2C2D
100
AcDbSymbolTableRecord
100
AcDbLayerTableRecord
  2
SERVICESPACE
 70
     0
 62
     2
  6
DASHDOT
370
    -3
390
2C3A
  0
LAYER
  5
2CC0
102
{ACAD_XDICTIONARY
360
2E69
102
}
330
2C2D
100
AcDbSymbolTableRecord
100
AcDbLayerTableRecord
  2
SYMBOLLINE
 70
     0
 62
    15
  6
CONTINUOUS
370
    -3
390
2C3A
  0
LAYER
  5
2CC1
102
{ACAD_XDICTIONARY
360
2E6B
102
}
330
2C2D
100
AcDbSymbolTableRecord
100
AcDbLayerTableRecord
  2
DETAIL___1
 70
     0
 62
     5
  6
CONTINUOUS
370
    -3
390
2C3A
  0
LAYER
  5
30B6
102
{ACAD_XDICTIONARY
360
30B7
102
}
330
2C2D
100
AcDbSymbolTableRecord
100
AcDbLayerTableRecord
  2
DETAIL @ 1
 70
     0
 62
     5
  6
CONTINUOUS
370
    -3
390
2C3A
1001
AcadAnnotativeDecomposition
1000
AnnotativeData
1002
{
1070
     1
1070
     1
1002
}
  0
ENDTAB
  0
TABLE
  2
STYLE
  5
2C2E
330
0
100
AcDbSymbolTable
 70
     5
  0
STYLE
  5
2C88
330
2C2E
100
AcDbSymbolTableRecord
100
AcDbTextStyleTableRecord
  2
STANDARD
 70
     0
 40
64.0
 41
0.9
 50
0.0
 71
     0
 42
64.0
  3
SIMPLEX.shx
  4
BIGFONT.shx
  0
STYLE
  5
2C8C
330
2C2E
100
AcDbSymbolTableRecord
100
AcDbTextStyleTableRecord
  2
ANNOTATIVE
 70
     0
 40
0.0
 41
1.0
 50
0.0
 71
     0
 42
0.2
  3
txt
  4

1001
ACADANNOTATIVE
1000
AnnotativeData
1002
{
1070
     1
1070
     1
1002
}
  0
STYLE
  5
2CC2
330
2C2E
100
AcDbSymbolTableRecord
100
AcDbTextStyleTableRecord
  2

 70
     1
 40
0.0
 41
1.0
 50
0.0
 71
     0
 42
64.0
  3
genltshp.shx
  4

  0
STYLE
  5
2CC3
330
2C2E
100
AcDbSymbolTableRecord
100
AcDbTextStyleTableRecord
  2
ACANSTS
 70
     0
 40
1.0
 41
1.0
 50
0.0
 71
     0
 42
64.0
  3
romans.shx
  4
extfont.shx
  0
STYLE
  5
2CC4
330
2C2E
100
AcDbSymbolTableRecord
100
AcDbTextStyleTableRecord
  2
ACANSGDT
 70
     0
 40
0.0
 41
1.0
 50
0.0
 71
     0
 42
64.0
  3
amgdt.shx
  4

  0
ENDTAB
  0
TABLE
  2
VIEW
  5
2C31
330
0
100
AcDbSymbolTable
 70
     1
  0
VIEW
  5
2CC5
330
2C31
100
AcDbSymbolTableRecord
100
AcDbViewTableRecord
  2
ALL
 70
     0
 40
4282.619807999997
 10
0.0
 20
41.30990399999999
 41
5940.0
 11
0.0
 21
0.0
 31
1.0
 12
0.0
 22
0.0
 32
0.0
 42
50.0
 43
0.0
 44
0.0
 50
0.0
 71
     0
281
     0
 72
     1
110
0.0
120
0.0
130
0.0
111
1.0
121
0.0
131
0.0
112
0.0
122
1.0
132
0.0
 79
     0
146
0.0
  0
ENDTAB
  0
TABLE
  2
UCS
  5
2C32
330
0
100
AcDbSymbolTable
 70
     0
  0
ENDTAB
  0
TABLE
  2
APPID
  5
2C34
330
0
100
AcDbSymbolTable
 70
    31
  0
APPID
  5
2C89
330
2C34
100
AcDbSymbolTableRecord
100
AcDbRegAppTableRecord
  2
ACAD
 70
     0
  0
APPID
  5
2C90
330
2C34
100
AcDbSymbolTableRecord
100
AcDbRegAppTableRecord
  2
ACADANNOTATIVE
 70
     0
  0
APPID
  5
2C9A
330
2C34
100
AcDbSymbolTableRecord
100
AcDbRegAppTableRecord
  2
ACAD_MLEADERVER
 70
     0
  0
APPID
  5
2CC6
330
2C34
100
AcDbSymbolTableRecord
100
AcDbRegAppTableRecord
  2
GENIUS_GENDIM_13
 70
     0
  0
APPID
  5
2CC7
330
2C34
100
AcDbSymbolTableRecord
100
AcDbRegAppTableRecord
  2
GENIUS_GENDTOL_13
 70
     0
  0
APPID
  5
2CC8
330
2C34
100
AcDbSymbolTableRecord
100
AcDbRegAppTableRecord
  2
GENIUS_GE3DTOL_13
 70
     0
  0
APPID
  5
2CC9
330
2C34
100
AcDbSymbolTableRecord
100
AcDbRegAppTableRecord
  2
MCAD_NO_VIS
 70
     0
  0
APPID
  5
2CCA
330
2C34
100
AcDbSymbolTableRecord
100
AcDbRegAppTableRecord
  2
ACAD_TEMP_GRAPHIC
 70
     0
  0
APPID
  5
2CCB
330
2C34
100
AcDbSymbolTableRecord
100
AcDbRegAppTableRecord
  2
AD_DRAW
 70
     0
  0
APPID
  5
2CCC
330
2C34
100
AcDbSymbolTableRecord
100
AcDbRegAppTableRecord
  2
ACATTRIBSERVICES
 70
     0
  0
APPID
  5
2CCD
330
2C34
100
AcDbSymbolTableRecord
100
AcDbRegAppTableRecord
  2
ASURF_PCURVE_APPNAME
 70
     0
  0
APPID
  5
2CCE
330
2C34
100
AcDbSymbolTableRecord
100
AcDbRegAppTableRecord
  2
AMG_3D2D_5_0
 70
     0
  0
APPID
  5
2CCF
330
2C34
100
AcDbSymbolTableRecord
100
AcDbRegAppTableRecord
  2
DESIGNERASSEMBLIES
 70
     0
  0
APPID
  5
2CD0
330
2C34
100
AcDbSymbolTableRecord
100
AcDbRegAppTableRecord
  2
ACADM_DIM_EDIT
 70
     0
  0
APPID
  5
2CD1
330
2C34
100
AcDbSymbolTableRecord
100
AcDbRegAppTableRecord
  2
AMDT_DM_ADJ
 70
     0
  0
APPID
  5
2CD2
330
2C34
100
AcDbSymbolTableRecord
100
AcDbRegAppTableRecord
  2
ACAD_DSTYLE_DIMARC_LENGTH_
 70
     0
  0
APPID
  5
2CD3
330
2C34
100
AcDbSymbolTableRecord
100
AcDbRegAppTableRecord
  2
ACAD_DSTYLE_DIMJOGGED_JOGA
 70
     0
  0
APPID
  5
2CD4
330
2C34
100
AcDbSymbolTableRecord
100
AcDbRegAppTableRecord
  2
ACAD_PSEXT
 70
     0
  0
APPID
  5
2CD5
330
2C34
100
AcDbSymbolTableRecord
100
AcDbRegAppTableRecord
  2
ACAD_EXEMPT_FROM_CAD_STANDARDS
 70
     0
  0
APPID
  5
2CD6
330
2C34
100
AcDbSymbolTableRecord
100
AcDbRegAppTableRecord
  2
ACAD_DSTYLE_DIMJAG
 70
     0
  0
APPID
  5
2CD7
330
2C34
100
AcDbSymbolTableRecord
100
AcDbRegAppTableRecord
  2
ACAD_DSTYLE_DIMTALN
 70
     0
  0
APPID
  5
2CD8
330
2C34
100
AcDbSymbolTableRecord
100
AcDbRegAppTableRecord
  2
AMG_3D2D_5_00
 70
     0
  0
APPID
  5
2CD9
330
2C34
100
AcDbSymbolTableRecord
100
AcDbRegAppTableRecord
  2
AMG_3D2D_5_01
 70
     0
  0
APPID
  5
2CDA
330
2C34
100
AcDbSymbolTableRecord
100
AcDbRegAppTableRecord
  2
AMG_3D2D_5_02
 70
     0
  0
APPID
  5
2DFC
330
2C34
100
AcDbSymbolTableRecord
100
AcDbRegAppTableRecord
  2
AMG_3D2D_5.0
 70
     0
  0
APPID
  5
2E95
330
2C34
100
AcDbSymbolTableRecord
100
AcDbRegAppTableRecord
  2
ACAD_DSTYLE_DIMARC_LENGTH_SYMBOL
 70
     0
  0
APPID
  5
2E96
330
2C34
100
AcDbSymbolTableRecord
100
AcDbRegAppTableRecord
  2
ACAD_DSTYLE_DIM_LINETYPE
 70
     0
  0
APPID
  5
2E97
330
2C34
100
AcDbSymbolTableRecord
100
AcDbRegAppTableRecord
  2
ACAD_DSTYLE_DIM_EXT1_LINETYPE
 70
     0
  0
APPID
  5
2E98
330
2C34
100
AcDbSymbolTableRecord
100
AcDbRegAppTableRecord
  2
ACAD_DSTYLE_DIM_EXT2_LINETYPE
 70
     0
  0
APPID
  5
2F79
330
2C34
100
AcDbSymbolTableRecord
100
AcDbRegAppTableRecord
  2
ACAD_DSTYLE_DIMJOGGED_JOGANGLE_SYMBOL
 70
     0
  0
APPID
  5
2F7A
330
2C34
100
AcDbSymbolTableRecord
100
AcDbRegAppTableRecord
  2
AcadAnnotativeDecomposition
 70
     0
  0
ENDTAB
  0
TABLE
  2
DIMSTYLE
  5
2C35
330
0
100
AcDbSymbolTable
 70
    10
100
AcDbDimStyleTable
 71
     1
340
2CDB
  0
DIMSTYLE
105
2C8A
330
2C35
100
AcDbSymbolTableRecord
100
AcDbDimStyleTableRecord
  2
STANDARD
 70
     0
 41
12.0
 42
20.0
 44
20.0
 77
     1
 78
     8
140
64.0
141
0.0
147
10.0
275
     1
279
     2
284
     7
285
     7
286
     7
340
2C88
  0
DIMSTYLE
105
2C8B
330
2C35
100
AcDbSymbolTableRecord
100
AcDbDimStyleTableRecord
  2
ANNOTATIVE
 70
     0
275
     1
279
     2
284
     7
285
     7
286
     7
340
2C88
1001
ACADANNOTATIVE
1000
AnnotativeData
1002
{
1070
     1
1070
     1
1002
}
  0
DIMSTYLE
105
2CDB
330
2C35
100
AcDbSymbolTableRecord
100
AcDbDimStyleTableRecord
  2
AM_ANSI
 70
     0
  4
mm
 41
0.12
 42
0.05
 43
0.5
 44
0.1
 47
0.1
 48
0.1
 78
     7
 79
     2
140
0.12
141
0.0
146
0.71
147
0.06
176
   256
177
   256
178
     2
274
     4
284
     7
340
2C88
371
    -1
372
    -1
1001
ACAD_DSTYLE_DIMARC_LENGTH_SYMBOL
1070
   379
1070
     1
1001
ACAD_DSTYLE_DIM_LINETYPE
1070
   380
1005
2C8D
1001
ACAD_DSTYLE_DIM_EXT1_LINETYPE
1070
   381
1005
2C8D
1001
ACAD_DSTYLE_DIM_EXT2_LINETYPE
1070
   382
1005
2C8D
  0
DIMSTYLE
105
2CDC
330
2C35
100
AcDbSymbolTableRecord
100
AcDbDimStyleTableRecord
  2
AM_ANSI$3
 70
     0
  4
mm
 41
0.12
 42
0.05
 43
0.5
 44
0.1
 47
0.1
 48
0.1
 78
     7
 79
     2
140
0.12
141
0.0
146
0.71
147
0.06
176
   256
177
   256
178
     2
274
     4
284
     7
288
     1
289
     0
340
2C88
371
    -1
372
    -1
1001
ACAD_DSTYLE_DIMARC_LENGTH_SYMBOL
1070
   379
1070
     1
1001
ACAD_DSTYLE_DIM_LINETYPE
1070
   380
1005
2C8D
1001
ACAD_DSTYLE_DIM_EXT1_LINETYPE
1070
   381
1005
2C8D
1001
ACAD_DSTYLE_DIM_EXT2_LINETYPE
1070
   382
1005
2C8D
  0
DIMSTYLE
105
2CDD
330
2C35
100
AcDbSymbolTableRecord
100
AcDbDimStyleTableRecord
  2
AM_ANSI$4
 70
     0
  4
mm
 41
0.12
 42
0.05
 43
0.5
 44
0.1
 47
0.1
 48
0.1
 78
     7
 79
     2
140
0.12
141
0.0
146
0.71
147
0.06
176
   256
177
   256
178
     2
274
     4
284
     7
340
2C88
371
    -1
372
    -1
1001
ACAD_DSTYLE_DIMARC_LENGTH_SYMBOL
1070
   379
1070
     1
1001
ACAD_DSTYLE_DIM_LINETYPE
1070
   380
1005
2C8D
1001
ACAD_DSTYLE_DIM_EXT1_LINETYPE
1070
   381
1005
2C8D
1001
ACAD_DSTYLE_DIM_EXT2_LINETYPE
1070
   382
1005
2C8D
  0
DIMSTYLE
105
2CDE
330
2C35
100
AcDbSymbolTableRecord
100
AcDbDimStyleTableRecord
  2
AM_ANSI$7
 70
     0
  4
mm
 41
0.12
 42
0.05
 43
0.5
 44
0.1
 47
0.1
 48
0.1
 78
     7
 79
     2
140
0.12
141
0.0
146
0.71
147
0.06
176
   256
177
   256
178
     2
274
     4
284
     7
340
2C88
371
    -1
372
    -1
1001
ACAD_DSTYLE_DIMARC_LENGTH_SYMBOL
1070
   379
1070
     1
1001
ACAD_DSTYLE_DIM_LINETYPE
1070
   380
1005
2C8D
1001
ACAD_DSTYLE_DIM_EXT1_LINETYPE
1070
   381
1005
2C8D
1001
ACAD_DSTYLE_DIM_EXT2_LINETYPE
1070
   382
1005
2C8D
  0
DIMSTYLE
105
2CDF
330
2C35
100
AcDbSymbolTableRecord
100
AcDbDimStyleTableRecord
  2
AM_ANSI$SF
 70
     0
  4
mm
 41
0.12
 42
0.05
 43
0.5
 44
0.1
 47
0.1
 48
0.1
 75
     1
 76
     1
 78
     7
 79
     2
140
0.12
141
0.0
146
0.71
147
0.06
176
   256
177
   256
178
     2
274
     4
284
     7
340
2C88
371
    -1
372
    -1
1001
ACAD_DSTYLE_DIMARC_LENGTH_SYMBOL
1070
   379
1070
     1
1001
ACAD_DSTYLE_DIM_LINETYPE
1070
   380
1005
2C8D
1001
ACAD_DSTYLE_DIM_EXT1_LINETYPE
1070
   381
1005
2C8D
1001
ACAD_DSTYLE_DIM_EXT2_LINETYPE
1070
   382
1005
2C8D
  0
DIMSTYLE
105
2CE0
330
2C35
100
AcDbSymbolTableRecord
100
AcDbDimStyleTableRecord
  2
AM_ANSI$SH
 70
     0
  4
mm
 41
0.12
 42
0.05
 43
0.5
 44
0.1
 47
0.1
 48
0.1
 75
     1
 76
     1
 78
     7
 79
     2
140
0.12
141
0.0
146
0.71
147
0.06
173
     1
176
   256
177
   256
178
     2
274
     4
284
     7
340
2C88
343
2D00
371
    -1
372
    -1
1001
ACAD_DSTYLE_DIMARC_LENGTH_SYMBOL
1070
   379
1070
     1
1001
ACAD_DSTYLE_DIM_LINETYPE
1070
   380
1005
2C8D
1001
ACAD_DSTYLE_DIM_EXT1_LINETYPE
1070
   381
1005
2C8D
1001
ACAD_DSTYLE_DIM_EXT2_LINETYPE
1070
   382
1005
2C8D
  0
DIMSTYLE
105
2CE1
330
2C35
100
AcDbSymbolTableRecord
100
AcDbDimStyleTableRecord
  2
STANDARD1
 70
     0
 40
6.0
 41
2.5
 42
0.625
 43
6.0
 44
1.25
 47
1.0
 48
0.5
 77
     1
 78
     8
140
2.5
141
0.0
146
0.6
147
1.0
173
     1
275
     1
279
     2
284
     7
285
     7
286
     7
340
2C88
  0
DIMSTYLE
105
2CE2
330
2C35
100
AcDbSymbolTableRecord
100
AcDbDimStyleTableRecord
  2
STANDARD$0
 70
     0
 41
12.0
 42
20.0
 44
20.0
 73
     0
 74
     0
 77
     1
 78
     8
140
64.0
141
0.0
147
10.0
275
     1
279
     2
284
     7
285
     7
286
     7
340
2C88
  0
ENDTAB
  0
TABLE
  2
BLOCK_RECORD
  5
2C2C
330
0
100
AcDbSymbolTable
 70
    74
  0
BLOCK_RECORD
  5
2C9F
102
{ACAD_XDICTIONARY
360
2E6D
102
}
330
2C2C
100
AcDbSymbolTableRecord
100
AcDbBlockTableRecord
  2
*Model_Space
340
2CA2
  0
BLOCK_RECORD
  5
2C9B
330
2C2C
100
AcDbSymbolTableRecord
100
AcDbBlockTableRecord
  2
*Paper_Space
340
2C9E
  0
BLOCK_RECORD
  5
2CEA
330
2C2C
100
AcDbSymbolTableRecord
100
AcDbBlockTableRecord
  2
$MODEL_SPACE
340
0
  0
BLOCK_RECORD
  5
2CEC
330
2C2C
100
AcDbSymbolTableRecord
100
AcDbBlockTableRecord
  2
$PAPER_SPACE
340
0
  0
BLOCK_RECORD
  5
2CEE
330
2C2C
100
AcDbSymbolTableRecord
100
AcDbBlockTableRecord
  2
_ORIGIN
340
0
  0
BLOCK_RECORD
  5
2CF0
330
2C2C
100
AcDbSymbolTableRecord
100
AcDbBlockTableRecord
  2
_DOTBLANK
340
0
102
{BLKREFS
331
1299
331
129A
331
11AA
331
11AB
331
E80
331
E81
331
1123
331
1124
331
11C2
331
11C3
331
11EC
331
11ED
331
11F9
331
11FA
331
1287
331
1288
331
1417
331
1418
331
1423
331
1424
331
142F
331
1430
331
143B
331
143C
331
166E
331
166F
331
1677
331
1678
331
1680
331
1681
331
1689
331
168A
331
1696
331
1697
331
16A3
331
16A4
331
16AF
331
16B0
331
16BB
331
16BC
331
16C7
331
16C8
331
16D3
331
16D4
331
1D86
331
1D87
331
1D8F
331
1D90
331
1D98
331
1D99
331
1DA1
331
1DA2
331
1DAB
331
1DAC
331
1DB5
331
1DB6
331
2F8A
331
2F8B
331
2F98
331
2F99
331
2FB4
331
2FB5
331
2FBA
331
2FBB
331
2FC2
331
2FC3
331
2FE3
331
2FE4
331
2FED
331
2FEE
331
302A
331
302B
331
3038
331
3039
331
3054
331
3055
331
305A
331
305B
331
3062
331
3063
331
3083
331
3084
331
308D
331
308E
102
}
  0
BLOCK_RECORD
  5
2CF2
330
2C2C
100
AcDbSymbolTableRecord
100
AcDbBlockTableRecord
  2
_OPEN30
340
0
102
{BLKREFS
331
2164
331
216D
331
24AD
331
24B6
331
2802
331
280B
331
2FC5
331
2FC8
331
3065
331
3068
102
}
  0
BLOCK_RECORD
  5
2CF4
330
2C2C
100
AcDbSymbolTableRecord
100
AcDbBlockTableRecord
  2
*D5
340
0
  0
BLOCK_RECORD
  5
2CF6
330
2C2C
100
AcDbSymbolTableRecord
100
AcDbBlockTableRecord
  2
*U6
340
0
102
{BLKREFS
331
129B
102
}
  0
BLOCK_RECORD
  5
2CF8
330
2C2C
100
AcDbSymbolTableRecord
100
AcDbBlockTableRecord
  2
*D7
340
0
  0
BLOCK_RECORD
  5
2CFA
330
2C2C
100
AcDbSymbolTableRecord
100
AcDbBlockTableRecord
  2
*U8
340
0
102
{BLKREFS
331
11AC
102
}
  0
BLOCK_RECORD
  5
2CFC
330
2C2C
100
AcDbSymbolTableRecord
100
AcDbBlockTableRecord
  2
*D9
340
0
  0
BLOCK_RECORD
  5
2CFE
330
2C2C
100
AcDbSymbolTableRecord
100
AcDbBlockTableRecord
  2
*U10
340
0
102
{BLKREFS
331
E82
102
}
  0
BLOCK_RECORD
  5
2D00
330
2C2C
100
AcDbSymbolTableRecord
100
AcDbBlockTableRecord
  2
GENAXEH
340
0
  0
BLOCK_RECORD
  5
2D02
330
2C2C
100
AcDbSymbolTableRecord
100
AcDbBlockTableRecord
  2
*D12
340
0
  0
BLOCK_RECORD
  5
2D04
330
2C2C
100
AcDbSymbolTableRecord
100
AcDbBlockTableRecord
  2
*U13
340
0
102
{BLKREFS
331
1125
102
}
  0
BLOCK_RECORD
  5
2D06
330
2C2C
100
AcDbSymbolTableRecord
100
AcDbBlockTableRecord
  2
*D14
340
0
  0
BLOCK_RECORD
  5
2D08
330
2C2C
100
AcDbSymbolTableRecord
100
AcDbBlockTableRecord
  2
*U15
340
0
102
{BLKREFS
331
11C4
102
}
  0
BLOCK_RECORD
  5
2D0A
330
2C2C
100
AcDbSymbolTableRecord
100
AcDbBlockTableRecord
  2
*D16
340
0
  0
BLOCK_RECORD
  5
2D0C
330
2C2C
100
AcDbSymbolTableRecord
100
AcDbBlockTableRecord
  2
*U17
340
0
102
{BLKREFS
331
11EE
102
}
  0
BLOCK_RECORD
  5
2D0E
330
2C2C
100
AcDbSymbolTableRecord
100
AcDbBlockTableRecord
  2
*D18
340
0
  0
BLOCK_RECORD
  5
2D10
330
2C2C
100
AcDbSymbolTableRecord
100
AcDbBlockTableRecord
  2
*U19
340
0
102
{BLKREFS
331
11FB
102
}
  0
BLOCK_RECORD
  5
2D12
330
2C2C
100
AcDbSymbolTableRecord
100
AcDbBlockTableRecord
  2
*D20
340
0
  0
BLOCK_RECORD
  5
2D14
330
2C2C
100
AcDbSymbolTableRecord
100
AcDbBlockTableRecord
  2
*U21
340
0
102
{BLKREFS
331
1289
102
}
  0
BLOCK_RECORD
  5
2D16
330
2C2C
100
AcDbSymbolTableRecord
100
AcDbBlockTableRecord
  2
*D22
340
0
  0
BLOCK_RECORD
  5
2D18
330
2C2C
100
AcDbSymbolTableRecord
100
AcDbBlockTableRecord
  2
*U23
340
0
102
{BLKREFS
331
1419
102
}
  0
BLOCK_RECORD
  5
2D1A
330
2C2C
100
AcDbSymbolTableRecord
100
AcDbBlockTableRecord
  2
*D24
340
0
  0
BLOCK_RECORD
  5
2D1C
330
2C2C
100
AcDbSymbolTableRecord
100
AcDbBlockTableRecord
  2
*U25
340
0
102
{BLKREFS
331
1425
102
}
  0
BLOCK_RECORD
  5
2D1E
330
2C2C
100
AcDbSymbolTableRecord
100
AcDbBlockTableRecord
  2
*D26
340
0
  0
BLOCK_RECORD
  5
2D20
330
2C2C
100
AcDbSymbolTableRecord
100
AcDbBlockTableRecord
  2
*U27
340
0
102
{BLKREFS
331
1431
102
}
  0
BLOCK_RECORD
  5
2D22
330
2C2C
100
AcDbSymbolTableRecord
100
AcDbBlockTableRecord
  2
*D28
340
0
  0
BLOCK_RECORD
  5
2D24
330
2C2C
100
AcDbSymbolTableRecord
100
AcDbBlockTableRecord
  2
*U29
340
0
102
{BLKREFS
331
143D
102
}
  0
BLOCK_RECORD
  5
2D26
330
2C2C
100
AcDbSymbolTableRecord
100
AcDbBlockTableRecord
  2
*D30
340
0
  0
BLOCK_RECORD
  5
2D28
330
2C2C
100
AcDbSymbolTableRecord
100
AcDbBlockTableRecord
  2
*U31
340
0
102
{BLKREFS
331
1670
102
}
  0
BLOCK_RECORD
  5
2D2A
330
2C2C
100
AcDbSymbolTableRecord
100
AcDbBlockTableRecord
  2
*D32
340
0
  0
BLOCK_RECORD
  5
2D2C
330
2C2C
100
AcDbSymbolTableRecord
100
AcDbBlockTableRecord
  2
*U33
340
0
102
{BLKREFS
331
1679
102
}
  0
BLOCK_RECORD
  5
2D2E
330
2C2C
100
AcDbSymbolTableRecord
100
AcDbBlockTableRecord
  2
*D34
340
0
  0
BLOCK_RECORD
  5
2D30
330
2C2C
100
AcDbSymbolTableRecord
100
AcDbBlockTableRecord
  2
*U35
340
0
102
{BLKREFS
331
1682
102
}
  0
BLOCK_RECORD
  5
2D32
330
2C2C
100
AcDbSymbolTableRecord
100
AcDbBlockTableRecord
  2
*D36
340
0
  0
BLOCK_RECORD
  5
2D34
330
2C2C
100
AcDbSymbolTableRecord
100
AcDbBlockTableRecord
  2
*U37
340
0
102
{BLKREFS
331
168B
102
}
  0
BLOCK_RECORD
  5
2D36
330
2C2C
100
AcDbSymbolTableRecord
100
AcDbBlockTableRecord
  2
*U38
340
0
  0
BLOCK_RECORD
  5
2D38
330
2C2C
100
AcDbSymbolTableRecord
100
AcDbBlockTableRecord
  2
*D39
340
0
  0
BLOCK_RECORD
  5
2D3A
330
2C2C
100
AcDbSymbolTableRecord
100
AcDbBlockTableRecord
  2
*U40
340
0
102
{BLKREFS
331
1698
102
}
  0
BLOCK_RECORD
  5
2D3C
330
2C2C
100
AcDbSymbolTableRecord
100
AcDbBlockTableRecord
  2
*D41
340
0
  0
BLOCK_RECORD
  5
2D3E
330
2C2C
100
AcDbSymbolTableRecord
100
AcDbBlockTableRecord
  2
*U42
340
0
102
{BLKREFS
331
16A5
102
}
  0
BLOCK_RECORD
  5
2D40
330
2C2C
100
AcDbSymbolTableRecord
100
AcDbBlockTableRecord
  2
*D43
340
0
  0
BLOCK_RECORD
  5
2D42
330
2C2C
100
AcDbSymbolTableRecord
100
AcDbBlockTableRecord
  2
*U44
340
0
102
{BLKREFS
331
16B1
102
}
  0
BLOCK_RECORD
  5
2D44
330
2C2C
100
AcDbSymbolTableRecord
100
AcDbBlockTableRecord
  2
*D45
340
0
  0
BLOCK_RECORD
  5
2D46
330
2C2C
100
AcDbSymbolTableRecord
100
AcDbBlockTableRecord
  2
*U46
340
0
102
{BLKREFS
331
16BD
102
}
  0
BLOCK_RECORD
  5
2D48
330
2C2C
100
AcDbSymbolTableRecord
100
AcDbBlockTableRecord
  2
*D47
340
0
  0
BLOCK_RECORD
  5
2D4A
330
2C2C
100
AcDbSymbolTableRecord
100
AcDbBlockTableRecord
  2
*U48
340
0
102
{BLKREFS
331
16C9
102
}
  0
BLOCK_RECORD
  5
2D4C
330
2C2C
100
AcDbSymbolTableRecord
100
AcDbBlockTableRecord
  2
*D49
340
0
  0
BLOCK_RECORD
  5
2D4E
330
2C2C
100
AcDbSymbolTableRecord
100
AcDbBlockTableRecord
  2
*U50
340
0
102
{BLKREFS
331
16D5
102
}
  0
BLOCK_RECORD
  5
2D50
330
2C2C
100
AcDbSymbolTableRecord
100
AcDbBlockTableRecord
  2
*D51
340
0
  0
BLOCK_RECORD
  5
2D52
330
2C2C
100
AcDbSymbolTableRecord
100
AcDbBlockTableRecord
  2
*U52
340
0
102
{BLKREFS
331
1D88
102
}
  0
BLOCK_RECORD
  5
2D54
330
2C2C
100
AcDbSymbolTableRecord
100
AcDbBlockTableRecord
  2
*D53
340
0
  0
BLOCK_RECORD
  5
2D56
330
2C2C
100
AcDbSymbolTableRecord
100
AcDbBlockTableRecord
  2
*U54
340
0
102
{BLKREFS
331
1D91
102
}
  0
BLOCK_RECORD
  5
2D58
330
2C2C
100
AcDbSymbolTableRecord
100
AcDbBlockTableRecord
  2
*D55
340
0
  0
BLOCK_RECORD
  5
2D5A
330
2C2C
100
AcDbSymbolTableRecord
100
AcDbBlockTableRecord
  2
*U56
340
0
102
{BLKREFS
331
1D9A
102
}
  0
BLOCK_RECORD
  5
2D5C
330
2C2C
100
AcDbSymbolTableRecord
100
AcDbBlockTableRecord
  2
*D57
340
0
  0
BLOCK_RECORD
  5
2D5E
330
2C2C
100
AcDbSymbolTableRecord
100
AcDbBlockTableRecord
  2
*U58
340
0
102
{BLKREFS
331
1DA3
102
}
  0
BLOCK_RECORD
  5
2D60
330
2C2C
100
AcDbSymbolTableRecord
100
AcDbBlockTableRecord
  2
*D59
340
0
  0
BLOCK_RECORD
  5
2D62
330
2C2C
100
AcDbSymbolTableRecord
100
AcDbBlockTableRecord
  2
*U60
340
0
102
{BLKREFS
331
1DAD
102
}
  0
BLOCK_RECORD
  5
2D64
330
2C2C
100
AcDbSymbolTableRecord
100
AcDbBlockTableRecord
  2
*D61
340
0
  0
BLOCK_RECORD
  5
2D66
330
2C2C
100
AcDbSymbolTableRecord
100
AcDbBlockTableRecord
  2
*U62
340
0
102
{BLKREFS
331
1DB7
102
}
  0
BLOCK_RECORD
  5
2D68
330
2C2C
100
AcDbSymbolTableRecord
100
AcDbBlockTableRecord
  2
*U63
340
0
  0
BLOCK_RECORD
  5
2D6A
330
2C2C
100
AcDbSymbolTableRecord
100
AcDbBlockTableRecord
  2
*U64
340
0
  0
BLOCK_RECORD
  5
2D6C
330
2C2C
100
AcDbSymbolTableRecord
100
AcDbBlockTableRecord
  2
*U65
340
0
  0
BLOCK_RECORD
  5
2D6E
330
2C2C
100
AcDbSymbolTableRecord
100
AcDbBlockTableRecord
  2
*U66
340
0
  0
BLOCK_RECORD
  5
2D70
330
2C2C
100
AcDbSymbolTableRecord
100
AcDbBlockTableRecord
  2
*U67
340
0
  0
BLOCK_RECORD
  5
2D72
330
2C2C
100
AcDbSymbolTableRecord
100
AcDbBlockTableRecord
  2
*U68
340
0
  0
BLOCK_RECORD
  5
2D74
330
2C2C
100
AcDbSymbolTableRecord
100
AcDbBlockTableRecord
  2
*U69
340
0
  0
BLOCK_RECORD
  5
2D76
330
2C2C
100
AcDbSymbolTableRecord
100
AcDbBlockTableRecord
  2
*X70
340
0
  0
BLOCK_RECORD
  5
2D78
330
2C2C
100
AcDbSymbolTableRecord
100
AcDbBlockTableRecord
  2
*X71
340
0
  0
ENDTAB
  0
ENDSEC
  0
SECTION
  2
BLOCKS
  0
BLOCK
  5
2CA0
330
2C9F
100
AcDbEntity
  8
0
100
AcDbBlockBegin
  2
*Model_Space
 70
     0
 10
0.0
 20
0.0
 30
0.0
  3
*Model_Space
  1

  0
ENDBLK
  5
2CA1
330
2C9F
100
AcDbEntity
  8
0
100
AcDbBlockEnd
  0
BLOCK
  5
2C9C
330
2C9B
100
AcDbEntity
 67
     1
  8
0
100
AcDbBlockBegin
  2
*Paper_Space
 70
     0
 10
0.0
 20
0.0
 30
0.0
  3
*Paper_Space
  1

  0
ENDBLK
  5
2C9D
330
2C9B
100
AcDbEntity
 67
     1
  8
0
100
AcDbBlockEnd
  0
BLOCK
  5
2CEB
330
2CEA
100
AcDbEntity
  8
0
100
AcDbBlockBegin
  2
$MODEL_SPACE
 70
     0
 10
0.0
 20
0.0
 30
0.0
  3
$MODEL_SPACE
  1

  0
ENDBLK
  5
2655
330
2CEA
100
AcDbEntity
  8
0
100
AcDbBlockEnd
  0
BLOCK
  5
2CED
330
2CEC
100
AcDbEntity
  8
0
100
AcDbBlockBegin
  2
$PAPER_SPACE
 70
     0
 10
0.0
 20
0.0
 30
0.0
  3
$PAPER_SPACE
  1

  0
ENDBLK
  5
2651
330
2CEC
100
AcDbEntity
  8
0
100
AcDbBlockEnd
  0
BLOCK
  5
2CEF
330
2CEE
100
AcDbEntity
  8
0
100
AcDbBlockBegin
  2
_ORIGIN
 70
     0
 10
0.0
 20
0.0
 30
0.0
  3
_ORIGIN
  1

  0
CIRCLE
  5
880
330
2CEE
100
AcDbEntity
  8
0
  6
Continuous
 62
     7
100
AcDbCircle
 10
0.0
 20
0.0
 30
0.0
 40
0.5
  0
LINE
  5
881
330
2CEE
100
AcDbEntity
  8
0
  6
Continuous
 62
     7
100
AcDbLine
 10
0.0
 20
0.0
 30
0.0
 11
-1.0
 21
0.0
 31
0.0
  0
ENDBLK
  5
882
330
2CEE
100
AcDbEntity
  8
0
100
AcDbBlockEnd
  0
BLOCK
  5
2CF1
330
2CF0
100
AcDbEntity
  8
0
 62
     1
100
AcDbBlockBegin
  2
_DOTBLANK
 70
     0
 10
0.0
 20
0.0
 30
0.0
  3
_DOTBLANK
  1

  0
CIRCLE
  5
AB3
330
2CF0
100
AcDbEntity
  8
0
  6
ByBlock
 62
     0
100
AcDbCircle
 10
0.0
 20
0.0
 30
0.0
 40
0.5
  0
LINE
  5
AB4
330
2CF0
100
AcDbEntity
  8
0
  6
ByBlock
 62
     0
100
AcDbLine
 10
-0.5
 20
0.0
 30
0.0
 11
-1.0
 21
0.0
 31
0.0
  0
ENDBLK
  5
AB6
330
2CF0
100
AcDbEntity
  8
0
 62
     1
100
AcDbBlockEnd
  0
BLOCK
  5
2CF3
330
2CF2
100
AcDbEntity
  8
0
 62
     1
100
AcDbBlockBegin
  2
_OPEN30
 70
     0
 10
0.0
 20
0.0
 30
0.0
  3
_OPEN30
  1

  0
LINE
  5
AB8
330
2CF2
100
AcDbEntity
  8
0
  6
ByBlock
 62
     0
100
AcDbLine
 10
-1.0
 20
0.26794919
 30
0.0
 11
0.0
 21
0.0
 31
0.0
  0
LINE
  5
AB9
330
2CF2
100
AcDbEntity
  8
0
  6
ByBlock
 62
     0
100
AcDbLine
 10
0.0
 20
0.0
 30
0.0
 11
-1.0
 21
-0.26794919
 31
0.0
  0
LINE
  5
ABA
330
2CF2
100
AcDbEntity
  8
0
  6
ByBlock
 62
     0
100
AcDbLine
 10
0.0
 20
0.0
 30
0.0
 11
-1.0
 21
0.0
 31
0.0
  0
ENDBLK
  5
ABC
330
2CF2
100
AcDbEntity
  8
0
 62
     1
100
AcDbBlockEnd
  0
BLOCK
  5
2CF5
330
2CF4
100
AcDbEntity
  8
0
100
AcDbBlockBegin
  2
*D5
 70
     1
 10
0.0
 20
0.0
 30
0.0
  3
*D5
  1

  0
LINE
  5
1296
330
2CF4
100
AcDbEntity
  8
SIZE
 62
     0
100
AcDbLine
 10
-134.5
 20
-320.0
 30
0.0
 11
-134.5
 21
-468.0173952306001
 31
0.0
  0
LINE
  5
1297
330
2CF4
100
AcDbEntity
  8
SIZE
 62
     0
100
AcDbLine
 10
134.5
 20
-320.0
 30
0.0
 11
134.5
 21
-468.0173952306001
 31
0.0
  0
LINE
  5
1298
330
2CF4
100
AcDbEntity
  8
SIZE
 62
     0
100
AcDbLine
 10
-122.5
 20
-448.0173952306
 30
0.0
 11
122.5
 21
-448.0173952306
 31
0.0
  0
INSERT
  5
1299
330
2CF4
100
AcDbEntity
  8
SIZE
 62
     0
100
AcDbBlockReference
  2
_DOTBLANK
 10
-134.5
 20
-448.0173952306
 30
0.0
 41
12.0
 42
12.0
 43
12.0
 50
180.0
  0
INSERT
  5
129A
330
2CF4
100
AcDbEntity
  8
SIZE
 62
     0
100
AcDbBlockReference
  2
_DOTBLANK
 10
134.5
 20
-448.0173952306
 30
0.0
 41
12.0
 42
12.0
 43
12.0
  0
INSERT
  5
129B
330
2CF4
100
AcDbEntity
  8
0
100
AcDbBlockReference
  2
*U6
 10
0.0
 20
0.0
 30
0.0
  0
POINT
  5
129C
330
2CF4
100
AcDbEntity
  8
DEFPOINTS
 62
     0
100
AcDbPoint
 10
-134.5
 20
-300.0
 30
0.0
  0
POINT
  5
129D
330
2CF4
100
AcDbEntity
  8
DEFPOINTS
 62
     0
100
AcDbPoint
 10
134.5
 20
-300.0
 30
0.0
  0
POINT
  5
129E
330
2CF4
100
AcDbEntity
  8
DEFPOINTS
 62
     0
100
AcDbPoint
 10
134.5
 20
-448.0173952306
 30
0.0
  0
ENDBLK
  5
D72
330
2CF4
100
AcDbEntity
  8
0
100
AcDbBlockEnd
  0
BLOCK
  5
2CF7
330
2CF6
100
AcDbEntity
  8
0
100
AcDbBlockBegin
  2
*U6
 70
     1
 10
0.0
 20
0.0
 30
0.0
  3
*U6
  1

  0
TEXT
  5
1EF5
330
2CF6
100
AcDbEntity
  8
SIZE
 62
     0
100
AcDbText
 10
-72.68571428571426
 20
-438.0173952305999
 30
0.0
 40
64.0
  1
269
 41
0.9
100
AcDbText
  0
ENDBLK
  5
1EF7
330
2CF6
100
AcDbEntity
  8
0
100
AcDbBlockEnd
  0
BLOCK
  5
2CF9
330
2CF8
100
AcDbEntity
  8
0
100
AcDbBlockBegin
  2
*D7
 70
     1
 10
0.0
 20
0.0
 30
0.0
  3
*D7
  1

  0
LINE
  5
11A7
330
2CF8
100
AcDbEntity
  8
SIZE
  6
Continuous
 62
     0
100
AcDbLine
 10
143.5
 20
-300.0
 30
0.0
 11
304.6432844803791
 21
-300.0
 31
0.0
  0
LINE
  5
11A8
330
2CF8
100
AcDbEntity
  8
SIZE
  6
Continuous
 62
     0
100
AcDbLine
 10
177.5
 20
-0.0000000000000057
 30
0.0
 11
304.6432844803792
 21
-0.0000000000000417
 31
0.0
  0
LINE
  5
11A9
330
2CF8
100
AcDbEntity
  8
SIZE
  6
Continuous
 62
     0
100
AcDbLine
 10
284.6432844803791
 20
-288.0000000000001
 30
0.0
 11
284.6432844803792
 21
-12.00000000000003
 31
0.0
  0
INSERT
  5
11AA
330
2CF8
100
AcDbEntity
  8
SIZE
  6
Continuous
 62
     0
100
AcDbBlockReference
  2
_DOTBLANK
 10
284.6432844803791
 20
-300.0
 30
0.0
 41
12.0
 42
12.0
 43
12.0
 50
270.0
  0
INSERT
  5
11AB
330
2CF8
100
AcDbEntity
  8
SIZE
  6
Continuous
 62
     0
100
AcDbBlockReference
  2
_DOTBLANK
 10
284.6432844803792
 20
-0.000000000000036
 30
0.0
 41
12.0
 42
12.0
 43
12.0
 50
90.0
  0
INSERT
  5
11AC
330
2CF8
100
AcDbEntity
  8
0
100
AcDbBlockReference
  2
*U8
 10
0.0
 20
0.0
 30
0.0
  0
POINT
  5
11AD
330
2CF8
100
AcDbEntity
  8
DEFPOINTS
  6
Continuous
 62
     0
100
AcDbPoint
 10
123.5
 20
-300.0
 30
0.0
  0
POINT
  5
11AE
330
2CF8
100
AcDbEntity
  8
DEFPOINTS
  6
Continuous
 62
     0
100
AcDbPoint
 10
157.5
 20
0.0
 30
0.0
  0
POINT
  5
11AF
330
2CF8
100
AcDbEntity
  8
DEFPOINTS
  6
Continuous
 62
     0
100
AcDbPoint
 10
284.6432844803792
 20
-0.000000000000036
 30
0.0
  0
ENDBLK
  5
E11
330
2CF8
100
AcDbEntity
  8
0
100
AcDbBlockEnd
  0
BLOCK
  5
2CFB
330
2CFA
100
AcDbEntity
  8
0
100
AcDbBlockBegin
  2
*U8
 70
     1
 10
0.0
 20
0.0
 30
0.0
  3
*U8
  1

  0
TEXT
  5
1EE1
330
2CFA
100
AcDbEntity
  8
SIZE
 62
     0
100
AcDbText
 10
274.6432844803792
 20
-224.0571428571429
 30
0.0
 40
64.0
  1
300
 50
90.0
 41
0.9
100
AcDbText
  0
ENDBLK
  5
1EE3
330
2CFA
100
AcDbEntity
  8
0
100
AcDbBlockEnd
  0
BLOCK
  5
2CFD
330
2CFC
100
AcDbEntity
  8
0
100
AcDbBlockBegin
  2
*D9
 70
     1
 10
0.0
 20
0.0
 30
0.0
  3
*D9
  1

  0
LINE
  5
E7D
330
2CFC
100
AcDbEntity
  8
SIZE
 62
     0
100
AcDbLine
 10
-139.9999999999998
 20
32.46448280219375
 30
0.0
 11
-139.9999999999998
 21
136.4516878685508
 31
0.0
  0
LINE
  5
E7E
330
2CFC
100
AcDbEntity
  8
SIZE
 62
     0
100
AcDbLine
 10
140.0
 20
32.46448280219375
 30
0.0
 11
140.0
 21
136.4516878685508
 31
0.0
  0
LINE
  5
E7F
330
2CFC
100
AcDbEntity
  8
SIZE
 62
     0
100
AcDbLine
 10
-128.0
 20
116.4516878685508
 30
0.0
 11
128.0
 21
116.4516878685508
 31
0.0
  0
INSERT
  5
E80
330
2CFC
100
AcDbEntity
  8
SIZE
 62
     0
100
AcDbBlockReference
  2
_DOTBLANK
 10
-139.9999999999998
 20
116.4516878685508
 30
0.0
 41
12.0
 42
12.0
 43
12.0
 50
180.0
  0
INSERT
  5
E81
330
2CFC
100
AcDbEntity
  8
SIZE
 62
     0
100
AcDbBlockReference
  2
_DOTBLANK
 10
140.0
 20
116.4516878685508
 30
0.0
 41
12.0
 42
12.0
 43
12.0
  0
INSERT
  5
E82
330
2CFC
100
AcDbEntity
  8
0
100
AcDbBlockReference
  2
*U10
 10
0.0
 20
0.0
 30
0.0
  0
POINT
  5
E83
330
2CFC
100
AcDbEntity
  8
DEFPOINTS
 62
     0
100
AcDbPoint
 10
-139.9999999999998
 20
12.46448280219374
 30
0.0
  0
POINT
  5
E84
330
2CFC
100
AcDbEntity
  8
DEFPOINTS
 62
     0
100
AcDbPoint
 10
140.0
 20
12.46448280219374
 30
0.0
  0
POINT
  5
E85
330
2CFC
100
AcDbEntity
  8
DEFPOINTS
 62
     0
100
AcDbPoint
 10
140.0
 20
116.4516878685508
 30
0.0
  0
ENDBLK
  5
E7C
330
2CFC
100
AcDbEntity
  8
0
100
AcDbBlockEnd
  0
BLOCK
  5
2CFF
330
2CFE
100
AcDbEntity
  8
0
100
AcDbBlockBegin
  2
*U10
 70
     1
 10
0.0
 20
0.0
 30
0.0
  3
*U10
  1

  0
TEXT
  5
1ED8
330
2CFE
100
AcDbEntity
  8
SIZE
 62
     0
100
AcDbText
 10
-74.05714285714281
 20
126.4516878685508
 30
0.0
 40
64.0
  1
280
 41
0.9
100
AcDbText
  0
ENDBLK
  5
1EDA
330
2CFE
100
AcDbEntity
  8
0
100
AcDbBlockEnd
  0
BLOCK
  5
2D01
330
2D00
100
AcDbEntity
  8
0
100
AcDbBlockBegin
  2
GENAXEH
 70
     0
 10
0.0
 20
0.0
 30
0.0
  3
GENAXEH
  1

  0
LINE
  5
FDB
330
2D00
100
AcDbEntity
  8
0
100
AcDbLine
 10
-1.0
 20
0.0
 30
0.0
 11
1.0
 21
0.0
 31
0.0
  0
ENDBLK
  5
FDD
330
2D00
100
AcDbEntity
  8
0
100
AcDbBlockEnd
  0
BLOCK
  5
2D03
330
2D02
100
AcDbEntity
  8
0
100
AcDbBlockBegin
  2
*D12
 70
     1
 10
0.0
 20
0.0
 30
0.0
  3
*D12
  1

  0
LINE
  5
1120
330
2D02
100
AcDbEntity
  8
SIZE
 62
     0
100
AcDbLine
 10
-157.5
 20
20.0
 30
0.0
 11
-157.5
 21
245.5794621189598
 31
0.0
  0
LINE
  5
1121
330
2D02
100
AcDbEntity
  8
SIZE
 62
     0
100
AcDbLine
 10
157.5
 20
20.0
 30
0.0
 11
157.5
 21
245.5794621189598
 31
0.0
  0
LINE
  5
1122
330
2D02
100
AcDbEntity
  8
SIZE
 62
     0
100
AcDbLine
 10
-145.5
 20
225.5794621189598
 30
0.0
 11
145.5
 21
225.5794621189598
 31
0.0
  0
INSERT
  5
1123
330
2D02
100
AcDbEntity
  8
SIZE
 62
     0
100
AcDbBlockReference
  2
_DOTBLANK
 10
-157.5
 20
225.5794621189598
 30
0.0
 41
12.0
 42
12.0
 43
12.0
 50
180.0
  0
INSERT
  5
1124
330
2D02
100
AcDbEntity
  8
SIZE
 62
     0
100
AcDbBlockReference
  2
_DOTBLANK
 10
157.5
 20
225.5794621189598
 30
0.0
 41
12.0
 42
12.0
 43
12.0
  0
INSERT
  5
1125
330
2D02
100
AcDbEntity
  8
0
100
AcDbBlockReference
  2
*U13
 10
0.0
 20
0.0
 30
0.0
  0
POINT
  5
1126
330
2D02
100
AcDbEntity
  8
DEFPOINTS
 62
     0
100
AcDbPoint
 10
-157.5
 20
0.0
 30
0.0
  0
POINT
  5
1127
330
2D02
100
AcDbEntity
  8
DEFPOINTS
 62
     0
100
AcDbPoint
 10
157.5
 20
0.0
 30
0.0
  0
POINT
  5
1128
330
2D02
100
AcDbEntity
  8
DEFPOINTS
 62
     0
100
AcDbPoint
 10
157.5
 20
225.5794621189598
 30
0.0
  0
ENDBLK
  5
111F
330
2D02
100
AcDbEntity
  8
0
100
AcDbBlockEnd
  0
BLOCK
  5
2D05
330
2D04
100
AcDbEntity
  8
0
100
AcDbBlockBegin
  2
*U13
 70
     1
 10
0.0
 20
0.0
 30
0.0
  3
*U13
  1

  0
TEXT
  5
1EDD
330
2D04
100
AcDbEntity
  8
SIZE
 62
     0
100
AcDbText
 10
-68.57142857142857
 20
235.5794621189599
 30
0.0
 40
64.0
  1
315
 41
0.9
100
AcDbText
  0
ENDBLK
  5
1EDF
330
2D04
100
AcDbEntity
  8
0
100
AcDbBlockEnd
  0
BLOCK
  5
2D07
330
2D06
100
AcDbEntity
  8
0
100
AcDbBlockBegin
  2
*D14
 70
     1
 10
0.0
 20
0.0
 30
0.0
  3
*D14
  1

  0
LINE
  5
11BD
330
2D06
100
AcDbEntity
  8
NOTE
 62
     0
100
AcDbLine
 10
-123.4999999999999
 20
-320.0
 30
0.0
 11
-123.4999999999999
 21
-354.9529861856111
 31
0.0
  0
LINE
  5
11BE
330
2D06
100
AcDbEntity
  8
NOTE
 62
     0
100
AcDbLine
 10
-133.4999999999998
 20
-331.2126909923287
 30
0.0
 11
-133.4999999999998
 21
-354.9529861856111
 31
0.0
  0
LINE
  5
11BF
330
2D06
100
AcDbEntity
  8
NOTE
 62
     0
100
AcDbLine
 10
-111.4999999999999
 20
-334.9529861856112
 30
0.0
 11
-99.4999999999999
 21
-334.9529861856112
 31
0.0
  0
LINE
  5
11C0
330
2D06
100
AcDbEntity
  8
NOTE
 62
     0
100
AcDbLine
 10
-145.4999999999998
 20
-334.9529861856112
 30
0.0
 11
-157.4999999999998
 21
-334.9529861856112
 31
0.0
  0
LINE
  5
11C1
330
2D06
100
AcDbEntity
  8
NOTE
 62
     0
100
AcDbLine
 10
-123.4999999999999
 20
-334.9529861856112
 30
0.0
 11
-133.4999999999998
 21
-334.9529861856112
 31
0.0
  0
INSERT
  5
11C2
330
2D06
100
AcDbEntity
  8
NOTE
 62
     0
100
AcDbBlockReference
  2
_DOTBLANK
 10
-123.4999999999999
 20
-334.9529861856112
 30
0.0
 41
12.0
 42
12.0
 43
12.0
 50
180.0
  0
INSERT
  5
11C3
330
2D06
100
AcDbEntity
  8
NOTE
 62
     0
100
AcDbBlockReference
  2
_DOTBLANK
 10
-133.4999999999998
 20
-334.9529861856112
 30
0.0
 41
12.0
 42
12.0
 43
12.0
  0
INSERT
  5
11C4
330
2D06
100
AcDbEntity
  8
0
100
AcDbBlockReference
  2
*U15
 10
0.0
 20
0.0
 30
0.0
  0
POINT
  5
11C5
330
2D06
100
AcDbEntity
  8
DEFPOINTS
 62
     0
100
AcDbPoint
 10
-123.4999999999999
 20
-300.0
 30
0.0
  0
POINT
  5
11C6
330
2D06
100
AcDbEntity
  8
DEFPOINTS
 62
     0
100
AcDbPoint
 10
-133.4999999999998
 20
-311.2126909923287
 30
0.0
  0
POINT
  5
11C7
330
2D06
100
AcDbEntity
  8
DEFPOINTS
 62
     0
100
AcDbPoint
 10
-133.4999999999998
 20
-334.9529861856112
 30
0.0
  0
ENDBLK
  5
11BC
330
2D06
100
AcDbEntity
  8
0
100
AcDbBlockEnd
  0
BLOCK
  5
2D09
330
2D08
100
AcDbEntity
  8
0
100
AcDbBlockBegin
  2
*U15
 70
     1
 10
0.0
 20
0.0
 30
0.0
  3
*U15
  1

  0
TEXT
  5
1EE5
330
2D08
100
AcDbEntity
  8
NOTE
 62
     0
100
AcDbText
 10
-169.642857142857
 20
-324.9529861856112
 30
0.0
 40
64.0
  1
10
 41
0.9
100
AcDbText
  0
ENDBLK
  5
1EE7
330
2D08
100
AcDbEntity
  8
0
100
AcDbBlockEnd
  0
BLOCK
  5
2D0B
330
2D0A
100
AcDbEntity
  8
0
100
AcDbBlockBegin
  2
*D16
 70
     1
 10
0.0
 20
0.0
 30
0.0
  3
*D16
  1

  0
LINE
  5
11E7
330
2D0A
100
AcDbEntity
  8
NOTE
 62
     0
100
AcDbLine
 10
-135.5
 20
-333.2126909923287
 30
0.0
 11
-135.5
 21
-386.2569421441843
 31
0.0
  0
LINE
  5
11E8
330
2D0A
100
AcDbEntity
  8
NOTE
 62
     0
100
AcDbLine
 10
-123.4999999999999
 20
-320.0
 30
0.0
 11
-123.4999999999999
 21
-386.2569421441843
 31
0.0
  0
LINE
  5
11E9
330
2D0A
100
AcDbEntity
  8
NOTE
 62
     0
100
AcDbLine
 10
-147.5
 20
-366.2569421441844
 30
0.0
 11
-159.5
 21
-366.2569421441844
 31
0.0
  0
LINE
  5
11EA
330
2D0A
100
AcDbEntity
  8
NOTE
 62
     0
100
AcDbLine
 10
-111.4999999999999
 20
-366.2569421441844
 30
0.0
 11
-99.4999999999999
 21
-366.2569421441844
 31
0.0
  0
LINE
  5
11EB
330
2D0A
100
AcDbEntity
  8
NOTE
 62
     0
100
AcDbLine
 10
-135.5
 20
-366.2569421441844
 30
0.0
 11
-123.4999999999999
 21
-366.2569421441844
 31
0.0
  0
INSERT
  5
11EC
330
2D0A
100
AcDbEntity
  8
NOTE
 62
     0
100
AcDbBlockReference
  2
_DOTBLANK
 10
-135.5
 20
-366.2569421441844
 30
0.0
 41
12.0
 42
12.0
 43
12.0
  0
INSERT
  5
11ED
330
2D0A
100
AcDbEntity
  8
NOTE
 62
     0
100
AcDbBlockReference
  2
_DOTBLANK
 10
-123.4999999999999
 20
-366.2569421441844
 30
0.0
 41
12.0
 42
12.0
 43
12.0
 50
180.0
  0
INSERT
  5
11EE
330
2D0A
100
AcDbEntity
  8
0
100
AcDbBlockReference
  2
*U17
 10
0.0
 20
0.0
 30
0.0
  0
POINT
  5
11EF
330
2D0A
100
AcDbEntity
  8
DEFPOINTS
 62
     0
100
AcDbPoint
 10
-135.5
 20
-313.2126909923287
 30
0.0
  0
POINT
  5
11F0
330
2D0A
100
AcDbEntity
  8
DEFPOINTS
 62
     0
100
AcDbPoint
 10
-123.4999999999999
 20
-300.0
 30
0.0
  0
POINT
  5
11F1
330
2D0A
100
AcDbEntity
  8
DEFPOINTS
 62
     0
100
AcDbPoint
 10
-123.4999999999999
 20
-366.2569421441844
 30
0.0
  0
ENDBLK
  5
11E6
330
2D0A
100
AcDbEntity
  8
0
100
AcDbBlockEnd
  0
BLOCK
  5
2D0D
330
2D0C
100
AcDbEntity
  8
0
100
AcDbBlockBegin
  2
*U17
 70
     1
 10
0.0
 20
0.0
 30
0.0
  3
*U17
  1

  0
TEXT
  5
1EE9
330
2D0C
100
AcDbEntity
  8
NOTE
 62
     0
100
AcDbText
 10
-170.642857142857
 20
-356.2569421441843
 30
0.0
 40
64.0
  1
12
 41
0.9
100
AcDbText
  0
ENDBLK
  5
1EEB
330
2D0C
100
AcDbEntity
  8
0
100
AcDbBlockEnd
  0
BLOCK
  5
2D0F
330
2D0E
100
AcDbEntity
  8
0
100
AcDbBlockBegin
  2
*D18
 70
     1
 10
0.0
 20
0.0
 30
0.0
  3
*D18
  1

  0
LINE
  5
11F6
330
2D0E
100
AcDbEntity
  8
NOTE
 62
     0
100
AcDbLine
 10
-123.4999999999999
 20
-320.0
 30
0.0
 11
-123.4999999999999
 21
-583.8286022818904
 31
0.0
  0
LINE
  5
11F7
330
2D0E
100
AcDbEntity
  8
NOTE
 62
     0
100
AcDbLine
 10
123.5
 20
-320.0
 30
0.0
 11
123.5
 21
-583.8286022818904
 31
0.0
  0
LINE
  5
11F8
330
2D0E
100
AcDbEntity
  8
NOTE
 62
     0
100
AcDbLine
 10
-111.4999999999999
 20
-563.8286022818904
 30
0.0
 11
111.5
 21
-563.8286022818904
 31
0.0
  0
INSERT
  5
11F9
330
2D0E
100
AcDbEntity
  8
NOTE
 62
     0
100
AcDbBlockReference
  2
_DOTBLANK
 10
-123.4999999999999
 20
-563.8286022818904
 30
0.0
 41
12.0
 42
12.0
 43
12.0
 50
180.0
  0
INSERT
  5
11FA
330
2D0E
100
AcDbEntity
  8
NOTE
 62
     0
100
AcDbBlockReference
  2
_DOTBLANK
 10
123.5
 20
-563.8286022818904
 30
0.0
 41
12.0
 42
12.0
 43
12.0
  0
INSERT
  5
11FB
330
2D0E
100
AcDbEntity
  8
0
100
AcDbBlockReference
  2
*U19
 10
0.0
 20
0.0
 30
0.0
  0
POINT
  5
11FC
330
2D0E
100
AcDbEntity
  8
DEFPOINTS
 62
     0
100
AcDbPoint
 10
-123.4999999999999
 20
-300.0
 30
0.0
  0
POINT
  5
11FD
330
2D0E
100
AcDbEntity
  8
DEFPOINTS
 62
     0
100
AcDbPoint
 10
123.5
 20
-300.0
 30
0.0
  0
POINT
  5
11FE
330
2D0E
100
AcDbEntity
  8
DEFPOINTS
 62
     0
100
AcDbPoint
 10
123.5
 20
-563.8286022818904
 30
0.0
  0
ENDBLK
  5
11F5
330
2D0E
100
AcDbEntity
  8
0
100
AcDbBlockEnd
  0
BLOCK
  5
2D11
330
2D10
100
AcDbEntity
  8
0
100
AcDbBlockBegin
  2
*U19
 70
     1
 10
0.0
 20
0.0
 30
0.0
  3
*U19
  1

  0
TEXT
  5
1EED
330
2D10
100
AcDbEntity
  8
NOTE
 62
     0
100
AcDbText
 10
-74.05714285714281
 20
-553.8286022818904
 30
0.0
 40
64.0
  1
247
 41
0.9
100
AcDbText
  0
ENDBLK
  5
1EEF
330
2D10
100
AcDbEntity
  8
0
100
AcDbBlockEnd
  0
BLOCK
  5
2D13
330
2D12
100
AcDbEntity
  8
0
100
AcDbBlockBegin
  2
*D20
 70
     1
 10
0.0
 20
0.0
 30
0.0
  3
*D20
  1

  0
LINE
  5
1284
330
2D12
100
AcDbEntity
  8
NOTE
 62
     0
100
AcDbLine
 10
-123.5
 20
12.0
 30
0.0
 11
-123.5
 21
71.83630134534229
 31
0.0
  0
LINE
  5
1285
330
2D12
100
AcDbEntity
  8
NOTE
 62
     0
100
AcDbLine
 10
123.5
 20
12.0
 30
0.0
 11
123.5
 21
71.83630134534229
 31
0.0
  0
LINE
  5
1286
330
2D12
100
AcDbEntity
  8
NOTE
 62
     0
100
AcDbLine
 10
-111.5
 20
51.83630134534229
 30
0.0
 11
111.5
 21
51.83630134534229
 31
0.0
  0
INSERT
  5
1287
330
2D12
100
AcDbEntity
  8
NOTE
 62
     0
100
AcDbBlockReference
  2
_DOTBLANK
 10
-123.5
 20
51.83630134534229
 30
0.0
 41
12.0
 42
12.0
 43
12.0
 50
180.0
  0
INSERT
  5
1288
330
2D12
100
AcDbEntity
  8
NOTE
 62
     0
100
AcDbBlockReference
  2
_DOTBLANK
 10
123.5
 20
51.83630134534229
 30
0.0
 41
12.0
 42
12.0
 43
12.0
  0
INSERT
  5
1289
330
2D12
100
AcDbEntity
  8
0
100
AcDbBlockReference
  2
*U21
 10
0.0
 20
0.0
 30
0.0
  0
POINT
  5
128A
330
2D12
100
AcDbEntity
  8
DEFPOINTS
 62
     0
100
AcDbPoint
 10
-123.5
 20
-8.0
 30
0.0
  0
POINT
  5
128B
330
2D12
100
AcDbEntity
  8
DEFPOINTS
 62
     0
100
AcDbPoint
 10
123.5
 20
-8.0
 30
0.0
  0
POINT
  5
128C
330
2D12
100
AcDbEntity
  8
DEFPOINTS
 62
     0
100
AcDbPoint
 10
123.5
 20
51.83630134534229
 30
0.0
  0
ENDBLK
  5
1283
330
2D12
100
AcDbEntity
  8
0
100
AcDbBlockEnd
  0
BLOCK
  5
2D15
330
2D14
100
AcDbEntity
  8
0
100
AcDbBlockBegin
  2
*U21
 70
     1
 10
0.0
 20
0.0
 30
0.0
  3
*U21
  1

  0
TEXT
  5
1EF1
330
2D14
100
AcDbEntity
  8
NOTE
 62
     0
100
AcDbText
 10
-74.05714285714283
 20
61.83630134534229
 30
0.0
 40
64.0
  1
247
 41
0.9
100
AcDbText
  0
ENDBLK
  5
1EF3
330
2D14
100
AcDbEntity
  8
0
100
AcDbBlockEnd
  0
BLOCK
  5
2D17
330
2D16
100
AcDbEntity
  8
0
100
AcDbBlockBegin
  2
*D22
 70
     1
 10
0.0
 20
0.0
 30
0.0
  3
*D22
  1

  0
LINE
  5
1414
330
2D16
100
AcDbEntity
  8
SIZE
 62
     0
100
AcDbLine
 10
-22313.11521613997
 20
7365.702971374808
 30
0.0
 11
-22313.11521613997
 21
7217.685576144207
 31
0.0
  0
LINE
  5
1415
330
2D16
100
AcDbEntity
  8
SIZE
 62
     0
100
AcDbLine
 10
-22044.11521613997
 20
7365.702971374808
 30
0.0
 11
-22044.11521613997
 21
7217.685576144207
 31
0.0
  0
LINE
  5
1416
330
2D16
100
AcDbEntity
  8
SIZE
 62
     0
100
AcDbLine
 10
-22301.11521613997
 20
7237.685576144207
 30
0.0
 11
-22056.11521613997
 21
7237.685576144207
 31
0.0
  0
INSERT
  5
1417
330
2D16
100
AcDbEntity
  8
SIZE
 62
     0
100
AcDbBlockReference
  2
_DOTBLANK
 10
-22313.11521613997
 20
7237.685576144207
 30
0.0
 41
12.0
 42
12.0
 43
12.0
 50
180.0
  0
INSERT
  5
1418
330
2D16
100
AcDbEntity
  8
SIZE
 62
     0
100
AcDbBlockReference
  2
_DOTBLANK
 10
-22044.11521613997
 20
7237.685576144207
 30
0.0
 41
12.0
 42
12.0
 43
12.0
  0
INSERT
  5
1419
330
2D16
100
AcDbEntity
  8
0
100
AcDbBlockReference
  2
*U23
 10
0.0
 20
0.0
 30
0.0
  0
POINT
  5
141A
330
2D16
100
AcDbEntity
  8
DEFPOINTS
 62
     0
100
AcDbPoint
 10
-22313.11521613997
 20
7385.702971374808
 30
0.0
  0
POINT
  5
141B
330
2D16
100
AcDbEntity
  8
DEFPOINTS
 62
     0
100
AcDbPoint
 10
-22044.11521613997
 20
7385.702971374808
 30
0.0
  0
POINT
  5
141C
330
2D16
100
AcDbEntity
  8
DEFPOINTS
 62
     0
100
AcDbPoint
 10
-22044.11521613997
 20
7237.685576144207
 30
0.0
  0
ENDBLK
  5
141D
330
2D16
100
AcDbEntity
  8
0
100
AcDbBlockEnd
  0
BLOCK
  5
2D19
330
2D18
100
AcDbEntity
  8
0
100
AcDbBlockBegin
  2
*U23
 70
     1
 10
0.0
 20
0.0
 30
0.0
  3
*U23
  1

  0
TEXT
  5
1EF9
330
2D18
100
AcDbEntity
  8
SIZE
 62
     0
100
AcDbText
 10
-22251.30093042568
 20
7247.685576144205
 30
0.0
 40
64.0
  1
269
 41
0.9
100
AcDbText
  0
ENDBLK
  5
1EFB
330
2D18
100
AcDbEntity
  8
0
100
AcDbBlockEnd
  0
BLOCK
  5
2D1B
330
2D1A
100
AcDbEntity
  8
0
100
AcDbBlockBegin
  2
*D24
 70
     1
 10
0.0
 20
0.0
 30
0.0
  3
*D24
  1

  0
LINE
  5
1420
330
2D1A
100
AcDbEntity
  8
SIZE
  6
Continuous
 62
     0
100
AcDbLine
 10
-22035.11521613997
 20
7385.702971374808
 30
0.0
 11
-21873.97193165959
 21
7385.702971374808
 31
0.0
  0
LINE
  5
1421
330
2D1A
100
AcDbEntity
  8
SIZE
  6
Continuous
 62
     0
100
AcDbLine
 10
-22001.11521613997
 20
7685.702971374808
 30
0.0
 11
-21873.97193165959
 21
7685.702971374808
 31
0.0
  0
LINE
  5
1422
330
2D1A
100
AcDbEntity
  8
SIZE
  6
Continuous
 62
     0
100
AcDbLine
 10
-21893.97193165959
 20
7397.702971374808
 30
0.0
 11
-21893.97193165959
 21
7673.702971374808
 31
0.0
  0
INSERT
  5
1423
330
2D1A
100
AcDbEntity
  8
SIZE
  6
Continuous
 62
     0
100
AcDbBlockReference
  2
_DOTBLANK
 10
-21893.97193165959
 20
7385.702971374808
 30
0.0
 41
12.0
 42
12.0
 43
12.0
 50
270.0
  0
INSERT
  5
1424
330
2D1A
100
AcDbEntity
  8
SIZE
  6
Continuous
 62
     0
100
AcDbBlockReference
  2
_DOTBLANK
 10
-21893.97193165959
 20
7685.702971374808
 30
0.0
 41
12.0
 42
12.0
 43
12.0
 50
90.0
  0
INSERT
  5
1425
330
2D1A
100
AcDbEntity
  8
0
100
AcDbBlockReference
  2
*U25
 10
0.0
 20
0.0
 30
0.0
  0
POINT
  5
1426
330
2D1A
100
AcDbEntity
  8
DEFPOINTS
  6
Continuous
 62
     0
100
AcDbPoint
 10
-22055.11521613997
 20
7385.702971374808
 30
0.0
  0
POINT
  5
1427
330
2D1A
100
AcDbEntity
  8
DEFPOINTS
  6
Continuous
 62
     0
100
AcDbPoint
 10
-22021.11521613997
 20
7685.702971374808
 30
0.0
  0
POINT
  5
1428
330
2D1A
100
AcDbEntity
  8
DEFPOINTS
  6
Continuous
 62
     0
100
AcDbPoint
 10
-21893.97193165959
 20
7685.702971374808
 30
0.0
  0
ENDBLK
  5
1429
330
2D1A
100
AcDbEntity
  8
0
100
AcDbBlockEnd
  0
BLOCK
  5
2D1D
330
2D1C
100
AcDbEntity
  8
0
100
AcDbBlockBegin
  2
*U25
 70
     1
 10
0.0
 20
0.0
 30
0.0
  3
*U25
  1

  0
TEXT
  5
1EFD
330
2D1C
100
AcDbEntity
  8
SIZE
 62
     0
100
AcDbText
 10
-21903.97193165959
 20
7461.645828517662
 30
0.0
 40
64.0
  1
300
 50
90.0
 41
0.9
100
AcDbText
  0
ENDBLK
  5
1EFF
330
2D1C
100
AcDbEntity
  8
0
100
AcDbBlockEnd
  0
BLOCK
  5
2D1F
330
2D1E
100
AcDbEntity
  8
0
100
AcDbBlockBegin
  2
*D26
 70
     1
 10
0.0
 20
0.0
 30
0.0
  3
*D26
  1

  0
LINE
  5
142C
330
2D1E
100
AcDbEntity
  8
SIZE
 62
     0
100
AcDbLine
 10
-22318.61521613997
 20
7718.167454177002
 30
0.0
 11
-22318.61521613997
 21
7822.154659243358
 31
0.0
  0
LINE
  5
142D
330
2D1E
100
AcDbEntity
  8
SIZE
 62
     0
100
AcDbLine
 10
-22038.61521613997
 20
7718.167454177002
 30
0.0
 11
-22038.61521613997
 21
7822.154659243358
 31
0.0
  0
LINE
  5
142E
330
2D1E
100
AcDbEntity
  8
SIZE
 62
     0
100
AcDbLine
 10
-22306.61521613997
 20
7802.154659243358
 30
0.0
 11
-22050.61521613997
 21
7802.154659243358
 31
0.0
  0
INSERT
  5
142F
330
2D1E
100
AcDbEntity
  8
SIZE
 62
     0
100
AcDbBlockReference
  2
_DOTBLANK
 10
-22318.61521613997
 20
7802.154659243358
 30
0.0
 41
12.0
 42
12.0
 43
12.0
 50
180.0
  0
INSERT
  5
1430
330
2D1E
100
AcDbEntity
  8
SIZE
 62
     0
100
AcDbBlockReference
  2
_DOTBLANK
 10
-22038.61521613997
 20
7802.154659243358
 30
0.0
 41
12.0
 42
12.0
 43
12.0
  0
INSERT
  5
1431
330
2D1E
100
AcDbEntity
  8
0
100
AcDbBlockReference
  2
*U27
 10
0.0
 20
0.0
 30
0.0
  0
POINT
  5
1432
330
2D1E
100
AcDbEntity
  8
DEFPOINTS
 62
     0
100
AcDbPoint
 10
-22318.61521613997
 20
7698.167454177002
 30
0.0
  0
POINT
  5
1433
330
2D1E
100
AcDbEntity
  8
DEFPOINTS
 62
     0
100
AcDbPoint
 10
-22038.61521613997
 20
7698.167454177002
 30
0.0
  0
POINT
  5
1434
330
2D1E
100
AcDbEntity
  8
DEFPOINTS
 62
     0
100
AcDbPoint
 10
-22038.61521613997
 20
7802.154659243358
 30
0.0
  0
ENDBLK
  5
1435
330
2D1E
100
AcDbEntity
  8
0
100
AcDbBlockEnd
  0
BLOCK
  5
2D21
330
2D20
100
AcDbEntity
  8
0
100
AcDbBlockBegin
  2
*U27
 70
     1
 10
0.0
 20
0.0
 30
0.0
  3
*U27
  1

  0
TEXT
  5
1F01
330
2D20
100
AcDbEntity
  8
SIZE
 62
     0
100
AcDbText
 10
-22252.6723589971
 20
7812.154659243358
 30
0.0
 40
64.0
  1
280
 41
0.9
100
AcDbText
  0
ENDBLK
  5
1F03
330
2D20
100
AcDbEntity
  8
0
100
AcDbBlockEnd
  0
BLOCK
  5
2D23
330
2D22
100
AcDbEntity
  8
0
100
AcDbBlockBegin
  2
*D28
 70
     1
 10
0.0
 20
0.0
 30
0.0
  3
*D28
  1

  0
LINE
  5
1438
330
2D22
100
AcDbEntity
  8
SIZE
 62
     0
100
AcDbLine
 10
-22336.11521613997
 20
7705.702971374808
 30
0.0
 11
-22336.11521613997
 21
7931.282433493766
 31
0.0
  0
LINE
  5
1439
330
2D22
100
AcDbEntity
  8
SIZE
 62
     0
100
AcDbLine
 10
-22021.11521613997
 20
7705.702971374808
 30
0.0
 11
-22021.11521613997
 21
7931.282433493766
 31
0.0
  0
LINE
  5
143A
330
2D22
100
AcDbEntity
  8
SIZE
 62
     0
100
AcDbLine
 10
-22324.11521613997
 20
7911.282433493766
 30
0.0
 11
-22033.11521613997
 21
7911.282433493766
 31
0.0
  0
INSERT
  5
143B
330
2D22
100
AcDbEntity
  8
SIZE
 62
     0
100
AcDbBlockReference
  2
_DOTBLANK
 10
-22336.11521613997
 20
7911.282433493766
 30
0.0
 41
12.0
 42
12.0
 43
12.0
 50
180.0
  0
INSERT
  5
143C
330
2D22
100
AcDbEntity
  8
SIZE
 62
     0
100
AcDbBlockReference
  2
_DOTBLANK
 10
-22021.11521613997
 20
7911.282433493766
 30
0.0
 41
12.0
 42
12.0
 43
12.0
  0
INSERT
  5
143D
330
2D22
100
AcDbEntity
  8
0
100
AcDbBlockReference
  2
*U29
 10
0.0
 20
0.0
 30
0.0
  0
POINT
  5
143E
330
2D22
100
AcDbEntity
  8
DEFPOINTS
 62
     0
100
AcDbPoint
 10
-22336.11521613997
 20
7685.702971374808
 30
0.0
  0
POINT
  5
143F
330
2D22
100
AcDbEntity
  8
DEFPOINTS
 62
     0
100
AcDbPoint
 10
-22021.11521613997
 20
7685.702971374808
 30
0.0
  0
POINT
  5
1440
330
2D22
100
AcDbEntity
  8
DEFPOINTS
 62
     0
100
AcDbPoint
 10
-22021.11521613997
 20
7911.282433493766
 30
0.0
  0
ENDBLK
  5
1441
330
2D22
100
AcDbEntity
  8
0
100
AcDbBlockEnd
  0
BLOCK
  5
2D25
330
2D24
100
AcDbEntity
  8
0
100
AcDbBlockBegin
  2
*U29
 70
     1
 10
0.0
 20
0.0
 30
0.0
  3
*U29
  1

  0
TEXT
  5
1F05
330
2D24
100
AcDbEntity
  8
SIZE
 62
     0
100
AcDbText
 10
-22247.18664471139
 20
7921.282433493766
 30
0.0
 40
64.0
  1
315
 41
0.9
100
AcDbText
  0
ENDBLK
  5
1F07
330
2D24
100
AcDbEntity
  8
0
100
AcDbBlockEnd
  0
BLOCK
  5
2D27
330
2D26
100
AcDbEntity
  8
0
100
AcDbBlockBegin
  2
*D30
 70
     1
 10
0.0
 20
0.0
 30
0.0
  3
*D30
  1

  0
LINE
  5
166B
330
2D26
100
AcDbEntity
  8
SIZE
 62
     0
100
AcDbLine
 10
-134.5
 20
-320.0
 30
0.0
 11
-134.5
 21
-468.0173952306001
 31
0.0
  0
LINE
  5
166C
330
2D26
100
AcDbEntity
  8
SIZE
 62
     0
100
AcDbLine
 10
134.5
 20
-320.0
 30
0.0
 11
134.5
 21
-468.0173952306001
 31
0.0
  0
LINE
  5
166D
330
2D26
100
AcDbEntity
  8
SIZE
 62
     0
100
AcDbLine
 10
-122.5
 20
-448.0173952306
 30
0.0
 11
122.5
 21
-448.0173952306
 31
0.0
  0
INSERT
  5
166E
330
2D26
100
AcDbEntity
  8
SIZE
 62
     0
100
AcDbBlockReference
  2
_DOTBLANK
 10
-134.5
 20
-448.0173952306
 30
0.0
 41
12.0
 42
12.0
 43
12.0
 50
180.0
  0
INSERT
  5
166F
330
2D26
100
AcDbEntity
  8
SIZE
 62
     0
100
AcDbBlockReference
  2
_DOTBLANK
 10
134.5
 20
-448.0173952306
 30
0.0
 41
12.0
 42
12.0
 43
12.0
  0
INSERT
  5
1670
330
2D26
100
AcDbEntity
  8
0
100
AcDbBlockReference
  2
*U31
 10
0.0
 20
0.0
 30
0.0
  0
POINT
  5
1671
330
2D26
100
AcDbEntity
  8
DEFPOINTS
 62
     0
100
AcDbPoint
 10
-134.5
 20
-300.0
 30
0.0
  0
POINT
  5
1672
330
2D26
100
AcDbEntity
  8
DEFPOINTS
 62
     0
100
AcDbPoint
 10
134.5
 20
-300.0
 30
0.0
  0
POINT
  5
1673
330
2D26
100
AcDbEntity
  8
DEFPOINTS
 62
     0
100
AcDbPoint
 10
134.5
 20
-448.0173952306
 30
0.0
  0
ENDBLK
  5
14A7
330
2D26
100
AcDbEntity
  8
0
100
AcDbBlockEnd
  0
BLOCK
  5
2D29
330
2D28
100
AcDbEntity
  8
0
100
AcDbBlockBegin
  2
*U31
 70
     1
 10
0.0
 20
0.0
 30
0.0
  3
*U31
  1

  0
TEXT
  5
1F09
330
2D28
100
AcDbEntity
  8
SIZE
 62
     0
100
AcDbText
 10
-72.68571428571426
 20
-438.0173952306002
 30
0.0
 40
64.0
  1
269
 41
0.9
100
AcDbText
  0
ENDBLK
  5
1F0B
330
2D28
100
AcDbEntity
  8
0
100
AcDbBlockEnd
  0
BLOCK
  5
2D2B
330
2D2A
100
AcDbEntity
  8
0
100
AcDbBlockBegin
  2
*D32
 70
     1
 10
0.0
 20
0.0
 30
0.0
  3
*D32
  1

  0
LINE
  5
1674
330
2D2A
100
AcDbEntity
  8
SIZE
  6
Continuous
 62
     0
100
AcDbLine
 10
143.5
 20
-300.0
 30
0.0
 11
304.6432844803784
 21
-300.0
 31
0.0
  0
LINE
  5
1675
330
2D2A
100
AcDbEntity
  8
SIZE
  6
Continuous
 62
     0
100
AcDbLine
 10
177.5
 20
-0.0000000000000057
 30
0.0
 11
304.6432844803785
 21
-0.0000000000000417
 31
0.0
  0
LINE
  5
1676
330
2D2A
100
AcDbEntity
  8
SIZE
  6
Continuous
 62
     0
100
AcDbLine
 10
284.6432844803784
 20
-288.0000000000001
 30
0.0
 11
284.6432844803785
 21
-12.00000000000003
 31
0.0
  0
INSERT
  5
1677
330
2D2A
100
AcDbEntity
  8
SIZE
  6
Continuous
 62
     0
100
AcDbBlockReference
  2
_DOTBLANK
 10
284.6432844803784
 20
-300.0
 30
0.0
 41
12.0
 42
12.0
 43
12.0
 50
270.0
  0
INSERT
  5
1678
330
2D2A
100
AcDbEntity
  8
SIZE
  6
Continuous
 62
     0
100
AcDbBlockReference
  2
_DOTBLANK
 10
284.6432844803785
 20
-0.000000000000036
 30
0.0
 41
12.0
 42
12.0
 43
12.0
 50
90.0
  0
INSERT
  5
1679
330
2D2A
100
AcDbEntity
  8
0
100
AcDbBlockReference
  2
*U33
 10
0.0
 20
0.0
 30
0.0
  0
POINT
  5
167A
330
2D2A
100
AcDbEntity
  8
DEFPOINTS
  6
Continuous
 62
     0
100
AcDbPoint
 10
123.5
 20
-300.0
 30
0.0
  0
POINT
  5
167B
330
2D2A
100
AcDbEntity
  8
DEFPOINTS
  6
Continuous
 62
     0
100
AcDbPoint
 10
157.5
 20
0.0
 30
0.0
  0
POINT
  5
167C
330
2D2A
100
AcDbEntity
  8
DEFPOINTS
  6
Continuous
 62
     0
100
AcDbPoint
 10
284.6432844803785
 20
-0.000000000000036
 30
0.0
  0
ENDBLK
  5
14B3
330
2D2A
100
AcDbEntity
  8
0
100
AcDbBlockEnd
  0
BLOCK
  5
2D2D
330
2D2C
100
AcDbEntity
  8
0
100
AcDbBlockBegin
  2
*U33
 70
     1
 10
0.0
 20
0.0
 30
0.0
  3
*U33
  1

  0
TEXT
  5
1F0D
330
2D2C
100
AcDbEntity
  8
SIZE
 62
     0
100
AcDbText
 10
274.6432844803785
 20
-224.0571428571429
 30
0.0
 40
64.0
  1
300
 50
90.0
 41
0.9
100
AcDbText
  0
ENDBLK
  5
1F0F
330
2D2C
100
AcDbEntity
  8
0
100
AcDbBlockEnd
  0
BLOCK
  5
2D2F
330
2D2E
100
AcDbEntity
  8
0
100
AcDbBlockBegin
  2
*D34
 70
     1
 10
0.0
 20
0.0
 30
0.0
  3
*D34
  1

  0
LINE
  5
167D
330
2D2E
100
AcDbEntity
  8
SIZE
 62
     0
100
AcDbLine
 10
-140.0
 20
32.46448280219375
 30
0.0
 11
-140.0
 21
136.4516878685507
 31
0.0
  0
LINE
  5
167E
330
2D2E
100
AcDbEntity
  8
SIZE
 62
     0
100
AcDbLine
 10
140.0
 20
32.46448280219375
 30
0.0
 11
140.0
 21
136.4516878685507
 31
0.0
  0
LINE
  5
167F
330
2D2E
100
AcDbEntity
  8
SIZE
 62
     0
100
AcDbLine
 10
-128.0
 20
116.4516878685508
 30
0.0
 11
128.0
 21
116.4516878685508
 31
0.0
  0
INSERT
  5
1680
330
2D2E
100
AcDbEntity
  8
SIZE
 62
     0
100
AcDbBlockReference
  2
_DOTBLANK
 10
-140.0
 20
116.4516878685508
 30
0.0
 41
12.0
 42
12.0
 43
12.0
 50
180.0
  0
INSERT
  5
1681
330
2D2E
100
AcDbEntity
  8
SIZE
 62
     0
100
AcDbBlockReference
  2
_DOTBLANK
 10
140.0
 20
116.4516878685508
 30
0.0
 41
12.0
 42
12.0
 43
12.0
  0
INSERT
  5
1682
330
2D2E
100
AcDbEntity
  8
0
100
AcDbBlockReference
  2
*U35
 10
0.0
 20
0.0
 30
0.0
  0
POINT
  5
1683
330
2D2E
100
AcDbEntity
  8
DEFPOINTS
 62
     0
100
AcDbPoint
 10
-140.0
 20
12.46448280219374
 30
0.0
  0
POINT
  5
1684
330
2D2E
100
AcDbEntity
  8
DEFPOINTS
 62
     0
100
AcDbPoint
 10
140.0
 20
12.46448280219374
 30
0.0
  0
POINT
  5
1685
330
2D2E
100
AcDbEntity
  8
DEFPOINTS
 62
     0
100
AcDbPoint
 10
140.0
 20
116.4516878685508
 30
0.0
  0
ENDBLK
  5
14BF
330
2D2E
100
AcDbEntity
  8
0
100
AcDbBlockEnd
  0
BLOCK
  5
2D31
330
2D30
100
AcDbEntity
  8
0
100
AcDbBlockBegin
  2
*U35
 70
     1
 10
0.0
 20
0.0
 30
0.0
  3
*U35
  1

  0
TEXT
  5
1F11
330
2D30
100
AcDbEntity
  8
SIZE
 62
     0
100
AcDbText
 10
-74.05714285714283
 20
126.4516878685507
 30
0.0
 40
64.0
  1
280
 41
0.9
100
AcDbText
  0
ENDBLK
  5
1F13
330
2D30
100
AcDbEntity
  8
0
100
AcDbBlockEnd
  0
BLOCK
  5
2D33
330
2D32
100
AcDbEntity
  8
0
100
AcDbBlockBegin
  2
*D36
 70
     1
 10
0.0
 20
0.0
 30
0.0
  3
*D36
  1

  0
LINE
  5
1686
330
2D32
100
AcDbEntity
  8
SIZE
 62
     0
100
AcDbLine
 10
-157.5
 20
20.0
 30
0.0
 11
-157.5
 21
245.5794621189598
 31
0.0
  0
LINE
  5
1687
330
2D32
100
AcDbEntity
  8
SIZE
 62
     0
100
AcDbLine
 10
157.5
 20
20.0
 30
0.0
 11
157.5
 21
245.5794621189598
 31
0.0
  0
LINE
  5
1688
330
2D32
100
AcDbEntity
  8
SIZE
 62
     0
100
AcDbLine
 10
-145.5
 20
225.5794621189598
 30
0.0
 11
145.5
 21
225.5794621189598
 31
0.0
  0
INSERT
  5
1689
330
2D32
100
AcDbEntity
  8
SIZE
 62
     0
100
AcDbBlockReference
  2
_DOTBLANK
 10
-157.5
 20
225.5794621189598
 30
0.0
 41
12.0
 42
12.0
 43
12.0
 50
180.0
  0
INSERT
  5
168A
330
2D32
100
AcDbEntity
  8
SIZE
 62
     0
100
AcDbBlockReference
  2
_DOTBLANK
 10
157.5
 20
225.5794621189598
 30
0.0
 41
12.0
 42
12.0
 43
12.0
  0
INSERT
  5
168B
330
2D32
100
AcDbEntity
  8
0
100
AcDbBlockReference
  2
*U37
 10
0.0
 20
0.0
 30
0.0
  0
POINT
  5
168C
330
2D32
100
AcDbEntity
  8
DEFPOINTS
 62
     0
100
AcDbPoint
 10
-157.5
 20
0.0
 30
0.0
  0
POINT
  5
168D
330
2D32
100
AcDbEntity
  8
DEFPOINTS
 62
     0
100
AcDbPoint
 10
157.5
 20
0.0
 30
0.0
  0
POINT
  5
168E
330
2D32
100
AcDbEntity
  8
DEFPOINTS
 62
     0
100
AcDbPoint
 10
157.5
 20
225.5794621189598
 30
0.0
  0
ENDBLK
  5
14CB
330
2D32
100
AcDbEntity
  8
0
100
AcDbBlockEnd
  0
BLOCK
  5
2D35
330
2D34
100
AcDbEntity
  8
0
100
AcDbBlockBegin
  2
*U37
 70
     1
 10
0.0
 20
0.0
 30
0.0
  3
*U37
  1

  0
TEXT
  5
1F15
330
2D34
100
AcDbEntity
  8
SIZE
 62
     0
100
AcDbText
 10
-68.57142857142857
 20
235.5794621189598
 30
0.0
 40
64.0
  1
315
 41
0.9
100
AcDbText
  0
ENDBLK
  5
1F17
330
2D34
100
AcDbEntity
  8
0
100
AcDbBlockEnd
  0
BLOCK
  5
2D37
330
2D36
100
AcDbEntity
  8
0
100
AcDbBlockBegin
  2
*U38
 70
     1
 10
0.0
 20
0.0
 30
0.0
  3
*U38
  1

  0
ENDBLK
  5
15CF
330
2D36
100
AcDbEntity
  8
0
100
AcDbBlockEnd
  0
BLOCK
  5
2D39
330
2D38
100
AcDbEntity
  8
0
100
AcDbBlockBegin
  2
*D39
 70
     1
 10
0.0
 20
0.0
 30
0.0
  3
*D39
  1

  0
LINE
  5
1692
330
2D38
100
AcDbEntity
  8
SIZE
 62
     0
100
AcDbLine
 10
-25844.51823276502
 20
7685.702971374808
 30
0.0
 11
-25981.04465488371
 21
7685.702971374808
 31
0.0
  0
LINE
  5
1693
330
2D38
100
AcDbEntity
  8
SIZE
 62
     0
100
AcDbLine
 10
-25844.51823276502
 20
7677.702971374808
 30
0.0
 11
-25981.04465488371
 21
7677.702971374808
 31
0.0
  0
LINE
  5
1694
330
2D38
100
AcDbEntity
  8
SIZE
 62
     0
100
AcDbLine
 10
-25961.04465488371
 20
7697.702971374808
 30
0.0
 11
-25961.04465488371
 21
7709.702971374809
 31
0.0
  0
LINE
  5
1695
330
2D38
100
AcDbEntity
  8
SIZE
 62
     0
100
AcDbLine
 10
-25961.04465488371
 20
7665.70297137481
 30
0.0
 11
-25961.04465488371
 21
7595.302971374808
 31
0.0
  0
INSERT
  5
1696
330
2D38
100
AcDbEntity
  8
SIZE
 62
     0
100
AcDbBlockReference
  2
_DOTBLANK
 10
-25961.04465488371
 20
7685.702971374808
 30
0.0
 41
12.0
 42
12.0
 43
12.0
 50
270.0
  0
INSERT
  5
1697
330
2D38
100
AcDbEntity
  8
SIZE
 62
     0
100
AcDbBlockReference
  2
_DOTBLANK
 10
-25961.04465488371
 20
7677.702971374808
 30
0.0
 41
12.0
 42
12.0
 43
12.0
 50
90.0
  0
INSERT
  5
1698
330
2D38
100
AcDbEntity
  8
0
100
AcDbBlockReference
  2
*U40
 10
0.0
 20
0.0
 30
0.0
  0
POINT
  5
1699
330
2D38
100
AcDbEntity
  8
DEFPOINTS
 62
     0
100
AcDbPoint
 10
-25824.51823276501
 20
7685.702971374808
 30
0.0
  0
POINT
  5
169A
330
2D38
100
AcDbEntity
  8
DEFPOINTS
 62
     0
100
AcDbPoint
 10
-25824.51823276501
 20
7677.702971374808
 30
0.0
  0
POINT
  5
169B
330
2D38
100
AcDbEntity
  8
DEFPOINTS
 62
     0
100
AcDbPoint
 10
-25961.04465488371
 20
7677.702971374808
 30
0.0
  0
ENDBLK
  5
169C
330
2D38
100
AcDbEntity
  8
0
100
AcDbBlockEnd
  0
BLOCK
  5
2D3B
330
2D3A
100
AcDbEntity
  8
0
100
AcDbBlockBegin
  2
*U40
 70
     1
 10
0.0
 20
0.0
 30
0.0
  3
*U40
  1

  0
TEXT
  5
1F19
330
2D3A
100
AcDbEntity
  8
SIZE
 62
     0
100
AcDbText
 10
-25971.04465488371
 20
7605.302971374804
 30
0.0
 40
64.0
  1
8
 50
90.0
 41
0.9
100
AcDbText
  0
ENDBLK
  5
1F1B
330
2D3A
100
AcDbEntity
  8
0
100
AcDbBlockEnd
  0
BLOCK
  5
2D3D
330
2D3C
100
AcDbEntity
  8
0
100
AcDbBlockBegin
  2
*D41
 70
     1
 10
0.0
 20
0.0
 30
0.0
  3
*D41
  1

  0
LINE
  5
169F
330
2D3C
100
AcDbEntity
  8
SIZE
 62
     0
100
AcDbLine
 10
-25512.51823276502
 20
7385.702971374808
 30
0.0
 11
-25362.37494828464
 21
7385.702971374808
 31
0.0
  0
LINE
  5
16A0
330
2D3C
100
AcDbEntity
  8
SIZE
 62
     0
100
AcDbLine
 10
-25523.51823276501
 20
7373.702971374808
 30
0.0
 11
-25362.37494828464
 21
7373.702971374808
 31
0.0
  0
LINE
  5
16A1
330
2D3C
100
AcDbEntity
  8
SIZE
 62
     0
100
AcDbLine
 10
-25382.37494828464
 20
7397.702971374808
 30
0.0
 11
-25382.37494828464
 21
7409.70297137481
 31
0.0
  0
LINE
  5
16A2
330
2D3C
100
AcDbEntity
  8
SIZE
 62
     0
100
AcDbLine
 10
-25382.37494828464
 20
7361.702971374808
 30
0.0
 11
-25382.37494828464
 21
7244.674399946237
 31
0.0
  0
INSERT
  5
16A3
330
2D3C
100
AcDbEntity
  8
SIZE
 62
     0
100
AcDbBlockReference
  2
_DOTBLANK
 10
-25382.37494828464
 20
7385.702971374808
 30
0.0
 41
12.0
 42
12.0
 43
12.0
 50
270.0
  0
INSERT
  5
16A4
330
2D3C
100
AcDbEntity
  8
SIZE
 62
     0
100
AcDbBlockReference
  2
_DOTBLANK
 10
-25382.37494828464
 20
7373.702971374808
 30
0.0
 41
12.0
 42
12.0
 43
12.0
 50
90.0
  0
INSERT
  5
16A5
330
2D3C
100
AcDbEntity
  8
0
100
AcDbBlockReference
  2
*U42
 10
0.0
 20
0.0
 30
0.0
  0
POINT
  5
16A6
330
2D3C
100
AcDbEntity
  8
DEFPOINTS
 62
     0
100
AcDbPoint
 10
-25532.51823276502
 20
7385.702971374808
 30
0.0
  0
POINT
  5
16A7
330
2D3C
100
AcDbEntity
  8
DEFPOINTS
 62
     0
100
AcDbPoint
 10
-25543.51823276502
 20
7373.702971374808
 30
0.0
  0
POINT
  5
16A8
330
2D3C
100
AcDbEntity
  8
DEFPOINTS
 62
     0
100
AcDbPoint
 10
-25382.37494828464
 20
7373.702971374808
 30
0.0
  0
ENDBLK
  5
16A9
330
2D3C
100
AcDbEntity
  8
0
100
AcDbBlockEnd
  0
BLOCK
  5
2D3F
330
2D3E
100
AcDbEntity
  8
0
100
AcDbBlockBegin
  2
*U42
 70
     1
 10
0.0
 20
0.0
 30
0.0
  3
*U42
  1

  0
TEXT
  5
1F1D
330
2D3E
100
AcDbEntity
  8
SIZE
 62
     0
100
AcDbText
 10
-25392.37494828464
 20
7256.045828517662
 30
0.0
 40
64.0
  1
12
 50
90.0
 41
0.9
100
AcDbText
  0
ENDBLK
  5
1F1F
330
2D3E
100
AcDbEntity
  8
0
100
AcDbBlockEnd
  0
BLOCK
  5
2D41
330
2D40
100
AcDbEntity
  8
0
100
AcDbBlockBegin
  2
*D43
 70
     1
 10
0.0
 20
0.0
 30
0.0
  3
*D43
  1

  0
LINE
  5
16AC
330
2D40
100
AcDbEntity
  8
SIZE
 62
     0
100
AcDbLine
 10
-25801.51823276501
 20
7365.702971374808
 30
0.0
 11
-25801.51823276501
 21
7217.685576144207
 31
0.0
  0
LINE
  5
16AD
330
2D40
100
AcDbEntity
  8
SIZE
 62
     0
100
AcDbLine
 10
-25532.51823276502
 20
7365.702971374808
 30
0.0
 11
-25532.51823276502
 21
7217.685576144207
 31
0.0
  0
LINE
  5
16AE
330
2D40
100
AcDbEntity
  8
SIZE
 62
     0
100
AcDbLine
 10
-25789.51823276502
 20
7237.685576144207
 30
0.0
 11
-25544.51823276501
 21
7237.685576144207
 31
0.0
  0
INSERT
  5
16AF
330
2D40
100
AcDbEntity
  8
SIZE
 62
     0
100
AcDbBlockReference
  2
_DOTBLANK
 10
-25801.51823276501
 20
7237.685576144207
 30
0.0
 41
12.0
 42
12.0
 43
12.0
 50
180.0
  0
INSERT
  5
16B0
330
2D40
100
AcDbEntity
  8
SIZE
 62
     0
100
AcDbBlockReference
  2
_DOTBLANK
 10
-25532.51823276502
 20
7237.685576144207
 30
0.0
 41
12.0
 42
12.0
 43
12.0
  0
INSERT
  5
16B1
330
2D40
100
AcDbEntity
  8
0
100
AcDbBlockReference
  2
*U44
 10
0.0
 20
0.0
 30
0.0
  0
POINT
  5
16B2
330
2D40
100
AcDbEntity
  8
DEFPOINTS
 62
     0
100
AcDbPoint
 10
-25801.51823276501
 20
7385.702971374808
 30
0.0
  0
POINT
  5
16B3
330
2D40
100
AcDbEntity
  8
DEFPOINTS
 62
     0
100
AcDbPoint
 10
-25532.51823276502
 20
7385.702971374808
 30
0.0
  0
POINT
  5
16B4
330
2D40
100
AcDbEntity
  8
DEFPOINTS
 62
     0
100
AcDbPoint
 10
-25532.51823276502
 20
7237.685576144207
 30
0.0
  0
ENDBLK
  5
16B5
330
2D40
100
AcDbEntity
  8
0
100
AcDbBlockEnd
  0
BLOCK
  5
2D43
330
2D42
100
AcDbEntity
  8
0
100
AcDbBlockBegin
  2
*U44
 70
     1
 10
0.0
 20
0.0
 30
0.0
  3
*U44
  1

  0
TEXT
  5
1F21
330
2D42
100
AcDbEntity
  8
SIZE
 62
     0
100
AcDbText
 10
-25739.70394705074
 20
7247.685576144205
 30
0.0
 40
64.0
  1
269
 41
0.9
100
AcDbText
  0
ENDBLK
  5
1F23
330
2D42
100
AcDbEntity
  8
0
100
AcDbBlockEnd
  0
BLOCK
  5
2D45
330
2D44
100
AcDbEntity
  8
0
100
AcDbBlockBegin
  2
*D45
 70
     1
 10
0.0
 20
0.0
 30
0.0
  3
*D45
  1

  0
LINE
  5
16B8
330
2D44
100
AcDbEntity
  8
SIZE
 62
     0
100
AcDbLine
 10
-25512.51823276502
 20
7385.702971374808
 30
0.0
 11
-25362.37494828464
 21
7385.702971374808
 31
0.0
  0
LINE
  5
16B9
330
2D44
100
AcDbEntity
  8
SIZE
 62
     0
100
AcDbLine
 10
-25489.51823276501
 20
7685.702971374808
 30
0.0
 11
-25362.37494828464
 21
7685.702971374808
 31
0.0
  0
LINE
  5
16BA
330
2D44
100
AcDbEntity
  8
SIZE
 62
     0
100
AcDbLine
 10
-25382.37494828464
 20
7397.702971374808
 30
0.0
 11
-25382.37494828464
 21
7673.702971374808
 31
0.0
  0
INSERT
  5
16BB
330
2D44
100
AcDbEntity
  8
SIZE
 62
     0
100
AcDbBlockReference
  2
_DOTBLANK
 10
-25382.37494828464
 20
7385.702971374808
 30
0.0
 41
12.0
 42
12.0
 43
12.0
 50
270.0
  0
INSERT
  5
16BC
330
2D44
100
AcDbEntity
  8
SIZE
 62
     0
100
AcDbBlockReference
  2
_DOTBLANK
 10
-25382.37494828464
 20
7685.702971374808
 30
0.0
 41
12.0
 42
12.0
 43
12.0
 50
90.0
  0
INSERT
  5
16BD
330
2D44
100
AcDbEntity
  8
0
100
AcDbBlockReference
  2
*U46
 10
0.0
 20
0.0
 30
0.0
  0
POINT
  5
16BE
330
2D44
100
AcDbEntity
  8
DEFPOINTS
 62
     0
100
AcDbPoint
 10
-25532.51823276502
 20
7385.702971374808
 30
0.0
  0
POINT
  5
16BF
330
2D44
100
AcDbEntity
  8
DEFPOINTS
 62
     0
100
AcDbPoint
 10
-25509.51823276502
 20
7685.702971374808
 30
0.0
  0
POINT
  5
16C0
330
2D44
100
AcDbEntity
  8
DEFPOINTS
 62
     0
100
AcDbPoint
 10
-25382.37494828464
 20
7685.702971374808
 30
0.0
  0
ENDBLK
  5
16C1
330
2D44
100
AcDbEntity
  8
0
100
AcDbBlockEnd
  0
BLOCK
  5
2D47
330
2D46
100
AcDbEntity
  8
0
100
AcDbBlockBegin
  2
*U46
 70
     1
 10
0.0
 20
0.0
 30
0.0
  3
*U46
  1

  0
TEXT
  5
1F25
330
2D46
100
AcDbEntity
  8
SIZE
 62
     0
100
AcDbText
 10
-25392.37494828464
 20
7461.645828517662
 30
0.0
 40
64.0
  1
300
 50
90.0
 41
0.9
100
AcDbText
  0
ENDBLK
  5
1F27
330
2D46
100
AcDbEntity
  8
0
100
AcDbBlockEnd
  0
BLOCK
  5
2D49
330
2D48
100
AcDbEntity
  8
0
100
AcDbBlockBegin
  2
*D47
 70
     1
 10
0.0
 20
0.0
 30
0.0
  3
*D47
  1

  0
LINE
  5
16C4
330
2D48
100
AcDbEntity
  8
SIZE
 62
     0
100
AcDbLine
 10
-25807.01823276501
 20
7718.167454177002
 30
0.0
 11
-25807.01823276501
 21
7822.154659243358
 31
0.0
  0
LINE
  5
16C5
330
2D48
100
AcDbEntity
  8
SIZE
 62
     0
100
AcDbLine
 10
-25527.01823276501
 20
7718.167454177002
 30
0.0
 11
-25527.01823276501
 21
7822.154659243358
 31
0.0
  0
LINE
  5
16C6
330
2D48
100
AcDbEntity
  8
SIZE
 62
     0
100
AcDbLine
 10
-25795.01823276502
 20
7802.154659243358
 30
0.0
 11
-25539.01823276501
 21
7802.154659243358
 31
0.0
  0
INSERT
  5
16C7
330
2D48
100
AcDbEntity
  8
SIZE
 62
     0
100
AcDbBlockReference
  2
_DOTBLANK
 10
-25807.01823276501
 20
7802.154659243358
 30
0.0
 41
12.0
 42
12.0
 43
12.0
 50
180.0
  0
INSERT
  5
16C8
330
2D48
100
AcDbEntity
  8
SIZE
 62
     0
100
AcDbBlockReference
  2
_DOTBLANK
 10
-25527.01823276501
 20
7802.154659243358
 30
0.0
 41
12.0
 42
12.0
 43
12.0
  0
INSERT
  5
16C9
330
2D48
100
AcDbEntity
  8
0
100
AcDbBlockReference
  2
*U48
 10
0.0
 20
0.0
 30
0.0
  0
POINT
  5
16CA
330
2D48
100
AcDbEntity
  8
DEFPOINTS
 62
     0
100
AcDbPoint
 10
-25807.01823276501
 20
7698.167454177002
 30
0.0
  0
POINT
  5
16CB
330
2D48
100
AcDbEntity
  8
DEFPOINTS
 62
     0
100
AcDbPoint
 10
-25527.01823276501
 20
7698.167454177002
 30
0.0
  0
POINT
  5
16CC
330
2D48
100
AcDbEntity
  8
DEFPOINTS
 62
     0
100
AcDbPoint
 10
-25527.01823276501
 20
7802.154659243358
 30
0.0
  0
ENDBLK
  5
16CD
330
2D48
100
AcDbEntity
  8
0
100
AcDbBlockEnd
  0
BLOCK
  5
2D4B
330
2D4A
100
AcDbEntity
  8
0
100
AcDbBlockBegin
  2
*U48
 70
     1
 10
0.0
 20
0.0
 30
0.0
  3
*U48
  1

  0
TEXT
  5
1F29
330
2D4A
100
AcDbEntity
  8
SIZE
 62
     0
100
AcDbText
 10
-25741.07537562216
 20
7812.154659243358
 30
0.0
 40
64.0
  1
280
 41
0.9
100
AcDbText
  0
ENDBLK
  5
1F2B
330
2D4A
100
AcDbEntity
  8
0
100
AcDbBlockEnd
  0
BLOCK
  5
2D4D
330
2D4C
100
AcDbEntity
  8
0
100
AcDbBlockBegin
  2
*D49
 70
     1
 10
0.0
 20
0.0
 30
0.0
  3
*D49
  1

  0
LINE
  5
16D0
330
2D4C
100
AcDbEntity
  8
SIZE
 62
     0
100
AcDbLine
 10
-25824.51823276501
 20
7705.702971374808
 30
0.0
 11
-25824.51823276501
 21
7931.282433493766
 31
0.0
  0
LINE
  5
16D1
330
2D4C
100
AcDbEntity
  8
SIZE
 62
     0
100
AcDbLine
 10
-25509.51823276502
 20
7705.702971374808
 30
0.0
 11
-25509.51823276502
 21
7931.282433493766
 31
0.0
  0
LINE
  5
16D2
330
2D4C
100
AcDbEntity
  8
SIZE
 62
     0
100
AcDbLine
 10
-25812.51823276502
 20
7911.282433493766
 30
0.0
 11
-25521.51823276501
 21
7911.282433493766
 31
0.0
  0
INSERT
  5
16D3
330
2D4C
100
AcDbEntity
  8
SIZE
 62
     0
100
AcDbBlockReference
  2
_DOTBLANK
 10
-25824.51823276501
 20
7911.282433493766
 30
0.0
 41
12.0
 42
12.0
 43
12.0
 50
180.0
  0
INSERT
  5
16D4
330
2D4C
100
AcDbEntity
  8
SIZE
 62
     0
100
AcDbBlockReference
  2
_DOTBLANK
 10
-25509.51823276502
 20
7911.282433493766
 30
0.0
 41
12.0
 42
12.0
 43
12.0
  0
INSERT
  5
16D5
330
2D4C
100
AcDbEntity
  8
0
100
AcDbBlockReference
  2
*U50
 10
0.0
 20
0.0
 30
0.0
  0
POINT
  5
16D6
330
2D4C
100
AcDbEntity
  8
DEFPOINTS
 62
     0
100
AcDbPoint
 10
-25824.51823276501
 20
7685.702971374808
 30
0.0
  0
POINT
  5
16D7
330
2D4C
100
AcDbEntity
  8
DEFPOINTS
 62
     0
100
AcDbPoint
 10
-25509.51823276502
 20
7685.702971374808
 30
0.0
  0
POINT
  5
16D8
330
2D4C
100
AcDbEntity
  8
DEFPOINTS
 62
     0
100
AcDbPoint
 10
-25509.51823276502
 20
7911.282433493766
 30
0.0
  0
ENDBLK
  5
16D9
330
2D4C
100
AcDbEntity
  8
0
100
AcDbBlockEnd
  0
BLOCK
  5
2D4F
330
2D4E
100
AcDbEntity
  8
0
100
AcDbBlockBegin
  2
*U50
 70
     1
 10
0.0
 20
0.0
 30
0.0
  3
*U50
  1

  0
TEXT
  5
1F2D
330
2D4E
100
AcDbEntity
  8
SIZE
 62
     0
100
AcDbText
 10
-25735.58966133645
 20
7921.282433493766
 30
0.0
 40
64.0
  1
315
 41
0.9
100
AcDbText
  0
ENDBLK
  5
1F2F
330
2D4E
100
AcDbEntity
  8
0
100
AcDbBlockEnd
  0
BLOCK
  5
2D51
330
2D50
100
AcDbEntity
  8
0
100
AcDbBlockBegin
  2
*D51
 70
     1
 10
0.0
 20
0.0
 30
0.0
  3
*D51
  1

  0
LINE
  5
1D83
330
2D50
100
AcDbEntity
  8
SIZE
 62
     0
100
AcDbLine
 10
-134.5
 20
-320.0
 30
0.0
 11
-134.5
 21
-468.0173952306001
 31
0.0
  0
LINE
  5
1D84
330
2D50
100
AcDbEntity
  8
SIZE
 62
     0
100
AcDbLine
 10
134.5
 20
-320.0
 30
0.0
 11
134.5
 21
-468.0173952306001
 31
0.0
  0
LINE
  5
1D85
330
2D50
100
AcDbEntity
  8
SIZE
 62
     0
100
AcDbLine
 10
-122.5
 20
-448.0173952306
 30
0.0
 11
122.5
 21
-448.0173952306
 31
0.0
  0
INSERT
  5
1D86
330
2D50
100
AcDbEntity
  8
SIZE
 62
     0
100
AcDbBlockReference
  2
_DOTBLANK
 10
-134.5
 20
-448.0173952306
 30
0.0
 41
12.0
 42
12.0
 43
12.0
 50
180.0
  0
INSERT
  5
1D87
330
2D50
100
AcDbEntity
  8
SIZE
 62
     0
100
AcDbBlockReference
  2
_DOTBLANK
 10
134.5
 20
-448.0173952306
 30
0.0
 41
12.0
 42
12.0
 43
12.0
  0
INSERT
  5
1D88
330
2D50
100
AcDbEntity
  8
0
100
AcDbBlockReference
  2
*U52
 10
0.0
 20
0.0
 30
0.0
  0
POINT
  5
1D89
330
2D50
100
AcDbEntity
  8
DEFPOINTS
 62
     0
100
AcDbPoint
 10
-134.5
 20
-300.0
 30
0.0
  0
POINT
  5
1D8A
330
2D50
100
AcDbEntity
  8
DEFPOINTS
 62
     0
100
AcDbPoint
 10
134.5
 20
-300.0
 30
0.0
  0
POINT
  5
1D8B
330
2D50
100
AcDbEntity
  8
DEFPOINTS
 62
     0
100
AcDbPoint
 10
134.5
 20
-448.0173952306
 30
0.0
  0
ENDBLK
  5
173D
330
2D50
100
AcDbEntity
  8
0
100
AcDbBlockEnd
  0
BLOCK
  5
2D53
330
2D52
100
AcDbEntity
  8
0
100
AcDbBlockBegin
  2
*U52
 70
     1
 10
0.0
 20
0.0
 30
0.0
  3
*U52
  1

  0
TEXT
  5
1F31
330
2D52
100
AcDbEntity
  8
SIZE
 62
     0
100
AcDbText
 10
-72.68571428571426
 20
-438.0173952306003
 30
0.0
 40
64.0
  1
269
 41
0.9
100
AcDbText
  0
ENDBLK
  5
1F33
330
2D52
100
AcDbEntity
  8
0
100
AcDbBlockEnd
  0
BLOCK
  5
2D55
330
2D54
100
AcDbEntity
  8
0
100
AcDbBlockBegin
  2
*D53
 70
     1
 10
0.0
 20
0.0
 30
0.0
  3
*D53
  1

  0
LINE
  5
1D8C
330
2D54
100
AcDbEntity
  8
SIZE
 62
     0
100
AcDbLine
 10
154.5
 20
-300.0
 30
0.0
 11
304.6432844803784
 21
-300.0
 31
0.0
  0
LINE
  5
1D8D
330
2D54
100
AcDbEntity
  8
SIZE
 62
     0
100
AcDbLine
 10
177.5
 20
-0.0000000000000057
 30
0.0
 11
304.6432844803785
 21
-0.0000000000000417
 31
0.0
  0
LINE
  5
1D8E
330
2D54
100
AcDbEntity
  8
SIZE
 62
     0
100
AcDbLine
 10
284.6432844803784
 20
-288.0
 30
0.0
 11
284.6432844803785
 21
-12.00000000000003
 31
0.0
  0
INSERT
  5
1D8F
330
2D54
100
AcDbEntity
  8
SIZE
 62
     0
100
AcDbBlockReference
  2
_DOTBLANK
 10
284.6432844803784
 20
-300.0
 30
0.0
 41
12.0
 42
12.0
 43
12.0
 50
270.0
  0
INSERT
  5
1D90
330
2D54
100
AcDbEntity
  8
SIZE
 62
     0
100
AcDbBlockReference
  2
_DOTBLANK
 10
284.6432844803785
 20
-0.000000000000036
 30
0.0
 41
12.0
 42
12.0
 43
12.0
 50
90.0
  0
INSERT
  5
1D91
330
2D54
100
AcDbEntity
  8
0
100
AcDbBlockReference
  2
*U54
 10
0.0
 20
0.0
 30
0.0
  0
POINT
  5
1D92
330
2D54
100
AcDbEntity
  8
DEFPOINTS
 62
     0
100
AcDbPoint
 10
134.5
 20
-300.0
 30
0.0
  0
POINT
  5
1D93
330
2D54
100
AcDbEntity
  8
DEFPOINTS
 62
     0
100
AcDbPoint
 10
157.5
 20
0.0
 30
0.0
  0
POINT
  5
1D94
330
2D54
100
AcDbEntity
  8
DEFPOINTS
 62
     0
100
AcDbPoint
 10
284.6432844803785
 20
-0.000000000000036
 30
0.0
  0
ENDBLK
  5
1749
330
2D54
100
AcDbEntity
  8
0
100
AcDbBlockEnd
  0
BLOCK
  5
2D57
330
2D56
100
AcDbEntity
  8
0
100
AcDbBlockBegin
  2
*U54
 70
     1
 10
0.0
 20
0.0
 30
0.0
  3
*U54
  1

  0
TEXT
  5
1F35
330
2D56
100
AcDbEntity
  8
SIZE
 62
     0
100
AcDbText
 10
274.6432844803785
 20
-224.0571428571429
 30
0.0
 40
64.0
  1
300
 50
90.0
 41
0.9
100
AcDbText
  0
ENDBLK
  5
1F37
330
2D56
100
AcDbEntity
  8
0
100
AcDbBlockEnd
  0
BLOCK
  5
2D59
330
2D58
100
AcDbEntity
  8
0
100
AcDbBlockBegin
  2
*D55
 70
     1
 10
0.0
 20
0.0
 30
0.0
  3
*D55
  1

  0
LINE
  5
1D95
330
2D58
100
AcDbEntity
  8
SIZE
 62
     0
100
AcDbLine
 10
-140.0
 20
32.46448280219375
 30
0.0
 11
-140.0
 21
136.4516878685508
 31
0.0
  0
LINE
  5
1D96
330
2D58
100
AcDbEntity
  8
SIZE
 62
     0
100
AcDbLine
 10
140.0
 20
32.46448280219375
 30
0.0
 11
140.0
 21
136.4516878685508
 31
0.0
  0
LINE
  5
1D97
330
2D58
100
AcDbEntity
  8
SIZE
 62
     0
100
AcDbLine
 10
-128.0
 20
116.4516878685508
 30
0.0
 11
128.0
 21
116.4516878685508
 31
0.0
  0
INSERT
  5
1D98
330
2D58
100
AcDbEntity
  8
SIZE
 62
     0
100
AcDbBlockReference
  2
_DOTBLANK
 10
-140.0
 20
116.4516878685508
 30
0.0
 41
12.0
 42
12.0
 43
12.0
 50
180.0
  0
INSERT
  5
1D99
330
2D58
100
AcDbEntity
  8
SIZE
 62
     0
100
AcDbBlockReference
  2
_DOTBLANK
 10
140.0
 20
116.4516878685508
 30
0.0
 41
12.0
 42
12.0
 43
12.0
  0
INSERT
  5
1D9A
330
2D58
100
AcDbEntity
  8
0
100
AcDbBlockReference
  2
*U56
 10
0.0
 20
0.0
 30
0.0
  0
POINT
  5
1D9B
330
2D58
100
AcDbEntity
  8
DEFPOINTS
 62
     0
100
AcDbPoint
 10
-140.0
 20
12.46448280219374
 30
0.0
  0
POINT
  5
1D9C
330
2D58
100
AcDbEntity
  8
DEFPOINTS
 62
     0
100
AcDbPoint
 10
140.0
 20
12.46448280219374
 30
0.0
  0
POINT
  5
1D9D
330
2D58
100
AcDbEntity
  8
DEFPOINTS
 62
     0
100
AcDbPoint
 10
140.0
 20
116.4516878685508
 30
0.0
  0
ENDBLK
  5
1755
330
2D58
100
AcDbEntity
  8
0
100
AcDbBlockEnd
  0
BLOCK
  5
2D5B
330
2D5A
100
AcDbEntity
  8
0
100
AcDbBlockBegin
  2
*U56
 70
     1
 10
0.0
 20
0.0
 30
0.0
  3
*U56
  1

  0
TEXT
  5
1F39
330
2D5A
100
AcDbEntity
  8
SIZE
 62
     0
100
AcDbText
 10
-74.05714285714283
 20
126.4516878685508
 30
0.0
 40
64.0
  1
280
 41
0.9
100
AcDbText
  0
ENDBLK
  5
1F3B
330
2D5A
100
AcDbEntity
  8
0
100
AcDbBlockEnd
  0
BLOCK
  5
2D5D
330
2D5C
100
AcDbEntity
  8
0
100
AcDbBlockBegin
  2
*D57
 70
     1
 10
0.0
 20
0.0
 30
0.0
  3
*D57
  1

  0
LINE
  5
1D9E
330
2D5C
100
AcDbEntity
  8
SIZE
 62
     0
100
AcDbLine
 10
-157.5
 20
20.0
 30
0.0
 11
-157.5
 21
245.5794621189598
 31
0.0
  0
LINE
  5
1D9F
330
2D5C
100
AcDbEntity
  8
SIZE
 62
     0
100
AcDbLine
 10
157.5
 20
20.0
 30
0.0
 11
157.5
 21
245.5794621189598
 31
0.0
  0
LINE
  5
1DA0
330
2D5C
100
AcDbEntity
  8
SIZE
 62
     0
100
AcDbLine
 10
-145.5
 20
225.5794621189598
 30
0.0
 11
145.5
 21
225.5794621189598
 31
0.0
  0
INSERT
  5
1DA1
330
2D5C
100
AcDbEntity
  8
SIZE
 62
     0
100
AcDbBlockReference
  2
_DOTBLANK
 10
-157.5
 20
225.5794621189598
 30
0.0
 41
12.0
 42
12.0
 43
12.0
 50
180.0
  0
INSERT
  5
1DA2
330
2D5C
100
AcDbEntity
  8
SIZE
 62
     0
100
AcDbBlockReference
  2
_DOTBLANK
 10
157.5
 20
225.5794621189598
 30
0.0
 41
12.0
 42
12.0
 43
12.0
  0
INSERT
  5
1DA3
330
2D5C
100
AcDbEntity
  8
0
100
AcDbBlockReference
  2
*U58
 10
0.0
 20
0.0
 30
0.0
  0
POINT
  5
1DA4
330
2D5C
100
AcDbEntity
  8
DEFPOINTS
 62
     0
100
AcDbPoint
 10
-157.5
 20
0.0
 30
0.0
  0
POINT
  5
1DA5
330
2D5C
100
AcDbEntity
  8
DEFPOINTS
 62
     0
100
AcDbPoint
 10
157.5
 20
0.0
 30
0.0
  0
POINT
  5
1DA6
330
2D5C
100
AcDbEntity
  8
DEFPOINTS
 62
     0
100
AcDbPoint
 10
157.5
 20
225.5794621189598
 30
0.0
  0
ENDBLK
  5
1761
330
2D5C
100
AcDbEntity
  8
0
100
AcDbBlockEnd
  0
BLOCK
  5
2D5F
330
2D5E
100
AcDbEntity
  8
0
100
AcDbBlockBegin
  2
*U58
 70
     1
 10
0.0
 20
0.0
 30
0.0
  3
*U58
  1

  0
TEXT
  5
1F3D
330
2D5E
100
AcDbEntity
  8
SIZE
 62
     0
100
AcDbText
 10
-68.57142857142857
 20
235.5794621189599
 30
0.0
 40
64.0
  1
315
 41
0.9
100
AcDbText
  0
ENDBLK
  5
1F3F
330
2D5E
100
AcDbEntity
  8
0
100
AcDbBlockEnd
  0
BLOCK
  5
2D61
330
2D60
100
AcDbEntity
  8
0
100
AcDbBlockBegin
  2
*D59
 70
     1
 10
0.0
 20
0.0
 30
0.0
  3
*D59
  1

  0
LINE
  5
1DA7
330
2D60
100
AcDbEntity
  8
SIZE
 62
     0
100
AcDbLine
 10
-177.5
 20
0.0000000000000057
 30
0.0
 11
-314.0264221186908
 21
0.0000000000000443
 31
0.0
  0
LINE
  5
1DA8
330
2D60
100
AcDbEntity
  8
SIZE
 62
     0
100
AcDbLine
 10
-177.5
 20
-7.999999999999992
 30
0.0
 11
-314.0264221186908
 21
-7.999999999999957
 31
0.0
  0
LINE
  5
1DA9
330
2D60
100
AcDbEntity
  8
SIZE
 62
     0
100
AcDbLine
 10
-294.0264221186908
 20
12.00000000000003
 30
0.0
 11
-294.0264221186908
 21
24.00000000000004
 31
0.0
  0
LINE
  5
1DAA
330
2D60
100
AcDbEntity
  8
SIZE
 62
     0
100
AcDbLine
 10
-294.0264221186908
 20
-19.99999999999996
 30
0.0
 11
-294.0264221186908
 21
-90.39999999999997
 31
0.0
  0
INSERT
  5
1DAB
330
2D60
100
AcDbEntity
  8
SIZE
 62
     0
100
AcDbBlockReference
  2
_DOTBLANK
 10
-294.0264221186908
 20
0.0000000000000387
 30
0.0
 41
12.0
 42
12.0
 43
12.0
 50
270.0
  0
INSERT
  5
1DAC
330
2D60
100
AcDbEntity
  8
SIZE
 62
     0
100
AcDbBlockReference
  2
_DOTBLANK
 10
-294.0264221186908
 20
-7.99999999999996
 30
0.0
 41
12.0
 42
12.0
 43
12.0
 50
90.0
  0
INSERT
  5
1DAD
330
2D60
100
AcDbEntity
  8
0
100
AcDbBlockReference
  2
*U60
 10
0.0
 20
0.0
 30
0.0
  0
POINT
  5
1DAE
330
2D60
100
AcDbEntity
  8
DEFPOINTS
 62
     0
100
AcDbPoint
 10
-157.5
 20
0.0
 30
0.0
  0
POINT
  5
1DAF
330
2D60
100
AcDbEntity
  8
DEFPOINTS
 62
     0
100
AcDbPoint
 10
-157.5
 20
-8.000000000000001
 30
0.0
  0
POINT
  5
1DB0
330
2D60
100
AcDbEntity
  8
DEFPOINTS
 62
     0
100
AcDbPoint
 10
-294.0264221186908
 20
-7.99999999999996
 30
0.0
  0
ENDBLK
  5
176D
330
2D60
100
AcDbEntity
  8
0
100
AcDbBlockEnd
  0
BLOCK
  5
2D63
330
2D62
100
AcDbEntity
  8
0
100
AcDbBlockBegin
  2
*U60
 70
     1
 10
0.0
 20
0.0
 30
0.0
  3
*U60
  1

  0
TEXT
  5
1F41
330
2D62
100
AcDbEntity
  8
SIZE
 62
     0
100
AcDbText
 10
-304.0264221186908
 20
-80.4
 30
0.0
 40
64.0
  1
8
 50
90.0
 41
0.9
100
AcDbText
  0
ENDBLK
  5
1F43
330
2D62
100
AcDbEntity
  8
0
100
AcDbBlockEnd
  0
BLOCK
  5
2D65
330
2D64
100
AcDbEntity
  8
0
100
AcDbBlockBegin
  2
*D61
 70
     1
 10
0.0
 20
0.0
 30
0.0
  3
*D61
  1

  0
LINE
  5
1DB1
330
2D64
100
AcDbEntity
  8
SIZE
 62
     0
100
AcDbLine
 10
154.5
 20
-300.0
 30
0.0
 11
304.6432844803785
 21
-300.0
 31
0.0
  0
LINE
  5
1DB2
330
2D64
100
AcDbEntity
  8
SIZE
 62
     0
100
AcDbLine
 10
143.5
 20
-312.0
 30
0.0
 11
304.6432844803785
 21
-312.0
 31
0.0
  0
LINE
  5
1DB3
330
2D64
100
AcDbEntity
  8
SIZE
 62
     0
100
AcDbLine
 10
284.6432844803785
 20
-288.0
 30
0.0
 11
284.6432844803785
 21
-276.0
 31
0.0
  0
LINE
  5
1DB4
330
2D64
100
AcDbEntity
  8
SIZE
 62
     0
100
AcDbLine
 10
284.6432844803785
 20
-324.0000000000001
 30
0.0
 11
284.6432844803784
 21
-438.2857142857143
 31
0.0
  0
INSERT
  5
1DB5
330
2D64
100
AcDbEntity
  8
SIZE
 62
     0
100
AcDbBlockReference
  2
_DOTBLANK
 10
284.6432844803785
 20
-300.0
 30
0.0
 41
12.0
 42
12.0
 43
12.0
 50
270.0
  0
INSERT
  5
1DB6
330
2D64
100
AcDbEntity
  8
SIZE
 62
     0
100
AcDbBlockReference
  2
_DOTBLANK
 10
284.6432844803785
 20
-312.0
 30
0.0
 41
12.0
 42
12.0
 43
12.0
 50
90.0
  0
INSERT
  5
1DB7
330
2D64
100
AcDbEntity
  8
0
100
AcDbBlockReference
  2
*U62
 10
0.0
 20
0.0
 30
0.0
  0
POINT
  5
1DB8
330
2D64
100
AcDbEntity
  8
DEFPOINTS
 62
     0
100
AcDbPoint
 10
134.5
 20
-300.0
 30
0.0
  0
POINT
  5
1DB9
330
2D64
100
AcDbEntity
  8
DEFPOINTS
 62
     0
100
AcDbPoint
 10
123.5
 20
-312.0
 30
0.0
  0
POINT
  5
1DBA
330
2D64
100
AcDbEntity
  8
DEFPOINTS
 62
     0
100
AcDbPoint
 10
284.6432844803785
 20
-312.0
 30
0.0
  0
ENDBLK
  5
177B
330
2D64
100
AcDbEntity
  8
0
100
AcDbBlockEnd
  0
BLOCK
  5
2D67
330
2D66
100
AcDbEntity
  8
0
100
AcDbBlockBegin
  2
*U62
 70
     1
 10
0.0
 20
0.0
 30
0.0
  3
*U62
  1

  0
TEXT
  5
1F45
330
2D66
100
AcDbEntity
  8
SIZE
 62
     0
100
AcDbText
 10
274.6432844803785
 20
-428.2857142857142
 30
0.0
 40
64.0
  1
12
 50
90.0
 41
0.9
100
AcDbText
  0
ENDBLK
  5
1F47
330
2D66
100
AcDbEntity
  8
0
100
AcDbBlockEnd
  0
BLOCK
  5
2D69
330
2D68
100
AcDbEntity
  8
0
100
AcDbBlockBegin
  2
*U63
 70
     1
 10
0.0
 20
0.0
 30
0.0
  3
*U63
  1

  0
ENDBLK
  5
1D57
330
2D68
100
AcDbEntity
  8
0
100
AcDbBlockEnd
  0
BLOCK
  5
2D6B
330
2D6A
100
AcDbEntity
  8
0
100
AcDbBlockBegin
  2
*U64
 70
     1
 10
0.0
 20
0.0
 30
0.0
  3
*U64
  1

  0
INSERT
  5
2164
330
2D6A
100
AcDbEntity
  8
NOTE
100
AcDbBlockReference
  2
_OPEN30
 10
140.0
 20
0.0
 30
0.0
 41
12.0
 42
12.0
 43
12.0
 50
235.5417514112222
  0
POLYLINE
  5
2165
330
2D6A
100
AcDbEntity
  8
NOTE
100
AcDb2dPolyline
 66
     1
 10
0.0
 20
0.0
 30
0.0
  0
VERTEX
  5
2166
330
2165
100
AcDbEntity
  8
NOTE
100
AcDbVertex
100
AcDb2dVertex
 10
146.7896665541345
 20
9.894464517277684
 30
0.0
  0
VERTEX
  5
2167
330
2165
100
AcDbEntity
  8
NOTE
100
AcDbVertex
100
AcDb2dVertex
 10
224.3910002644407
 20
122.9815560214237
 30
0.0
  0
VERTEX
  5
2168
330
2165
100
AcDbEntity
  8
NOTE
100
AcDbVertex
100
AcDb2dVertex
 10
484.5967145501549
 20
122.9815560214237
 30
0.0
  0
SEQEND
  5
2169
330
2165
100
AcDbEntity
  8
NOTE
  0
ENDBLK
  5
216A
330
2D6A
100
AcDbEntity
  8
0
100
AcDbBlockEnd
  0
BLOCK
  5
2D6D
330
2D6C
100
AcDbEntity
  8
0
100
AcDbBlockBegin
  2
*U65
 70
     1
 10
0.0
 20
0.0
 30
0.0
  3
*U65
  1

  0
INSERT
  5
216D
330
2D6C
100
AcDbEntity
  8
NOTE
100
AcDbBlockReference
  2
_OPEN30
 10
136.5
 20
-52.0
 30
0.0
 41
12.0
 42
12.0
 43
12.0
 50
209.4351697182792
  0
POLYLINE
  5
216E
330
2D6C
100
AcDbEntity
  8
NOTE
100
AcDb2dPolyline
 66
     1
 10
0.0
 20
0.0
 30
0.0
  0
VERTEX
  5
216F
330
216E
100
AcDbEntity
  8
NOTE
100
AcDbVertex
100
AcDb2dVertex
 10
146.9509478021279
 20
-46.10273876810613
 30
0.0
  0
VERTEX
  5
2170
330
216E
100
AcDbEntity
  8
NOTE
100
AcDbVertex
100
AcDb2dVertex
 10
219.8910002644407
 20
-4.94412313032444
 30
0.0
  0
VERTEX
  5
2171
330
216E
100
AcDbEntity
  8
NOTE
100
AcDbVertex
100
AcDb2dVertex
 10
680.8738574072979
 20
-4.94412313032444
 30
0.0
  0
SEQEND
  5
2172
330
216E
100
AcDbEntity
  8
NOTE
  0
ENDBLK
  5
2173
330
2D6C
100
AcDbEntity
  8
0
100
AcDbBlockEnd
  0
BLOCK
  5
2D6F
330
2D6E
100
AcDbEntity
  8
0
100
AcDbBlockBegin
  2
*U66
 70
     1
 10
0.0
 20
0.0
 30
0.0
  3
*U66
  1

  0
INSERT
  5
24AD
330
2D6E
100
AcDbEntity
  8
NOTE
100
AcDbBlockReference
  2
_OPEN30
 10
280.0
 20
-0.0000000000009095
 30
0.0
 41
12.0
 42
12.0
 43
12.0
 50
235.7865133898939
  0
POLYLINE
  5
24AE
330
2D6E
100
AcDbEntity
  8
NOTE
100
AcDb2dPolyline
 66
     1
 10
0.0
 20
0.0
 30
0.0
  0
VERTEX
  5
24AF
330
24AE
100
AcDbEntity
  8
NOTE
100
AcDbVertex
100
AcDb2dVertex
 10
286.7473365431339
 20
9.923378939336734
 30
0.0
  0
VERTEX
  5
24B0
330
24AE
100
AcDbEntity
  8
NOTE
100
AcDbVertex
100
AcDb2dVertex
 10
374.391000264437
 20
138.8218385283135
 30
0.0
  0
VERTEX
  5
24B1
330
24AE
100
AcDbEntity
  8
NOTE
100
AcDbVertex
100
AcDb2dVertex
 10
679.4538574072937
 20
138.8218385283135
 30
0.0
  0
SEQEND
  5
24B2
330
24AE
100
AcDbEntity
  8
NOTE
  0
ENDBLK
  5
24B3
330
2D6E
100
AcDbEntity
  8
0
100
AcDbBlockEnd
  0
BLOCK
  5
2D71
330
2D70
100
AcDbEntity
  8
0
100
AcDbBlockBegin
  2
*U67
 70
     1
 10
0.0
 20
0.0
 30
0.0
  3
*U67
  1

  0
INSERT
  5
24B6
330
2D70
100
AcDbEntity
  8
NOTE
100
AcDbBlockReference
  2
_OPEN30
 10
279.5
 20
-52.0
 30
0.0
 41
12.0
 42
12.0
 43
12.0
 50
209.4351697182792
  0
POLYLINE
  5
24B7
330
2D70
100
AcDbEntity
  8
NOTE
100
AcDb2dPolyline
 66
     1
 10
0.0
 20
0.0
 30
0.0
  0
VERTEX
  5
24B8
330
24B7
100
AcDbEntity
  8
NOTE
100
AcDbVertex
100
AcDb2dVertex
 10
289.9509478021279
 20
-46.10273876810613
 30
0.0
  0
VERTEX
  5
24B9
330
24B7
100
AcDbEntity
  8
NOTE
100
AcDbVertex
100
AcDb2dVertex
 10
362.8910002644408
 20
-4.94412313032444
 30
0.0
  0
VERTEX
  5
24BA
330
24B7
100
AcDbEntity
  8
NOTE
100
AcDbVertex
100
AcDb2dVertex
 10
823.8738574072979
 20
-4.94412313032444
 30
0.0
  0
SEQEND
  5
24BB
330
24B7
100
AcDbEntity
  8
NOTE
  0
ENDBLK
  5
24BC
330
2D70
100
AcDbEntity
  8
0
100
AcDbBlockEnd
  0
BLOCK
  5
2D73
330
2D72
100
AcDbEntity
  8
0
100
AcDbBlockBegin
  2
*U68
 70
     1
 10
0.0
 20
0.0
 30
0.0
  3
*U68
  1

  0
INSERT
  5
2802
330
2D72
100
AcDbEntity
  8
NOTE
100
AcDbBlockReference
  2
_OPEN30
 10
-279.5
 20
-52.0
 30
0.0
 41
12.0
 42
12.0
 43
12.0
 50
305.9876127319029
  0
POLYLINE
  5
2803
330
2D72
100
AcDbEntity
  8
NOTE
100
AcDb2dPolyline
 66
     1
 10
0.0
 20
0.0
 30
0.0
  0
VERTEX
  5
2804
330
2803
100
AcDbEntity
  8
NOTE
100
AcDbVertex
100
AcDb2dVertex
 10
-286.5513239624501
 20
-42.29027135412233
 30
0.0
  0
VERTEX
  5
2805
330
2803
100
AcDbEntity
  8
NOTE
100
AcDbVertex
100
AcDb2dVertex
 10
-384.0
 20
91.8973232399403
 30
0.0
  0
VERTEX
  5
2806
330
2803
100
AcDbEntity
  8
NOTE
100
AcDbVertex
100
AcDb2dVertex
 10
-844.9828571428572
 20
91.8973232399403
 30
0.0
  0
SEQEND
  5
2807
330
2803
100
AcDbEntity
  8
NOTE
  0
ENDBLK
  5
2808
330
2D72
100
AcDbEntity
  8
0
100
AcDbBlockEnd
  0
BLOCK
  5
2D75
330
2D74
100
AcDbEntity
  8
0
100
AcDbBlockBegin
  2
*U69
 70
     1
 10
0.0
 20
0.0
 30
0.0
  3
*U69
  1

  0
INSERT
  5
280B
330
2D74
100
AcDbEntity
  8
NOTE
100
AcDbBlockReference
  2
_OPEN30
 10
-280.0
 20
0.0
 30
0.0
 41
12.0
 42
12.0
 43
12.0
 50
296.1323340017244
  0
POLYLINE
  5
280C
330
2D74
100
AcDbEntity
  8
NOTE
100
AcDb2dPolyline
 66
     1
 10
0.0
 20
0.0
 30
0.0
  0
VERTEX
  5
280D
330
280C
100
AcDbEntity
  8
NOTE
100
AcDbVertex
100
AcDb2dVertex
 10
-285.2853506557391
 20
10.77334991754558
 30
0.0
  0
VERTEX
  5
280E
330
280C
100
AcDbEntity
  8
NOTE
100
AcDbVertex
100
AcDb2dVertex
 10
-389.8904122898857
 20
223.9941947648804
 30
0.0
  0
VERTEX
  5
280F
330
280C
100
AcDbEntity
  8
NOTE
100
AcDbVertex
100
AcDb2dVertex
 10
-704.9532694327425
 20
223.9941947648804
 30
0.0
  0
SEQEND
  5
2810
330
280C
100
AcDbEntity
  8
NOTE
  0
ENDBLK
  5
2811
330
2D74
100
AcDbEntity
  8
0
100
AcDbBlockEnd
  0
BLOCK
  5
2D77
330
2D76
100
AcDbEntity
  8
0
100
AcDbBlockBegin
  2
*X70
 70
     1
 10
0.0
 20
0.0
 30
0.0
  3
*X70
  1

  0
LINE
  5
2814
330
2D76
100
AcDbEntity
  8
0
 62
     0
100
AcDbLine
 10
254.1546191124071
 20
-685.5
 30
0.0
 11
254.4999999999909
 21
-685.2697466629015
 31
0.0
  0
LINE
  5
2815
330
2D76
100
AcDbEntity
  8
0
 62
     0
100
AcDbLine
 10
249.6546578185189
 20
-685.5
 30
0.0
 11
254.4999999999909
 21
-682.2697801274862
 31
0.0
  0
LINE
  5
2816
330
2D76
100
AcDbEntity
  8
0
 62
     0
100
AcDbLine
 10
245.1546965246325
 20
-685.5
 30
0.0
 11
254.4999999999891
 21
-679.2698135920708
 31
0.0
  0
LINE
  5
2817
330
2D76
100
AcDbEntity
  8
0
 62
     0
100
AcDbLine
 10
240.654735230748
 20
-685.5000000000016
 30
0.0
 11
254.4999999999909
 21
-676.2698470566537
 31
0.0
  0
LINE
  5
2818
330
2D76
100
AcDbEntity
  8
0
 62
     0
100
AcDbLine
 10
236.1547739368652
 20
-685.5
 30
0.0
 11
254.4999999999909
 21
-673.2698805212385
 31
0.0
  0
LINE
  5
2819
330
2D76
100
AcDbEntity
  8
0
 62
     0
100
AcDbLine
 10
231.6548126429807
 20
-685.499999999998
 30
0.0
 11
254.4999999999909
 21
-670.2699139858212
 31
0.0
  0
LINE
  5
281A
330
2D76
100
AcDbEntity
  8
0
 62
     0
100
AcDbLine
 10
227.1548513490943
 20
-685.499999999998
 30
0.0
 11
254.4999999999891
 21
-667.2699474504061
 31
0.0
  0
LINE
  5
281B
330
2D76
100
AcDbEntity
  8
0
 62
     0
100
AcDbLine
 10
222.6548900552078
 20
-685.5
 30
0.0
 11
254.4999999999909
 21
-664.2699809149887
 31
0.0
  0
LINE
  5
281C
330
2D76
100
AcDbEntity
  8
0
 62
     0
100
AcDbLine
 10
218.1549287613216
 20
-685.5
 30
0.0
 11
254.4999999999891
 21
-661.2700143795733
 31
0.0
  0
LINE
  5
281D
330
2D76
100
AcDbEntity
  8
0
 62
     0
100
AcDbLine
 10
213.6549674674334
 20
-685.5000000000016
 30
0.0
 11
254.4999999999891
 21
-658.2700478441584
 31
0.0
  0
LINE
  5
281E
330
2D76
100
AcDbEntity
  8
0
 62
     0
100
AcDbLine
 10
209.1550061735524
 20
-685.5
 30
0.0
 11
254.4999999999909
 21
-655.2700813087392
 31
0.0
  0
LINE
  5
281F
330
2D76
100
AcDbEntity
  8
0
 62
     0
100
AcDbLine
 10
204.6550448796643
 20
-685.5
 30
0.0
 11
254.4999999999909
 21
-652.2701147733243
 31
0.0
  0
LINE
  5
2820
330
2D76
100
AcDbEntity
  8
0
 62
     0
100
AcDbLine
 10
200.1550835857797
 20
-685.5
 30
0.0
 11
254.4999999999909
 21
-649.270148237907
 31
0.0
  0
LINE
  5
2821
330
2D76
100
AcDbEntity
  8
0
 62
     0
100
AcDbLine
 10
195.6551222918951
 20
-685.499999999998
 30
0.0
 11
254.4999999999891
 21
-646.2701817024917
 31
0.0
  0
LINE
  5
2822
330
2D76
100
AcDbEntity
  8
0
 62
     0
100
AcDbLine
 10
191.155160998007
 20
-685.5000000000016
 30
0.0
 11
254.4999999999909
 21
-643.2702151670762
 31
0.0
  0
LINE
  5
2823
330
2D76
100
AcDbEntity
  8
0
 62
     0
100
AcDbLine
 10
186.6551997041224
 20
-685.5
 30
0.0
 11
254.4999999999891
 21
-640.2702486316592
 31
0.0
  0
LINE
  5
2824
330
2D76
100
AcDbEntity
  8
0
 62
     0
100
AcDbLine
 10
182.155238410236
 20
-685.5
 30
0.0
 11
254.4999999999891
 21
-637.2702820962441
 31
0.0
  0
LINE
  5
2825
330
2D76
100
AcDbEntity
  8
0
 62
     0
100
AcDbLine
 10
177.6552771163532
 20
-685.499999999998
 30
0.0
 11
254.4999999999927
 21
-634.270315560825
 31
0.0
  0
LINE
  5
2826
330
2D76
100
AcDbEntity
  8
0
 62
     0
100
AcDbLine
 10
173.1553158224651
 20
-685.5000000000016
 30
0.0
 11
254.4999999999909
 21
-631.2703490254116
 31
0.0
  0
LINE
  5
2827
330
2D76
100
AcDbEntity
  8
0
 62
     0
100
AcDbLine
 10
168.6553545285786
 20
-685.5
 30
0.0
 11
254.4999999999909
 21
-628.2703824899945
 31
0.0
  0
LINE
  5
2828
330
2D76
100
AcDbEntity
  8
0
 62
     0
100
AcDbLine
 10
164.1553932346942
 20
-685.5000000000016
 30
0.0
 11
254.4999999999891
 21
-625.2704159545792
 31
0.0
  0
LINE
  5
2829
330
2D76
100
AcDbEntity
  8
0
 62
     0
100
AcDbLine
 10
159.6554319408114
 20
-685.499999999998
 30
0.0
 11
254.4999999999927
 21
-622.2704494191621
 31
0.0
  0
LINE
  5
282A
330
2D76
100
AcDbEntity
  8
0
 62
     0
100
AcDbLine
 10
155.1554706469214
 20
-685.5000000000016
 30
0.0
 11
254.4999999999891
 21
-619.2704828837467
 31
0.0
  0
LINE
  5
282B
330
2D76
100
AcDbEntity
  8
0
 62
     0
100
AcDbLine
 10
150.6555093530369
 20
-685.5
 30
0.0
 11
254.4999999999909
 21
-616.2705163483296
 31
0.0
  0
LINE
  5
282C
330
2D76
100
AcDbEntity
  8
0
 62
     0
100
AcDbLine
 10
146.1555480591523
 20
-685.5
 30
0.0
 11
254.4999999999891
 21
-613.2705498129142
 31
0.0
  0
LINE
  5
282D
330
2D76
100
AcDbEntity
  8
0
 62
     0
100
AcDbLine
 10
141.6555867652659
 20
-685.5000000000016
 30
0.0
 11
254.4999999999909
 21
-610.2705832774972
 31
0.0
  0
LINE
  5
282E
330
2D76
100
AcDbEntity
  8
0
 62
     0
100
AcDbLine
 10
137.1556254713814
 20
-685.499999999998
 30
0.0
 11
254.4999999999873
 21
-607.2706167420817
 31
0.0
  0
LINE
  5
282F
330
2D76
100
AcDbEntity
  8
0
 62
     0
100
AcDbLine
 10
132.655664177495
 20
-685.5
 30
0.0
 11
254.4999999999909
 21
-604.2706502066647
 31
0.0
  0
LINE
  5
2830
330
2D76
100
AcDbEntity
  8
0
 62
     0
100
AcDbLine
 10
128.1557028836141
 20
-685.499999999998
 30
0.0
 11
254.4999999999927
 21
-601.2706836712477
 31
0.0
  0
LINE
  5
2831
330
2D76
100
AcDbEntity
  8
0
 62
     0
100
AcDbLine
 10
123.6557415897241
 20
-685.5000000000016
 30
0.0
 11
254.4999999999909
 21
-598.2707171358343
 31
0.0
  0
LINE
  5
2832
330
2D76
100
AcDbEntity
  8
0
 62
     0
100
AcDbLine
 10
119.1557802958395
 20
-685.5
 30
0.0
 11
254.4999999999909
 21
-595.2707506004152
 31
0.0
  0
LINE
  5
2833
330
2D76
100
AcDbEntity
  8
0
 62
     0
100
AcDbLine
 10
114.6558190019532
 20
-685.5
 30
0.0
 11
254.4999999999909
 21
-592.2707840650017
 31
0.0
  0
LINE
  5
2834
330
2D76
100
AcDbEntity
  8
0
 62
     0
100
AcDbLine
 10
110.1558577080705
 20
-685.499999999998
 30
0.0
 11
254.4999999999909
 21
-589.2708175295829
 31
0.0
  0
LINE
  5
2835
330
2D76
100
AcDbEntity
  8
0
 62
     0
100
AcDbLine
 10
105.6558964141804
 20
-685.5000000000016
 30
0.0
 11
254.4999999999891
 21
-586.2708509941693
 31
0.0
  0
LINE
  5
2836
330
2D76
100
AcDbEntity
  8
0
 62
     0
100
AcDbLine
 10
101.1559351202977
 20
-685.5
 30
0.0
 11
254.4999999999909
 21
-583.2708844587521
 31
0.0
  0
LINE
  5
2837
330
2D76
100
AcDbEntity
  8
0
 62
     0
100
AcDbLine
 10
96.65597382641314
 20
-685.5000000000016
 30
0.0
 11
254.4999999999927
 21
-580.2709179233352
 31
0.0
  0
LINE
  5
2838
330
2D76
100
AcDbEntity
  8
0
 62
     0
100
AcDbLine
 10
92.15601253252312
 20
-685.5
 30
0.0
 11
254.4999999999891
 21
-577.2709513879198
 31
0.0
  0
LINE
  5
2839
330
2D76
100
AcDbEntity
  8
0
 62
     0
100
AcDbLine
 10
87.65605123864046
 20
-685.499999999998
 30
0.0
 11
254.4999999999909
 21
-574.2709848525008
 31
0.0
  0
LINE
  5
283A
330
2D76
100
AcDbEntity
  8
0
 62
     0
100
AcDbLine
 10
83.15608994475587
 20
-685.5
 30
0.0
 11
254.4999999999909
 21
-571.2710183170875
 31
0.0
  0
LINE
  5
283B
330
2D76
100
AcDbEntity
  8
0
 62
     0
100
AcDbLine
 10
78.65612865087133
 20
-685.499999999998
 30
0.0
 11
254.4999999999909
 21
-568.2710517816682
 31
0.0
  0
LINE
  5
283C
330
2D76
100
AcDbEntity
  8
0
 62
     0
100
AcDbLine
 10
74.15616735698131
 20
-685.5000000000016
 30
0.0
 11
254.4999999999891
 21
-565.2710852462551
 31
0.0
  0
LINE
  5
283D
330
2D76
100
AcDbEntity
  8
0
 62
     0
100
AcDbLine
 10
69.65620606309858
 20
-685.499999999998
 30
0.0
 11
254.4999999999909
 21
-562.271118710838
 31
0.0
  0
LINE
  5
283E
330
2D76
100
AcDbEntity
  8
0
 62
     0
100
AcDbLine
 10
65.15624476921221
 20
-685.5
 30
0.0
 11
254.4999999999927
 21
-559.2711521754209
 31
0.0
  0
LINE
  5
283F
330
2D76
100
AcDbEntity
  8
0
 62
     0
100
AcDbLine
 10
60.65628347532765
 20
-685.499999999998
 30
0.0
 11
254.4999999999891
 21
-556.2711856400055
 31
0.0
  0
LINE
  5
2840
330
2D76
100
AcDbEntity
  8
0
 62
     0
100
AcDbLine
 10
56.15632218143947
 20
-685.5000000000016
 30
0.0
 11
254.4999999999909
 21
-553.2712191045883
 31
0.0
  0
LINE
  5
2841
330
2D76
100
AcDbEntity
  8
0
 62
     0
100
AcDbLine
 10
51.65636088755672
 20
-685.5
 30
0.0
 11
254.4999999999909
 21
-550.2712525691729
 31
0.0
  0
LINE
  5
2842
330
2D76
100
AcDbEntity
  8
0
 62
     0
100
AcDbLine
 10
47.15639959367035
 20
-685.5
 30
0.0
 11
254.4999999999909
 21
-547.2712860337577
 31
0.0
  0
LINE
  5
2843
330
2D76
100
AcDbEntity
  8
0
 62
     0
100
AcDbLine
 10
42.65643829978396
 20
-685.5
 30
0.0
 11
254.4999999999891
 21
-544.2713194983408
 31
0.0
  0
LINE
  5
2844
330
2D76
100
AcDbEntity
  8
0
 62
     0
100
AcDbLine
 10
38.15647700589762
 20
-685.5000000000016
 30
0.0
 11
254.4999999999909
 21
-541.2713529629253
 31
0.0
  0
LINE
  5
2845
330
2D76
100
AcDbEntity
  8
0
 62
     0
100
AcDbLine
 10
33.65651571201488
 20
-685.5
 30
0.0
 11
254.4999999999891
 21
-538.2713864275083
 31
0.0
  0
LINE
  5
2846
330
2D76
100
AcDbEntity
  8
0
 62
     0
100
AcDbLine
 10
29.15655441812669
 20
-685.5
 30
0.0
 11
254.4999999999891
 21
-535.2714198920912
 31
0.0
  0
LINE
  5
2847
330
2D76
100
AcDbEntity
  8
0
 62
     0
100
AcDbLine
 10
24.65659312424214
 20
-685.5
 30
0.0
 11
254.4999999999891
 21
-532.2714533566777
 31
0.0
  0
LINE
  5
2848
330
2D76
100
AcDbEntity
  8
0
 62
     0
100
AcDbLine
 10
20.1566318303594
 20
-685.499999999998
 30
0.0
 11
254.4999999999909
 21
-529.2714868212588
 31
0.0
  0
LINE
  5
2849
330
2D76
100
AcDbEntity
  8
0
 62
     0
100
AcDbLine
 10
15.65667053647303
 20
-685.5
 30
0.0
 11
254.4999999999927
 21
-526.2715202858434
 31
0.0
  0
LINE
  5
284A
330
2D76
100
AcDbEntity
  8
0
 62
     0
100
AcDbLine
 10
11.15670924258847
 20
-685.499999999998
 30
0.0
 11
254.4999999999891
 21
-523.2715537504263
 31
0.0
  0
LINE
  5
284B
330
2D76
100
AcDbEntity
  8
0
 62
     0
100
AcDbLine
 10
6.656747948700282
 20
-685.5000000000016
 30
0.0
 11
254.4999999999927
 21
-520.2715872150108
 31
0.0
  0
LINE
  5
284C
330
2D76
100
AcDbEntity
  8
0
 62
     0
100
AcDbLine
 10
2.156786654815731
 20
-685.499999999998
 30
0.0
 11
254.4999999999891
 21
-517.2716206795958
 31
0.0
  0
LINE
  5
284D
330
2D76
100
AcDbEntity
  8
0
 62
     0
100
AcDbLine
 10
-2.343174639070638
 20
-685.5
 30
0.0
 11
254.4999999999909
 21
-514.2716541441783
 31
0.0
  0
LINE
  5
284E
330
2D76
100
AcDbEntity
  8
0
 62
     0
100
AcDbLine
 10
-6.843135932957011
 20
-685.5
 30
0.0
 11
254.4999999999891
 21
-511.2716876087632
 31
0.0
  0
LINE
  5
284F
330
2D76
100
AcDbEntity
  8
0
 62
     0
100
AcDbLine
 10
-11.34309722684156
 20
-685.5000000000016
 30
0.0
 11
254.4999999999927
 21
-508.2717210733461
 31
0.0
  0
LINE
  5
2850
330
2D76
100
AcDbEntity
  8
0
 62
     0
100
AcDbLine
 10
-15.84305852072793
 20
-685.5
 30
0.0
 11
254.4999999999909
 21
-505.2717545379291
 31
0.0
  0
LINE
  5
2851
330
2D76
100
AcDbEntity
  8
0
 62
     0
100
AcDbLine
 10
-20.34301981461249
 20
-685.5
 30
0.0
 11
254.4999999999909
 21
-502.2717880025155
 31
0.0
  0
LINE
  5
2852
330
2D76
100
AcDbEntity
  8
0
 62
     0
100
AcDbLine
 10
-24.84298110849886
 20
-685.5
 30
0.0
 11
254.4999999999927
 21
-499.2718214670968
 31
0.0
  0
LINE
  5
2853
330
2D76
100
AcDbEntity
  8
0
 62
     0
100
AcDbLine
 10
-29.34294240238159
 20
-685.5
 30
0.0
 11
254.4999999999909
 21
-496.2718549316829
 31
0.0
  0
LINE
  5
2854
330
2D76
100
AcDbEntity
  8
0
 62
     0
100
AcDbLine
 10
-33.84290369626979
 20
-685.5
 30
0.0
 11
254.4999999999909
 21
-493.2718883962643
 31
0.0
  0
LINE
  5
2855
330
2D76
100
AcDbEntity
  8
0
 62
     0
100
AcDbLine
 10
-38.34286499015252
 20
-685.499999999998
 30
0.0
 11
254.4999999999909
 21
-490.2719218608488
 31
0.0
  0
LINE
  5
2856
330
2D76
100
AcDbEntity
  8
0
 62
     0
100
AcDbLine
 10
-42.84282628404253
 20
-685.5000000000016
 30
0.0
 11
254.4999999999909
 21
-487.2719553254336
 31
0.0
  0
LINE
  5
2857
330
2D76
100
AcDbEntity
  8
0
 62
     0
100
AcDbLine
 10
-47.34278757792526
 20
-685.499999999998
 30
0.0
 11
254.4999999999909
 21
-484.2719887900146
 31
0.0
  0
LINE
  5
2858
330
2D76
100
AcDbEntity
  8
0
 62
     0
100
AcDbLine
 10
-51.84274887181164
 20
-685.5
 30
0.0
 11
254.4999999999909
 21
-481.2720222546012
 31
0.0
  0
LINE
  5
2859
330
2D76
100
AcDbEntity
  8
0
 62
     0
100
AcDbLine
 10
-56.34271016569619
 20
-685.5
 30
0.0
 11
254.4999999999909
 21
-478.2720557191842
 31
0.0
  0
LINE
  5
285A
330
2D76
100
AcDbEntity
  8
0
 62
     0
100
AcDbLine
 10
-60.84267145958438
 20
-685.5000000000016
 30
0.0
 11
254.4999999999909
 21
-475.2720891837689
 31
0.0
  0
LINE
  5
285B
330
2D76
100
AcDbEntity
  8
0
 62
     0
100
AcDbLine
 10
-65.34263275346711
 20
-685.499999999998
 30
0.0
 11
254.4999999999909
 21
-472.2721226483498
 31
0.0
  0
LINE
  5
285C
330
2D76
100
AcDbEntity
  8
0
 62
     0
100
AcDbLine
 10
-69.8425940473535
 20
-685.5
 30
0.0
 11
254.4999999999909
 21
-469.2721561129364
 31
0.0
  0
LINE
  5
285D
330
2D76
100
AcDbEntity
  8
0
 62
     0
100
AcDbLine
 10
-74.34255534123987
 20
-685.5
 30
0.0
 11
254.4999999999909
 21
-466.2721895775191
 31
0.0
  0
LINE
  5
285E
330
2D76
100
AcDbEntity
  8
0
 62
     0
100
AcDbLine
 10
253.7083325416006
 20
-463.8000000000011
 30
0.0
 11
254.4999999999891
 21
-463.272223042104
 31
0.0
  0
LINE
  5
285F
330
2D76
100
AcDbEntity
  8
0
 62
     0
100
AcDbLine
 10
-78.84251663512805
 20
-685.5000000000016
 30
0.0
 11
253.7083325416006
 21
-463.8000000000011
 31
0.0
  0
LINE
  5
2860
330
2D76
100
AcDbEntity
  8
0
 62
     0
100
AcDbLine
 10
249.208371247716
 20
-463.8000000000011
 30
0.0
 11
254.4999999999909
 21
-460.2722565066867
 31
0.0
  0
LINE
  5
2861
330
2D76
100
AcDbEntity
  8
0
 62
     0
100
AcDbLine
 10
-83.34247792900894
 20
-685.5
 30
0.0
 11
249.208371247716
 21
-463.8000000000011
 31
0.0
  0
LINE
  5
2862
330
2D76
100
AcDbEntity
  8
0
 62
     0
100
AcDbLine
 10
244.7084099538333
 20
-463.8000000000011
 30
0.0
 11
254.4999999999909
 21
-457.2722899712735
 31
0.0
  0
LINE
  5
2863
330
2D76
100
AcDbEntity
  8
0
 62
     0
100
AcDbLine
 10
-87.84243922289533
 20
-685.5000000000016
 30
0.0
 11
244.7084099538333
 21
-463.8000000000011
 31
0.0
  0
LINE
  5
2864
330
2D76
100
AcDbEntity
  8
0
 62
     0
100
AcDbLine
 10
240.2084486599451
 20
-463.8000000000011
 30
0.0
 11
254.4999999999891
 21
-454.2723234358545
 31
0.0
  0
LINE
  5
2865
330
2D76
100
AcDbEntity
  8
0
 62
     0
100
AcDbLine
 10
-92.34240051678353
 20
-685.5
 30
0.0
 11
240.2084486599451
 21
-463.8000000000011
 31
0.0
  0
LINE
  5
2866
330
2D76
100
AcDbEntity
  8
0
 62
     0
100
AcDbLine
 10
235.7084873660588
 20
-463.8000000000011
 30
0.0
 11
254.4999999999927
 21
-451.272356900437
 31
0.0
  0
LINE
  5
2867
330
2D76
100
AcDbEntity
  8
0
 62
     0
100
AcDbLine
 10
-96.84236181066628
 20
-685.499999999998
 30
0.0
 11
235.7084873660588
 21
-463.8000000000011
 31
0.0
  0
LINE
  5
2868
330
2D76
100
AcDbEntity
  8
0
 62
     0
100
AcDbLine
 10
231.2085260721742
 20
-463.8000000000011
 30
0.0
 11
254.4999999999909
 21
-448.2723903650219
 31
0.0
  0
LINE
  5
2869
330
2D76
100
AcDbEntity
  8
0
 62
     0
100
AcDbLine
 10
-101.3423231045508
 20
-685.5
 30
0.0
 11
231.2085260721742
 21
-463.8000000000011
 31
0.0
  0
LINE
  5
286A
330
2D76
100
AcDbEntity
  8
0
 62
     0
100
AcDbLine
 10
226.7085647782896
 20
-463.7999999999991
 30
0.0
 11
254.4999999999927
 21
-445.2724238296048
 31
0.0
  0
LINE
  5
286B
330
2D76
100
AcDbEntity
  8
0
 62
     0
100
AcDbLine
 10
-105.842284398439
 20
-685.5
 30
0.0
 11
226.7085647782896
 21
-463.7999999999991
 31
0.0
  0
LINE
  5
286C
330
2D76
100
AcDbEntity
  8
0
 62
     0
100
AcDbLine
 10
222.2086034844032
 20
-463.8000000000011
 30
0.0
 11
254.4999999999891
 21
-442.2724572941914
 31
0.0
  0
LINE
  5
286D
330
2D76
100
AcDbEntity
  8
0
 62
     0
100
AcDbLine
 10
-110.3422456923254
 20
-685.5000000000016
 30
0.0
 11
222.2086034844032
 21
-463.8000000000011
 31
0.0
  0
LINE
  5
286E
330
2D76
100
AcDbEntity
  8
0
 62
     0
100
AcDbLine
 10
217.7086421905169
 20
-463.8000000000011
 30
0.0
 11
254.4999999999927
 21
-439.2724907587727
 31
0.0
  0
LINE
  5
286F
330
2D76
100
AcDbEntity
  8
0
 62
     0
100
AcDbLine
 10
-114.8422069862081
 20
-685.499999999998
 30
0.0
 11
217.7086421905169
 21
-463.8000000000011
 31
0.0
  0
LINE
  5
2870
330
2D76
100
AcDbEntity
  8
0
 62
     0
100
AcDbLine
 10
213.2086808966306
 20
-463.8000000000029
 30
0.0
 11
254.4999999999891
 21
-436.2725242233591
 31
0.0
  0
LINE
  5
2871
330
2D76
100
AcDbEntity
  8
0
 62
     0
100
AcDbLine
 10
-119.3421682800945
 20
-685.5
 30
0.0
 11
213.2086808966306
 21
-463.8000000000029
 31
0.0
  0
LINE
  5
2872
330
2D76
100
AcDbEntity
  8
0
 62
     0
100
AcDbLine
 10
208.708719602746
 20
-463.7999999999991
 30
0.0
 11
254.4999999999891
 21
-433.27255768794
 31
0.0
  0
LINE
  5
2873
330
2D76
100
AcDbEntity
  8
0
 62
     0
100
AcDbLine
 10
-123.8421295739827
 20
-685.5
 30
0.0
 11
208.708719602746
 21
-463.7999999999991
 31
0.0
  0
LINE
  5
2874
330
2D76
100
AcDbEntity
  8
0
 62
     0
100
AcDbLine
 10
204.2087583088614
 20
-463.8000000000011
 30
0.0
 11
254.4999999999891
 21
-430.2725911525264
 31
0.0
  0
LINE
  5
2875
330
2D76
100
AcDbEntity
  8
0
 62
     0
100
AcDbLine
 10
-128.3420908678672
 20
-685.5000000000016
 30
0.0
 11
204.2087583088614
 21
-463.8000000000011
 31
0.0
  0
LINE
  5
2876
330
2D76
100
AcDbEntity
  8
0
 62
     0
100
AcDbLine
 10
199.708797014975
 20
-463.8000000000011
 30
0.0
 11
254.4999999999909
 21
-427.2726246171074
 31
0.0
  0
LINE
  5
2877
330
2D76
100
AcDbEntity
  8
0
 62
     0
100
AcDbLine
 10
-132.8420521617499
 20
-685.499999999998
 30
0.0
 11
199.708797014975
 21
-463.8000000000011
 31
0.0
  0
LINE
  5
2878
330
2D76
100
AcDbEntity
  8
0
 62
     0
100
AcDbLine
 10
195.2088357210887
 20
-463.8000000000029
 30
0.0
 11
254.4999999999891
 21
-424.2726580816943
 31
0.0
  0
LINE
  5
2879
330
2D76
100
AcDbEntity
  8
0
 62
     0
100
AcDbLine
 10
-137.3420134556363
 20
-685.5
 30
0.0
 11
195.2088357210887
 21
-463.8000000000029
 31
0.0
  0
LINE
  5
287A
330
2D76
100
AcDbEntity
  8
0
 62
     0
100
AcDbLine
 10
190.7088744272041
 20
-463.8000000000011
 30
0.0
 11
254.4999999999891
 21
-421.2726915462771
 31
0.0
  0
LINE
  5
287B
330
2D76
100
AcDbEntity
  8
0
 62
     0
100
AcDbLine
 10
-141.8419747495245
 20
-685.5
 30
0.0
 11
190.7088744272041
 21
-463.8000000000011
 31
0.0
  0
LINE
  5
287C
330
2D76
100
AcDbEntity
  8
0
 62
     0
100
AcDbLine
 10
186.2089131333159
 20
-463.8000000000046
 30
0.0
 11
254.4999999999927
 21
-418.2727250108601
 31
0.0
  0
LINE
  5
287D
330
2D76
100
AcDbEntity
  8
0
 62
     0
100
AcDbLine
 10
-146.3419360434054
 20
-685.5
 30
0.0
 11
186.2089131333159
 21
-463.8000000000046
 31
0.0
  0
LINE
  5
287E
330
2D76
100
AcDbEntity
  8
0
 62
     0
100
AcDbLine
 10
181.7089518394314
 20
-463.8000000000011
 30
0.0
 11
254.4999999999891
 21
-415.2727584754448
 31
0.0
  0
LINE
  5
287F
330
2D76
100
AcDbEntity
  8
0
 62
     0
100
AcDbLine
 10
-150.8418973372936
 20
-685.5
 30
0.0
 11
181.7089518394314
 21
-463.8000000000011
 31
0.0
  0
LINE
  5
2880
330
2D76
100
AcDbEntity
  8
0
 62
     0
100
AcDbLine
 10
177.208990545545
 20
-463.8000000000011
 30
0.0
 11
254.4999999999909
 21
-412.2727919400258
 31
0.0
  0
LINE
  5
2881
330
2D76
100
AcDbEntity
  8
0
 62
     0
100
AcDbLine
 10
-155.34185863118
 20
-685.5
 30
0.0
 11
177.208990545545
 21
-463.8000000000011
 31
0.0
  0
LINE
  5
2882
330
2D76
100
AcDbEntity
  8
0
 62
     0
100
AcDbLine
 10
172.7090292516604
 20
-463.8000000000029
 30
0.0
 11
254.4999999999891
 21
-409.2728254046123
 31
0.0
  0
LINE
  5
2883
330
2D76
100
AcDbEntity
  8
0
 62
     0
100
AcDbLine
 10
-159.8418199250664
 20
-685.5
 30
0.0
 11
172.7090292516604
 21
-463.8000000000029
 31
0.0
  0
LINE
  5
2884
330
2D76
100
AcDbEntity
  8
0
 62
     0
100
AcDbLine
 10
168.2090679577776
 20
-463.8000000000011
 30
0.0
 11
254.4999999999927
 21
-406.2728588691951
 31
0.0
  0
LINE
  5
2885
330
2D76
100
AcDbEntity
  8
0
 62
     0
100
AcDbLine
 10
-164.3417812189473
 20
-685.499999999998
 30
0.0
 11
168.2090679577776
 21
-463.8000000000011
 31
0.0
  0
LINE
  5
2886
330
2D76
100
AcDbEntity
  8
0
 62
     0
100
AcDbLine
 10
163.7091066638894
 20
-463.8000000000029
 30
0.0
 11
254.4999999999891
 21
-403.2728923337796
 31
0.0
  0
LINE
  5
2887
330
2D76
100
AcDbEntity
  8
0
 62
     0
100
AcDbLine
 10
-168.8417425128355
 20
-685.5
 30
0.0
 11
163.7091066638894
 21
-463.8000000000029
 31
0.0
  0
LINE
  5
2888
330
2D76
100
AcDbEntity
  8
0
 62
     0
100
AcDbLine
 10
159.2091453700068
 20
-463.7999999999991
 30
0.0
 11
254.4999999999909
 21
-400.2729257983626
 31
0.0
  0
LINE
  5
2889
330
2D76
100
AcDbEntity
  8
0
 62
     0
100
AcDbLine
 10
-173.3417038067218
 20
-685.5
 30
0.0
 11
159.2091453700068
 21
-463.7999999999991
 31
0.0
  0
LINE
  5
288A
330
2D76
100
AcDbEntity
  8
0
 62
     0
100
AcDbLine
 10
154.7091840761186
 20
-463.8000000000029
 30
0.0
 11
254.4999999999891
 21
-397.2729592629475
 31
0.0
  0
LINE
  5
288B
330
2D76
100
AcDbEntity
  8
0
 62
     0
100
AcDbLine
 10
-177.8416651006064
 20
-685.5000000000016
 30
0.0
 11
154.7091840761186
 21
-463.8000000000029
 31
0.0
  0
LINE
  5
288C
330
2D76
100
AcDbEntity
  8
0
 62
     0
100
AcDbLine
 10
150.209222782234
 20
-463.8000000000011
 30
0.0
 11
254.4999999999909
 21
-394.2729927275305
 31
0.0
  0
LINE
  5
288D
330
2D76
100
AcDbEntity
  8
0
 62
     0
100
AcDbLine
 10
-182.3416263944909
 20
-685.499999999998
 30
0.0
 11
150.209222782234
 21
-463.8000000000011
 31
0.0
  0
LINE
  5
288E
330
2D76
100
AcDbEntity
  8
0
 62
     0
100
AcDbLine
 10
145.7092614883459
 20
-463.8000000000029
 30
0.0
 11
254.4999999999873
 21
-391.2730261921169
 31
0.0
  0
LINE
  5
288F
330
2D76
100
AcDbEntity
  8
0
 62
     0
100
AcDbLine
 10
-186.8415876883791
 20
-685.5
 30
0.0
 11
145.7092614883459
 21
-463.8000000000029
 31
0.0
  0
LINE
  5
2890
330
2D76
100
AcDbEntity
  8
0
 62
     0
100
AcDbLine
 10
141.2093001944613
 20
-463.8000000000029
 30
0.0
 11
254.4999999999909
 21
-388.273059656698
 31
0.0
  0
LINE
  5
2891
330
2D76
100
AcDbEntity
  8
0
 62
     0
100
AcDbLine
 10
-191.3415489822637
 20
-685.5
 30
0.0
 11
141.2093001944613
 21
-463.8000000000029
 31
0.0
  0
LINE
  5
2892
330
2D76
100
AcDbEntity
  8
0
 62
     0
100
AcDbLine
 10
136.7093389005767
 20
-463.8000000000029
 30
0.0
 11
254.4999999999927
 21
-385.2730931212827
 31
0.0
  0
LINE
  5
2893
330
2D76
100
AcDbEntity
  8
0
 62
     0
100
AcDbLine
 10
-195.8415102761482
 20
-685.5000000000016
 30
0.0
 11
136.7093389005767
 21
-463.8000000000029
 31
0.0
  0
LINE
  5
2894
330
2D76
100
AcDbEntity
  8
0
 62
     0
100
AcDbLine
 10
132.2093776066904
 20
-463.8000000000011
 30
0.0
 11
254.4999999999891
 21
-382.2731265858656
 31
0.0
  0
LINE
  5
2895
330
2D76
100
AcDbEntity
  8
0
 62
     0
100
AcDbLine
 10
-200.3414715700346
 20
-685.5
 30
0.0
 11
132.2093776066904
 21
-463.8000000000011
 31
0.0
  0
LINE
  5
2896
330
2D76
100
AcDbEntity
  8
0
 62
     0
100
AcDbLine
 10
127.7094163128058
 20
-463.8000000000029
 30
0.0
 11
254.4999999999909
 21
-379.2731600504503
 31
0.0
  0
LINE
  5
2897
330
2D76
100
AcDbEntity
  8
0
 62
     0
100
AcDbLine
 10
-204.841432863921
 20
-685.5
 30
0.0
 11
127.7094163128058
 21
-463.8000000000029
 31
0.0
  0
LINE
  5
2898
330
2D76
100
AcDbEntity
  8
0
 62
     0
100
AcDbLine
 10
123.2094550189194
 20
-463.8000000000029
 30
0.0
 11
254.4999999999909
 21
-376.2731935150351
 31
0.0
  0
LINE
  5
2899
330
2D76
100
AcDbEntity
  8
0
 62
     0
100
AcDbLine
 10
-209.3413941578055
 20
-685.5
 30
0.0
 11
123.2094550189194
 21
-463.8000000000029
 31
0.0
  0
LINE
  5
289A
330
2D76
100
AcDbEntity
  8
0
 62
     0
100
AcDbLine
 10
118.7094937250331
 20
-463.8000000000029
 30
0.0
 11
254.4999999999909
 21
-373.2732269796161
 31
0.0
  0
LINE
  5
289B
330
2D76
100
AcDbEntity
  8
0
 62
     0
100
AcDbLine
 10
-213.8413554516901
 20
-685.499999999998
 30
0.0
 11
118.7094937250331
 21
-463.8000000000029
 31
0.0
  0
LINE
  5
289C
330
2D76
100
AcDbEntity
  8
0
 62
     0
100
AcDbLine
 10
114.2095324311485
 20
-463.8000000000011
 30
0.0
 11
254.4999999999891
 21
-370.2732604442025
 31
0.0
  0
LINE
  5
289D
330
2D76
100
AcDbEntity
  8
0
 62
     0
100
AcDbLine
 10
-218.3413167455765
 20
-685.5
 30
0.0
 11
114.2095324311485
 21
-463.8000000000011
 31
0.0
  0
LINE
  5
289E
330
2D76
100
AcDbEntity
  8
0
 62
     0
100
AcDbLine
 10
109.709571137264
 20
-463.8000000000011
 30
0.0
 11
254.4999999999873
 21
-367.2732939087855
 31
0.0
  0
LINE
  5
289F
330
2D76
100
AcDbEntity
  8
0
 62
     0
100
AcDbLine
 10
-222.8412780394628
 20
-685.5
 30
0.0
 11
109.709571137264
 21
-463.8000000000011
 31
0.0
  0
LINE
  5
28A0
330
2D76
100
AcDbEntity
  8
0
 62
     0
100
AcDbLine
 10
105.2096098433758
 20
-463.8000000000029
 30
0.0
 11
254.4999999999855
 21
-364.2733273733719
 31
0.0
  0
LINE
  5
28A1
330
2D76
100
AcDbEntity
  8
0
 62
     0
100
AcDbLine
 10
-227.3412393333492
 20
-685.5
 30
0.0
 11
105.2096098433758
 21
-463.8000000000029
 31
0.0
  0
LINE
  5
28A2
330
2D76
100
AcDbEntity
  8
0
 62
     0
100
AcDbLine
 10
100.7096485494912
 20
-463.8000000000011
 30
0.0
 11
254.4999999999855
 21
-361.2733608379548
 31
0.0
  0
LINE
  5
28A3
330
2D76
100
AcDbEntity
  8
0
 62
     0
100
AcDbLine
 10
-231.8412006272338
 20
-685.499999999998
 30
0.0
 11
100.7096485494912
 21
-463.8000000000011
 31
0.0
  0
LINE
  5
28A4
330
2D76
100
AcDbEntity
  8
0
 62
     0
100
AcDbLine
 10
96.20968725560672
 20
-463.8000000000029
 30
0.0
 11
254.4999999999891
 21
-358.2733943025378
 31
0.0
  0
LINE
  5
28A5
330
2D76
100
AcDbEntity
  8
0
 62
     0
100
AcDbLine
 10
-236.3411619211183
 20
-685.5
 30
0.0
 11
96.20968725560672
 21
-463.8000000000029
 31
0.0
  0
LINE
  5
28A6
330
2D76
100
AcDbEntity
  8
0
 62
     0
100
AcDbLine
 10
91.70972596172214
 20
-463.8000000000011
 30
0.0
 11
254.4999999999873
 21
-355.2734277671225
 31
0.0
  0
LINE
  5
28A7
330
2D76
100
AcDbEntity
  8
0
 62
     0
100
AcDbLine
 10
-240.8411232150047
 20
-685.5
 30
0.0
 11
91.70972596172214
 21
-463.8000000000011
 31
0.0
  0
LINE
  5
28A8
330
2D76
100
AcDbEntity
  8
0
 62
     0
100
AcDbLine
 10
87.20976466783396
 20
-463.8000000000029
 30
0.0
 11
254.4999999999891
 21
-352.2734612317055
 31
0.0
  0
LINE
  5
28A9
330
2D76
100
AcDbEntity
  8
0
 62
     0
100
AcDbLine
 10
-245.3410845088911
 20
-685.5000000000016
 30
0.0
 11
87.20976466783396
 21
-463.8000000000029
 31
0.0
  0
LINE
  5
28AA
330
2D76
100
AcDbEntity
  8
0
 62
     0
100
AcDbLine
 10
82.7098033739494
 20
-463.8000000000011
 30
0.0
 11
254.4999999999855
 21
-349.2734946962901
 31
0.0
  0
LINE
  5
28AB
330
2D76
100
AcDbEntity
  8
0
 62
     0
100
AcDbLine
 10
-249.8410458027756
 20
-685.499999999998
 30
0.0
 11
82.7098033739494
 21
-463.8000000000011
 31
0.0
  0
LINE
  5
28AC
330
2D76
100
AcDbEntity
  8
0
 62
     0
100
AcDbLine
 10
78.2098420800612
 20
-463.8000000000046
 30
0.0
 11
254.4999999999891
 21
-346.2735281608748
 31
0.0
  0
LINE
  5
28AD
330
2D76
100
AcDbEntity
  8
0
 62
     0
100
AcDbLine
 10
-254.3410070966602
 20
-685.5
 30
0.0
 11
78.2098420800612
 21
-463.8000000000046
 31
0.0
  0
LINE
  5
28AE
330
2D76
100
AcDbEntity
  8
0
 62
     0
100
AcDbLine
 10
73.70988078617846
 20
-463.8000000000029
 30
0.0
 11
254.4999999999855
 21
-343.2735616254577
 31
0.0
  0
LINE
  5
28AF
330
2D76
100
AcDbEntity
  8
0
 62
     0
100
AcDbLine
 10
-254.500000000009
 20
-682.6060284628201
 30
0.0
 11
73.70988078617846
 21
-463.8000000000029
 31
0.0
  0
LINE
  5
28B0
330
2D76
100
AcDbEntity
  8
0
 62
     0
100
AcDbLine
 10
69.20991949229028
 20
-463.8000000000029
 30
0.0
 11
254.4999999999873
 21
-340.2735950900424
 31
0.0
  0
LINE
  5
28B1
330
2D76
100
AcDbEntity
  8
0
 62
     0
100
AcDbLine
 10
-254.5000000000109
 20
-679.6060619274068
 30
0.0
 11
69.20991949229028
 21
-463.8000000000029
 31
0.0
  0
LINE
  5
28B2
330
2D76
100
AcDbEntity
  8
0
 62
     0
100
AcDbLine
 10
64.70995819840935
 20
-463.8000000000011
 30
0.0
 11
254.4999999999855
 21
-337.2736285546253
 31
0.0
  0
LINE
  5
28B3
330
2D76
100
AcDbEntity
  8
0
 62
     0
100
AcDbLine
 10
-254.500000000009
 20
-676.6060953919876
 30
0.0
 11
64.70995819840935
 21
-463.8000000000011
 31
0.0
  0
LINE
  5
28B4
330
2D76
100
AcDbEntity
  8
0
 62
     0
100
AcDbLine
 10
60.20999690452297
 20
-463.8000000000011
 30
0.0
 11
254.4999999999891
 21
-334.2736620192081
 31
0.0
  0
LINE
  5
28B5
330
2D76
100
AcDbEntity
  8
0
 62
     0
100
AcDbLine
 10
-254.5000000000054
 20
-673.6061288565705
 30
0.0
 11
60.20999690452297
 21
-463.8000000000011
 31
0.0
  0
LINE
  5
28B6
330
2D76
100
AcDbEntity
  8
0
 62
     0
100
AcDbLine
 10
55.71003561063662
 20
-463.8000000000029
 30
0.0
 11
254.4999999999855
 21
-331.2736954837948
 31
0.0
  0
LINE
  5
28B7
330
2D76
100
AcDbEntity
  8
0
 62
     0
100
AcDbLine
 10
-254.500000000009
 20
-670.6061623211552
 30
0.0
 11
55.71003561063662
 21
-463.8000000000029
 31
0.0
  0
LINE
  5
28B8
330
2D76
100
AcDbEntity
  8
0
 62
     0
100
AcDbLine
 10
51.21007431675207
 20
-463.8000000000011
 30
0.0
 11
254.4999999999873
 21
-328.2737289483757
 31
0.0
  0
LINE
  5
28B9
330
2D76
100
AcDbEntity
  8
0
 62
     0
100
AcDbLine
 10
-254.5000000000073
 20
-667.6061957857382
 30
0.0
 11
51.21007431675207
 21
-463.8000000000011
 31
0.0
  0
LINE
  5
28BA
330
2D76
100
AcDbEntity
  8
0
 62
     0
100
AcDbLine
 10
46.71011302286752
 20
-463.8000000000011
 30
0.0
 11
254.4999999999891
 21
-325.2737624129604
 31
0.0
  0
LINE
  5
28BB
330
2D76
100
AcDbEntity
  8
0
 62
     0
100
AcDbLine
 10
-254.500000000009
 20
-664.6062292503227
 30
0.0
 11
46.71011302286387
 21
-463.8000000000029
 31
0.0
  0
LINE
  5
28BC
330
2D76
100
AcDbEntity
  8
0
 62
     0
100
AcDbLine
 10
42.21015172897931
 20
-463.8000000000011
 30
0.0
 11
254.4999999999873
 21
-322.2737958775433
 31
0.0
  0
LINE
  5
28BD
330
2D76
100
AcDbEntity
  8
0
 62
     0
100
AcDbLine
 10
-254.5000000000073
 20
-661.6062627149058
 30
0.0
 11
42.21015172897931
 21
-463.8000000000011
 31
0.0
  0
LINE
  5
28BE
330
2D76
100
AcDbEntity
  8
0
 62
     0
100
AcDbLine
 10
38.69999999998981
 20
-463.1401286417403
 30
0.0
 11
254.4999999999873
 21
-319.273829342128
 31
0.0
  0
LINE
  5
28BF
330
2D76
100
AcDbEntity
  8
0
 62
     0
100
AcDbLine
 10
-254.5000000000109
 20
-658.6062961794922
 30
0.0
 11
38.69999999998981
 21
-463.1401286417403
 31
0.0
  0
LINE
  5
28C0
330
2D76
100
AcDbEntity
  8
0
 62
     0
100
AcDbLine
 10
38.69999999998981
 20
-460.1401621063231
 30
0.0
 11
254.4999999999873
 21
-316.2738628067128
 31
0.0
  0
LINE
  5
28C1
330
2D76
100
AcDbEntity
  8
0
 62
     0
100
AcDbLine
 10
-254.5000000000073
 20
-655.6063296440735
 30
0.0
 11
38.69999999998981
 21
-460.1401621063231
 31
0.0
  0
LINE
  5
28C2
330
2D76
100
AcDbEntity
  8
0
 62
     0
100
AcDbLine
 10
38.69999999998981
 20
-457.1401955709078
 30
0.0
 11
254.4999999999873
 21
-313.2738962712956
 31
0.0
  0
LINE
  5
28C3
330
2D76
100
AcDbEntity
  8
0
 62
     0
100
AcDbLine
 10
-254.5000000000073
 20
-652.606363108658
 30
0.0
 11
38.69999999998981
 21
-457.1401955709078
 31
0.0
  0
LINE
  5
28C4
330
2D76
100
AcDbEntity
  8
0
 62
     0
100
AcDbLine
 10
38.69999999999163
 20
-454.140229035489
 30
0.0
 11
254.4999999999836
 21
-310.2739297358803
 31
0.0
  0
LINE
  5
28C5
330
2D76
100
AcDbEntity
  8
0
 62
     0
100
AcDbLine
 10
-254.500000000009
 20
-649.6063965732409
 30
0.0
 11
38.699999999988
 21
-454.1402290354906
 31
0.0
  0
LINE
  5
28C6
330
2D76
100
AcDbEntity
  8
0
 62
     0
100
AcDbLine
 10
38.69999999998981
 20
-451.1402625000753
 30
0.0
 11
254.4999999999873
 21
-307.2739632004632
 31
0.0
  0
LINE
  5
28C7
330
2D76
100
AcDbEntity
  8
0
 62
     0
100
AcDbLine
 10
-254.5000000000109
 20
-646.6064300378275
 30
0.0
 11
38.69999999998981
 21
-451.1402625000753
 31
0.0
  0
LINE
  5
28C8
330
2D76
100
AcDbEntity
  8
0
 62
     0
100
AcDbLine
 10
38.69999999998981
 20
-448.1402959646602
 30
0.0
 11
254.4999999999855
 21
-304.2739966650479
 31
0.0
  0
LINE
  5
28C9
330
2D76
100
AcDbEntity
  8
0
 62
     0
100
AcDbLine
 10
-254.5000000000073
 20
-643.6064635024104
 30
0.0
 11
38.69999999998981
 21
-448.1402959646602
 31
0.0
  0
LINE
  5
28CA
330
2D76
100
AcDbEntity
  8
0
 62
     0
100
AcDbLine
 10
38.69999999998981
 20
-445.1403294292431
 30
0.0
 11
254.4999999999873
 21
-301.2740301296326
 31
0.0
  0
LINE
  5
28CB
330
2D76
100
AcDbEntity
  8
0
 62
     0
100
AcDbLine
 10
-254.5000000000073
 20
-640.6064969669933
 30
0.0
 11
38.69999999998981
 21
-445.1403294292431
 31
0.0
  0
LINE
  5
28CC
330
2D76
100
AcDbEntity
  8
0
 62
     0
100
AcDbLine
 10
38.69999999999163
 20
-442.1403628938259
 30
0.0
 11
254.4999999999836
 21
-298.2740635942155
 31
0.0
  0
LINE
  5
28CD
330
2D76
100
AcDbEntity
  8
0
 62
     0
100
AcDbLine
 10
-254.500000000009
 20
-637.606530431578
 30
0.0
 11
38.69999999999163
 21
-442.1403628938259
 31
0.0
  0
LINE
  5
28CE
330
2D76
100
AcDbEntity
  8
0
 62
     0
100
AcDbLine
 10
38.69999999998981
 20
-439.1403963584089
 30
0.0
 11
254.4999999999873
 21
-295.2740970587984
 31
0.0
  0
LINE
  5
28CF
330
2D76
100
AcDbEntity
  8
0
 62
     0
100
AcDbLine
 10
-254.5000000000073
 20
-634.6065638961589
 30
0.0
 11
38.69999999998981
 21
-439.1403963584089
 31
0.0
  0
LINE
  5
28D0
330
2D76
100
AcDbEntity
  8
0
 62
     0
100
AcDbLine
 10
38.69999999999163
 20
-436.1404298229936
 30
0.0
 11
254.4999999999873
 21
-292.2741305233813
 31
0.0
  0
LINE
  5
28D1
330
2D76
100
AcDbEntity
  8
0
 62
     0
100
AcDbLine
 10
-254.500000000009
 20
-631.6065973607456
 30
0.0
 11
38.69999999999163
 21
-436.1404298229936
 31
0.0
  0
LINE
  5
28D2
330
2D76
100
AcDbEntity
  8
0
 62
     0
100
AcDbLine
 10
38.699999999988
 20
-433.1404632875782
 30
0.0
 11
254.4999999999855
 21
-289.2741639879659
 31
0.0
  0
LINE
  5
28D3
330
2D76
100
AcDbEntity
  8
0
 62
     0
100
AcDbLine
 10
-254.500000000009
 20
-628.6066308253285
 30
0.0
 11
38.699999999988
 21
-433.1404632875782
 31
0.0
  0
LINE
  5
28D4
330
2D76
100
AcDbEntity
  8
0
 62
     0
100
AcDbLine
 10
38.69999999999163
 20
-430.140496752161
 30
0.0
 11
254.4999999999873
 21
-286.2741974525507
 31
0.0
  0
LINE
  5
28D5
330
2D76
100
AcDbEntity
  8
0
 62
     0
100
AcDbLine
 10
-254.500000000009
 20
-625.606664289913
 30
0.0
 11
38.69999999999163
 21
-430.140496752161
 31
0.0
  0
LINE
  5
28D6
330
2D76
100
AcDbEntity
  8
0
 62
     0
100
AcDbLine
 10
38.69999999998981
 20
-427.1405302167456
 30
0.0
 11
254.4999999999873
 21
-283.2742309171335
 31
0.0
  0
LINE
  5
28D7
330
2D76
100
AcDbEntity
  8
0
 62
     0
100
AcDbLine
 10
-254.5000000000073
 20
-622.6066977544961
 30
0.0
 11
38.69999999998981
 21
-427.1405302167456
 31
0.0
  0
LINE
  5
28D8
330
2D76
100
AcDbEntity
  8
0
 62
     0
100
AcDbLine
 10
38.69999999999163
 20
-424.1405636813286
 30
0.0
 11
254.4999999999873
 21
-280.2742643817181
 31
0.0
  0
LINE
  5
28D9
330
2D76
100
AcDbEntity
  8
0
 62
     0
100
AcDbLine
 10
-254.5000000000073
 20
-619.6067312190789
 30
0.0
 11
38.69999999999163
 21
-424.1405636813286
 31
0.0
  0
LINE
  5
28DA
330
2D76
100
AcDbEntity
  8
0
 62
     0
100
AcDbLine
 10
38.69999999999163
 20
-421.1405971459114
 30
0.0
 11
254.4999999999855
 21
-277.2742978463011
 31
0.0
  0
LINE
  5
28DB
330
2D76
100
AcDbEntity
  8
0
 62
     0
100
AcDbLine
 10
-254.500000000009
 20
-616.6067646836636
 30
0.0
 11
38.69999999999163
 21
-421.1405971459114
 31
0.0
  0
LINE
  5
28DC
330
2D76
100
AcDbEntity
  8
0
 62
     0
100
AcDbLine
 10
38.69999999999163
 20
-418.1406306104982
 30
0.0
 11
254.4999999999873
 21
-274.2743313108858
 31
0.0
  0
LINE
  5
28DD
330
2D76
100
AcDbEntity
  8
0
 62
     0
100
AcDbLine
 10
-254.5000000000073
 20
-613.6067981482482
 30
0.0
 11
38.69999999999163
 21
-418.1406306104982
 31
0.0
  0
LINE
  5
28DE
330
2D76
100
AcDbEntity
  8
0
 62
     0
100
AcDbLine
 10
38.69999999999163
 20
-415.1406640750791
 30
0.0
 11
254.4999999999855
 21
-271.2743647754706
 31
0.0
  0
LINE
  5
28DF
330
2D76
100
AcDbEntity
  8
0
 62
     0
100
AcDbLine
 10
-254.500000000009
 20
-610.6068316128312
 30
0.0
 11
38.69999999999163
 21
-415.1406640750791
 31
0.0
  0
LINE
  5
28E0
330
2D76
100
AcDbEntity
  8
0
 62
     0
100
AcDbLine
 10
38.699999999988
 20
-412.1406975396658
 30
0.0
 11
251.9115907505002
 21
-270.0
 31
0.0
  0
LINE
  5
28E1
330
2D76
100
AcDbEntity
  8
0
 62
     0
100
AcDbLine
 10
-254.500000000009
 20
-607.6068650774158
 30
0.0
 11
38.699999999988
 21
-412.1406975396658
 31
0.0
  0
LINE
  5
28E2
330
2D76
100
AcDbEntity
  8
0
 62
     0
100
AcDbLine
 10
38.69999999999163
 20
-409.1407310042468
 30
0.0
 11
247.4116294566138
 21
-270.0
 31
0.0
  0
LINE
  5
28E3
330
2D76
100
AcDbEntity
  8
0
 62
     0
100
AcDbLine
 10
-254.500000000009
 20
-604.6068985419987
 30
0.0
 11
38.69999999999163
 21
-409.1407310042468
 31
0.0
  0
LINE
  5
28E4
330
2D76
100
AcDbEntity
  8
0
 62
     0
100
AcDbLine
 10
38.69999999998981
 20
-406.1407644688331
 30
0.0
 11
242.9116681627292
 21
-270.0000000000018
 31
0.0
  0
LINE
  5
28E5
330
2D76
100
AcDbEntity
  8
0
 62
     0
100
AcDbLine
 10
-254.5000000000073
 20
-601.6069320065835
 30
0.0
 11
38.69999999998981
 21
-406.1407644688331
 31
0.0
  0
LINE
  5
28E6
330
2D76
100
AcDbEntity
  8
0
 62
     0
100
AcDbLine
 10
38.69999999998981
 20
-403.1407979334161
 30
0.0
 11
238.4117068688429
 21
-270.0
 31
0.0
  0
LINE
  5
28E7
330
2D76
100
AcDbEntity
  8
0
 62
     0
100
AcDbLine
 10
-254.5000000000073
 20
-598.6069654711642
 30
0.0
 11
38.69999999998981
 21
-403.1407979334161
 31
0.0
  0
LINE
  5
28E8
330
2D76
100
AcDbEntity
  8
0
 62
     0
100
AcDbLine
 10
38.699999999988
 20
-400.1408313980006
 30
0.0
 11
233.9117455749583
 21
-270.0
 31
0.0
  0
LINE
  5
28E9
330
2D76
100
AcDbEntity
  8
0
 62
     0
100
AcDbLine
 10
-254.500000000009
 20
-595.6069989357509
 30
0.0
 11
38.699999999988
 21
-400.1408313980006
 31
0.0
  0
LINE
  5
28EA
330
2D76
100
AcDbEntity
  8
0
 62
     0
100
AcDbLine
 10
38.69999999999163
 20
-397.1408648625839
 30
0.0
 11
229.411784281072
 21
-270.0
 31
0.0
  0
LINE
  5
28EB
330
2D76
100
AcDbEntity
  8
0
 62
     0
100
AcDbLine
 10
-254.5000000000073
 20
-592.6070324003338
 30
0.0
 11
38.69999999999163
 21
-397.1408648625839
 31
0.0
  0
LINE
  5
28EC
330
2D76
100
AcDbEntity
  8
0
 62
     0
100
AcDbLine
 10
38.69999999999163
 20
-394.1408983271649
 30
0.0
 11
224.9118229871875
 21
-269.9999999999982
 31
0.0
  0
LINE
  5
28ED
330
2D76
100
AcDbEntity
  8
0
 62
     0
100
AcDbLine
 10
-254.500000000009
 20
-589.6070658649168
 30
0.0
 11
38.699999999988
 21
-394.1408983271667
 31
0.0
  0
LINE
  5
28EE
330
2D76
100
AcDbEntity
  8
0
 62
     0
100
AcDbLine
 10
38.69999999998981
 20
-391.1409317917514
 30
0.0
 11
220.4118616932974
 21
-270.0000000000018
 31
0.0
  0
LINE
  5
28EF
330
2D76
100
AcDbEntity
  8
0
 62
     0
100
AcDbLine
 10
-254.500000000009
 20
-586.6070993295012
 30
0.0
 11
38.69999999998981
 21
-391.1409317917514
 31
0.0
  0
LINE
  5
28F0
330
2D76
100
AcDbEntity
  8
0
 62
     0
100
AcDbLine
 10
38.69999999999163
 20
-388.1409652563325
 30
0.0
 11
215.9119003994165
 21
-270.0
 31
0.0
  0
LINE
  5
28F1
330
2D76
100
AcDbEntity
  8
0
 62
     0
100
AcDbLine
 10
-254.500000000009
 20
-583.6071327940864
 30
0.0
 11
38.69999999999163
 21
-388.1409652563325
 31
0.0
  0
LINE
  5
28F2
330
2D76
100
AcDbEntity
  8
0
 62
     0
100
AcDbLine
 10
38.69999999998981
 20
-385.140998720919
 30
0.0
 11
211.4119391055283
 21
-270.0
 31
0.0
  0
LINE
  5
28F3
330
2D76
100
AcDbEntity
  8
0
 62
     0
100
AcDbLine
 10
-254.500000000009
 20
-580.6071662586689
 30
0.0
 11
38.69999999998981
 21
-385.140998720919
 31
0.0
  0
LINE
  5
28F4
330
2D76
100
AcDbEntity
  8
0
 62
     0
100
AcDbLine
 10
38.69999999998981
 20
-382.1410321855018
 30
0.0
 11
206.9119778116437
 21
-269.9999999999982
 31
0.0
  0
LINE
  5
28F5
330
2D76
100
AcDbEntity
  8
0
 62
     0
100
AcDbLine
 10
-254.5000000000109
 20
-577.6071997232539
 30
0.0
 11
38.69999999998981
 21
-382.1410321855018
 31
0.0
  0
LINE
  5
28F6
330
2D76
100
AcDbEntity
  8
0
 62
     0
100
AcDbLine
 10
38.69999999998981
 20
-379.1410656500866
 30
0.0
 11
202.4120165177555
 21
-270.0000000000018
 31
0.0
  0
LINE
  5
28F7
330
2D76
100
AcDbEntity
  8
0
 62
     0
100
AcDbLine
 10
-254.500000000009
 20
-574.6072331878367
 30
0.0
 11
38.69999999998981
 21
-379.1410656500866
 31
0.0
  0
LINE
  5
28F8
330
2D76
100
AcDbEntity
  8
0
 62
     0
100
AcDbLine
 10
38.69999999999163
 20
-376.1410991146695
 30
0.0
 11
197.9120552238746
 21
-270.0
 31
0.0
  0
LINE
  5
28F9
330
2D76
100
AcDbEntity
  8
0
 62
     0
100
AcDbLine
 10
-254.500000000009
 20
-571.6072666524212
 30
0.0
 11
38.69999999999163
 21
-376.1410991146695
 31
0.0
  0
LINE
  5
28FA
330
2D76
100
AcDbEntity
  8
0
 62
     0
100
AcDbLine
 10
38.69999999999163
 20
-373.1411325792524
 30
0.0
 11
193.4120939299864
 21
-270.0000000000018
 31
0.0
  0
LINE
  5
28FB
330
2D76
100
AcDbEntity
  8
0
 62
     0
100
AcDbLine
 10
-254.500000000009
 20
-568.6073001170061
 30
0.0
 11
38.69999999998981
 21
-373.141132579256
 31
0.0
  0
LINE
  5
28FC
330
2D76
100
AcDbEntity
  8
0
 62
     0
100
AcDbLine
 10
38.69999999998981
 20
-370.1411660438371
 30
0.0
 11
188.9121326361
 21
-270.0
 31
0.0
  0
LINE
  5
28FD
330
2D76
100
AcDbEntity
  8
0
 62
     0
100
AcDbLine
 10
-254.5000000000073
 20
-565.6073335815872
 30
0.0
 11
38.69999999998981
 21
-370.1411660438371
 31
0.0
  0
LINE
  5
28FE
330
2D76
100
AcDbEntity
  8
0
 62
     0
100
AcDbLine
 10
38.69999999999163
 20
-367.1411995084218
 30
0.0
 11
184.4121713422136
 21
-270.0000000000018
 31
0.0
  0
LINE
  5
28FF
330
2D76
100
AcDbEntity
  8
0
 62
     0
100
AcDbLine
 10
-254.500000000009
 20
-562.6073670461737
 30
0.0
 11
38.69999999999163
 21
-367.1411995084218
 31
0.0
  0
LINE
  5
2900
330
2D76
100
AcDbEntity
  8
0
 62
     0
100
AcDbLine
 10
38.69999999999345
 20
-364.1412329730028
 30
0.0
 11
179.9122100483309
 21
-270.0
 31
0.0
  0
LINE
  5
2901
330
2D76
100
AcDbEntity
  8
0
 62
     0
100
AcDbLine
 10
-254.5000000000073
 20
-559.6074005107547
 30
0.0
 11
38.69999999998981
 21
-364.1412329730048
 31
0.0
  0
LINE
  5
2902
330
2D76
100
AcDbEntity
  8
0
 62
     0
100
AcDbLine
 10
38.69999999999345
 20
-361.1412664375877
 30
0.0
 11
175.4122487544426
 21
-270.0000000000018
 31
0.0
  0
LINE
  5
2903
330
2D76
100
AcDbEntity
  8
0
 62
     0
100
AcDbLine
 10
-254.5000000000109
 20
-556.6074339753412
 30
0.0
 11
38.69999999998981
 21
-361.1412664375894
 31
0.0
  0
LINE
  5
2904
330
2D76
100
AcDbEntity
  8
0
 62
     0
100
AcDbLine
 10
38.69999999999345
 20
-358.1412999021704
 30
0.0
 11
170.9122874605582
 21
-270.0000000000018
 31
0.0
  0
LINE
  5
2905
330
2D76
100
AcDbEntity
  8
0
 62
     0
100
AcDbLine
 10
-254.5000000000073
 20
-553.6074674399221
 30
0.0
 11
38.69999999998981
 21
-358.1412999021722
 31
0.0
  0
LINE
  5
2906
330
2D76
100
AcDbEntity
  8
0
 62
     0
100
AcDbLine
 10
38.69999999999528
 20
-355.1413333667533
 30
0.0
 11
166.4123261666737
 21
-270.0
 31
0.0
  0
LINE
  5
2907
330
2D76
100
AcDbEntity
  8
0
 62
     0
100
AcDbLine
 10
-254.500000000009
 20
-550.6075009045071
 30
0.0
 11
38.69999999999163
 21
-355.1413333667551
 31
0.0
  0
LINE
  5
2908
330
2D76
100
AcDbEntity
  8
0
 62
     0
100
AcDbLine
 10
38.69999999999345
 20
-352.1413668313397
 30
0.0
 11
161.9123648727891
 21
-270.0
 31
0.0
  0
LINE
  5
2909
330
2D76
100
AcDbEntity
  8
0
 62
     0
100
AcDbLine
 10
-254.5000000000073
 20
-547.6075343690918
 30
0.0
 11
38.69999999998981
 21
-352.1413668313416
 31
0.0
  0
LINE
  5
290A
330
2D76
100
AcDbEntity
  8
0
 62
     0
100
AcDbLine
 10
38.69999999999345
 20
-349.1414002959209
 30
0.0
 11
157.4124035789008
 21
-270.0
 31
0.0
  0
LINE
  5
290B
330
2D76
100
AcDbEntity
  8
0
 62
     0
100
AcDbLine
 10
-254.5000000000109
 20
-544.6075678336746
 30
0.0
 11
38.69999999998981
 21
-349.1414002959228
 31
0.0
  0
LINE
  5
290C
330
2D76
100
AcDbEntity
  8
0
 62
     0
100
AcDbLine
 10
38.69999999999528
 20
-346.1414337605056
 30
0.0
 11
152.9124422850163
 21
-270.0000000000018
 31
0.0
  0
LINE
  5
290D
330
2D76
100
AcDbEntity
  8
0
 62
     0
100
AcDbLine
 10
-254.5000000000073
 20
-541.6076012982594
 30
0.0
 11
38.69999999998981
 21
-346.1414337605092
 31
0.0
  0
LINE
  5
290E
330
2D76
100
AcDbEntity
  8
0
 62
     0
100
AcDbLine
 10
38.69999999999345
 20
-343.1414672250885
 30
0.0
 11
148.4124809911318
 21
-270.0
 31
0.0
  0
LINE
  5
290F
330
2D76
100
AcDbEntity
  8
0
 62
     0
100
AcDbLine
 10
-254.5000000000109
 20
-538.6076347628439
 30
0.0
 11
38.69999999998981
 21
-343.1414672250903
 31
0.0
  0
LINE
  5
2910
330
2D76
100
AcDbEntity
  8
0
 62
     0
100
AcDbLine
 10
38.69999999999345
 20
-340.1415006896732
 30
0.0
 11
143.9125196972454
 21
-270.0
 31
0.0
  0
LINE
  5
2911
330
2D76
100
AcDbEntity
  8
0
 62
     0
100
AcDbLine
 10
-254.500000000009
 20
-535.6076682274268
 30
0.0
 11
38.699999999988
 21
-340.1415006896769
 31
0.0
  0
LINE
  5
2912
330
2D76
100
AcDbEntity
  8
0
 62
     0
100
AcDbLine
 10
38.69999999999345
 20
-337.1415341542579
 30
0.0
 11
139.412558403359
 21
-270.0
 31
0.0
  0
LINE
  5
2913
330
2D76
100
AcDbEntity
  8
0
 62
     0
100
AcDbLine
 10
-254.5000000000073
 20
-532.6077016920096
 30
0.0
 11
38.69999999998981
 21
-337.1415341542597
 31
0.0
  0
LINE
  5
2914
330
2D76
100
AcDbEntity
  8
0
 62
     0
100
AcDbLine
 10
38.69999999999345
 20
-334.1415676188408
 30
0.0
 11
134.9125971094727
 21
-270.0000000000018
 31
0.0
  0
LINE
  5
2915
330
2D76
100
AcDbEntity
  8
0
 62
     0
100
AcDbLine
 10
-254.500000000009
 20
-529.6077351565943
 30
0.0
 11
38.69999999999163
 21
-334.1415676188426
 31
0.0
  0
LINE
  5
2916
330
2D76
100
AcDbEntity
  8
0
 62
     0
100
AcDbLine
 10
38.69999999999163
 20
-331.1416010834255
 30
0.0
 11
130.412635815588
 21
-270.0
 31
0.0
  0
LINE
  5
2917
330
2D76
100
AcDbEntity
  8
0
 62
     0
100
AcDbLine
 10
-254.500000000009
 20
-526.6077686211775
 30
0.0
 11
38.699999999988
 21
-331.1416010834273
 31
0.0
  0
LINE
  5
2918
330
2D76
100
AcDbEntity
  8
0
 62
     0
100
AcDbLine
 10
38.69999999999345
 20
-328.1416345480084
 30
0.0
 11
125.9126745216999
 21
-270.0000000000037
 31
0.0
  0
LINE
  5
2919
330
2D76
100
AcDbEntity
  8
0
 62
     0
100
AcDbLine
 10
-254.500000000009
 20
-523.607802085762
 30
0.0
 11
38.69999999999163
 21
-328.1416345480102
 31
0.0
  0
LINE
  5
291A
330
2D76
100
AcDbEntity
  8
0
 62
     0
100
AcDbLine
 10
38.69999999999345
 20
-325.1416680125931
 30
0.0
 11
121.4127132278172
 21
-270.0
 31
0.0
  0
LINE
  5
291B
330
2D76
100
AcDbEntity
  8
0
 62
     0
100
AcDbLine
 10
-254.5000000000073
 20
-520.6078355503448
 30
0.0
 11
38.69999999998981
 21
-325.1416680125949
 31
0.0
  0
LINE
  5
291C
330
2D76
100
AcDbEntity
  8
0
 62
     0
100
AcDbLine
 10
38.69999999999345
 20
-322.141701477176
 30
0.0
 11
116.9127519339308
 21
-270.0000000000018
 31
0.0
  0
LINE
  5
291D
330
2D76
100
AcDbEntity
  8
0
 62
     0
100
AcDbLine
 10
-254.500000000009
 20
-517.6078690149314
 30
0.0
 11
38.69999999999163
 21
-322.1417014771796
 31
0.0
  0
LINE
  5
291E
330
2D76
100
AcDbEntity
  8
0
 62
     0
100
AcDbLine
 10
38.69999999999528
 20
-319.1417349417589
 30
0.0
 11
112.4127906400463
 21
-270.0
 31
0.0
  0
LINE
  5
291F
330
2D76
100
AcDbEntity
  8
0
 62
     0
100
AcDbLine
 10
-254.500000000009
 20
-514.6079024795126
 30
0.0
 11
38.699999999988
 21
-319.1417349417625
 31
0.0
  0
LINE
  5
2920
330
2D76
100
AcDbEntity
  8
0
 62
     0
100
AcDbLine
 10
38.69999999999345
 20
-316.1417684063435
 30
0.0
 11
107.9128293461617
 21
-270.0
 31
0.0
  0
LINE
  5
2921
330
2D76
100
AcDbEntity
  8
0
 62
     0
100
AcDbLine
 10
-254.5000000000073
 20
-511.6079359440955
 30
0.0
 11
38.69999999999163
 21
-316.1417684063454
 31
0.0
  0
LINE
  5
2922
330
2D76
100
AcDbEntity
  8
0
 62
     0
100
AcDbLine
 10
38.69999999999528
 20
-313.1418018709264
 30
0.0
 11
103.4128680522735
 21
-270.0000000000018
 31
0.0
  0
LINE
  5
2923
330
2D76
100
AcDbEntity
  8
0
 62
     0
100
AcDbLine
 10
-254.500000000009
 20
-508.6079694086802
 30
0.0
 11
38.69999999999163
 21
-313.1418018709283
 31
0.0
  0
LINE
  5
2924
330
2D76
100
AcDbEntity
  8
0
 62
     0
100
AcDbLine
 10
38.69999999999163
 20
-310.1418353355111
 30
0.0
 11
98.9129067583908
 21
-269.9999999999982
 31
0.0
  0
LINE
  5
2925
330
2D76
100
AcDbEntity
  8
0
 62
     0
100
AcDbLine
 10
-254.500000000009
 20
-505.6080028732631
 30
0.0
 11
38.69999999998981
 21
-310.1418353355129
 31
0.0
  0
LINE
  5
2926
330
2D76
100
AcDbEntity
  8
0
 62
     0
100
AcDbLine
 10
38.69999999999528
 20
-307.141868800094
 30
0.0
 11
94.41294546450263
 21
-270.0000000000018
 31
0.0
  0
LINE
  5
2927
330
2D76
100
AcDbEntity
  8
0
 62
     0
100
AcDbLine
 10
-254.500000000009
 20
-502.6080363378496
 30
0.0
 11
38.69999999999163
 21
-307.1418688000977
 31
0.0
  0
LINE
  5
2928
330
2D76
100
AcDbEntity
  8
0
 62
     0
100
AcDbLine
 10
38.69999999999345
 20
-304.1419022646788
 30
0.0
 11
89.91298417061987
 21
-270.0
 31
0.0
  0
LINE
  5
2929
330
2D76
100
AcDbEntity
  8
0
 62
     0
100
AcDbLine
 10
-254.5000000000073
 20
-499.6080698024305
 30
0.0
 11
38.69999999999163
 21
-304.1419022646806
 31
0.0
  0
LINE
  5
292A
330
2D76
100
AcDbEntity
  8
0
 62
     0
100
AcDbLine
 10
38.69999999999528
 20
-301.1419357292634
 30
0.0
 11
85.41302287673351
 21
-270.0000000000018
 31
0.0
  0
LINE
  5
292B
330
2D76
100
AcDbEntity
  8
0
 62
     0
100
AcDbLine
 10
-254.500000000009
 20
-496.6081032670172
 30
0.0
 11
38.69999999999163
 21
-301.1419357292652
 31
0.0
  0
LINE
  5
292C
330
2D76
100
AcDbEntity
  8
0
 62
     0
100
AcDbLine
 10
38.69999999999528
 20
-298.1419691938445
 30
0.0
 11
80.91306158284893
 21
-270.0
 31
0.0
  0
LINE
  5
292D
330
2D76
100
AcDbEntity
  8
0
 62
     0
100
AcDbLine
 10
-254.500000000009
 20
-493.6081367315982
 30
0.0
 11
38.69999999998981
 21
-298.1419691938481
 31
0.0
  0
LINE
  5
292E
330
2D76
100
AcDbEntity
  8
0
 62
     0
100
AcDbLine
 10
38.69999999999345
 20
-295.142002658431
 30
0.0
 11
76.41310028896076
 21
-270.0000000000037
 31
0.0
  0
LINE
  5
292F
330
2D76
100
AcDbEntity
  8
0
 62
     0
100
AcDbLine
 10
-254.500000000009
 20
-490.6081701961849
 30
0.0
 11
38.69999999999163
 21
-295.1420026584328
 31
0.0
  0
LINE
  5
2930
330
2D76
100
AcDbEntity
  8
0
 62
     0
100
AcDbLine
 10
38.69999999999528
 20
-292.142036123012
 30
0.0
 11
71.91313899507624
 21
-270.0
 31
0.0
  0
LINE
  5
2931
330
2D76
100
AcDbEntity
  8
0
 62
     0
100
AcDbLine
 10
-254.500000000009
 20
-487.6082036607677
 30
0.0
 11
38.699999999988
 21
-292.1420361230175
 31
0.0
  0
LINE
  5
2932
330
2D76
100
AcDbEntity
  8
0
 62
     0
100
AcDbLine
 10
38.69999999999163
 20
-289.1420695875986
 30
0.0
 11
67.41317770118985
 21
-270.0000000000018
 31
0.0
  0
LINE
  5
2933
330
2D76
100
AcDbEntity
  8
0
 62
     0
100
AcDbLine
 10
-254.5000000000109
 20
-484.6082371253523
 30
0.0
 11
38.69999999998981
 21
-289.1420695876004
 31
0.0
  0
LINE
  5
2934
330
2D76
100
AcDbEntity
  8
0
 62
     0
100
AcDbLine
 10
38.69999999999528
 20
-286.1421030521815
 30
0.0
 11
62.91321640730346
 21
-270.0000000000018
 31
0.0
  0
LINE
  5
2935
330
2D76
100
AcDbEntity
  8
0
 62
     0
100
AcDbLine
 10
-254.500000000009
 20
-481.6082705899352
 30
0.0
 11
38.69999999999163
 21
-286.1421030521833
 31
0.0
  0
LINE
  5
2936
330
2D76
100
AcDbEntity
  8
0
 62
     0
100
AcDbLine
 10
38.69999999999345
 20
-283.1421365167662
 30
0.0
 11
58.41325511341892
 21
-270.0000000000037
 31
0.0
  0
LINE
  5
2937
330
2D76
100
AcDbEntity
  8
0
 62
     0
100
AcDbLine
 10
-254.5000000000054
 20
-478.6083040545181
 30
0.0
 11
38.69999999999163
 21
-283.142136516768
 31
0.0
  0
LINE
  5
2938
330
2D76
100
AcDbEntity
  8
0
 62
     0
100
AcDbLine
 10
38.69999999999345
 20
-280.1421699813491
 30
0.0
 11
53.91329381953255
 21
-270.0000000000018
 31
0.0
  0
LINE
  5
2939
330
2D76
100
AcDbEntity
  8
0
 62
     0
100
AcDbLine
 10
-254.5000000000109
 20
-475.6083375191026
 30
0.0
 11
38.69999999998981
 21
-280.1421699813508
 31
0.0
  0
LINE
  5
293A
330
2D76
100
AcDbEntity
  8
0
 62
     0
100
AcDbLine
 10
38.69999999999528
 20
-277.1422034459301
 30
0.0
 11
49.413332525648
 21
-270.0
 31
0.0
  0
LINE
  5
293B
330
2D76
100
AcDbEntity
  8
0
 62
     0
100
AcDbLine
 10
-254.500000000009
 20
-472.6083709836855
 30
0.0
 11
38.69999999998981
 21
-277.1422034459356
 31
0.0
  0
LINE
  5
293C
330
2D76
100
AcDbEntity
  8
0
 62
     0
100
AcDbLine
 10
38.69999999999528
 20
-274.1422369105166
 30
0.0
 11
44.91337123176164
 21
-270.0000000000018
 31
0.0
  0
LINE
  5
293D
330
2D76
100
AcDbEntity
  8
0
 62
     0
100
AcDbLine
 10
-254.500000000009
 20
-469.6084044482703
 30
0.0
 11
38.69999999999163
 21
-274.1422369105185
 31
0.0
  0
LINE
  5
293E
330
2D76
100
AcDbEntity
  8
0
 62
     0
100
AcDbLine
 10
38.69999999999528
 20
-271.1422703750995
 30
0.0
 11
40.41340993787708
 21
-270.0
 31
0.0
  0
LINE
  5
293F
330
2D76
100
AcDbEntity
  8
0
 62
     0
100
AcDbLine
 10
-254.500000000009
 20
-466.608437912853
 30
0.0
 11
38.69999999998981
 21
-271.1422703751032
 31
0.0
  0
LINE
  5
2940
330
2D76
100
AcDbEntity
  8
0
 62
     0
100
AcDbLine
 10
-254.5000000000109
 20
-463.6084713774379
 30
0.0
 11
35.91344864399071
 21
-270.0000000000018
 31
0.0
  0
LINE
  5
2941
330
2D76
100
AcDbEntity
  8
0
 62
     0
100
AcDbLine
 10
-254.500000000009
 20
-460.6085048420208
 30
0.0
 11
31.41348735010797
 21
-269.9999999999982
 31
0.0
  0
LINE
  5
2942
330
2D76
100
AcDbEntity
  8
0
 62
     0
100
AcDbLine
 10
-254.5000000000073
 20
-457.6085383066036
 30
0.0
 11
26.9135260562216
 21
-270.0
 31
0.0
  0
LINE
  5
2943
330
2D76
100
AcDbEntity
  8
0
 62
     0
100
AcDbLine
 10
-254.5000000000109
 20
-454.6085717711885
 30
0.0
 11
22.41356476233523
 21
-270.0
 31
0.0
  0
LINE
  5
2944
330
2D76
100
AcDbEntity
  8
0
 62
     0
100
AcDbLine
 10
-254.5000000000073
 20
-451.6086052357731
 30
0.0
 11
17.91360346844885
 21
-270.0000000000018
 31
0.0
  0
LINE
  5
2945
330
2D76
100
AcDbEntity
  8
0
 62
     0
100
AcDbLine
 10
-254.500000000009
 20
-448.608638700356
 30
0.0
 11
13.41364217456612
 21
-270.0
 31
0.0
  0
LINE
  5
2946
330
2D76
100
AcDbEntity
  8
0
 62
     0
100
AcDbLine
 10
-254.5000000000073
 20
-445.6086721649407
 30
0.0
 11
8.913680880676109
 21
-270.0000000000037
 31
0.0
  0
LINE
  5
2947
330
2D76
100
AcDbEntity
  8
0
 62
     0
100
AcDbLine
 10
-254.5000000000109
 20
-442.6087056295255
 30
0.0
 11
4.413719586793376
 21
-270.0
 31
0.0
  0
LINE
  5
2948
330
2D76
100
AcDbEntity
  8
0
 62
     0
100
AcDbLine
 10
-254.5000000000073
 20
-439.6087390941082
 30
0.0
 11
-0.0862417070929951
 21
-270.0000000000018
 31
0.0
  0
LINE
  5
2949
330
2D76
100
AcDbEntity
  8
0
 62
     0
100
AcDbLine
 10
-254.5000000000109
 20
-436.6087725586931
 30
0.0
 11
-4.586203000977548
 21
-270.0
 31
0.0
  0
LINE
  5
294A
330
2D76
100
AcDbEntity
  8
0
 62
     0
100
AcDbLine
 10
-254.500000000009
 20
-433.6088060232741
 30
0.0
 11
-9.08616429486392
 21
-270.0
 31
0.0
  0
LINE
  5
294B
330
2D76
100
AcDbEntity
  8
0
 62
     0
100
AcDbLine
 10
-254.5000000000109
 20
-430.6088394878607
 30
0.0
 11
-13.58612558874847
 21
-270.0000000000018
 31
0.0
  0
LINE
  5
294C
330
2D76
100
AcDbEntity
  8
0
 62
     0
100
AcDbLine
 10
-254.5000000000073
 20
-427.6088729524416
 30
0.0
 11
-18.0860868826312
 21
-269.9999999999982
 31
0.0
  0
LINE
  5
294D
330
2D76
100
AcDbEntity
  8
0
 62
     0
100
AcDbLine
 10
-254.5000000000073
 20
-424.6089064170264
 30
0.0
 11
-22.5860481765194
 21
-270.0
 31
0.0
  0
LINE
  5
294E
330
2D76
100
AcDbEntity
  8
0
 62
     0
100
AcDbLine
 10
-254.500000000009
 20
-421.6089398816111
 30
0.0
 11
-27.08600947040577
 21
-270.0
 31
0.0
  0
LINE
  5
294F
330
2D76
100
AcDbEntity
  8
0
 62
     0
100
AcDbLine
 10
-254.5000000000073
 20
-418.608973346194
 30
0.0
 11
-31.58597076429032
 21
-270.0000000000018
 31
0.0
  0
LINE
  5
2950
330
2D76
100
AcDbEntity
  8
0
 62
     0
100
AcDbLine
 10
-254.500000000009
 20
-415.6090068107785
 30
0.0
 11
-36.08593205817488
 21
-269.9999999999982
 31
0.0
  0
LINE
  5
2951
330
2D76
100
AcDbEntity
  8
0
 62
     0
100
AcDbLine
 10
-254.500000000009
 20
-412.6090402753616
 30
0.0
 11
-40.58589335206124
 21
-270.0
 31
0.0
  0
LINE
  5
2952
330
2D76
100
AcDbEntity
  8
0
 62
     0
100
AcDbLine
 10
-254.500000000009
 20
-409.6090737399462
 30
0.0
 11
-45.0858546459476
 21
-270.0
 31
0.0
  0
LINE
  5
2953
330
2D76
100
AcDbEntity
  8
0
 62
     0
100
AcDbLine
 10
-254.5000000000073
 20
-406.6091072045311
 30
0.0
 11
-49.58581593983217
 21
-270.0000000000018
 31
0.0
  0
LINE
  5
2954
330
2D76
100
AcDbEntity
  8
0
 62
     0
100
AcDbLine
 10
-254.500000000009
 20
-403.609140669112
 30
0.0
 11
-54.08577723371855
 21
-270.0
 31
0.0
  0
LINE
  5
2955
330
2D76
100
AcDbEntity
  8
0
 62
     0
100
AcDbLine
 10
-254.500000000009
 20
-400.6091741336986
 30
0.0
 11
-58.5857385276031
 21
-270.0000000000018
 31
0.0
  0
LINE
  5
2956
330
2D76
100
AcDbEntity
  8
0
 62
     0
100
AcDbLine
 10
-254.5000000000073
 20
-397.6092075982797
 30
0.0
 11
-63.08569982148947
 21
-270.0
 31
0.0
  0
LINE
  5
2957
330
2D76
100
AcDbEntity
  8
0
 62
     0
100
AcDbLine
 10
-254.500000000009
 20
-394.6092410628644
 30
0.0
 11
-67.58566111537584
 21
-270.0
 31
0.0
  0
LINE
  5
2958
330
2D76
100
AcDbEntity
  8
0
 62
     0
100
AcDbLine
 10
-254.500000000009
 20
-391.609274527449
 30
0.0
 11
-72.08562240926038
 21
-270.0
 31
0.0
  0
LINE
  5
2959
330
2D76
100
AcDbEntity
  8
0
 62
     0
100
AcDbLine
 10
-254.500000000009
 20
-388.609307992032
 30
0.0
 11
-76.58558370314494
 21
-270.0
 31
0.0
  0
LINE
  5
295A
330
2D76
100
AcDbEntity
  8
0
 62
     0
100
AcDbLine
 10
-254.500000000009
 20
-385.6093414566167
 30
0.0
 11
-81.08554499703314
 21
-270.0000000000018
 31
0.0
  0
LINE
  5
295B
330
2D76
100
AcDbEntity
  8
0
 62
     0
100
AcDbLine
 10
-254.5000000000109
 20
-382.6093749211997
 30
0.0
 11
-85.58550629091771
 21
-269.9999999999982
 31
0.0
  0
LINE
  5
295C
330
2D76
100
AcDbEntity
  8
0
 62
     0
100
AcDbLine
 10
-254.500000000009
 20
-379.6094083857842
 30
0.0
 11
-90.08546758480223
 21
-270.0
 31
0.0
  0
LINE
  5
295D
330
2D76
100
AcDbEntity
  8
0
 62
     0
100
AcDbLine
 10
-254.500000000009
 20
-376.609441850369
 30
0.0
 11
-94.58542887868679
 21
-270.0
 31
0.0
  0
LINE
  5
295E
330
2D76
100
AcDbEntity
  8
0
 62
     0
100
AcDbLine
 10
-254.500000000009
 20
-373.6094753149519
 30
0.0
 11
-99.08539017257501
 21
-270.0000000000018
 31
0.0
  0
LINE
  5
295F
330
2D76
100
AcDbEntity
  8
0
 62
     0
100
AcDbLine
 10
-254.5000000000073
 20
-370.6095087795345
 30
0.0
 11
-103.5853514664577
 21
-270.0
 31
0.0
  0
LINE
  5
2960
330
2D76
100
AcDbEntity
  8
0
 62
     0
100
AcDbLine
 10
-254.500000000009
 20
-367.6095422441195
 30
0.0
 11
-108.085312760344
 21
-270.0
 31
0.0
  0
LINE
  5
2961
330
2D76
100
AcDbEntity
  8
0
 62
     0
100
AcDbLine
 10
-254.5000000000073
 20
-364.6095757087023
 30
0.0
 11
-112.5852740542304
 21
-270.0
 31
0.0
  0
LINE
  5
2962
330
2D76
100
AcDbEntity
  8
0
 62
     0
100
AcDbLine
 10
-254.5000000000109
 20
-361.6096091732889
 30
0.0
 11
-117.0852353481186
 21
-270.0000000000018
 31
0.0
  0
LINE
  5
2963
330
2D76
100
AcDbEntity
  8
0
 62
     0
100
AcDbLine
 10
-254.5000000000073
 20
-358.60964263787
 30
0.0
 11
-121.5851966419996
 21
-270.0
 31
0.0
  0
LINE
  5
2964
330
2D76
100
AcDbEntity
  8
0
 62
     0
100
AcDbLine
 10
-254.500000000009
 20
-355.6096761024546
 30
0.0
 11
-126.0851579358859
 21
-270.0
 31
0.0
  0
LINE
  5
2965
330
2D76
100
AcDbEntity
  8
0
 62
     0
100
AcDbLine
 10
-254.5000000000109
 20
-352.6097095670375
 30
0.0
 11
-130.585119229774
 21
-270.0
 31
0.0
  0
LINE
  5
2966
330
2D76
100
AcDbEntity
  8
0
 62
     0
100
AcDbLine
 10
-254.5000000000073
 20
-349.6097430316204
 30
0.0
 11
-135.0850805236605
 21
-270.0
 31
0.0
  0
LINE
  5
2967
330
2D76
100
AcDbEntity
  8
0
 62
     0
100
AcDbLine
 10
-254.500000000009
 20
-346.6097764962069
 30
0.0
 11
-139.5850418175414
 21
-270.0
 31
0.0
  0
LINE
  5
2968
330
2D76
100
AcDbEntity
  8
0
 62
     0
100
AcDbLine
 10
-254.5000000000073
 20
-343.609809960788
 30
0.0
 11
-144.0850031114296
 21
-270.0
 31
0.0
  0
LINE
  5
2969
330
2D76
100
AcDbEntity
  8
0
 62
     0
100
AcDbLine
 10
-254.5000000000109
 20
-340.6098434253745
 30
0.0
 11
-148.584964405316
 21
-270.0000000000018
 31
0.0
  0
LINE
  5
296A
330
2D76
100
AcDbEntity
  8
0
 62
     0
100
AcDbLine
 10
-254.5000000000073
 20
-337.6098768899556
 30
0.0
 11
-153.0849256991987
 21
-269.9999999999982
 31
0.0
  0
LINE
  5
296B
330
2D76
100
AcDbEntity
  8
0
 62
     0
100
AcDbLine
 10
-254.5000000000109
 20
-334.609910354542
 30
0.0
 11
-157.5848869930851
 21
-270.0
 31
0.0
  0
LINE
  5
296C
330
2D76
100
AcDbEntity
  8
0
 62
     0
100
AcDbLine
 10
-254.500000000009
 20
-331.6099438191232
 30
0.0
 11
-162.0848482869733
 21
-270.0
 31
0.0
  0
LINE
  5
296D
330
2D76
100
AcDbEntity
  8
0
 62
     0
100
AcDbLine
 10
-254.5000000000109
 20
-328.6099772837097
 30
0.0
 11
-166.5848095808578
 21
-270.0000000000018
 31
0.0
  0
LINE
  5
296E
330
2D76
100
AcDbEntity
  8
0
 62
     0
100
AcDbLine
 10
-254.5000000000073
 20
-325.6100107482926
 30
0.0
 11
-171.0847708747405
 21
-270.0
 31
0.0
  0
LINE
  5
296F
330
2D76
100
AcDbEntity
  8
0
 62
     0
100
AcDbLine
 10
-254.5000000000109
 20
-322.6100442128772
 30
0.0
 11
-175.5847321686269
 21
-270.0
 31
0.0
  0
LINE
  5
2970
330
2D76
100
AcDbEntity
  8
0
 62
     0
100
AcDbLine
 10
-254.500000000009
 20
-319.6100776774601
 30
0.0
 11
-180.0846934625151
 21
-270.0
 31
0.0
  0
LINE
  5
2971
330
2D76
100
AcDbEntity
  8
0
 62
     0
100
AcDbLine
 10
-254.5000000000073
 20
-316.6101111420431
 30
0.0
 11
-184.5846547563997
 21
-270.0000000000018
 31
0.0
  0
LINE
  5
2972
330
2D76
100
AcDbEntity
  8
0
 62
     0
100
AcDbLine
 10
-254.500000000009
 20
-313.6101446066277
 30
0.0
 11
-189.0846160502842
 21
-270.0
 31
0.0
  0
LINE
  5
2973
330
2D76
100
AcDbEntity
  8
0
 62
     0
100
AcDbLine
 10
-254.500000000009
 20
-310.6101780712106
 30
0.0
 11
-193.5845773441706
 21
-270.0
 31
0.0
  0
LINE
  5
2974
330
2D76
100
AcDbEntity
  8
0
 62
     0
100
AcDbLine
 10
-254.500000000009
 20
-307.6102115357953
 30
0.0
 11
-198.084538638057
 21
-270.0
 31
0.0
  0
LINE
  5
2975
330
2D76
100
AcDbEntity
  8
0
 62
     0
100
AcDbLine
 10
-254.5000000000073
 20
-304.6102450003782
 30
0.0
 11
-202.5844999319379
 21
-269.9999999999982
 31
0.0
  0
LINE
  5
2976
330
2D76
100
AcDbEntity
  8
0
 62
     0
100
AcDbLine
 10
-254.500000000009
 20
-301.6102784649629
 30
0.0
 11
-207.0844612258261
 21
-270.0
 31
0.0
  0
LINE
  5
2977
330
2D76
100
AcDbEntity
  8
0
 62
     0
100
AcDbLine
 10
-254.500000000009
 20
-298.6103119295457
 30
0.0
 11
-211.5844225197125
 21
-270.0
 31
0.0
  0
LINE
  5
2978
330
2D76
100
AcDbEntity
  8
0
 62
     0
100
AcDbLine
 10
-254.5000000000073
 20
-295.6103453941305
 30
0.0
 11
-216.0843838135988
 21
-270.0000000000018
 31
0.0
  0
LINE
  5
2979
330
2D76
100
AcDbEntity
  8
0
 62
     0
100
AcDbLine
 10
-254.500000000009
 20
-292.6103788587134
 30
0.0
 11
-220.5843451074816
 21
-269.9999999999982
 31
0.0
  0
LINE
  5
297A
330
2D76
100
AcDbEntity
  8
0
 62
     0
100
AcDbLine
 10
-254.500000000009
 20
-289.6104123232981
 30
0.0
 11
-225.0843064013697
 21
-270.0
 31
0.0
  0
LINE
  5
297B
330
2D76
100
AcDbEntity
  8
0
 62
     0
100
AcDbLine
 10
-254.500000000009
 20
-286.6104457878811
 30
0.0
 11
-229.5842676952543
 21
-270.0
 31
0.0
  0
LINE
  5
297C
330
2D76
100
AcDbEntity
  8
0
 62
     0
100
AcDbLine
 10
-254.5000000000073
 20
-283.6104792524657
 30
0.0
 11
-234.0842289891407
 21
-270.0000000000018
 31
0.0
  0
LINE
  5
297D
330
2D76
100
AcDbEntity
  8
0
 62
     0
100
AcDbLine
 10
-254.5000000000109
 20
-280.6105127170503
 30
0.0
 11
-238.5841902830252
 21
-270.0
 31
0.0
  0
LINE
  5
297E
330
2D76
100
AcDbEntity
  8
0
 62
     0
100
AcDbLine
 10
-254.500000000009
 20
-277.6105461816332
 30
0.0
 11
-243.0841515769116
 21
-270.0
 31
0.0
  0
LINE
  5
297F
330
2D76
100
AcDbEntity
  8
0
 62
     0
100
AcDbLine
 10
-254.500000000009
 20
-274.610579646218
 30
0.0
 11
-247.5841128707962
 21
-270.0
 31
0.0
  0
LINE
  5
2980
330
2D76
100
AcDbEntity
  8
0
 62
     0
100
AcDbLine
 10
-254.500000000009
 20
-271.610613110799
 30
0.0
 11
-252.0840741646825
 21
-270.0
 31
0.0
  0
ENDBLK
  5
2981
330
2D76
100
AcDbEntity
  8
0
100
AcDbBlockEnd
  0
BLOCK
  5
2D79
330
2D78
100
AcDbEntity
  8
0
100
AcDbBlockBegin
  2
*X71
 70
     1
 10
0.0
 20
0.0
 30
0.0
  3
*X71
  1

  0
LINE
  5
2984
330
2D78
100
AcDbEntity
  8
0
 62
     0
100
AcDbLine
 10
-254.5000000000018
 20
-683.7563416977825
 30
0.0
 11
-251.8845058679453
 21
-685.5000000000008
 31
0.0
  0
LINE
  5
2985
330
2D78
100
AcDbEntity
  8
0
 62
     0
100
AcDbLine
 10
-254.5000000000018
 20
-680.7563751623675
 30
0.0
 11
-247.384544574059
 21
-685.5000000000027
 31
0.0
  0
LINE
  5
2986
330
2D78
100
AcDbEntity
  8
0
 62
     0
100
AcDbLine
 10
-254.5000000000036
 20
-677.7564086269502
 30
0.0
 11
-242.884583280178
 21
-685.5
 31
0.0
  0
LINE
  5
2987
330
2D78
100
AcDbEntity
  8
0
 62
     0
100
AcDbLine
 10
-254.5000000000018
 20
-674.756442091536
 30
0.0
 11
-238.3846219862899
 21
-685.5000000000016
 31
0.0
  0
LINE
  5
2988
330
2D78
100
AcDbEntity
  8
0
 62
     0
100
AcDbLine
 10
-254.5000000000018
 20
-671.7564755561189
 30
0.0
 11
-233.8846606924035
 21
-685.5000000000016
 31
0.0
  0
LINE
  5
2989
330
2D78
100
AcDbEntity
  8
0
 62
     0
100
AcDbLine
 10
-254.5000000000018
 20
-668.7565090207035
 30
0.0
 11
-229.3846993985208
 21
-685.5000000000008
 31
0.0
  0
LINE
  5
298A
330
2D78
100
AcDbEntity
  8
0
 62
     0
100
AcDbLine
 10
-254.5000000000018
 20
-665.7565424852864
 30
0.0
 11
-224.8847381046344
 21
-685.5000000000008
 31
0.0
  0
LINE
  5
298B
330
2D78
100
AcDbEntity
  8
0
 62
     0
100
AcDbLine
 10
-254.5000000000018
 20
-662.7565759498702
 30
0.0
 11
-220.3847768107462
 21
-685.5000000000027
 31
0.0
  0
LINE
  5
298C
330
2D78
100
AcDbEntity
  8
0
 62
     0
100
AcDbLine
 10
-254.5000000000018
 20
-659.7566094144531
 30
0.0
 11
-215.8848155168616
 21
-685.5000000000016
 31
0.0
  0
LINE
  5
298D
330
2D78
100
AcDbEntity
  8
0
 62
     0
100
AcDbLine
 10
-254.5000000000036
 20
-656.7566428790387
 30
0.0
 11
-211.3848542229789
 21
-685.5000000000016
 31
0.0
  0
LINE
  5
298E
330
2D78
100
AcDbEntity
  8
0
 62
     0
100
AcDbLine
 10
-254.5000000000018
 20
-653.7566763436216
 30
0.0
 11
-206.8848929290889
 21
-685.5000000000036
 31
0.0
  0
LINE
  5
298F
330
2D78
100
AcDbEntity
  8
0
 62
     0
100
AcDbLine
 10
-254.5000000000018
 20
-650.7567098082064
 30
0.0
 11
-202.3849316352043
 21
-685.5000000000027
 31
0.0
  0
LINE
  5
2990
330
2D78
100
AcDbEntity
  8
0
 62
     0
100
AcDbLine
 10
-254.5000000000018
 20
-647.7567432727892
 30
0.0
 11
-197.8849703413197
 21
-685.5000000000027
 31
0.0
  0
LINE
  5
2991
330
2D78
100
AcDbEntity
  8
0
 62
     0
100
AcDbLine
 10
-254.5000000000018
 20
-644.756776737373
 30
0.0
 11
-193.3850090474352
 21
-685.5
 31
0.0
  0
LINE
  5
2992
330
2D78
100
AcDbEntity
  8
0
 62
     0
100
AcDbLine
 10
-254.5
 20
-641.7568102019576
 30
0.0
 11
-188.8850477535452
 21
-685.5000000000036
 31
0.0
  0
LINE
  5
2993
330
2D78
100
AcDbEntity
  8
0
 62
     0
100
AcDbLine
 10
-254.5000000000018
 20
-638.7568436665405
 30
0.0
 11
-184.3850864596625
 21
-685.5000000000008
 31
0.0
  0
LINE
  5
2994
330
2D78
100
AcDbEntity
  8
0
 62
     0
100
AcDbLine
 10
-254.5000000000036
 20
-635.7568771311242
 30
0.0
 11
-179.8851251657779
 21
-685.5000000000027
 31
0.0
  0
LINE
  5
2995
330
2D78
100
AcDbEntity
  8
0
 62
     0
100
AcDbLine
 10
-254.5
 20
-632.7569105957081
 30
0.0
 11
-175.3851638718915
 21
-685.5000000000008
 31
0.0
  0
LINE
  5
2996
330
2D78
100
AcDbEntity
  8
0
 62
     0
100
AcDbLine
 10
-254.5000000000018
 20
-629.7569440602916
 30
0.0
 11
-170.885202578007
 21
-685.5000000000016
 31
0.0
  0
LINE
  5
2997
330
2D78
100
AcDbEntity
  8
0
 62
     0
100
AcDbLine
 10
-254.5000000000036
 20
-626.7569775248756
 30
0.0
 11
-166.3852412841224
 21
-685.5000000000016
 31
0.0
  0
LINE
  5
2998
330
2D78
100
AcDbEntity
  8
0
 62
     0
100
AcDbLine
 10
-254.5000000000018
 20
-623.7570109894606
 30
0.0
 11
-161.8852799902379
 21
-685.5000000000008
 31
0.0
  0
LINE
  5
2999
330
2D78
100
AcDbEntity
  8
0
 62
     0
100
AcDbLine
 10
-254.5000000000018
 20
-620.7570444540432
 30
0.0
 11
-157.3853186963478
 21
-685.5000000000027
 31
0.0
  0
LINE
  5
299A
330
2D78
100
AcDbEntity
  8
0
 62
     0
100
AcDbLine
 10
-254.5000000000018
 20
-617.7570779186281
 30
0.0
 11
-152.8853574024651
 21
-685.5000000000027
 31
0.0
  0
LINE
  5
299B
330
2D78
100
AcDbEntity
  8
0
 62
     0
100
AcDbLine
 10
-254.5000000000018
 20
-614.7571113832109
 30
0.0
 11
-148.3853961085788
 21
-685.5000000000016
 31
0.0
  0
LINE
  5
299C
330
2D78
100
AcDbEntity
  8
0
 62
     0
100
AcDbLine
 10
-254.5
 20
-611.7571448477964
 30
0.0
 11
-143.8854348146942
 21
-685.5000000000016
 31
0.0
  0
LINE
  5
299D
330
2D78
100
AcDbEntity
  8
0
 62
     0
100
AcDbLine
 10
-254.5000000000018
 20
-608.7571783123792
 30
0.0
 11
-139.385473520806
 21
-685.5000000000036
 31
0.0
  0
LINE
  5
299E
330
2D78
100
AcDbEntity
  8
0
 62
     0
100
AcDbLine
 10
-254.5000000000018
 20
-605.7572117769623
 30
0.0
 11
-134.8855122269233
 21
-685.5000000000008
 31
0.0
  0
LINE
  5
299F
330
2D78
100
AcDbEntity
  8
0
 62
     0
100
AcDbLine
 10
-254.5000000000018
 20
-602.7572452415461
 30
0.0
 11
-130.3855509330369
 21
-685.5000000000027
 31
0.0
  0
LINE
  5
29A0
330
2D78
100
AcDbEntity
  8
0
 62
     0
100
AcDbLine
 10
-254.5000000000018
 20
-599.7572787061288
 30
0.0
 11
-125.8855896391524
 21
-685.5
 31
0.0
  0
LINE
  5
29A1
330
2D78
100
AcDbEntity
  8
0
 62
     0
100
AcDbLine
 10
-254.5000000000018
 20
-596.7573121707145
 30
0.0
 11
-121.385628345266
 21
-685.5000000000016
 31
0.0
  0
LINE
  5
29A2
330
2D78
100
AcDbEntity
  8
0
 62
     0
100
AcDbLine
 10
-254.5000000000018
 20
-593.7573456352975
 30
0.0
 11
-116.8856670513796
 21
-685.5000000000008
 31
0.0
  0
LINE
  5
29A3
330
2D78
100
AcDbEntity
  8
0
 62
     0
100
AcDbLine
 10
-254.5
 20
-590.7573790998823
 30
0.0
 11
-112.3857057574951
 21
-685.5000000000008
 31
0.0
  0
LINE
  5
29A4
330
2D78
100
AcDbEntity
  8
0
 62
     0
100
AcDbLine
 10
-254.5000000000018
 20
-587.7574125644647
 30
0.0
 11
-107.8857444636069
 21
-685.5000000000027
 31
0.0
  0
LINE
  5
29A5
330
2D78
100
AcDbEntity
  8
0
 62
     0
100
AcDbLine
 10
-254.5000000000018
 20
-584.7574460290495
 30
0.0
 11
-103.3857831697259
 21
-685.5000000000016
 31
0.0
  0
LINE
  5
29A6
330
2D78
100
AcDbEntity
  8
0
 62
     0
100
AcDbLine
 10
-254.5000000000018
 20
-581.7574794936335
 30
0.0
 11
-98.8858218758378
 21
-685.5000000000016
 31
0.0
  0
LINE
  5
29A7
330
2D78
100
AcDbEntity
  8
0
 62
     0
100
AcDbLine
 10
-254.5
 20
-578.7575129582181
 30
0.0
 11
-94.38586058195324
 21
-685.5000000000008
 31
0.0
  0
LINE
  5
29A8
330
2D78
100
AcDbEntity
  8
0
 62
     0
100
AcDbLine
 10
-254.5000000000036
 20
-575.7575464228001
 30
0.0
 11
-89.88589928806502
 21
-685.5000000000027
 31
0.0
  0
LINE
  5
29A9
330
2D78
100
AcDbEntity
  8
0
 62
     0
100
AcDbLine
 10
-254.5000000000018
 20
-572.7575798873847
 30
0.0
 11
-85.38593799418226
 21
-685.5000000000027
 31
0.0
  0
LINE
  5
29AA
330
2D78
100
AcDbEntity
  8
0
 62
     0
100
AcDbLine
 10
-254.5000000000018
 20
-569.7576133519677
 30
0.0
 11
-80.88597670029413
 21
-685.5000000000016
 31
0.0
  0
LINE
  5
29AB
330
2D78
100
AcDbEntity
  8
0
 62
     0
100
AcDbLine
 10
-254.5000000000018
 20
-566.7576468165507
 30
0.0
 11
-76.38601540641139
 21
-685.5
 31
0.0
  0
LINE
  5
29AC
330
2D78
100
AcDbEntity
  8
0
 62
     0
100
AcDbLine
 10
-254.5000000000036
 20
-563.7576802811362
 30
0.0
 11
-71.8860541125232
 21
-685.5000000000036
 31
0.0
  0
LINE
  5
29AD
330
2D78
100
AcDbEntity
  8
0
 62
     0
100
AcDbLine
 10
-254.5
 20
-560.7577137457192
 30
0.0
 11
-67.38609281863864
 21
-685.5000000000008
 31
0.0
  0
LINE
  5
29AE
330
2D78
100
AcDbEntity
  8
0
 62
     0
100
AcDbLine
 10
-254.5000000000018
 20
-557.7577472103039
 30
0.0
 11
-62.88613152475227
 21
-685.5000000000027
 31
0.0
  0
LINE
  5
29AF
330
2D78
100
AcDbEntity
  8
0
 62
     0
100
AcDbLine
 10
-254.5000000000018
 20
-554.7577806748868
 30
0.0
 11
-58.38617023086772
 21
-685.5000000000016
 31
0.0
  0
LINE
  5
29B0
330
2D78
100
AcDbEntity
  8
0
 62
     0
100
AcDbLine
 10
-254.5000000000018
 20
-551.7578141394714
 30
0.0
 11
-53.88620893698316
 21
-685.5000000000016
 31
0.0
  0
LINE
  5
29B1
330
2D78
100
AcDbEntity
  8
0
 62
     0
100
AcDbLine
 10
-254.5000000000018
 20
-548.7578476040543
 30
0.0
 11
-49.38624764309679
 21
-685.5000000000016
 31
0.0
  0
LINE
  5
29B2
330
2D78
100
AcDbEntity
  8
0
 62
     0
100
AcDbLine
 10
-254.5000000000018
 20
-545.75788106864
 30
0.0
 11
-44.88628634921406
 21
-685.5000000000008
 31
0.0
  0
LINE
  5
29B3
330
2D78
100
AcDbEntity
  8
0
 62
     0
100
AcDbLine
 10
-254.5000000000018
 20
-542.7579145332215
 30
0.0
 11
-40.38632505532405
 21
-685.5000000000027
 31
0.0
  0
LINE
  5
29B4
330
2D78
100
AcDbEntity
  8
0
 62
     0
100
AcDbLine
 10
-254.5
 20
-539.7579479978067
 30
0.0
 11
-35.88636376143949
 21
-685.5000000000016
 31
0.0
  0
LINE
  5
29B5
330
2D78
100
AcDbEntity
  8
0
 62
     0
100
AcDbLine
 10
-254.5000000000018
 20
-536.7579814623895
 30
0.0
 11
-31.38640246755495
 21
-685.5000000000016
 31
0.0
  0
LINE
  5
29B6
330
2D78
100
AcDbEntity
  8
0
 62
     0
100
AcDbLine
 10
-254.5000000000018
 20
-533.7580149269752
 30
0.0
 11
-26.88644117367221
 21
-685.5000000000008
 31
0.0
  0
LINE
  5
29B7
330
2D78
100
AcDbEntity
  8
0
 62
     0
100
AcDbLine
 10
-254.5000000000018
 20
-530.7580483915582
 30
0.0
 11
-22.3864798797822
 21
-685.5000000000027
 31
0.0
  0
LINE
  5
29B8
330
2D78
100
AcDbEntity
  8
0
 62
     0
100
AcDbLine
 10
-254.5
 20
-527.7580818561408
 30
0.0
 11
-17.88651858589765
 21
-685.5000000000008
 31
0.0
  0
LINE
  5
29B9
330
2D78
100
AcDbEntity
  8
0
 62
     0
100
AcDbLine
 10
-254.5000000000018
 20
-524.7581153207256
 30
0.0
 11
-13.38655729201309
 21
-685.5000000000016
 31
0.0
  0
LINE
  5
29BA
330
2D78
100
AcDbEntity
  8
0
 62
     0
100
AcDbLine
 10
-254.5
 20
-521.7581487853085
 30
0.0
 11
-8.886595998124899
 21
-685.5000000000016
 31
0.0
  0
LINE
  5
29BB
330
2D78
100
AcDbEntity
  8
0
 62
     0
100
AcDbLine
 10
-254.5
 20
-518.758182249894
 30
0.0
 11
-4.386634704242168
 21
-685.5000000000008
 31
0.0
  0
LINE
  5
29BC
330
2D78
100
AcDbEntity
  8
0
 62
     0
100
AcDbLine
 10
-254.5000000000018
 20
-515.7582157144761
 30
0.0
 11
0.1133265896442026
 21
-685.5000000000008
 31
0.0
  0
LINE
  5
29BD
330
2D78
100
AcDbEntity
  8
0
 62
     0
100
AcDbLine
 10
-254.5000000000036
 20
-512.7582491790608
 30
0.0
 11
4.613287883526933
 21
-685.5000000000008
 31
0.0
  0
LINE
  5
29BE
330
2D78
100
AcDbEntity
  8
0
 62
     0
100
AcDbLine
 10
-254.5
 20
-509.7582826436437
 30
0.0
 11
9.113249177418763
 21
-685.5000000000016
 31
0.0
  0
LINE
  5
29BF
330
2D78
100
AcDbEntity
  8
0
 62
     0
100
AcDbLine
 10
-254.5000000000018
 20
-506.7583161082283
 30
0.0
 11
13.61321047129968
 21
-685.5000000000016
 31
0.0
  0
LINE
  5
29C0
330
2D78
100
AcDbEntity
  8
0
 62
     0
100
AcDbLine
 10
-254.5000000000018
 20
-503.7583495728112
 30
0.0
 11
18.11317176518605
 21
-685.5000000000016
 31
0.0
  0
LINE
  5
29C1
330
2D78
100
AcDbEntity
  8
0
 62
     0
100
AcDbLine
 10
-254.5000000000018
 20
-500.7583830373969
 30
0.0
 11
22.61313305906879
 21
-685.5000000000008
 31
0.0
  0
LINE
  5
29C2
330
2D78
100
AcDbEntity
  8
0
 62
     0
100
AcDbLine
 10
-254.5
 20
-497.7584165019798
 30
0.0
 11
27.11309435296062
 21
-685.5000000000027
 31
0.0
  0
LINE
  5
29C3
330
2D78
100
AcDbEntity
  8
0
 62
     0
100
AcDbLine
 10
-254.5000000000018
 20
-494.7584499665633
 30
0.0
 11
31.61305564684153
 21
-685.5000000000016
 31
0.0
  0
LINE
  5
29C4
330
2D78
100
AcDbEntity
  8
0
 62
     0
100
AcDbLine
 10
-254.5
 20
-491.7584834311472
 30
0.0
 11
36.11301694072972
 21
-685.5000000000016
 31
0.0
  0
LINE
  5
29C5
330
2D78
100
AcDbEntity
  8
0
 62
     0
100
AcDbLine
 10
-254.5
 20
-488.7585168957294
 30
0.0
 11
40.61297823461609
 21
-685.5000000000016
 31
0.0
  0
LINE
  5
29C6
330
2D78
100
AcDbEntity
  8
0
 62
     0
100
AcDbLine
 10
-254.5000000000018
 20
-485.7585503603147
 30
0.0
 11
45.11293952850063
 21
-685.5000000000027
 31
0.0
  0
LINE
  5
29C7
330
2D78
100
AcDbEntity
  8
0
 62
     0
100
AcDbLine
 10
-254.5000000000018
 20
-482.7585838248976
 30
0.0
 11
49.61290082238338
 21
-685.5000000000008
 31
0.0
  0
LINE
  5
29C8
330
2D78
100
AcDbEntity
  8
0
 62
     0
100
AcDbLine
 10
-254.4999999999982
 20
-479.7586172894844
 30
0.0
 11
54.11286211627157
 21
-685.5000000000016
 31
0.0
  0
LINE
  5
29C9
330
2D78
100
AcDbEntity
  8
0
 62
     0
100
AcDbLine
 10
-254.4999999999982
 20
-476.7586507540671
 30
0.0
 11
58.61282341015794
 21
-685.5000000000016
 31
0.0
  0
LINE
  5
29CA
330
2D78
100
AcDbEntity
  8
0
 62
     0
100
AcDbLine
 10
-254.4999999999982
 20
-473.7586842186527
 30
0.0
 11
63.11278470404068
 21
-685.5000000000016
 31
0.0
  0
LINE
  5
29CB
330
2D78
100
AcDbEntity
  8
0
 62
     0
100
AcDbLine
 10
-254.4999999999982
 20
-470.7587176832356
 30
0.0
 11
67.61274599792705
 21
-685.5000000000008
 31
0.0
  0
LINE
  5
29CC
330
2D78
100
AcDbEntity
  8
0
 62
     0
100
AcDbLine
 10
-254.4999999999963
 20
-467.7587511478201
 30
0.0
 11
72.11270729181156
 21
-685.5000000000008
 31
0.0
  0
LINE
  5
29CD
330
2D78
100
AcDbEntity
  8
0
 62
     0
100
AcDbLine
 10
-254.4999999999982
 20
-464.7587846124033
 30
0.0
 11
76.61266858569979
 21
-685.5000000000027
 31
0.0
  0
LINE
  5
29CE
330
2D78
100
AcDbEntity
  8
0
 62
     0
100
AcDbLine
 10
-254.5
 20
-461.7588180769871
 30
0.0
 11
81.11262987958253
 21
-685.5000000000016
 31
0.0
  0
LINE
  5
29CF
330
2D78
100
AcDbEntity
  8
0
 62
     0
100
AcDbLine
 10
-254.4999999999982
 20
-458.7588515415718
 30
0.0
 11
85.61259117346891
 21
-685.5000000000016
 31
0.0
  0
LINE
  5
29D0
330
2D78
100
AcDbEntity
  8
0
 62
     0
100
AcDbLine
 10
-254.4999999999982
 20
-455.7588850061556
 30
0.0
 11
90.11255246735707
 21
-685.5000000000027
 31
0.0
  0
LINE
  5
29D1
330
2D78
100
AcDbEntity
  8
0
 62
     0
100
AcDbLine
 10
-254.4999999999982
 20
-452.7589184707385
 30
0.0
 11
94.61251376124165
 21
-685.5000000000027
 31
0.0
  0
LINE
  5
29D2
330
2D78
100
AcDbEntity
  8
0
 62
     0
100
AcDbLine
 10
-254.4999999999982
 20
-449.7589519353232
 30
0.0
 11
99.11247505512621
 21
-685.5000000000016
 31
0.0
  0
LINE
  5
29D3
330
2D78
100
AcDbEntity
  8
0
 62
     0
100
AcDbLine
 10
-254.4999999999963
 20
-446.7589853999061
 30
0.0
 11
103.6124363490125
 21
-685.5000000000016
 31
0.0
  0
LINE
  5
29D4
330
2D78
100
AcDbEntity
  8
0
 62
     0
100
AcDbLine
 10
-254.4999999999982
 20
-443.7590188644889
 30
0.0
 11
108.112397642897
 21
-685.5000000000016
 31
0.0
  0
LINE
  5
29D5
330
2D78
100
AcDbEntity
  8
0
 62
     0
100
AcDbLine
 10
-254.4999999999982
 20
-440.7590523290743
 30
0.0
 11
112.6123589367798
 21
-685.5000000000008
 31
0.0
  0
LINE
  5
29D6
330
2D78
100
AcDbEntity
  8
0
 62
     0
100
AcDbLine
 10
-254.4999999999963
 20
-437.7590857936572
 30
0.0
 11
117.1123202306698
 21
-685.5000000000008
 31
0.0
  0
LINE
  5
29D7
330
2D78
100
AcDbEntity
  8
0
 62
     0
100
AcDbLine
 10
-254.4999999999963
 20
-434.7591192582422
 30
0.0
 11
121.6122815245544
 21
-685.5000000000027
 31
0.0
  0
LINE
  5
29D8
330
2D78
100
AcDbEntity
  8
0
 62
     0
100
AcDbLine
 10
-254.4999999999982
 20
-431.7591527228251
 30
0.0
 11
126.112242818439
 21
-685.5000000000016
 31
0.0
  0
LINE
  5
29D9
330
2D78
100
AcDbEntity
  8
0
 62
     0
100
AcDbLine
 10
-254.4999999999982
 20
-428.7591861874089
 30
0.0
 11
130.6122041123235
 21
-685.5000000000016
 31
0.0
  0
LINE
  5
29DA
330
2D78
100
AcDbEntity
  8
0
 62
     0
100
AcDbLine
 10
-254.4999999999982
 20
-425.7592196519927
 30
0.0
 11
135.1121654062117
 21
-685.5000000000008
 31
0.0
  0
LINE
  5
29DB
330
2D78
100
AcDbEntity
  8
0
 62
     0
100
AcDbLine
 10
-254.4999999999982
 20
-422.7592531165774
 30
0.0
 11
139.6121267000962
 21
-685.5000000000027
 31
0.0
  0
LINE
  5
29DC
330
2D78
100
AcDbEntity
  8
0
 62
     0
100
AcDbLine
 10
-254.4999999999982
 20
-419.7592865811603
 30
0.0
 11
144.1120879939826
 21
-685.5000000000027
 31
0.0
  0
LINE
  5
29DD
330
2D78
100
AcDbEntity
  8
0
 62
     0
100
AcDbLine
 10
-254.4999999999963
 20
-416.7593200457448
 30
0.0
 11
148.6120492878672
 21
-685.5000000000016
 31
0.0
  0
LINE
  5
29DE
330
2D78
100
AcDbEntity
  8
0
 62
     0
100
AcDbLine
 10
-254.4999999999982
 20
-413.7593535103278
 30
0.0
 11
153.1120105817535
 21
-685.5000000000016
 31
0.0
  0
LINE
  5
29DF
330
2D78
100
AcDbEntity
  8
0
 62
     0
100
AcDbLine
 10
-254.4999999999982
 20
-410.7593869749134
 30
0.0
 11
157.6119718756381
 21
-685.5000000000027
 31
0.0
  0
LINE
  5
29E0
330
2D78
100
AcDbEntity
  8
0
 62
     0
100
AcDbLine
 10
-254.4999999999982
 20
-407.7594204394961
 30
0.0
 11
162.1119331695244
 21
-685.5000000000027
 31
0.0
  0
LINE
  5
29E1
330
2D78
100
AcDbEntity
  8
0
 62
     0
100
AcDbLine
 10
-254.4999999999963
 20
-404.7594539040791
 30
0.0
 11
166.611894463409
 21
-685.5
 31
0.0
  0
LINE
  5
29E2
330
2D78
100
AcDbEntity
  8
0
 62
     0
100
AcDbLine
 10
-254.4999999999982
 20
-401.7594873686627
 30
0.0
 11
171.1118557572936
 21
-685.5000000000016
 31
0.0
  0
LINE
  5
29E3
330
2D78
100
AcDbEntity
  8
0
 62
     0
100
AcDbLine
 10
-254.4999999999982
 20
-398.7595208332459
 30
0.0
 11
175.6118170511818
 21
-685.5000000000016
 31
0.0
  0
LINE
  5
29E4
330
2D78
100
AcDbEntity
  8
0
 62
     0
100
AcDbLine
 10
-254.4999999999963
 20
-395.7595542978315
 30
0.0
 11
180.1117783450663
 21
-685.5000000000008
 31
0.0
  0
LINE
  5
29E5
330
2D78
100
AcDbEntity
  8
0
 62
     0
100
AcDbLine
 10
-254.4999999999982
 20
-392.7595877624144
 30
0.0
 11
184.6117396389509
 21
-685.5000000000008
 31
0.0
  0
LINE
  5
29E6
330
2D78
100
AcDbEntity
  8
0
 62
     0
100
AcDbLine
 10
-254.4999999999982
 20
-389.7596212269991
 30
0.0
 11
189.1117009328354
 21
-685.5000000000027
 31
0.0
  0
LINE
  5
29E7
330
2D78
100
AcDbEntity
  8
0
 62
     0
100
AcDbLine
 10
-254.4999999999963
 20
-386.759654691582
 30
0.0
 11
193.6116622267254
 21
-685.5000000000016
 31
0.0
  0
LINE
  5
29E8
330
2D78
100
AcDbEntity
  8
0
 62
     0
100
AcDbLine
 10
-254.4999999999963
 20
-383.7596881561667
 30
0.0
 11
198.1116235206081
 21
-685.5000000000027
 31
0.0
  0
LINE
  5
29E9
330
2D78
100
AcDbEntity
  8
0
 62
     0
100
AcDbLine
 10
-254.4999999999982
 20
-380.7597216207505
 30
0.0
 11
202.6115848144927
 21
-685.5000000000008
 31
0.0
  0
LINE
  5
29EA
330
2D78
100
AcDbEntity
  8
0
 62
     0
100
AcDbLine
 10
-254.4999999999963
 20
-377.7597550853351
 30
0.0
 11
207.1115461083791
 21
-685.5000000000027
 31
0.0
  0
LINE
  5
29EB
330
2D78
100
AcDbEntity
  8
0
 62
     0
100
AcDbLine
 10
-254.4999999999982
 20
-374.7597885499172
 30
0.0
 11
211.6115074022654
 21
-685.5000000000016
 31
0.0
  0
LINE
  5
29EC
330
2D78
100
AcDbEntity
  8
0
 62
     0
100
AcDbLine
 10
-254.4999999999982
 20
-371.7598220145017
 30
0.0
 11
216.11146869615
 21
-685.5000000000016
 31
0.0
  0
LINE
  5
29ED
330
2D78
100
AcDbEntity
  8
0
 62
     0
100
AcDbLine
 10
-254.4999999999982
 20
-368.7598554790848
 30
0.0
 11
220.6114299900346
 21
-685.5000000000008
 31
0.0
  0
LINE
  5
29EE
330
2D78
100
AcDbEntity
  8
0
 62
     0
100
AcDbLine
 10
-254.4999999999963
 20
-365.7598889436676
 30
0.0
 11
225.1113912839228
 21
-685.5000000000008
 31
0.0
  0
LINE
  5
29EF
330
2D78
100
AcDbEntity
  8
0
 62
     0
100
AcDbLine
 10
-254.4999999999982
 20
-362.7599224082532
 30
0.0
 11
229.6113525778074
 21
-685.5000000000016
 31
0.0
  0
LINE
  5
29F0
330
2D78
100
AcDbEntity
  8
0
 62
     0
100
AcDbLine
 10
-254.4999999999982
 20
-359.7599558728362
 30
0.0
 11
234.1113138716901
 21
-685.5000000000008
 31
0.0
  0
LINE
  5
29F1
330
2D78
100
AcDbEntity
  8
0
 62
     0
100
AcDbLine
 10
-254.4999999999982
 20
-356.7599893374208
 30
0.0
 11
238.6112751655801
 21
-685.5000000000027
 31
0.0
  0
LINE
  5
29F2
330
2D78
100
AcDbEntity
  8
0
 62
     0
100
AcDbLine
 10
-254.4999999999963
 20
-353.7600228020037
 30
0.0
 11
243.1112364594646
 21
-685.5000000000016
 31
0.0
  0
LINE
  5
29F3
330
2D78
100
AcDbEntity
  8
0
 62
     0
100
AcDbLine
 10
-254.4999999999982
 20
-350.7600562665885
 30
0.0
 11
247.6111977533492
 21
-685.5000000000016
 31
0.0
  0
LINE
  5
29F4
330
2D78
100
AcDbEntity
  8
0
 62
     0
100
AcDbLine
 10
-254.4999999999963
 20
-347.7600897311722
 30
0.0
 11
252.1111590472338
 21
-685.5000000000008
 31
0.0
  0
LINE
  5
29F5
330
2D78
100
AcDbEntity
  8
0
 62
     0
100
AcDbLine
 10
-254.4999999999963
 20
-344.7601231957569
 30
0.0
 11
254.4999999999982
 21
-684.0925900331185
 31
0.0
  0
LINE
  5
29F6
330
2D78
100
AcDbEntity
  8
0
 62
     0
100
AcDbLine
 10
-254.4999999999982
 20
-341.7601566603388
 30
0.0
 11
254.4999999999982
 21
-681.0926234977016
 31
0.0
  0
LINE
  5
29F7
330
2D78
100
AcDbEntity
  8
0
 62
     0
100
AcDbLine
 10
-254.4999999999982
 20
-338.7601901249236
 30
0.0
 11
254.4999999999963
 21
-678.0926569622861
 31
0.0
  0
LINE
  5
29F8
330
2D78
100
AcDbEntity
  8
0
 62
     0
100
AcDbLine
 10
-254.4999999999982
 20
-335.7602235895065
 30
0.0
 11
254.4999999999963
 21
-675.0926904268689
 31
0.0
  0
LINE
  5
29F9
330
2D78
100
AcDbEntity
  8
0
 62
     0
100
AcDbLine
 10
-254.4999999999963
 20
-332.760257054092
 30
0.0
 11
254.4999999999982
 21
-672.0927238914545
 31
0.0
  0
LINE
  5
29FA
330
2D78
100
AcDbEntity
  8
0
 62
     0
100
AcDbLine
 10
-254.4999999999982
 20
-329.7602905186749
 30
0.0
 11
254.4999999999963
 21
-669.0927573560363
 31
0.0
  0
LINE
  5
29FB
330
2D78
100
AcDbEntity
  8
0
 62
     0
100
AcDbLine
 10
-254.4999999999963
 20
-326.7603239832579
 30
0.0
 11
254.4999999999963
 21
-666.0927908206192
 31
0.0
  0
LINE
  5
29FC
330
2D78
100
AcDbEntity
  8
0
 62
     0
100
AcDbLine
 10
-254.4999999999963
 20
-323.7603574478427
 30
0.0
 11
254.4999999999982
 21
-663.0928242852042
 31
0.0
  0
LINE
  5
29FD
330
2D78
100
AcDbEntity
  8
0
 62
     0
100
AcDbLine
 10
-254.4999999999963
 20
-320.7603909124255
 30
0.0
 11
254.4999999999963
 21
-660.092857749788
 31
0.0
  0
LINE
  5
29FE
330
2D78
100
AcDbEntity
  8
0
 62
     0
100
AcDbLine
 10
-254.4999999999982
 20
-317.7604243770111
 30
0.0
 11
254.4999999999963
 21
-657.0928912143727
 31
0.0
  0
LINE
  5
29FF
330
2D78
100
AcDbEntity
  8
0
 62
     0
100
AcDbLine
 10
-254.4999999999963
 20
-314.760457841593
 30
0.0
 11
254.4999999999982
 21
-654.0929246789556
 31
0.0
  0
LINE
  5
2A00
330
2D78
100
AcDbEntity
  8
0
 62
     0
100
AcDbLine
 10
-254.4999999999982
 20
-311.7604913061778
 30
0.0
 11
254.4999999999982
 21
-651.0929581435402
 31
0.0
  0
LINE
  5
2A01
330
2D78
100
AcDbEntity
  8
0
 62
     0
100
AcDbLine
 10
-254.4999999999982
 20
-308.7605247707606
 30
0.0
 11
254.4999999999963
 21
-648.0929916081232
 31
0.0
  0
LINE
  5
2A02
330
2D78
100
AcDbEntity
  8
0
 62
     0
100
AcDbLine
 10
-254.4999999999982
 20
-305.7605582353462
 30
0.0
 11
254.4999999999982
 21
-645.0930250727087
 31
0.0
  0
LINE
  5
2A03
330
2D78
100
AcDbEntity
  8
0
 62
     0
100
AcDbLine
 10
-254.4999999999963
 20
-302.760591699929
 30
0.0
 11
254.4999999999982
 21
-642.0930585372907
 31
0.0
  0
LINE
  5
2A04
330
2D78
100
AcDbEntity
  8
0
 62
     0
100
AcDbLine
 10
-254.4999999999982
 20
-299.7606251645137
 30
0.0
 11
254.4999999999963
 21
-639.0930920018755
 31
0.0
  0
LINE
  5
2A05
330
2D78
100
AcDbEntity
  8
0
 62
     0
100
AcDbLine
 10
-254.4999999999963
 20
-296.7606586290968
 30
0.0
 11
254.4999999999982
 21
-636.0931254664583
 31
0.0
  0
LINE
  5
2A06
330
2D78
100
AcDbEntity
  8
0
 62
     0
100
AcDbLine
 10
-254.4999999999963
 20
-293.7606920936815
 30
0.0
 11
254.4999999999982
 21
-633.093158931043
 31
0.0
  0
LINE
  5
2A07
330
2D78
100
AcDbEntity
  8
0
 62
     0
100
AcDbLine
 10
-254.4999999999963
 20
-290.7607255582643
 30
0.0
 11
254.4999999999982
 21
-630.0931923956258
 31
0.0
  0
LINE
  5
2A08
330
2D78
100
AcDbEntity
  8
0
 62
     0
100
AcDbLine
 10
-254.4999999999982
 20
-287.7607590228472
 30
0.0
 11
254.4999999999963
 21
-627.0932258602096
 31
0.0
  0
LINE
  5
2A09
330
2D78
100
AcDbEntity
  8
0
 62
     0
100
AcDbLine
 10
-254.4999999999982
 20
-284.7607924874317
 30
0.0
 11
254.4999999999982
 21
-624.0932593247944
 31
0.0
  0
LINE
  5
2A0A
330
2D78
100
AcDbEntity
  8
0
 62
     0
100
AcDbLine
 10
-254.4999999999963
 20
-281.7608259520148
 30
0.0
 11
254.4999999999982
 21
-621.0932927893772
 31
0.0
  0
LINE
  5
2A0B
330
2D78
100
AcDbEntity
  8
0
 62
     0
100
AcDbLine
 10
-254.4999999999982
 20
-278.7608594165995
 30
0.0
 11
254.4999999999982
 21
-618.0933262539617
 31
0.0
  0
LINE
  5
2A0C
330
2D78
100
AcDbEntity
  8
0
 62
     0
100
AcDbLine
 10
-254.4999999999963
 20
-275.7608928811824
 30
0.0
 11
254.4999999999963
 21
-615.0933597185439
 31
0.0
  0
LINE
  5
2A0D
330
2D78
100
AcDbEntity
  8
0
 62
     0
100
AcDbLine
 10
-254.4999999999963
 20
-272.7609263457671
 30
0.0
 11
254.5
 21
-612.0933931831305
 31
0.0
  0
LINE
  5
2A0E
330
2D78
100
AcDbEntity
  8
0
 62
     0
100
AcDbLine
 10
-254.1414387999266
 20
-270.0
 30
0.0
 11
254.4999999999963
 21
-609.0934266477122
 31
0.0
  0
LINE
  5
2A0F
330
2D78
100
AcDbEntity
  8
0
 62
     0
100
AcDbLine
 10
38.69999999999891
 20
-462.2271608126848
 30
0.0
 11
41.0592648054189
 21
-463.8000000000046
 31
0.0
  0
LINE
  5
2A10
330
2D78
100
AcDbEntity
  8
0
 62
     0
100
AcDbLine
 10
41.0592648054189
 20
-463.8000000000046
 30
0.0
 11
254.4999999999963
 21
-606.0934601122973
 31
0.0
  0
LINE
  5
2A11
330
2D78
100
AcDbEntity
  8
0
 62
     0
100
AcDbLine
 10
-249.6414775060421
 20
-270.0000000000018
 30
0.0
 11
38.69999999999891
 21
-462.2271608126848
 31
0.0
  0
LINE
  5
2A12
330
2D78
100
AcDbEntity
  8
0
 62
     0
100
AcDbLine
 10
38.70000000000073
 20
-459.2271942772677
 30
0.0
 11
45.55922609930711
 21
-463.8000000000038
 31
0.0
  0
LINE
  5
2A13
330
2D78
100
AcDbEntity
  8
0
 62
     0
100
AcDbLine
 10
45.55922609930711
 20
-463.8000000000038
 30
0.0
 11
254.4999999999982
 21
-603.0934935768799
 31
0.0
  0
LINE
  5
2A14
330
2D78
100
AcDbEntity
  8
0
 62
     0
100
AcDbLine
 10
-245.141516212152
 20
-270.0000000000018
 30
0.0
 11
38.70000000000073
 21
-459.2271942772677
 31
0.0
  0
LINE
  5
2A15
330
2D78
100
AcDbEntity
  8
0
 62
     0
100
AcDbLine
 10
38.70000000000073
 20
-456.2272277418522
 30
0.0
 11
50.05918739318985
 21
-463.8000000000038
 31
0.0
  0
LINE
  5
2A16
330
2D78
100
AcDbEntity
  8
0
 62
     0
100
AcDbLine
 10
50.05918739318985
 20
-463.8000000000038
 30
0.0
 11
254.4999999999982
 21
-600.0935270414648
 31
0.0
  0
LINE
  5
2A17
330
2D78
100
AcDbEntity
  8
0
 62
     0
100
AcDbLine
 10
-240.6415549182675
 20
-270.0000000000037
 30
0.0
 11
38.70000000000073
 21
-456.2272277418522
 31
0.0
  0
LINE
  5
2A18
330
2D78
100
AcDbEntity
  8
0
 62
     0
100
AcDbLine
 10
38.69999999999891
 20
-453.2272612064351
 30
0.0
 11
54.55914868707441
 21
-463.8000000000029
 31
0.0
  0
LINE
  5
2A19
330
2D78
100
AcDbEntity
  8
0
 62
     0
100
AcDbLine
 10
54.55914868707441
 20
-463.8000000000029
 30
0.0
 11
254.4999999999963
 21
-597.0935605060486
 31
0.0
  0
LINE
  5
2A1A
330
2D78
100
AcDbEntity
  8
0
 62
     0
100
AcDbLine
 10
-236.1415936243848
 20
-270.0000000000018
 30
0.0
 11
38.69999999999891
 21
-453.2272612064351
 31
0.0
  0
LINE
  5
2A1B
330
2D78
100
AcDbEntity
  8
0
 62
     0
100
AcDbLine
 10
38.70000000000073
 20
-450.2272946710198
 30
0.0
 11
59.0591099809626
 21
-463.8000000000046
 31
0.0
  0
LINE
  5
2A1C
330
2D78
100
AcDbEntity
  8
0
 62
     0
100
AcDbLine
 10
59.0591099809626
 20
-463.8000000000046
 30
0.0
 11
254.4999999999982
 21
-594.0935939706332
 31
0.0
  0
LINE
  5
2A1D
330
2D78
100
AcDbEntity
  8
0
 62
     0
100
AcDbLine
 10
-231.6416323304984
 20
-270.0000000000037
 30
0.0
 11
38.70000000000073
 21
-450.2272946710198
 31
0.0
  0
LINE
  5
2A1E
330
2D78
100
AcDbEntity
  8
0
 62
     0
100
AcDbLine
 10
38.70000000000073
 20
-447.2273281356037
 30
0.0
 11
63.55907127484897
 21
-463.8000000000046
 31
0.0
  0
LINE
  5
2A1F
330
2D78
100
AcDbEntity
  8
0
 62
     0
100
AcDbLine
 10
63.55907127484897
 20
-463.8000000000046
 30
0.0
 11
254.4999999999982
 21
-591.0936274352161
 31
0.0
  0
LINE
  5
2A20
330
2D78
100
AcDbEntity
  8
0
 62
     0
100
AcDbLine
 10
-227.1416710366102
 20
-270.0000000000027
 30
0.0
 11
38.70000000000073
 21
-447.2273281356037
 31
0.0
  0
LINE
  5
2A21
330
2D78
100
AcDbEntity
  8
0
 62
     0
100
AcDbLine
 10
38.70000000000073
 20
-444.2273616001885
 30
0.0
 11
68.05903256873169
 21
-463.8000000000038
 31
0.0
  0
LINE
  5
2A22
330
2D78
100
AcDbEntity
  8
0
 62
     0
100
AcDbLine
 10
68.05903256873169
 20
-463.8000000000038
 30
0.0
 11
254.4999999999963
 21
-588.0936608998
 31
0.0
  0
LINE
  5
2A23
330
2D78
100
AcDbEntity
  8
0
 62
     0
100
AcDbLine
 10
-222.6417097427292
 20
-270.0000000000018
 30
0.0
 11
38.70000000000073
 21
-444.2273616001885
 31
0.0
  0
LINE
  5
2A24
330
2D78
100
AcDbEntity
  8
0
 62
     0
100
AcDbLine
 10
38.69999999999891
 20
-441.2273950647701
 30
0.0
 11
72.55899386261808
 21
-463.8000000000038
 31
0.0
  0
LINE
  5
2A25
330
2D78
100
AcDbEntity
  8
0
 62
     0
100
AcDbLine
 10
72.55899386261808
 20
-463.8000000000038
 30
0.0
 11
254.4999999999982
 21
-585.0936943643836
 31
0.0
  0
LINE
  5
2A26
330
2D78
100
AcDbEntity
  8
0
 62
     0
100
AcDbLine
 10
-218.1417484488411
 20
-270.0000000000018
 30
0.0
 11
38.69999999999891
 21
-441.2273950647701
 31
0.0
  0
LINE
  5
2A27
330
2D78
100
AcDbEntity
  8
0
 62
     0
100
AcDbLine
 10
38.70000000000255
 20
-438.2274285293542
 30
0.0
 11
77.05895515650626
 21
-463.8000000000029
 31
0.0
  0
LINE
  5
2A28
330
2D78
100
AcDbEntity
  8
0
 62
     0
100
AcDbLine
 10
77.05895515650626
 20
-463.8000000000029
 30
0.0
 11
254.4999999999982
 21
-582.0937278289656
 31
0.0
  0
LINE
  5
2A29
330
2D78
100
AcDbEntity
  8
0
 62
     0
100
AcDbLine
 10
-213.6417871549566
 20
-269.9999999999991
 30
0.0
 11
38.70000000000073
 21
-438.2274285293531
 31
0.0
  0
LINE
  5
2A2A
330
2D78
100
AcDbEntity
  8
0
 62
     0
100
AcDbLine
 10
38.69999999999891
 20
-435.227461993938
 30
0.0
 11
81.55891645039082
 21
-463.8000000000046
 31
0.0
  0
LINE
  5
2A2B
330
2D78
100
AcDbEntity
  8
0
 62
     0
100
AcDbLine
 10
81.55891645039082
 20
-463.8000000000046
 30
0.0
 11
254.4999999999982
 21
-579.0937612935512
 31
0.0
  0
LINE
  5
2A2C
330
2D78
100
AcDbEntity
  8
0
 62
     0
100
AcDbLine
 10
-209.1418258610683
 20
-270.0000000000027
 30
0.0
 11
38.69999999999891
 21
-435.227461993938
 31
0.0
  0
LINE
  5
2A2D
330
2D78
100
AcDbEntity
  8
0
 62
     0
100
AcDbLine
 10
38.69999999999891
 20
-432.2274954585209
 30
0.0
 11
86.05887774427356
 21
-463.800000000002
 31
0.0
  0
LINE
  5
2A2E
330
2D78
100
AcDbEntity
  8
0
 62
     0
100
AcDbLine
 10
86.05887774427356
 20
-463.800000000002
 30
0.0
 11
254.4999999999963
 21
-576.0937947581342
 31
0.0
  0
LINE
  5
2A2F
330
2D78
100
AcDbEntity
  8
0
 62
     0
100
AcDbLine
 10
-204.6418645671874
 20
-270.0000000000009
 30
0.0
 11
38.69999999999891
 21
-432.2274954585209
 31
0.0
  0
LINE
  5
2A30
330
2D78
100
AcDbEntity
  8
0
 62
     0
100
AcDbLine
 10
38.69999999999891
 20
-429.2275289231065
 30
0.0
 11
90.55883903815994
 21
-463.8000000000038
 31
0.0
  0
LINE
  5
2A31
330
2D78
100
AcDbEntity
  8
0
 62
     0
100
AcDbLine
 10
90.55883903815994
 20
-463.8000000000038
 30
0.0
 11
254.4999999999982
 21
-573.0938282227189
 31
0.0
  0
LINE
  5
2A32
330
2D78
100
AcDbEntity
  8
0
 62
     0
100
AcDbLine
 10
-200.1419032732993
 20
-270.0000000000018
 30
0.0
 11
38.69999999999891
 21
-429.2275289231065
 31
0.0
  0
LINE
  5
2A33
330
2D78
100
AcDbEntity
  8
0
 62
     0
100
AcDbLine
 10
38.70000000000073
 20
-426.2275623876893
 30
0.0
 11
95.05880033204631
 21
-463.8000000000029
 31
0.0
  0
LINE
  5
2A34
330
2D78
100
AcDbEntity
  8
0
 62
     0
100
AcDbLine
 10
95.05880033204631
 20
-463.8000000000029
 30
0.0
 11
254.4999999999982
 21
-570.0938616873016
 31
0.0
  0
LINE
  5
2A35
330
2D78
100
AcDbEntity
  8
0
 62
     0
100
AcDbLine
 10
-195.6419419794129
 20
-270.0000000000018
 30
0.0
 11
38.70000000000073
 21
-426.2275623876893
 31
0.0
  0
LINE
  5
2A36
330
2D78
100
AcDbEntity
  8
0
 62
     0
100
AcDbLine
 10
38.69999999999891
 20
-423.2275958522738
 30
0.0
 11
99.55876162592723
 21
-463.800000000002
 31
0.0
  0
LINE
  5
2A37
330
2D78
100
AcDbEntity
  8
0
 62
     0
100
AcDbLine
 10
99.55876162592723
 20
-463.800000000002
 30
0.0
 11
254.4999999999982
 21
-567.0938951518865
 31
0.0
  0
LINE
  5
2A38
330
2D78
100
AcDbEntity
  8
0
 62
     0
100
AcDbLine
 10
-191.1419806855264
 20
-270.0000000000037
 30
0.0
 11
38.69999999999891
 21
-423.2275958522738
 31
0.0
  0
LINE
  5
2A39
330
2D78
100
AcDbEntity
  8
0
 62
     0
100
AcDbLine
 10
38.70000000000073
 20
-420.2276293168568
 30
0.0
 11
104.0587229198154
 21
-463.800000000002
 31
0.0
  0
LINE
  5
2A3A
330
2D78
100
AcDbEntity
  8
0
 62
     0
100
AcDbLine
 10
104.0587229198154
 20
-463.800000000002
 30
0.0
 11
254.4999999999982
 21
-564.0939286164701
 31
0.0
  0
LINE
  5
2A3B
330
2D78
100
AcDbEntity
  8
0
 62
     0
100
AcDbLine
 10
-186.6420193916438
 20
-270.0000000000009
 30
0.0
 11
38.70000000000073
 21
-420.2276293168568
 31
0.0
  0
LINE
  5
2A3C
330
2D78
100
AcDbEntity
  8
0
 62
     0
100
AcDbLine
 10
38.70000000000073
 20
-417.2276627814416
 30
0.0
 11
108.5586842136999
 21
-463.8000000000011
 31
0.0
  0
LINE
  5
2A3D
330
2D78
100
AcDbEntity
  8
0
 62
     0
100
AcDbLine
 10
108.5586842136999
 20
-463.8000000000011
 30
0.0
 11
254.4999999999982
 21
-561.0939620810539
 31
0.0
  0
LINE
  5
2A3E
330
2D78
100
AcDbEntity
  8
0
 62
     0
100
AcDbLine
 10
-182.1420580977556
 20
-270.0000000000027
 30
0.0
 11
38.70000000000073
 21
-417.2276627814416
 31
0.0
  0
LINE
  5
2A3F
330
2D78
100
AcDbEntity
  8
0
 62
     0
100
AcDbLine
 10
38.69999999999891
 20
-414.2276962460246
 30
0.0
 11
113.0586455075881
 21
-463.8000000000029
 31
0.0
  0
LINE
  5
2A40
330
2D78
100
AcDbEntity
  8
0
 62
     0
100
AcDbLine
 10
113.0586455075881
 20
-463.8000000000029
 30
0.0
 11
254.4999999999982
 21
-558.0939955456375
 31
0.0
  0
LINE
  5
2A41
330
2D78
100
AcDbEntity
  8
0
 62
     0
100
AcDbLine
 10
-177.642096803871
 20
-270.0000000000018
 30
0.0
 11
38.69999999999891
 21
-414.2276962460246
 31
0.0
  0
LINE
  5
2A42
330
2D78
100
AcDbEntity
  8
0
 62
     0
100
AcDbLine
 10
38.69999999999891
 20
-411.2277297106093
 30
0.0
 11
117.5586068014691
 21
-463.8000000000029
 31
0.0
  0
LINE
  5
2A43
330
2D78
100
AcDbEntity
  8
0
 62
     0
100
AcDbLine
 10
117.5586068014691
 20
-463.8000000000029
 30
0.0
 11
254.4999999999963
 21
-555.0940290102216
 31
0.0
  0
LINE
  5
2A44
330
2D78
100
AcDbEntity
  8
0
 62
     0
100
AcDbLine
 10
-173.1421355099883
 20
-270.0000000000018
 30
0.0
 11
38.69999999999891
 21
-411.2277297106093
 31
0.0
  0
LINE
  5
2A45
330
2D78
100
AcDbEntity
  8
0
 62
     0
100
AcDbLine
 10
38.69999999999891
 20
-408.2277631751922
 30
0.0
 11
122.0585680953572
 21
-463.800000000002
 31
0.0
  0
LINE
  5
2A46
330
2D78
100
AcDbEntity
  8
0
 62
     0
100
AcDbLine
 10
122.0585680953572
 20
-463.800000000002
 30
0.0
 11
254.4999999999963
 21
-552.0940624748045
 31
0.0
  0
LINE
  5
2A47
330
2D78
100
AcDbEntity
  8
0
 62
     0
100
AcDbLine
 10
-168.6421742161018
 20
-270.0000000000009
 30
0.0
 11
38.69999999999891
 21
-408.2277631751922
 31
0.0
  0
LINE
  5
2A48
330
2D78
100
AcDbEntity
  8
0
 62
     0
100
AcDbLine
 10
38.70000000000073
 20
-405.2277966397768
 30
0.0
 11
126.55852938924
 21
-463.800000000002
 31
0.0
  0
LINE
  5
2A49
330
2D78
100
AcDbEntity
  8
0
 62
     0
100
AcDbLine
 10
126.55852938924
 20
-463.800000000002
 30
0.0
 11
254.4999999999982
 21
-549.0940959393902
 31
0.0
  0
LINE
  5
2A4A
330
2D78
100
AcDbEntity
  8
0
 62
     0
100
AcDbLine
 10
-164.1422129222137
 20
-270.0000000000027
 30
0.0
 11
38.70000000000073
 21
-405.2277966397768
 31
0.0
  0
LINE
  5
2A4B
330
2D78
100
AcDbEntity
  8
0
 62
     0
100
AcDbLine
 10
38.69999999999891
 20
-402.2278301043597
 30
0.0
 11
131.05849068313
 21
-463.8000000000038
 31
0.0
  0
LINE
  5
2A4C
330
2D78
100
AcDbEntity
  8
0
 62
     0
100
AcDbLine
 10
131.05849068313
 20
-463.8000000000038
 30
0.0
 11
254.4999999999963
 21
-546.094129403973
 31
0.0
  0
LINE
  5
2A4D
330
2D78
100
AcDbEntity
  8
0
 62
     0
100
AcDbLine
 10
-159.6422516283292
 20
-270.0000000000027
 30
0.0
 11
38.69999999999891
 21
-402.2278301043597
 31
0.0
  0
LINE
  5
2A4E
330
2D78
100
AcDbEntity
  8
0
 62
     0
100
AcDbLine
 10
38.70000000000073
 20
-399.2278635689436
 30
0.0
 11
135.5584519770127
 21
-463.8000000000011
 31
0.0
  0
LINE
  5
2A4F
330
2D78
100
AcDbEntity
  8
0
 62
     0
100
AcDbLine
 10
135.5584519770127
 20
-463.8000000000011
 30
0.0
 11
254.4999999999982
 21
-543.0941628685559
 31
0.0
  0
LINE
  5
2A50
330
2D78
100
AcDbEntity
  8
0
 62
     0
100
AcDbLine
 10
-155.1422903344446
 20
-270.0
 30
0.0
 11
38.70000000000073
 21
-399.2278635689436
 31
0.0
  0
LINE
  5
2A51
330
2D78
100
AcDbEntity
  8
0
 62
     0
100
AcDbLine
 10
38.70000000000073
 20
-396.2278970335282
 30
0.0
 11
140.0584132709009
 21
-463.8000000000029
 31
0.0
  0
LINE
  5
2A52
330
2D78
100
AcDbEntity
  8
0
 62
     0
100
AcDbLine
 10
140.0584132709009
 20
-463.8000000000029
 30
0.0
 11
254.4999999999982
 21
-540.0941963331406
 31
0.0
  0
LINE
  5
2A53
330
2D78
100
AcDbEntity
  8
0
 62
     0
100
AcDbLine
 10
-150.6423290405582
 20
-270.0000000000018
 30
0.0
 11
38.70000000000073
 21
-396.2278970335282
 31
0.0
  0
LINE
  5
2A54
330
2D78
100
AcDbEntity
  8
0
 62
     0
100
AcDbLine
 10
38.70000000000073
 20
-393.2279304981112
 30
0.0
 11
144.5583745647818
 21
-463.7999999999998
 31
0.0
  0
LINE
  5
2A55
330
2D78
100
AcDbEntity
  8
0
 62
     0
100
AcDbLine
 10
144.5583745647818
 20
-463.7999999999998
 30
0.0
 11
254.4999999999982
 21
-537.0942297977234
 31
0.0
  0
LINE
  5
2A56
330
2D78
100
AcDbEntity
  8
0
 62
     0
100
AcDbLine
 10
-146.1423677466719
 20
-270.0000000000018
 30
0.0
 11
38.69999999999891
 21
-393.2279304981102
 31
0.0
  0
LINE
  5
2A57
330
2D78
100
AcDbEntity
  8
0
 62
     0
100
AcDbLine
 10
38.69999999999891
 20
-390.2279639626959
 30
0.0
 11
149.0583358586682
 21
-463.800000000002
 31
0.0
  0
LINE
  5
2A58
330
2D78
100
AcDbEntity
  8
0
 62
     0
100
AcDbLine
 10
149.05833585867
 20
-463.8000000000038
 30
0.0
 11
254.4999999999963
 21
-534.0942632623073
 31
0.0
  0
LINE
  5
2A59
330
2D78
100
AcDbEntity
  8
0
 62
     0
100
AcDbLine
 10
-141.6424064527873
 20
-270.0000000000027
 30
0.0
 11
38.69999999999711
 21
-390.2279639626952
 31
0.0
  0
LINE
  5
2A5A
330
2D78
100
AcDbEntity
  8
0
 62
     0
100
AcDbLine
 10
38.70000000000073
 20
-387.2279974272779
 30
0.0
 11
153.5582971525564
 21
-463.8000000000011
 31
0.0
  0
LINE
  5
2A5B
330
2D78
100
AcDbEntity
  8
0
 62
     0
100
AcDbLine
 10
153.5582971525564
 20
-463.8000000000011
 30
0.0
 11
254.5
 21
-531.094296726892
 31
0.0
  0
LINE
  5
2A5C
330
2D78
100
AcDbEntity
  8
0
 62
     0
100
AcDbLine
 10
-137.1424451589009
 20
-270.0000000000009
 30
0.0
 11
38.70000000000073
 21
-387.2279974272779
 31
0.0
  0
LINE
  5
2A5D
330
2D78
100
AcDbEntity
  8
0
 62
     0
100
AcDbLine
 10
38.69999999999891
 20
-384.2280308918627
 30
0.0
 11
158.0582584464428
 21
-463.8000000000029
 31
0.0
  0
LINE
  5
2A5E
330
2D78
100
AcDbEntity
  8
0
 62
     0
100
AcDbLine
 10
158.0582584464428
 20
-463.8000000000029
 30
0.0
 11
254.4999999999982
 21
-528.0943301914758
 31
0.0
  0
LINE
  5
2A5F
330
2D78
100
AcDbEntity
  8
0
 62
     0
100
AcDbLine
 10
-132.6424838650164
 20
-270.0000000000018
 30
0.0
 11
38.69999999999891
 21
-384.2280308918627
 31
0.0
  0
LINE
  5
2A60
330
2D78
100
AcDbEntity
  8
0
 62
     0
100
AcDbLine
 10
38.69999999999891
 20
-381.2280643564463
 30
0.0
 11
162.5582197403237
 21
-463.8000000000011
 31
0.0
  0
LINE
  5
2A61
330
2D78
100
AcDbEntity
  8
0
 62
     0
100
AcDbLine
 10
162.5582197403237
 20
-463.8000000000011
 30
0.0
 11
254.4999999999963
 21
-525.0943636560585
 31
0.0
  0
LINE
  5
2A62
330
2D78
100
AcDbEntity
  8
0
 62
     0
100
AcDbLine
 10
-128.14252257113
 20
-270.0000000000018
 30
0.0
 11
38.69999999999891
 21
-381.2280643564463
 31
0.0
  0
LINE
  5
2A63
330
2D78
100
AcDbEntity
  8
0
 62
     0
100
AcDbLine
 10
38.69999999999891
 20
-378.2280978210311
 30
0.0
 11
167.0581810342119
 21
-463.800000000002
 31
0.0
  0
LINE
  5
2A64
330
2D78
100
AcDbEntity
  8
0
 62
     0
100
AcDbLine
 10
167.0581810342119
 20
-463.800000000002
 30
0.0
 11
254.4999999999982
 21
-522.0943971206434
 31
0.0
  0
LINE
  5
2A65
330
2D78
100
AcDbEntity
  8
0
 62
     0
100
AcDbLine
 10
-123.6425612772436
 20
-270.0000000000037
 30
0.0
 11
38.69999999999891
 21
-378.2280978210311
 31
0.0
  0
LINE
  5
2A66
330
2D78
100
AcDbEntity
  8
0
 62
     0
100
AcDbLine
 10
38.70000000000073
 20
-375.2281312856139
 30
0.0
 11
171.5581423280982
 21
-463.800000000002
 31
0.0
  0
LINE
  5
2A67
330
2D78
100
AcDbEntity
  8
0
 62
     0
100
AcDbLine
 10
171.5581423280982
 20
-463.800000000002
 30
0.0
 11
254.4999999999982
 21
-519.0944305852259
 31
0.0
  0
LINE
  5
2A68
330
2D78
100
AcDbEntity
  8
0
 62
     0
100
AcDbLine
 10
-119.1425999833591
 20
-270.0000000000009
 30
0.0
 11
38.70000000000073
 21
-375.2281312856139
 31
0.0
  0
LINE
  5
2A69
330
2D78
100
AcDbEntity
  8
0
 62
     0
100
AcDbLine
 10
38.69999999999891
 20
-372.2281647501986
 30
0.0
 11
176.058103621981
 21
-463.8000000000011
 31
0.0
  0
LINE
  5
2A6A
330
2D78
100
AcDbEntity
  8
0
 62
     0
100
AcDbLine
 10
176.058103621981
 20
-463.8000000000011
 30
0.0
 11
254.4999999999982
 21
-516.0944640498119
 31
0.0
  0
LINE
  5
2A6B
330
2D78
100
AcDbEntity
  8
0
 62
     0
100
AcDbLine
 10
-114.6426386894745
 20
-270.0000000000027
 30
0.0
 11
38.69999999999891
 21
-372.2281647501986
 31
0.0
  0
LINE
  5
2A6C
330
2D78
100
AcDbEntity
  8
0
 62
     0
100
AcDbLine
 10
38.70000000000073
 20
-369.2281982147824
 30
0.0
 11
180.5580649158672
 21
-463.8000000000011
 31
0.0
  0
LINE
  5
2A6D
330
2D78
100
AcDbEntity
  8
0
 62
     0
100
AcDbLine
 10
180.5580649158672
 20
-463.8000000000011
 30
0.0
 11
254.4999999999982
 21
-513.0944975143948
 31
0.0
  0
LINE
  5
2A6E
330
2D78
100
AcDbEntity
  8
0
 62
     0
100
AcDbLine
 10
-110.1426773955863
 20
-270.0000000000018
 30
0.0
 11
38.70000000000073
 21
-369.2281982147824
 31
0.0
  0
LINE
  5
2A6F
330
2D78
100
AcDbEntity
  8
0
 62
     0
100
AcDbLine
 10
38.70000000000073
 20
-366.2282316793671
 30
0.0
 11
185.0580262097519
 21
-463.7999999999998
 31
0.0
  0
LINE
  5
2A70
330
2D78
100
AcDbEntity
  8
0
 62
     0
100
AcDbLine
 10
185.0580262097555
 20
-463.8000000000029
 30
0.0
 11
254.5
 21
-510.0945309789792
 31
0.0
  0
LINE
  5
2A71
330
2D78
100
AcDbEntity
  8
0
 62
     0
100
AcDbLine
 10
-105.6427161017036
 20
-270.0000000000018
 30
0.0
 11
38.69999999999711
 21
-366.2282316793634
 31
0.0
  0
LINE
  5
2A72
330
2D78
100
AcDbEntity
  8
0
 62
     0
100
AcDbLine
 10
38.70000000000073
 20
-363.22826514395
 30
0.0
 11
189.5579875036401
 21
-463.800000000002
 31
0.0
  0
LINE
  5
2A73
330
2D78
100
AcDbEntity
  8
0
 62
     0
100
AcDbLine
 10
189.5579875036401
 20
-463.800000000002
 30
0.0
 11
254.4999999999982
 21
-507.0945644435624
 31
0.0
  0
LINE
  5
2A74
330
2D78
100
AcDbEntity
  8
0
 62
     0
100
AcDbLine
 10
-101.1427548078172
 20
-270.0000000000009
 30
0.0
 11
38.69999999999528
 21
-363.2282651439472
 31
0.0
  0
LINE
  5
2A75
330
2D78
100
AcDbEntity
  8
0
 62
     0
100
AcDbLine
 10
38.69999999999891
 20
-360.2282986085329
 30
0.0
 11
194.0579487975228
 21
-463.7999999999998
 31
0.0
  0
LINE
  5
2A76
330
2D78
100
AcDbEntity
  8
0
 62
     0
100
AcDbLine
 10
194.0579487975228
 20
-463.7999999999998
 30
0.0
 11
254.4999999999982
 21
-504.0945979081452
 31
0.0
  0
LINE
  5
2A77
330
2D78
100
AcDbEntity
  8
0
 62
     0
100
AcDbLine
 10
-96.6427935139327
 20
-270.0000000000009
 30
0.0
 11
38.69999999999528
 21
-360.2282986085303
 31
0.0
  0
LINE
  5
2A78
330
2D78
100
AcDbEntity
  8
0
 62
     0
100
AcDbLine
 10
38.70000000000073
 20
-357.2283320731176
 30
0.0
 11
198.5579100914073
 21
-463.7999999999998
 31
0.0
  0
LINE
  5
2A79
330
2D78
100
AcDbEntity
  8
0
 62
     0
100
AcDbLine
 10
198.5579100914073
 20
-463.7999999999998
 30
0.0
 11
254.4999999999963
 21
-501.0946313727298
 31
0.0
  0
LINE
  5
2A7A
330
2D78
100
AcDbEntity
  8
0
 62
     0
100
AcDbLine
 10
-92.14283222004452
 20
-270.0000000000027
 30
0.0
 11
38.69999999999528
 21
-357.2283320731149
 31
0.0
  0
LINE
  5
2A7B
330
2D78
100
AcDbEntity
  8
0
 62
     0
100
AcDbLine
 10
38.70000000000073
 20
-354.2283655376997
 30
0.0
 11
203.0578713852956
 21
-463.7999999999998
 31
0.0
  0
LINE
  5
2A7C
330
2D78
100
AcDbEntity
  8
0
 62
     0
100
AcDbLine
 10
203.0578713852974
 20
-463.8000000000011
 30
0.0
 11
254.5
 21
-498.0946648373135
 31
0.0
  0
LINE
  5
2A7D
330
2D78
100
AcDbEntity
  8
0
 62
     0
100
AcDbLine
 10
-87.6428709261618
 20
-270.0
 30
0.0
 11
38.69999999999711
 21
-354.2283655376977
 31
0.0
  0
LINE
  5
2A7E
330
2D78
100
AcDbEntity
  8
0
 62
     0
100
AcDbLine
 10
38.69999999999891
 20
-351.2283990022851
 30
0.0
 11
207.5578326791801
 21
-463.800000000002
 31
0.0
  0
LINE
  5
2A7F
330
2D78
100
AcDbEntity
  8
0
 62
     0
100
AcDbLine
 10
207.5578326791801
 20
-463.800000000002
 30
0.0
 11
254.4999999999963
 21
-495.0946983018972
 31
0.0
  0
LINE
  5
2A80
330
2D78
100
AcDbEntity
  8
0
 62
     0
100
AcDbLine
 10
-83.14290963227355
 20
-270.0000000000037
 30
0.0
 11
38.69999999999528
 21
-351.2283990022825
 31
0.0
  0
LINE
  5
2A81
330
2D78
100
AcDbEntity
  8
0
 62
     0
100
AcDbLine
 10
38.70000000000073
 20
-348.2284324668681
 30
0.0
 11
212.0577939730665
 21
-463.7999999999998
 31
0.0
  0
LINE
  5
2A82
330
2D78
100
AcDbEntity
  8
0
 62
     0
100
AcDbLine
 10
212.0577939730665
 20
-463.7999999999998
 30
0.0
 11
254.4999999999982
 21
-492.0947317664804
 31
0.0
  0
LINE
  5
2A83
330
2D78
100
AcDbEntity
  8
0
 62
     0
100
AcDbLine
 10
-78.64294833838902
 20
-270.0000000000018
 30
0.0
 11
38.69999999999711
 21
-348.2284324668663
 31
0.0
  0
LINE
  5
2A84
330
2D78
100
AcDbEntity
  8
0
 62
     0
100
AcDbLine
 10
38.70000000000073
 20
-345.2284659314528
 30
0.0
 11
216.557755266951
 21
-463.8000000000011
 31
0.0
  0
LINE
  5
2A85
330
2D78
100
AcDbEntity
  8
0
 62
     0
100
AcDbLine
 10
216.557755266951
 20
-463.8000000000011
 30
0.0
 11
254.4999999999982
 21
-489.0947652310649
 31
0.0
  0
LINE
  5
2A86
330
2D78
100
AcDbEntity
  8
0
 62
     0
100
AcDbLine
 10
-74.14298704450266
 20
-270.0000000000027
 30
0.0
 11
38.69999999999711
 21
-345.228465931451
 31
0.0
  0
LINE
  5
2A87
330
2D78
100
AcDbEntity
  8
0
 62
     0
100
AcDbLine
 10
38.70000000000073
 20
-342.2284993960357
 30
0.0
 11
221.0577165608356
 21
-463.7999999999991
 31
0.0
  0
LINE
  5
2A88
330
2D78
100
AcDbEntity
  8
0
 62
     0
100
AcDbLine
 10
221.0577165608356
 20
-463.7999999999991
 30
0.0
 11
254.4999999999982
 21
-486.0947986956488
 31
0.0
  0
LINE
  5
2A89
330
2D78
100
AcDbEntity
  8
0
 62
     0
100
AcDbLine
 10
-69.64302575061992
 20
-270.0000000000009
 30
0.0
 11
38.69999999999711
 21
-342.2284993960337
 31
0.0
  0
LINE
  5
2A8A
330
2D78
100
AcDbEntity
  8
0
 62
     0
100
AcDbLine
 10
38.69999999999891
 20
-339.2285328606204
 30
0.0
 11
225.557677854722
 21
-463.800000000002
 31
0.0
  0
LINE
  5
2A8B
330
2D78
100
AcDbEntity
  8
0
 62
     0
100
AcDbLine
 10
225.557677854722
 20
-463.800000000002
 30
0.0
 11
254.4999999999963
 21
-483.0948321602336
 31
0.0
  0
LINE
  5
2A8C
330
2D78
100
AcDbEntity
  8
0
 62
     0
100
AcDbLine
 10
-65.14306445673355
 20
-270.0000000000018
 30
0.0
 11
38.69999999999528
 21
-339.2285328606176
 31
0.0
  0
LINE
  5
2A8D
330
2D78
100
AcDbEntity
  8
0
 62
     0
100
AcDbLine
 10
38.70000000000073
 20
-336.2285663252042
 30
0.0
 11
230.0576391486083
 21
-463.8000000000011
 31
0.0
  0
LINE
  5
2A8E
330
2D78
100
AcDbEntity
  8
0
 62
     0
100
AcDbLine
 10
230.0576391486083
 20
-463.8000000000011
 30
0.0
 11
254.4999999999982
 21
-480.0948656248165
 31
0.0
  0
LINE
  5
2A8F
330
2D78
100
AcDbEntity
  8
0
 62
     0
100
AcDbLine
 10
-60.64310316284718
 20
-270.0000000000018
 30
0.0
 11
38.69999999999528
 21
-336.2285663252005
 31
0.0
  0
LINE
  5
2A90
330
2D78
100
AcDbEntity
  8
0
 62
     0
100
AcDbLine
 10
38.70000000000073
 20
-333.2285997897888
 30
0.0
 11
234.5576004424929
 21
-463.8000000000011
 31
0.0
  0
LINE
  5
2A91
330
2D78
100
AcDbEntity
  8
0
 62
     0
100
AcDbLine
 10
234.5576004424929
 20
-463.8000000000011
 30
0.0
 11
254.4999999999982
 21
-477.0948990894011
 31
0.0
  0
LINE
  5
2A92
330
2D78
100
AcDbEntity
  8
0
 62
     0
100
AcDbLine
 10
-56.14314186896263
 20
-270.0000000000009
 30
0.0
 11
38.69999999999711
 21
-333.2285997897852
 31
0.0
  0
LINE
  5
2A93
330
2D78
100
AcDbEntity
  8
0
 62
     0
100
AcDbLine
 10
38.70000000000073
 20
-330.2286332543717
 30
0.0
 11
239.0575617363775
 21
-463.7999999999998
 31
0.0
  0
LINE
  5
2A94
330
2D78
100
AcDbEntity
  8
0
 62
     0
100
AcDbLine
 10
239.0575617363775
 20
-463.7999999999998
 30
0.0
 11
254.4999999999963
 21
-474.0949325539831
 31
0.0
  0
LINE
  5
2A95
330
2D78
100
AcDbEntity
  8
0
 62
     0
100
AcDbLine
 10
-51.64318057507443
 20
-270.0000000000027
 30
0.0
 11
38.69999999999528
 21
-330.2286332543691
 31
0.0
  0
LINE
  5
2A96
330
2D78
100
AcDbEntity
  8
0
 62
     0
100
AcDbLine
 10
38.69999999999891
 20
-327.2286667189555
 30
0.0
 11
243.5575230302656
 21
-463.800000000002
 31
0.0
  0
LINE
  5
2A97
330
2D78
100
AcDbEntity
  8
0
 62
     0
100
AcDbLine
 10
243.5575230302656
 20
-463.800000000002
 30
0.0
 11
254.4999999999982
 21
-471.0949660185677
 31
0.0
  0
LINE
  5
2A98
330
2D78
100
AcDbEntity
  8
0
 62
     0
100
AcDbLine
 10
-47.14321928118986
 20
-270.0000000000027
 30
0.0
 11
38.69999999999711
 21
-327.2286667189537
 31
0.0
  0
LINE
  5
2A99
330
2D78
100
AcDbEntity
  8
0
 62
     0
100
AcDbLine
 10
38.70000000000073
 20
-324.2287001835383
 30
0.0
 11
248.057484324152
 21
-463.8000000000011
 31
0.0
  0
LINE
  5
2A9A
330
2D78
100
AcDbEntity
  8
0
 62
     0
100
AcDbLine
 10
248.057484324152
 20
-463.8000000000011
 30
0.0
 11
254.4999999999982
 21
-468.0949994831516
 31
0.0
  0
LINE
  5
2A9B
330
2D78
100
AcDbEntity
  8
0
 62
     0
100
AcDbLine
 10
-42.64325798730349
 20
-270.0000000000018
 30
0.0
 11
38.69999999999711
 21
-324.2287001835368
 31
0.0
  0
LINE
  5
2A9C
330
2D78
100
AcDbEntity
  8
0
 62
     0
100
AcDbLine
 10
38.69999999999891
 20
-321.2287336481223
 30
0.0
 11
252.5574456180347
 21
-463.7999999999998
 31
0.0
  0
LINE
  5
2A9D
330
2D78
100
AcDbEntity
  8
0
 62
     0
100
AcDbLine
 10
252.5574456180347
 20
-463.7999999999998
 30
0.0
 11
254.4999999999982
 21
-465.0950329477345
 31
0.0
  0
LINE
  5
2A9E
330
2D78
100
AcDbEntity
  8
0
 62
     0
100
AcDbLine
 10
-38.14329669342078
 20
-270.0
 30
0.0
 11
38.69999999999711
 21
-321.2287336481195
 31
0.0
  0
LINE
  5
2A9F
330
2D78
100
AcDbEntity
  8
0
 62
     0
100
AcDbLine
 10
38.70000000000073
 20
-318.2287671127069
 30
0.0
 11
254.4999999999982
 21
-462.0950664123191
 31
0.0
  0
LINE
  5
2AA0
330
2D78
100
AcDbEntity
  8
0
 62
     0
100
AcDbLine
 10
-33.64333539953077
 20
-270.0000000000037
 30
0.0
 11
38.69999999999528
 21
-318.2287671127032
 31
0.0
  0
LINE
  5
2AA1
330
2D78
100
AcDbEntity
  8
0
 62
     0
100
AcDbLine
 10
38.70000000000073
 20
-315.2288005772898
 30
0.0
 11
254.5
 21
-459.0950998769021
 31
0.0
  0
LINE
  5
2AA2
330
2D78
100
AcDbEntity
  8
0
 62
     0
100
AcDbLine
 10
-29.14337410564622
 20
-270.0000000000009
 30
0.0
 11
38.69999999999711
 21
-315.2288005772871
 31
0.0
  0
LINE
  5
2AA3
330
2D78
100
AcDbEntity
  8
0
 62
     0
100
AcDbLine
 10
38.70000000000073
 20
-312.2288340418745
 30
0.0
 11
254.4999999999982
 21
-456.0951333414876
 31
0.0
  0
LINE
  5
2AA4
330
2D78
100
AcDbEntity
  8
0
 62
     0
100
AcDbLine
 10
-24.64341281176166
 20
-270.0000000000027
 30
0.0
 11
38.69999999999528
 21
-312.2288340418718
 31
0.0
  0
LINE
  5
2AA5
330
2D78
100
AcDbEntity
  8
0
 62
     0
100
AcDbLine
 10
38.69999999999891
 20
-309.2288675064574
 30
0.0
 11
254.4999999999982
 21
-453.0951668060708
 31
0.0
  0
LINE
  5
2AA6
330
2D78
100
AcDbEntity
  8
0
 62
     0
100
AcDbLine
 10
-20.14345151787893
 20
-270.0
 30
0.0
 11
38.69999999999528
 21
-309.2288675064547
 31
0.0
  0
LINE
  5
2AA7
330
2D78
100
AcDbEntity
  8
0
 62
     0
100
AcDbLine
 10
38.70000000000073
 20
-306.228900971043
 30
0.0
 11
254.4999999999982
 21
-450.0952002706552
 31
0.0
  0
LINE
  5
2AA8
330
2D78
100
AcDbEntity
  8
0
 62
     0
100
AcDbLine
 10
-15.64349022398892
 20
-270.0000000000037
 30
0.0
 11
38.69999999999528
 21
-306.2289009710394
 31
0.0
  0
LINE
  5
2AA9
330
2D78
100
AcDbEntity
  8
0
 62
     0
100
AcDbLine
 10
38.70000000000073
 20
-303.2289344356259
 30
0.0
 11
254.4999999999982
 21
-447.0952337352373
 31
0.0
  0
LINE
  5
2AAA
330
2D78
100
AcDbEntity
  8
0
 62
     0
100
AcDbLine
 10
-11.14352893010618
 20
-270.0000000000018
 30
0.0
 11
38.69999999999711
 21
-303.2289344356223
 31
0.0
  0
LINE
  5
2AAB
330
2D78
100
AcDbEntity
  8
0
 62
     0
100
AcDbLine
 10
38.69999999999891
 20
-300.2289679002097
 30
0.0
 11
254.4999999999963
 21
-444.0952671998217
 31
0.0
  0
LINE
  5
2AAC
330
2D78
100
AcDbEntity
  8
0
 62
     0
100
AcDbLine
 10
-6.643567636219811
 20
-270.0000000000027
 30
0.0
 11
38.69999999999528
 21
-300.2289679002079
 31
0.0
  0
LINE
  5
2AAD
330
2D78
100
AcDbEntity
  8
0
 62
     0
100
AcDbLine
 10
38.70000000000073
 20
-297.2290013647926
 30
0.0
 11
254.4999999999982
 21
-441.0953006644048
 31
0.0
  0
LINE
  5
2AAE
330
2D78
100
AcDbEntity
  8
0
 62
     0
100
AcDbLine
 10
-2.143606342333439
 20
-270.0000000000027
 30
0.0
 11
38.69999999999711
 21
-297.2290013647907
 31
0.0
  0
LINE
  5
2AAF
330
2D78
100
AcDbEntity
  8
0
 62
     0
100
AcDbLine
 10
38.70000000000073
 20
-294.2290348293773
 30
0.0
 11
254.4999999999982
 21
-438.0953341289904
 31
0.0
  0
LINE
  5
2AB0
330
2D78
100
AcDbEntity
  8
0
 62
     0
100
AcDbLine
 10
2.356354951551109
 20
-270.0000000000018
 30
0.0
 11
38.69999999999711
 21
-294.2290348293754
 31
0.0
  0
LINE
  5
2AB1
330
2D78
100
AcDbEntity
  8
0
 62
     0
100
AcDbLine
 10
38.70000000000073
 20
-291.2290682939602
 30
0.0
 11
254.4999999999982
 21
-435.0953675935733
 31
0.0
  0
LINE
  5
2AB2
330
2D78
100
AcDbEntity
  8
0
 62
     0
100
AcDbLine
 10
6.856316245435664
 20
-270.0000000000018
 30
0.0
 11
38.69999999999528
 21
-291.2290682939574
 31
0.0
  0
LINE
  5
2AB3
330
2D78
100
AcDbEntity
  8
0
 62
     0
100
AcDbLine
 10
38.69999999999891
 20
-288.2291017585458
 30
0.0
 11
254.4999999999963
 21
-432.095401058158
 31
0.0
  0
LINE
  5
2AB4
330
2D78
100
AcDbEntity
  8
0
 62
     0
100
AcDbLine
 10
11.3562775393184
 20
-270.0000000000009
 30
0.0
 11
38.69999999999528
 21
-288.2291017585421
 31
0.0
  0
LINE
  5
2AB5
330
2D78
100
AcDbEntity
  8
0
 62
     0
100
AcDbLine
 10
38.70000000000073
 20
-285.2291352231286
 30
0.0
 11
254.4999999999982
 21
-429.0954345227407
 31
0.0
  0
LINE
  5
2AB6
330
2D78
100
AcDbEntity
  8
0
 62
     0
100
AcDbLine
 10
15.85623883320841
 20
-270.0000000000027
 30
0.0
 11
38.69999999999528
 21
-285.229135223126
 31
0.0
  0
LINE
  5
2AB7
330
2D78
100
AcDbEntity
  8
0
 62
     0
100
AcDbLine
 10
38.70000000000073
 20
-282.2291686877115
 30
0.0
 11
254.4999999999982
 21
-426.0954679873236
 31
0.0
  0
LINE
  5
2AB8
330
2D78
100
AcDbEntity
  8
0
 62
     0
100
AcDbLine
 10
20.35620012709296
 20
-270.0000000000009
 30
0.0
 11
38.69999999999711
 21
-282.2291686877088
 31
0.0
  0
LINE
  5
2AB9
330
2D78
100
AcDbEntity
  8
0
 62
     0
100
AcDbLine
 10
38.70000000000073
 20
-279.2292021522961
 30
0.0
 11
254.4999999999982
 21
-423.0955014519095
 31
0.0
  0
LINE
  5
2ABA
330
2D78
100
AcDbEntity
  8
0
 62
     0
100
AcDbLine
 10
24.85616142097752
 20
-270.0000000000018
 30
0.0
 11
38.69999999999528
 21
-279.2292021522936
 31
0.0
  0
LINE
  5
2ABB
330
2D78
100
AcDbEntity
  8
0
 62
     0
100
AcDbLine
 10
38.70000000000073
 20
-276.2292356168791
 30
0.0
 11
254.4999999999982
 21
-420.0955349164915
 31
0.0
  0
LINE
  5
2ABC
330
2D78
100
AcDbEntity
  8
0
 62
     0
100
AcDbLine
 10
29.35612271486207
 20
-270.0
 30
0.0
 11
38.69999999999711
 21
-276.2292356168764
 31
0.0
  0
LINE
  5
2ABD
330
2D78
100
AcDbEntity
  8
0
 62
     0
100
AcDbLine
 10
38.70000000000073
 20
-273.2292690814638
 30
0.0
 11
254.4999999999982
 21
-417.0955683810761
 31
0.0
  0
LINE
  5
2ABE
330
2D78
100
AcDbEntity
  8
0
 62
     0
100
AcDbLine
 10
33.85608400875208
 20
-270.0000000000037
 30
0.0
 11
38.69999999999711
 21
-273.2292690814611
 31
0.0
  0
LINE
  5
2ABF
330
2D78
100
AcDbEntity
  8
0
 62
     0
100
AcDbLine
 10
38.69999999999891
 20
-270.2293025460467
 30
0.0
 11
254.4999999999982
 21
-414.0956018456591
 31
0.0
  0
LINE
  5
2AC0
330
2D78
100
AcDbEntity
  8
0
 62
     0
100
AcDbLine
 10
38.35604530263481
 20
-270.0000000000009
 30
0.0
 11
38.69999999999711
 21
-270.2293025460449
 31
0.0
  0
LINE
  5
2AC1
330
2D78
100
AcDbEntity
  8
0
 62
     0
100
AcDbLine
 10
42.85600659651936
 20
-270.0000000000027
 30
0.0
 11
254.4999999999963
 21
-411.0956353102436
 31
0.0
  0
LINE
  5
2AC2
330
2D78
100
AcDbEntity
  8
0
 62
     0
100
AcDbLine
 10
47.35596789040935
 20
-270.0000000000027
 30
0.0
 11
254.5
 21
-408.0956687748273
 31
0.0
  0
LINE
  5
2AC3
330
2D78
100
AcDbEntity
  8
0
 62
     0
100
AcDbLine
 10
51.85592918429028
 20
-270.0000000000018
 30
0.0
 11
254.4999999999982
 21
-405.0957022394119
 31
0.0
  0
LINE
  5
2AC4
330
2D78
100
AcDbEntity
  8
0
 62
     0
100
AcDbLine
 10
56.35589047817666
 20
-270.0000000000018
 30
0.0
 11
254.4999999999982
 21
-402.0957357039951
 31
0.0
  0
LINE
  5
2AC5
330
2D78
100
AcDbEntity
  8
0
 62
     0
100
AcDbLine
 10
60.85585177206303
 20
-270.0000000000027
 30
0.0
 11
254.4999999999982
 21
-399.0957691685799
 31
0.0
  0
LINE
  5
2AC6
330
2D78
100
AcDbEntity
  8
0
 62
     0
100
AcDbLine
 10
65.35581306595123
 20
-270.0000000000027
 30
0.0
 11
254.5
 21
-396.0958026331629
 31
0.0
  0
LINE
  5
2AC7
330
2D78
100
AcDbEntity
  8
0
 62
     0
100
AcDbLine
 10
69.85577435983214
 20
-270.0000000000018
 30
0.0
 11
254.4999999999963
 21
-393.0958360977466
 31
0.0
  0
LINE
  5
2AC8
330
2D78
100
AcDbEntity
  8
0
 62
     0
100
AcDbLine
 10
74.35573565372033
 20
-270.0000000000018
 30
0.0
 11
254.4999999999982
 21
-390.0958695623303
 31
0.0
  0
LINE
  5
2AC9
330
2D78
100
AcDbEntity
  8
0
 62
     0
100
AcDbLine
 10
78.8556969476067
 20
-270.0000000000037
 30
0.0
 11
254.4999999999982
 21
-387.0959030269149
 31
0.0
  0
LINE
  5
2ACA
330
2D78
100
AcDbEntity
  8
0
 62
     0
100
AcDbLine
 10
83.35565824149306
 20
-270.0000000000027
 30
0.0
 11
254.4999999999982
 21
-384.095936491498
 31
0.0
  0
LINE
  5
2ACB
330
2D78
100
AcDbEntity
  8
0
 62
     0
100
AcDbLine
 10
87.85561953537399
 20
-270.0000000000009
 30
0.0
 11
254.4999999999963
 21
-381.0959699560808
 31
0.0
  0
LINE
  5
2ACC
330
2D78
100
AcDbEntity
  8
0
 62
     0
100
AcDbLine
 10
92.35558082926218
 20
-270.0000000000027
 30
0.0
 11
254.4999999999982
 21
-378.0960034206655
 31
0.0
  0
LINE
  5
2ACD
330
2D78
100
AcDbEntity
  8
0
 62
     0
100
AcDbLine
 10
96.85554212314855
 20
-270.0000000000018
 30
0.0
 11
254.4999999999982
 21
-375.0960368852493
 31
0.0
  0
LINE
  5
2ACE
330
2D78
100
AcDbEntity
  8
0
 62
     0
100
AcDbLine
 10
101.3555034170349
 20
-270.0000000000037
 30
0.0
 11
254.4999999999982
 21
-372.096070349834
 31
0.0
  0
LINE
  5
2ACF
330
2D78
100
AcDbEntity
  8
0
 62
     0
100
AcDbLine
 10
105.8554647109176
 20
-270.0000000000009
 30
0.0
 11
254.4999999999982
 21
-369.0961038144169
 31
0.0
  0
LINE
  5
2AD0
330
2D78
100
AcDbEntity
  8
0
 62
     0
100
AcDbLine
 10
110.3554260048058
 20
-270.0000000000027
 30
0.0
 11
254.4999999999982
 21
-366.0961372790008
 31
0.0
  0
LINE
  5
2AD1
330
2D78
100
AcDbEntity
  8
0
 62
     0
100
AcDbLine
 10
114.8553872986904
 20
-270.0000000000027
 30
0.0
 11
254.4999999999982
 21
-363.0961707435836
 31
0.0
  0
LINE
  5
2AD2
330
2D78
100
AcDbEntity
  8
0
 62
     0
100
AcDbLine
 10
119.355348592573
 20
-270.0000000000018
 30
0.0
 11
254.4999999999963
 21
-360.0962042081692
 31
0.0
  0
LINE
  5
2AD3
330
2D78
100
AcDbEntity
  8
0
 62
     0
100
AcDbLine
 10
123.8553098864594
 20
-270.0000000000018
 30
0.0
 11
254.4999999999982
 21
-357.0962376727521
 31
0.0
  0
LINE
  5
2AD4
330
2D78
100
AcDbEntity
  8
0
 62
     0
100
AcDbLine
 10
128.3552711803477
 20
-270.0000000000027
 30
0.0
 11
254.4999999999982
 21
-354.0962711373368
 31
0.0
  0
LINE
  5
2AD5
330
2D78
100
AcDbEntity
  8
0
 62
     0
100
AcDbLine
 10
132.8552324742322
 20
-270.0000000000027
 30
0.0
 11
254.4999999999982
 21
-351.0963046019197
 31
0.0
  0
LINE
  5
2AD6
330
2D78
100
AcDbEntity
  8
0
 62
     0
100
AcDbLine
 10
137.3551937681168
 20
-270.0000000000027
 30
0.0
 11
254.4999999999982
 21
-348.0963380665043
 31
0.0
  0
LINE
  5
2AD7
330
2D78
100
AcDbEntity
  8
0
 62
     0
100
AcDbLine
 10
141.8551550620032
 20
-270.0000000000018
 30
0.0
 11
254.5
 21
-345.0963715310881
 31
0.0
  0
LINE
  5
2AD8
330
2D78
100
AcDbEntity
  8
0
 62
     0
100
AcDbLine
 10
146.3551163558894
 20
-270.0000000000018
 30
0.0
 11
254.4999999999982
 21
-342.0964049956709
 31
0.0
  0
LINE
  5
2AD9
330
2D78
100
AcDbEntity
  8
0
 62
     0
100
AcDbLine
 10
150.8550776497741
 20
-270.0000000000037
 30
0.0
 11
254.4999999999963
 21
-339.0964384602548
 31
0.0
  0
LINE
  5
2ADA
330
2D78
100
AcDbEntity
  8
0
 62
     0
100
AcDbLine
 10
155.3550389436604
 20
-270.0000000000009
 30
0.0
 11
254.4999999999982
 21
-336.0964719248376
 31
0.0
  0
LINE
  5
2ADB
330
2D78
100
AcDbEntity
  8
0
 62
     0
100
AcDbLine
 10
159.855000237545
 20
-270.0000000000027
 30
0.0
 11
254.4999999999982
 21
-333.0965053894224
 31
0.0
  0
LINE
  5
2ADC
330
2D78
100
AcDbEntity
  8
0
 62
     0
100
AcDbLine
 10
164.3549615314314
 20
-270.0000000000018
 30
0.0
 11
254.4999999999963
 21
-330.0965388540053
 31
0.0
  0
LINE
  5
2ADD
330
2D78
100
AcDbEntity
  8
0
 62
     0
100
AcDbLine
 10
168.8549228253141
 20
-270.0000000000018
 30
0.0
 11
254.4999999999982
 21
-327.0965723185909
 31
0.0
  0
LINE
  5
2ADE
330
2D78
100
AcDbEntity
  8
0
 62
     0
100
AcDbLine
 10
173.3548841192023
 20
-270.0000000000009
 30
0.0
 11
254.4999999999982
 21
-324.0966057831738
 31
0.0
  0
LINE
  5
2ADF
330
2D78
100
AcDbEntity
  8
0
 62
     0
100
AcDbLine
 10
177.8548454130868
 20
-270.0000000000027
 30
0.0
 11
254.4999999999982
 21
-321.0966392477585
 31
0.0
  0
LINE
  5
2AE0
330
2D78
100
AcDbEntity
  8
0
 62
     0
100
AcDbLine
 10
182.3548067069751
 20
-270.0000000000027
 30
0.0
 11
254.4999999999982
 21
-318.0966727123414
 31
0.0
  0
LINE
  5
2AE1
330
2D78
100
AcDbEntity
  8
0
 62
     0
100
AcDbLine
 10
186.8547680008578
 20
-270.0000000000018
 30
0.0
 11
254.5
 21
-315.0967061769261
 31
0.0
  0
LINE
  5
2AE2
330
2D78
100
AcDbEntity
  8
0
 62
     0
100
AcDbLine
 10
191.3547292947441
 20
-270.0000000000018
 30
0.0
 11
254.4999999999982
 21
-312.0967396415089
 31
0.0
  0
LINE
  5
2AE3
330
2D78
100
AcDbEntity
  8
0
 62
     0
100
AcDbLine
 10
195.8546905886287
 20
-270.0000000000027
 30
0.0
 11
254.4999999999963
 21
-309.0967731060937
 31
0.0
  0
LINE
  5
2AE4
330
2D78
100
AcDbEntity
  8
0
 62
     0
100
AcDbLine
 10
200.3546518825151
 20
-270.0000000000018
 30
0.0
 11
254.4999999999982
 21
-306.0968065706766
 31
0.0
  0
LINE
  5
2AE5
330
2D78
100
AcDbEntity
  8
0
 62
     0
100
AcDbLine
 10
204.8546131763997
 20
-270.0000000000009
 30
0.0
 11
254.4999999999982
 21
-303.0968400352595
 31
0.0
  0
LINE
  5
2AE6
330
2D78
100
AcDbEntity
  8
0
 62
     0
100
AcDbLine
 10
209.3545744702842
 20
-270.0000000000009
 30
0.0
 11
254.4999999999982
 21
-300.0968734998441
 31
0.0
  0
LINE
  5
2AE7
330
2D78
100
AcDbEntity
  8
0
 62
     0
100
AcDbLine
 10
213.8545357641724
 20
-270.0000000000018
 30
0.0
 11
254.4999999999982
 21
-297.0969069644279
 31
0.0
  0
LINE
  5
2AE8
330
2D78
100
AcDbEntity
  8
0
 62
     0
100
AcDbLine
 10
218.3544970580588
 20
-270.0000000000018
 30
0.0
 11
254.5
 21
-294.0969404290127
 31
0.0
  0
LINE
  5
2AE9
330
2D78
100
AcDbEntity
  8
0
 62
     0
100
AcDbLine
 10
222.8544583519415
 20
-270.0000000000009
 30
0.0
 11
254.4999999999982
 21
-291.0969738935955
 31
0.0
  0
LINE
  5
2AEA
330
2D78
100
AcDbEntity
  8
0
 62
     0
100
AcDbLine
 10
227.3544196458261
 20
-270.0000000000018
 30
0.0
 11
254.4999999999982
 21
-288.0970073581802
 31
0.0
  0
LINE
  5
2AEB
330
2D78
100
AcDbEntity
  8
0
 62
     0
100
AcDbLine
 10
231.8543809397161
 20
-270.0000000000018
 30
0.0
 11
254.4999999999982
 21
-285.0970408227622
 31
0.0
  0
LINE
  5
2AEC
330
2D78
100
AcDbEntity
  8
0
 62
     0
100
AcDbLine
 10
236.3543422336006
 20
-270.0000000000027
 30
0.0
 11
254.4999999999982
 21
-282.0970742873468
 31
0.0
  0
LINE
  5
2AED
330
2D78
100
AcDbEntity
  8
0
 62
     0
100
AcDbLine
 10
240.8543035274834
 20
-270.0000000000009
 30
0.0
 11
254.4999999999963
 21
-279.0971077519307
 31
0.0
  0
LINE
  5
2AEE
330
2D78
100
AcDbEntity
  8
0
 62
     0
100
AcDbLine
 10
245.3542648213716
 20
-270.0000000000027
 30
0.0
 11
254.4999999999982
 21
-276.0971412165154
 31
0.0
  0
LINE
  5
2AEF
330
2D78
100
AcDbEntity
  8
0
 62
     0
100
AcDbLine
 10
249.8542261152561
 20
-270.0000000000018
 30
0.0
 11
254.4999999999982
 21
-273.0971746810983
 31
0.0
  0
LINE
  5
2AF0
330
2D78
100
AcDbEntity
  8
0
 62
     0
100
AcDbLine
 10
254.3541874091407
 20
-270.0000000000018
 30
0.0
 11
254.4999999999982
 21
-270.097208145683
 31
0.0
  0
ENDBLK
  5
2AF1
330
2D78
100
AcDbEntity
  8
0
100
AcDbBlockEnd
  0
ENDSEC
  0
SECTION
  2
ENTITIES
  0
TEXT
  5
953
330
2C9F
100
AcDbEntity
  8
OUTLINE
  6
Continuous
 62
     3
100
AcDbText
 10
-418.231467
 20
13.715189
 30
0.0
 40
64.0
  1
 
 41
0.9
100
AcDbText
  0
TEXT
  5
954
330
2C9F
100
AcDbEntity
  8
OUTLINE
  6
Continuous
 62
     3
100
AcDbText
 10
-418.231467
 20
13.715189
 30
0.0
 40
64.0
  1
 
 41
0.9
100
AcDbText
  0
TEXT
  5
955
330
2C9F
100
AcDbEntity
  8
OUTLINE
  6
Continuous
 62
     3
100
AcDbText
 10
1341.41903
 20
-706.0588199999997
 30
0.0
 40
64.0
  1
 
 41
0.9
100
AcDbText
  0
TEXT
  5
956
330
2C9F
100
AcDbEntity
  8
OUTLINE
  6
Continuous
 62
     3
100
AcDbText
 10
1341.41903
 20
-706.0588199999997
 30
0.0
 40
64.0
  1
 
 41
0.9
100
AcDbText
  0
TEXT
  5
957
330
2C9F
100
AcDbEntity
  8
OUTLINE
  6
Continuous
 62
     3
100
AcDbText
 10
1341.41903
 20
-706.0588199999997
 30
0.0
 40
64.0
  1
 
 41
0.9
100
AcDbText
  0
TEXT
  5
958
330
2C9F
100
AcDbEntity
  8
OUTLINE
  6
Continuous
 62
     3
100
AcDbText
 10
1341.41903
 20
-706.0588199999997
 30
0.0
 40
64.0
  1
 
 41
0.9
100
AcDbText
  0
TEXT
  5
301E
330
2C9F
100
AcDbEntity
  8
ETC
100
AcDbText
 10
386.995152660478
 20
507.559197890871
 30
0.0
 40
64.0
  1
システム部材
 41
0.9
100
AcDbText
  0
TEXT
  5
301F
330
2C9F
100
AcDbEntity
  8
ETC
100
AcDbText
 10
393.203150660476
 20
608.4425238908711
 30
0.0
 40
64.0
  1
W-50SKL_6
 41
0.9
100
AcDbText
  0
TEXT
  5
3020
330
2C9F
100
AcDbEntity
  8
ETC
100
AcDbText
 10
393.203150660476
 20
408.4425238908711
 30
0.0
 40
64.0
  1
W-50SKL
 41
0.9
100
AcDbText
  0
CIRCLE
  5
3021
330
2C9F
100
AcDbEntity
  8
ARRANGE
100
AcDbCircle
 10
0.000000000003638
 20
-0.0000000986733539
 30
0.0
 40
40.0
  0
POINT
  5
3022
330
2C9F
100
AcDbEntity
  8
ARRANGE
100
AcDbPoint
 10
0.0
 20
-0.0000000000004547
 30
0.0
 39
50.0
  0
LINE
  5
3023
330
2C9F
100
AcDbEntity
  8
BASIS
100
AcDbLine
 39
50.0
 10
0.0
 20
24.99999999999955
 30
0.0
 11
0.0
 21
-729.9999999999995
 31
0.0
  0
LINE
  5
3024
330
2C9F
100
AcDbEntity
  8
DETAIL
100
AcDbLine
 10
-270.5
 20
-704.9999999999995
 30
0.0
 11
-270.5
 21
-51.00000000000045
 31
0.0
  0
LINE
  5
3025
330
2C9F
100
AcDbEntity
  8
DETAIL
100
AcDbLine
 10
270.4999999999998
 20
-51.00000000000045
 30
0.0
 11
270.4999999999998
 21
-704.9999999999995
 31
0.0
  0
LINE
  5
3026
330
2C9F
100
AcDbEntity
  8
DETAIL
100
AcDbLine
 10
270.4999999999998
 20
-210.0000000000004
 30
0.0
 11
-270.5
 21
-210.0000000000004
 31
0.0
  0
LINE
  5
3027
330
2C9F
100
AcDbEntity
  8
SIZE
100
AcDbLine
 10
-280.0
 20
32.5000012640835
 30
0.0
 11
-280.0
 21
221.7805260451564
 31
0.0
  0
LINE
  5
3028
330
2C9F
100
AcDbEntity
  8
SIZE
100
AcDbLine
 10
279.9999999999998
 20
32.5000012640835
 30
0.0
 11
279.9999999999998
 21
221.7805260451564
 31
0.0
  0
LINE
  5
3029
330
2C9F
100
AcDbEntity
  8
SIZE
100
AcDbLine
 10
-268.0
 20
201.7805260451564
 30
0.0
 11
267.9999999999998
 21
201.7805260451564
 31
0.0
  0
INSERT
  5
302A
330
2C9F
100
AcDbEntity
  8
SIZE
100
AcDbBlockReference
  2
_DOTBLANK
 10
-280.0
 20
201.7805260451564
 30
0.0
 41
12.0
 42
12.0
 43
12.0
 50
180.0
  0
INSERT
  5
302B
330
2C9F
100
AcDbEntity
  8
SIZE
100
AcDbBlockReference
  2
_DOTBLANK
 10
279.9999999999998
 20
201.7805260451564
 30
0.0
 41
12.0
 42
12.0
 43
12.0
  0
TEXT
  5
302C
330
2C9F
100
AcDbEntity
  8
SIZE
100
AcDbText
 10
-74.05714285714271
 20
211.7805260451564
 30
0.0
 40
64.0
  1
560
 41
0.9
100
AcDbText
  0
LINE
  5
302D
330
2C9F
100
AcDbEntity
  8
DETAIL
100
AcDbLine
 10
-289.5
 20
-53.00000000000046
 30
0.0
 11
-270.5
 21
-53.00000000000046
 31
0.0
  0
LINE
  5
302E
330
2C9F
100
AcDbEntity
  8
DETAIL
100
AcDbLine
 10
270.4999999999998
 20
-53.00000000000046
 30
0.0
 11
289.4999999999998
 21
-53.00000000000046
 31
0.0
  0
LINE
  5
302F
330
2C9F
100
AcDbEntity
  8
DETAIL
100
AcDbLine
 10
-289.5
 20
-52.00000000000045
 30
0.0
 11
-270.5
 21
-52.00000000000045
 31
0.0
  0
LINE
  5
3030
330
2C9F
100
AcDbEntity
  8
DETAIL
100
AcDbLine
 10
270.4999999999998
 20
-52.00000000000045
 30
0.0
 11
289.4999999999998
 21
-52.00000000000045
 31
0.0
  0
LINE
  5
3031
330
2C9F
100
AcDbEntity
  8
DETAIL
100
AcDbLine
 10
-304.9999999999998
 20
-1.200000000000272
 30
0.0
 11
304.9999999999998
 21
-1.200000000000272
 31
0.0
  0
LINE
  5
3032
330
2C9F
100
AcDbEntity
  8
DETAIL
100
AcDbLine
 10
-304.9999999999998
 20
-0.0000000000004547
 30
0.0
 11
304.9999999999998
 21
-0.0000000000004547
 31
0.0
  0
LINE
  5
3033
330
2C9F
100
AcDbEntity
  8
DETAIL
100
AcDbLine
 10
-286.0
 20
22.99999999999954
 30
0.0
 11
-274.0
 21
22.99999999999954
 31
0.0
  0
LINE
  5
3034
330
2C9F
100
AcDbEntity
  8
DETAIL
100
AcDbLine
 10
273.9999999999998
 20
22.99999999999954
 30
0.0
 11
285.9999999999998
 21
22.99999999999954
 31
0.0
  0
LINE
  5
3035
330
2C9F
100
AcDbEntity
  8
SIZE
100
AcDbLine
 10
-304.9999999999998
 20
19.99999999999954
 30
0.0
 11
-304.9999999999998
 21
315.8939056626309
 31
0.0
  0
LINE
  5
3036
330
2C9F
100
AcDbEntity
  8
SIZE
100
AcDbLine
 10
304.9999999999998
 20
20.00000000000046
 30
0.0
 11
304.9999999999998
 21
315.8939056626309
 31
0.0
  0
LINE
  5
3037
330
2C9F
100
AcDbEntity
  8
SIZE
100
AcDbLine
 10
-292.9999999999998
 20
295.8939056626309
 30
0.0
 11
292.9999999999998
 21
295.8939056626309
 31
0.0
  0
INSERT
  5
3038
330
2C9F
100
AcDbEntity
  8
SIZE
100
AcDbBlockReference
  2
_DOTBLANK
 10
-304.9999999999998
 20
295.8939056626309
 30
0.0
 41
12.0
 42
12.0
 43
12.0
 50
180.0
  0
INSERT
  5
3039
330
2C9F
100
AcDbEntity
  8
SIZE
100
AcDbBlockReference
  2
_DOTBLANK
 10
304.9999999999998
 20
295.8939056626309
 30
0.0
 41
12.0
 42
12.0
 43
12.0
  0
TEXT
  5
303A
330
2C9F
100
AcDbEntity
  8
SIZE
100
AcDbText
 10
-68.57142857142867
 20
305.8939056626309
 30
0.0
 40
64.0
  1
610
 41
0.9
100
AcDbText
  0
LINE
  5
303B
330
2C9F
100
AcDbEntity
  8
DETAIL
100
AcDbLine
 10
-270.5
 20
-51.00000000000045
 30
0.0
 11
-270.4999999999964
 21
-1.200000000000272
 31
0.0
  0
LINE
  5
303C
330
2C9F
100
AcDbEntity
  8
NOTE
100
AcDbLine
 10
-280.0
 20
12.50000126408349
 30
0.0
 11
-280.0
 21
-12.5000012640844
 31
0.0
  0
LINE
  5
303D
330
2C9F
100
AcDbEntity
  8
DETAIL
100
AcDbLine
 10
-273.9999999999964
 20
22.99999999999954
 30
0.0
 11
-274.0
 21
-0.0000000000004547
 31
0.0
  0
LINE
  5
303E
330
2C9F
100
AcDbEntity
  8
DETAIL
100
AcDbLine
 10
-285.9999999999963
 20
22.99999999999954
 30
0.0
 11
-286.0
 21
-0.0000000000004547
 31
0.0
  0
LINE
  5
303F
330
2C9F
100
AcDbEntity
  8
OUTLINE
100
AcDbLine
 10
-304.9999999999998
 20
-0.0000000000004547
 30
0.0
 11
-304.9999999999998
 21
-1.000000000000454
 31
0.0
  0
LINE
  5
3040
330
2C9F
100
AcDbEntity
  8
DETAIL
100
AcDbLine
 10
-304.9999999999998
 20
-0.0000000000004547
 30
0.0
 11
-304.9999999999998
 21
-1.200000000000272
 31
0.0
  0
LINE
  5
3041
330
2C9F
100
AcDbEntity
  8
OUTLINE
100
AcDbLine
 10
-289.5
 20
-51.99999999999954
 30
0.0
 11
-289.5
 21
-52.99999999999954
 31
0.0
  0
LINE
  5
3042
330
2C9F
100
AcDbEntity
  8
NOTE
100
AcDbLine
 10
-279.5
 20
-39.49997860818121
 30
0.0
 11
-279.5
 21
-64.5000213918197
 31
0.0
  0
LINE
  5
3043
330
2C9F
100
AcDbEntity
  8
DETAIL
100
AcDbLine
 10
-289.5
 20
-52.00000000000045
 30
0.0
 11
-289.5
 21
-53.00000000000046
 31
0.0
  0
LINE
  5
3044
330
2C9F
100
AcDbEntity
  8
DETAIL
100
AcDbLine
 10
270.4999999999998
 20
-1.200000000000272
 30
0.0
 11
270.4999999999998
 21
-51.00000000000045
 31
0.0
  0
LINE
  5
3045
330
2C9F
100
AcDbEntity
  8
NOTE
100
AcDbLine
 10
279.9999999999998
 20
12.50000126408349
 30
0.0
 11
279.9999999999998
 21
-12.5000012640844
 31
0.0
  0
LINE
  5
3046
330
2C9F
100
AcDbEntity
  8
DETAIL
100
AcDbLine
 10
286.0000000000034
 20
22.99999999999954
 30
0.0
 11
285.9999999999998
 21
-0.0000000000004547
 31
0.0
  0
LINE
  5
3047
330
2C9F
100
AcDbEntity
  8
DETAIL
100
AcDbLine
 10
274.0000000000034
 20
22.99999999999954
 30
0.0
 11
273.9999999999998
 21
-0.0000000000004547
 31
0.0
  0
LINE
  5
3048
330
2C9F
100
AcDbEntity
  8
OUTLINE
100
AcDbLine
 10
304.9999999999998
 20
0.0000000000004547
 30
0.0
 11
304.9999999999998
 21
-0.9999999999995452
 31
0.0
  0
LINE
  5
3049
330
2C9F
100
AcDbEntity
  8
DETAIL
100
AcDbLine
 10
304.9999999999998
 20
-0.0000000000004547
 30
0.0
 11
304.9999999999998
 21
-1.200000000000272
 31
0.0
  0
LINE
  5
304A
330
2C9F
100
AcDbEntity
  8
DETAIL
100
AcDbLine
 10
289.4999999999998
 20
-52.00000000000045
 30
0.0
 11
289.4999999999998
 21
-53.00000000000046
 31
0.0
  0
LINE
  5
304B
330
2C9F
100
AcDbEntity
  8
NOTE
100
AcDbLine
 10
279.4999999999998
 20
-39.49997860818121
 30
0.0
 11
279.4999999999998
 21
-64.5000213918197
 31
0.0
  0
LINE
  5
304C
330
2C9F
100
AcDbEntity
  8
DETAIL
100
AcDbLine
 10
-254.5
 20
-685.4999999999994
 30
0.0
 11
254.4999999999998
 21
-685.5000000000002
 31
0.0
  0
LINE
  5
304D
330
2C9F
100
AcDbEntity
  8
DETAIL
100
AcDbLine
 10
-270.5
 20
-270.0000000000005
 30
0.0
 11
270.4999999999998
 21
-270.0000000000005
 31
0.0
  0
LINE
  5
304E
330
2C9F
100
AcDbEntity
  8
DETAIL
100
AcDbLine
 10
-270.5
 20
-704.9999999999995
 30
0.0
 11
270.4999999999998
 21
-704.9999999999995
 31
0.0
  0
LINE
  5
304F
330
2C9F
100
AcDbEntity
  8
DETAIL
100
AcDbLine
 10
-254.5
 20
-685.4999999999994
 30
0.0
 11
-254.5
 21
-270.0000000000005
 31
0.0
  0
LINE
  5
3050
330
2C9F
100
AcDbEntity
  8
DETAIL
100
AcDbLine
 10
254.4999999999998
 20
-270.0000000000005
 30
0.0
 11
254.4999999999998
 21
-685.5000000000002
 31
0.0
  0
LINE
  5
3051
330
2C9F
100
AcDbEntity
  8
SIZE
100
AcDbLine
 10
-270.5
 20
-724.9999999999995
 30
0.0
 11
-270.5
 21
-1024.671157368051
 31
0.0
  0
LINE
  5
3052
330
2C9F
100
AcDbEntity
  8
SIZE
100
AcDbLine
 10
270.4999999999998
 20
-724.9999999999995
 30
0.0
 11
270.4999999999998
 21
-1024.671157368051
 31
0.0
  0
LINE
  5
3053
330
2C9F
100
AcDbEntity
  8
SIZE
100
AcDbLine
 10
-258.5
 20
-1004.671157368051
 30
0.0
 11
258.4999999999998
 21
-1004.671157368051
 31
0.0
  0
INSERT
  5
3054
330
2C9F
100
AcDbEntity
  8
SIZE
100
AcDbBlockReference
  2
_DOTBLANK
 10
-270.5
 20
-1004.671157368051
 30
0.0
 41
12.0
 42
12.0
 43
12.0
 50
180.0
  0
INSERT
  5
3055
330
2C9F
100
AcDbEntity
  8
SIZE
100
AcDbBlockReference
  2
_DOTBLANK
 10
270.4999999999998
 20
-1004.671157368051
 30
0.0
 41
12.0
 42
12.0
 43
12.0
  0
TEXT
  5
3056
330
2C9F
100
AcDbEntity
  8
SIZE
100
AcDbText
 10
-61.21428571428555
 20
-994.6711573680506
 30
0.0
 40
64.0
  1
541
 41
0.9
100
AcDbText
  0
LINE
  5
3057
330
2C9F
100
AcDbEntity
  8
SIZE
100
AcDbLine
 10
-289.5
 20
-73.00000000000046
 30
0.0
 11
-289.5
 21
-213.6447560916308
 31
0.0
  0
LINE
  5
3058
330
2C9F
100
AcDbEntity
  8
SIZE
100
AcDbLine
 10
289.4999999999998
 20
-73.00000000000046
 30
0.0
 11
289.4999999999998
 21
-213.6447560916308
 31
0.0
  0
LINE
  5
3059
330
2C9F
100
AcDbEntity
  8
SIZE
100
AcDbLine
 10
-277.5
 20
-193.6447560916308
 30
0.0
 11
277.4999999999998
 21
-193.6447560916308
 31
0.0
  0
INSERT
  5
305A
330
2C9F
100
AcDbEntity
  8
SIZE
100
AcDbBlockReference
  2
_DOTBLANK
 10
-289.5
 20
-193.6447560916308
 30
0.0
 41
12.0
 42
12.0
 43
12.0
 50
180.0
  0
INSERT
  5
305B
330
2C9F
100
AcDbEntity
  8
SIZE
100
AcDbBlockReference
  2
_DOTBLANK
 10
289.4999999999998
 20
-193.6447560916308
 30
0.0
 41
12.0
 42
12.0
 43
12.0
  0
TEXT
  5
305C
330
2C9F
100
AcDbEntity
  8
SIZE
100
AcDbText
 10
-72.68571428571431
 20
-183.6447560916308
 30
0.0
 40
64.0
  1
579
 41
0.9
100
AcDbText
  0
LINE
  5
305D
330
2C9F
100
AcDbEntity
  8
SIZE
100
AcDbLine
 10
324.9999999999998
 20
-0.0000000000004547
 30
0.0
 11
519.4226685229402
 21
-0.0000000000004547
 31
0.0
  0
LINE
  5
305E
330
2C9F
100
AcDbEntity
  8
SIZE
100
AcDbLine
 10
306.0000000000034
 20
22.99999999999954
 30
0.0
 11
519.4226685229402
 21
22.99999999999954
 31
0.0
  0
LINE
  5
305F
330
2C9F
100
AcDbEntity
  8
SIZE
100
AcDbLine
 10
499.4226685229403
 20
-12.00000000000045
 30
0.0
 11
499.4226685229403
 21
-24.00000000000046
 31
0.0
  0
LINE
  5
3060
330
2C9F
100
AcDbEntity
  8
SIZE
100
AcDbLine
 10
499.4226685229403
 20
34.99999999999955
 30
0.0
 11
499.4226685229403
 21
165.2571428571459
 31
0.0
  0
LINE
  5
3061
330
2C9F
100
AcDbEntity
  8
SIZE
100
AcDbLine
 10
499.4226685229403
 20
-0.0000000000004547
 30
0.0
 11
499.4226685229403
 21
22.99999999999954
 31
0.0
  0
INSERT
  5
3062
330
2C9F
100
AcDbEntity
  8
SIZE
100
AcDbBlockReference
  2
_DOTBLANK
 10
499.4226685229403
 20
-0.0000000000004547
 30
0.0
 41
12.0
 42
12.0
 43
12.0
 50
90.0
  0
INSERT
  5
3063
330
2C9F
100
AcDbEntity
  8
SIZE
100
AcDbBlockReference
  2
_DOTBLANK
 10
499.4226685229403
 20
22.99999999999954
 30
0.0
 41
12.0
 42
12.0
 43
12.0
 50
270.0
  0
TEXT
  5
3064
330
2C9F
100
AcDbEntity
  8
SIZE
100
AcDbText
 10
489.4226685229402
 20
62.00000000000319
 30
0.0
 40
64.0
  1
23
 50
90.0
 41
0.9
100
AcDbText
  0
INSERT
  5
3065
330
2C9F
100
AcDbEntity
  8
NOTE
100
AcDbBlockReference
  2
_OPEN30
 10
-279.5
 20
-52.00000000000045
 30
0.0
 41
11.99999999999995
 42
12.0
 43
12.0
 50
305.9876127319022
1001
ACAD
1000
DSTYLE
1002
{
1070
    41
1040
12.0
1070
   341
1005
2CF2
1070
   147
1040
20.0
1070
    77
1070
     1
1002
}
  0
LWPOLYLINE
  5
3066
330
2C9F
100
AcDbEntity
  8
NOTE
100
AcDbPolyline
 90
        3
 70
     0
 43
0.0
 10
-286.5513239624501
 20
-42.29027135412275
 10
-383.9999999999998
 20
91.89732323993984
 10
-855.9542857142856
 20
91.89732323993984
1001
ACAD
1000
DSTYLE
1002
{
1070
    41
1040
12.0
1070
   341
1005
2CF2
1070
   147
1040
20.0
1070
    77
1070
     1
1002
}
  0
TEXT
  5
3067
330
2C9F
100
AcDbEntity
  8
NOTE
100
AcDbText
 10
-855.9542857142856
 20
111.8973232399398
 30
0.0
 40
64.0
  1
6×φ7取付穴
 41
0.9
100
AcDbText
1001
ACAD
1000
ACAD_MTEXT_DEFINED_HEIGHT_BEGIN
1070
    46
1040
0.0
1000
ACAD_MTEXT_DEFINED_HEIGHT_END
  0
INSERT
  5
3068
330
2C9F
100
AcDbEntity
  8
NOTE
100
AcDbBlockReference
  2
_OPEN30
 10
-280.0
 20
-0.0000000000004547
 30
0.0
 41
12.0
 42
12.0
 43
12.0
 50
296.1323340017242
1001
ACAD
1000
DSTYLE
1002
{
1070
    41
1040
12.0
1070
   341
1005
2CF2
1070
   147
1040
20.0
1070
    77
1070
     1
1002
}
  0
LWPOLYLINE
  5
3069
330
2C9F
100
AcDbEntity
  8
NOTE
100
AcDbPolyline
 90
        3
 70
     0
 43
0.0
 10
-285.285350655739
 20
10.77334991754514
 10
-389.8904122898855
 20
223.9941947648799
 10
-693.9818408613139
 20
223.9941947648799
1001
ACAD
1000
DSTYLE
1002
{
1070
    41
1040
12.0
1070
   341
1005
2CF2
1070
   147
1040
20.0
1070
    77
1070
     1
1002
}
  0
TEXT
  5
306A
330
2C9F
100
AcDbEntity
  8
NOTE
100
AcDbText
 10
-693.9818408613139
 20
243.9941947648799
 30
0.0
 40
64.0
  1
4×M10
 41
0.9
100
AcDbText
1001
ACAD
1000
ACAD_MTEXT_DEFINED_HEIGHT_BEGIN
1070
    46
1040
0.0
1000
ACAD_MTEXT_DEFINED_HEIGHT_END
  0
LINE
  5
306B
330
2C9F
100
AcDbEntity
  8
NOTE
100
AcDbLine
 39
50.0
 10
-289.5
 20
-51.99999999999954
 30
0.0
 11
-270.5
 21
-52.00000000000045
 31
0.0
  0
LINE
  5
306C
330
2C9F
100
AcDbEntity
  8
OUTLINE
100
AcDbLine
 39
50.0
 10
-289.5
 20
-51.99999999999954
 30
0.0
 11
-270.5
 21
-52.00000000000045
 31
0.0
  0
LINE
  5
306D
330
2C9F
100
AcDbEntity
  8
NOTE
100
AcDbLine
 39
50.0
 10
270.4999999999998
 20
-52.00000000000045
 30
0.0
 11
289.4999999999998
 21
-52.00000000000045
 31
0.0
  0
LINE
  5
306E
330
2C9F
100
AcDbEntity
  8
OUTLINE
100
AcDbLine
 39
50.0
 10
270.4999999999998
 20
-52.00000000000045
 30
0.0
 11
289.4999999999998
 21
-52.00000000000045
 31
0.0
  0
LINE
  5
306F
330
2C9F
100
AcDbEntity
  8
OUTLINE
100
AcDbLine
 10
-270.5
 20
-704.9999999999995
 30
0.0
 11
-270.5
 21
-51.00000000000045
 31
0.0
  0
LINE
  5
3070
330
2C9F
100
AcDbEntity
  8
OUTLINE
100
AcDbLine
 10
270.4999999999998
 20
-51.00000000000045
 30
0.0
 11
270.4999999999998
 21
-704.9999999999995
 31
0.0
  0
LINE
  5
3071
330
2C9F
100
AcDbEntity
  8
OUTLINE
100
AcDbLine
 10
270.4999999999998
 20
-210.0000000000004
 30
0.0
 11
-270.5
 21
-210.0000000000004
 31
0.0
  0
LINE
  5
3072
330
2C9F
100
AcDbEntity
  8
OUTLINE
100
AcDbLine
 10
-289.5
 20
-53.00000000000046
 30
0.0
 11
-270.5
 21
-53.00000000000046
 31
0.0
  0
LINE
  5
3073
330
2C9F
100
AcDbEntity
  8
OUTLINE
100
AcDbLine
 10
270.4999999999998
 20
-53.00000000000046
 30
0.0
 11
289.4999999999998
 21
-53.00000000000046
 31
0.0
  0
LINE
  5
3074
330
2C9F
100
AcDbEntity
  8
OUTLINE
100
AcDbLine
 10
-304.9999999999998
 20
-1.200000000000272
 30
0.0
 11
304.9999999999998
 21
-1.200000000000272
 31
0.0
  0
LINE
  5
3075
330
2C9F
100
AcDbEntity
  8
OUTLINE
100
AcDbLine
 10
-286.0
 20
22.99999999999954
 30
0.0
 11
-274.0
 21
22.99999999999954
 31
0.0
  0
LINE
  5
3076
330
2C9F
100
AcDbEntity
  8
OUTLINE
100
AcDbLine
 10
273.9999999999998
 20
22.99999999999954
 30
0.0
 11
285.9999999999998
 21
22.99999999999954
 31
0.0
  0
LINE
  5
3077
330
2C9F
100
AcDbEntity
  8
OUTLINE
100
AcDbLine
 10
-270.5
 20
-51.00000000000045
 30
0.0
 11
-270.4999999999964
 21
-1.200000000000272
 31
0.0
  0
LINE
  5
3078
330
2C9F
100
AcDbEntity
  8
OUTLINE
100
AcDbLine
 10
-273.9999999999964
 20
22.99999999999954
 30
0.0
 11
-274.0
 21
-0.0000000000004547
 31
0.0
  0
LINE
  5
3079
330
2C9F
100
AcDbEntity
  8
OUTLINE
100
AcDbLine
 10
-285.9999999999963
 20
22.99999999999954
 30
0.0
 11
-286.0
 21
-0.0000000000004547
 31
0.0
  0
LINE
  5
307A
330
2C9F
100
AcDbEntity
  8
OUTLINE
100
AcDbLine
 10
-289.5
 20
-52.00000000000045
 30
0.0
 11
-289.5
 21
-53.00000000000046
 31
0.0
  0
LINE
  5
307B
330
2C9F
100
AcDbEntity
  8
OUTLINE
100
AcDbLine
 10
270.4999999999998
 20
-1.200000000000272
 30
0.0
 11
270.4999999999998
 21
-51.00000000000045
 31
0.0
  0
LINE
  5
307C
330
2C9F
100
AcDbEntity
  8
OUTLINE
100
AcDbLine
 10
286.0000000000034
 20
22.99999999999954
 30
0.0
 11
285.9999999999998
 21
-0.0000000000004547
 31
0.0
  0
LINE
  5
307D
330
2C9F
100
AcDbEntity
  8
OUTLINE
100
AcDbLine
 10
274.0000000000034
 20
22.99999999999954
 30
0.0
 11
273.9999999999998
 21
-0.0000000000004547
 31
0.0
  0
LINE
  5
307E
330
2C9F
100
AcDbEntity
  8
OUTLINE
100
AcDbLine
 10
289.4999999999998
 20
-52.00000000000045
 30
0.0
 11
289.4999999999998
 21
-53.00000000000046
 31
0.0
  0
LINE
  5
307F
330
2C9F
100
AcDbEntity
  8
OUTLINE
100
AcDbLine
 10
-270.5
 20
-704.9999999999995
 30
0.0
 11
270.4999999999998
 21
-704.9999999999995
 31
0.0
  0
LINE
  5
3080
330
2C9F
100
AcDbEntity
  8
SIZE
100
AcDbLine
 10
324.9999999999998
 20
0.0000000000004547
 30
0.0
 11
519.4226685229407
 21
0.0000000000004547
 31
0.0
  0
LINE
  5
3081
330
2C9F
100
AcDbEntity
  8
SIZE
100
AcDbLine
 10
290.4999999999997
 20
-704.9999999999995
 30
0.0
 11
519.4226685229407
 21
-704.9999999999995
 31
0.0
  0
LINE
  5
3082
330
2C9F
100
AcDbEntity
  8
SIZE
100
AcDbLine
 10
499.4226685229403
 20
-11.99999999999954
 30
0.0
 11
499.4226685229403
 21
-692.9999999999995
 31
0.0
  0
INSERT
  5
3083
330
2C9F
100
AcDbEntity
  8
SIZE
100
AcDbBlockReference
  2
_DOTBLANK
 10
499.4226685229403
 20
0.0000000000004547
 30
0.0
 41
12.0
 42
12.0
 43
12.0
 50
90.0
  0
INSERT
  5
3084
330
2C9F
100
AcDbEntity
  8
SIZE
100
AcDbBlockReference
  2
_DOTBLANK
 10
499.4226685229403
 20
-704.9999999999995
 30
0.0
 41
12.0
 42
12.0
 43
12.0
 50
270.0
  0
TEXT
  5
3085
330
2C9F
100
AcDbEntity
  8
SIZE
100
AcDbText
 10
489.4226685229407
 20
-549.9857142857138
 30
0.0
 40
64.0
  1
705（最小）
 50
90.0
 41
0.9
100
AcDbText
  0
LINE
  5
3086
330
2C9F
100
AcDbEntity
  8
OUTLINE
100
AcDbLine
 10
304.9999999999998
 20
-0.0000000000004547
 30
0.0
 11
304.9999999999998
 21
-1.200000000000272
 31
0.0
  0
LINE
  5
3087
330
2C9F
100
AcDbEntity
  8
OUTLINE
100
AcDbLine
 10
-304.9999999999998
 20
-0.0000000000004547
 30
0.0
 11
-304.9999999999998
 21
-1.200000000000272
 31
0.0
  0
LINE
  5
3088
330
2C9F
100
AcDbEntity
  8
SIZE
100
AcDbLine
 10
324.9999999999998
 20
0.0000000000004547
 30
0.0
 11
421.0832228966207
 21
0.0000000000004547
 31
0.0
  0
LINE
  5
3089
330
2C9F
100
AcDbEntity
  8
SIZE
100
AcDbLine
 10
324.9999999999998
 20
-1.200000000000272
 30
0.0
 11
421.0832228966207
 21
-1.200000000000272
 31
0.0
  0
LINE
  5
308A
330
2C9F
100
AcDbEntity
  8
SIZE
100
AcDbLine
 10
401.0832228966207
 20
12.00000000000045
 30
0.0
 11
401.0832228966207
 21
24.00000000000046
 31
0.0
  0
LINE
  5
308B
330
2C9F
100
AcDbEntity
  8
SIZE
100
AcDbLine
 10
401.0832228966207
 20
-13.20000000000027
 30
0.0
 11
401.0832228966207
 21
-154.914285714286
 31
0.0
  0
LINE
  5
308C
330
2C9F
100
AcDbEntity
  8
SIZE
100
AcDbLine
 10
401.0832228966207
 20
0.0000000000004547
 30
0.0
 11
401.0832228966207
 21
-1.200000000000272
 31
0.0
  0
INSERT
  5
308D
330
2C9F
100
AcDbEntity
  8
SIZE
100
AcDbBlockReference
  2
_DOTBLANK
 10
401.0832228966207
 20
0.0000000000004547
 30
0.0
 41
12.0
 42
12.0
 43
12.0
 50
270.0
  0
INSERT
  5
308E
330
2C9F
100
AcDbEntity
  8
SIZE
100
AcDbBlockReference
  2
_DOTBLANK
 10
401.0832228966207
 20
-1.200000000000272
 30
0.0
 41
12.0
 42
12.0
 43
12.0
 50
90.0
  0
TEXT
  5
308F
330
2C9F
100
AcDbEntity
  8
SIZE
100
AcDbText
 10
391.0832228966208
 20
-144.9142857142859
 30
0.0
 40
64.0
  1
1.2
 50
90.0
 41
0.9
100
AcDbText
  0
LINE
  5
3090
330
2C9F
100
AcDbEntity
  8
DETAIL
100
AcDbLine
 10
-254.5
 20
-270.0000000000005
 30
0.0
 11
254.4999999999998
 21
-270.0000000000013
 31
0.0
  0
HATCH
  5
3091
102
{ACAD_XDICTIONARY
360
3092
102
}
330
2C9F
100
AcDbEntity
  8
DETAIL @ 1
100
AcDbHatch
 10
0.0
 20
0.0
 30
0.0
210
0.0
220
0.0
230
1.0
  2
LINE
 70
     0
 71
     0
 91
        2
 92
        7
 72
     0
 73
     1
 93
        6
 10
38.70000000000437
 20
-270.0000000000009
 10
-254.5
 20
-270.0
 10
-254.5
 20
-685.5
 10
254.4999999999998
 20
-685.5000000000002
 10
254.4999999999998
 20
-463.8000000000006
 10
38.70000000000073
 20
-463.8000000000015
 97
        0
 92
       23
 72
     0
 73
     1
 93
        4
 10
254.4999999999961
 20
-270.0000000000009
 10
38.70000000000073
 20
-270.0000000000013
 10
38.70000000000073
 20
-463.8000000000015
 10
254.4999999999998
 20
-463.8000000000006
 97
        0
 75
     0
 76
     1
 52
33.69
 41
19.969
 77
     0
 78
     1
 53
33.69
 43
19881.96405300859
 44
3273.77467513367
 45
-1.384598579568018
 46
2.076903172775085
 79
     0
 47
1.419845455810705
 98
        2
 10
-90.90587198114736
 20
-410.8010829863665
 10
185.0833088850484
 20
-388.7214214842243
1001
ACAD
1010
0.0
1020
0.0
1030
0.0
1001
ACADANNOTATIVE
1000
AnnotativeData
1002
{
1070
     1
1070
     0
1002
}
  0
HATCH
  5
3097
102
{ACAD_XDICTIONARY
360
3098
102
}
330
2C9F
100
AcDbEntity
  8
DETAIL @ 1
100
AcDbHatch
 10
0.0
 20
0.0
 30
0.0
210
0.0
220
0.0
230
1.0
  2
LINE
 70
     0
 71
     0
 91
        2
 92
        7
 72
     0
 73
     1
 93
        6
 10
38.70000000000073
 20
-270.0000000000009
 10
-254.4999999999963
 20
-270.0000000000009
 10
-254.5
 20
-685.5
 10
254.4999999999998
 20
-685.5000000000002
 10
254.4999999999998
 20
-463.8000000000006
 10
38.70000000000073
 20
-463.8000000000015
 97
        0
 92
       23
 72
     0
 73
     1
 93
        4
 10
38.69999999999709
 20
-270.0000000000013
 10
38.70000000000073
 20
-463.8000000000015
 10
254.4999999999998
 20
-463.8000000000006
 10
254.4999999999998
 20
-270.0000000000013
 97
        0
 75
     0
 76
     1
 52
326.31
 41
19.969
 77
     0
 78
     1
 53
326.31
 43
19881.96405300859
 44
3273.77467513367
 45
1.384598579568018
 46
2.076903172775085
 79
     0
 47
1.691507389449889
 98
        2
 10
-95.29924277592
 20
-437.4068622573282
 10
150.078018232685
 20
-315.3693230282442
1001
ACAD
1010
0.0
1020
0.0
1030
0.0
1001
ACADANNOTATIVE
1000
AnnotativeData
1002
{
1070
     1
1070
     0
1002
}
  0
LINE
  5
309D
330
2C9F
100
AcDbEntity
  8
OUTLINE
100
AcDbLine
 10
-270.5
 20
-270.0000000000005
 30
0.0
 11
270.4999999999998
 21
-270.0000000000005
 31
0.0
  0
LINE
  5
309E
330
2C9F
100
AcDbEntity
  8
NOTE
100
AcDbLine
 39
50.0
 10
267.4999999999998
 20
-0.0000000000004547
 30
0.0
 11
292.4999999999998
 21
-0.0000000000004547
 31
0.0
  0
LINE
  5
309F
330
2C9F
100
AcDbEntity
  8
NOTE
100
AcDbLine
 39
50.0
 10
-292.5
 20
-0.0000000000004547
 30
0.0
 11
-267.5
 21
-0.0000000000004547
 31
0.0
  0
LINE
  5
30A0
330
2C9F
100
AcDbEntity
  8
OUTLINE
100
AcDbLine
 39
50.0
 10
-304.9999999999998
 20
-0.0000000000004547
 30
0.0
 11
304.9999999999998
 21
0.0000000000004547
 31
0.0
  0
LINE
  5
30A1
330
2C9F
100
AcDbEntity
  8
DETAIL
  6
DASHED
100
AcDbLine
 10
-254.5
 20
-805.4999999999996
 30
0.0
 11
254.4999999999998
 21
-805.5000000000005
 31
0.0
  0
LINE
  5
30A2
330
2C9F
100
AcDbEntity
  8
DETAIL
  6
DASHED
100
AcDbLine
 10
-254.5
 20
-805.4999999999996
 30
0.0
 11
-254.5
 21
-390.0000000000005
 31
0.0
  0
LINE
  5
30A3
330
2C9F
100
AcDbEntity
  8
DETAIL
  6
DASHED
100
AcDbLine
 10
254.4999999999998
 20
-390.0000000000005
 30
0.0
 11
254.4999999999998
 21
-805.5000000000005
 31
0.0
  0
LINE
  5
30A4
330
2C9F
100
AcDbEntity
  8
DETAIL
  6
DASHED
100
AcDbLine
 39
50.0
 10
-289.5
 20
-171.9999999999995
 30
0.0
 11
-270.5
 21
-172.0000000000004
 31
0.0
  0
LINE
  5
30A5
330
2C9F
100
AcDbEntity
  8
DETAIL
  6
DASHED
100
AcDbLine
 39
50.0
 10
270.4999999999998
 20
-172.0000000000004
 30
0.0
 11
289.4999999999998
 21
-172.0000000000004
 31
0.0
  0
LINE
  5
30A6
330
2C9F
100
AcDbEntity
  8
DETAIL
  6
DASHED
100
AcDbLine
 10
-270.5
 20
-824.9999999999996
 30
0.0
 11
-270.5
 21
-171.0000000000004
 31
0.0
  0
LINE
  5
30A7
330
2C9F
100
AcDbEntity
  8
DETAIL
  6
DASHED
100
AcDbLine
 10
270.4999999999998
 20
-171.0000000000004
 30
0.0
 11
270.4999999999998
 21
-824.9999999999996
 31
0.0
  0
LINE
  5
30A8
330
2C9F
100
AcDbEntity
  8
DETAIL
  6
DASHED
100
AcDbLine
 10
270.4999999999998
 20
-330.0000000000005
 30
0.0
 11
-270.5
 21
-330.0000000000005
 31
0.0
  0
LINE
  5
30A9
330
2C9F
100
AcDbEntity
  8
DETAIL
  6
DASHED
100
AcDbLine
 10
-289.5
 20
-173.0000000000004
 30
0.0
 11
-270.5
 21
-173.0000000000004
 31
0.0
  0
LINE
  5
30AA
330
2C9F
100
AcDbEntity
  8
DETAIL
  6
DASHED
100
AcDbLine
 10
270.4999999999998
 20
-173.0000000000004
 30
0.0
 11
289.4999999999998
 21
-173.0000000000004
 31
0.0
  0
LINE
  5
30AB
330
2C9F
100
AcDbEntity
  8
DETAIL
  6
DASHED
100
AcDbLine
 10
-270.5
 20
-171.0000000000004
 30
0.0
 11
-270.4999999999964
 21
-121.2000000000003
 31
0.0
  0
LINE
  5
30AC
330
2C9F
100
AcDbEntity
  8
DETAIL
  6
DASHED
100
AcDbLine
 10
-289.5
 20
-172.0000000000004
 30
0.0
 11
-289.5
 21
-173.0000000000004
 31
0.0
  0
LINE
  5
30AD
330
2C9F
100
AcDbEntity
  8
DETAIL
  6
DASHED
100
AcDbLine
 10
270.4999999999998
 20
-121.2000000000003
 30
0.0
 11
270.4999999999998
 21
-171.0000000000004
 31
0.0
  0
LINE
  5
30AE
330
2C9F
100
AcDbEntity
  8
DETAIL
  6
DASHED
100
AcDbLine
 10
289.4999999999998
 20
-172.0000000000004
 30
0.0
 11
289.4999999999998
 21
-173.0000000000004
 31
0.0
  0
LINE
  5
30AF
330
2C9F
100
AcDbEntity
  8
DETAIL
  6
DASHED
100
AcDbLine
 10
-270.5
 20
-824.9999999999996
 30
0.0
 11
270.4999999999998
 21
-824.9999999999996
 31
0.0
  0
LINE
  5
30B0
330
2C9F
100
AcDbEntity
  8
DETAIL
  6
DASHED
100
AcDbLine
 10
-270.5
 20
-390.0000000000005
 30
0.0
 11
270.4999999999998
 21
-390.0000000000005
 31
0.0
  0
ENDSEC
  0
SECTION
  2
OBJECTS
  0
DICTIONARY
  5
2C37
330
0
100
AcDbDictionary
281
     1
  3
ACAD_2007HEADERVARS_RT
350
30BA
  3
ACAD_COLOR
350
2C95
  3
ACAD_GROUP
350
2C38
  3
ACAD_LAYOUT
350
2C94
  3
ACAD_MATERIAL
350
2C3B
  3
ACAD_MLEADERSTYLE
350
2C98
  3
ACAD_MLINESTYLE
350
2C91
  3
ACAD_PLOTSETTINGS
350
2C93
  3
ACAD_PLOTSTYLENAME
350
2C39
  3
ACAD_SCALELIST
350
2C65
  3
ACAD_TABLESTYLE
350
2C96
  3
ACAD_VISUALSTYLE
350
2C54
  3
ACDB_RECOMPOSE_DATA
350
2E86
  3
AcDbVariableDictionary
350
2E7D
  3
AcmDictionary
350
2E2D
  3
AMG
350
2D7A
  3
AMGSNAPSETTINGS
350
3016
  3
DWGPROPS
350
30B9
  0
DICTIONARY
  5
2F7B
330
2C2D
100
AcDbDictionary
280
     1
281
     1
  3
ACAD_LAYERSTATES
360
2F7C
  0
DICTIONARY
  5
2E55
330
2C87
100
AcDbDictionary
280
     1
281
     1
  3
ADSK_XREC_LAYER_RECONCILED
360
2E56
  0
DICTIONARY
  5
2E57
330
2CB6
100
AcDbDictionary
280
     1
281
     1
  3
ADSK_XREC_LAYER_RECONCILED
360
2E58
  0
DICTIONARY
  5
2E59
330
2CB7
100
AcDbDictionary
280
     1
281
     1
  3
ADSK_XREC_LAYER_RECONCILED
360
2E5A
  0
DICTIONARY
  5
2E5B
330
2CB8
100
AcDbDictionary
280
     1
281
     1
  3
ADSK_XREC_LAYER_RECONCILED
360
2E5C
  0
DICTIONARY
  5
2E5D
330
2CB9
100
AcDbDictionary
280
     1
281
     1
  3
ADSK_XREC_LAYER_RECONCILED
360
2E5E
  0
DICTIONARY
  5
2E5F
330
2CBA
100
AcDbDictionary
280
     1
281
     1
  3
ADSK_XREC_LAYER_RECONCILED
360
2E60
  0
DICTIONARY
  5
2E61
330
2CBC
100
AcDbDictionary
280
     1
281
     1
  3
ADSK_XREC_LAYER_RECONCILED
360
2E62
  0
DICTIONARY
  5
2E63
330
2CBD
100
AcDbDictionary
280
     1
281
     1
  3
ADSK_XREC_LAYER_RECONCILED
360
2E64
  0
DICTIONARY
  5
2E65
330
2CBE
100
AcDbDictionary
280
     1
281
     1
  3
ADSK_XREC_LAYER_RECONCILED
360
2E66
  0
DICTIONARY
  5
2E67
330
2CBF
100
AcDbDictionary
280
     1
281
     1
  3
ADSK_XREC_LAYER_RECONCILED
360
2E68
  0
DICTIONARY
  5
2E69
330
2CC0
100
AcDbDictionary
280
     1
281
     1
  3
ADSK_XREC_LAYER_RECONCILED
360
2E6A
  0
DICTIONARY
  5
2E6B
330
2CC1
100
AcDbDictionary
280
     1
281
     1
  3
ADSK_XREC_LAYER_RECONCILED
360
2E6C
  0
DICTIONARY
  5
30B7
330
30B6
100
AcDbDictionary
280
     1
281
     1
  3
ASDK_XREC_ANNO_SCALE_INFO
360
30B8
  0
DICTIONARY
  5
2E6D
330
2C9F
100
AcDbDictionary
280
     1
281
     1
  3
ACAD_INDEX
360
2E6E
  0
DICTIONARY
  5
3092
330
3091
100
AcDbDictionary
280
     1
281
     1
  3
AcDbContextDataManager
360
3093
  0
DICTIONARY
  5
3098
330
3097
100
AcDbDictionary
280
     1
281
     1
  3
AcDbContextDataManager
360
3099
  0
DICTIONARY
  5
30BA
102
{ACAD_REACTORS
330
2C37
102
}
330
2C37
100
AcDbDictionary
281
     1
  3
DIMARCSYM
350
30BB
  3
DIMLTEX1
350
30BD
  3
DIMLTEX2
350
30BE
  3
DIMLTYPE
350
30BC
  0
DICTIONARY
  5
2C95
102
{ACAD_REACTORS
330
2C37
102
}
330
2C37
100
AcDbDictionary
281
     1
  0
DICTIONARY
  5
2C38
102
{ACAD_REACTORS
330
2C37
102
}
330
2C37
100
AcDbDictionary
281
     1
  0
DICTIONARY
  5
2C94
102
{ACAD_REACTORS
330
2C37
102
}
330
2C37
100
AcDbDictionary
281
     1
  3
Model
350
2CA2
  3
レイアウト1
350
2C9E
  0
DICTIONARY
  5
2C3B
102
{ACAD_REACTORS
330
2C37
102
}
330
2C37
100
AcDbDictionary
281
     1
  3
ByBlock
350
2C44
  3
ByLayer
350
2C3C
  3
Global
350
2C4C
  0
DICTIONARY
  5
2C98
102
{ACAD_REACTORS
330
2C37
102
}
330
2C37
100
AcDbDictionary
281
     1
  3
Standard
350
2C99
  0
DICTIONARY
  5
2C91
102
{ACAD_REACTORS
330
2C37
102
}
330
2C37
100
AcDbDictionary
281
     1
  3
Standard
350
2C92
  0
DICTIONARY
  5
2C93
102
{ACAD_REACTORS
330
2C37
102
}
330
2C37
100
AcDbDictionary
281
     1
  0
ACDBDICTIONARYWDFLT
  5
2C39
102
{ACAD_REACTORS
330
2C37
102
}
330
2C37
100
AcDbDictionary
281
     1
  3
Normal
350
2C3A
100
AcDbDictionaryWithDefault
340
2C3A
  0
DICTIONARY
  5
2C65
102
{ACAD_REACTORS
330
2C37
102
}
330
2C37
100
AcDbDictionary
281
     1
  3
A0
350
2C66
  3
A1
350
2C67
  3
A2
350
2C68
  3
A3
350
2C69
  3
A4
350
2C6A
  3
A5
350
2C6B
  3
A6
350
2C6C
  3
A7
350
2C6D
  3
A8
350
2C6E
  3
A9
350
2C6F
  3
B0
350
2C70
  3
B1
350
2C71
  3
B2
350
2C72
  3
B3
350
2C73
  3
B4
350
2C74
  3
B5
350
2C75
  3
B6
350
2C76
  3
B7
350
2C77
  3
B8
350
2C78
  3
B9
350
2C79
  3
C0
350
2C7A
  3
C1
350
2C7B
  3
C2
350
2C7C
  3
C3
350
2C7D
  3
C4
350
2C7E
  3
C5
350
2C7F
  3
C6
350
2C80
  3
C7
350
2C81
  3
C8
350
2C82
  3
C9
350
2C83
  3
D0
350
2C84
  3
D1
350
2C85
  3
D2
350
2C86
  0
DICTIONARY
  5
2C96
102
{ACAD_REACTORS
330
2C37
102
}
330
2C37
100
AcDbDictionary
281
     1
  3
Standard
350
2C97
  0
DICTIONARY
  5
2C54
102
{ACAD_REACTORS
330
2C37
102
}
330
2C37
100
AcDbDictionary
281
     1
  3
2dWireframe
350
2C5A
  3
3D Hidden
350
2C5C
  3
3dWireframe
350
2C5B
  3
Basic
350
2C59
  3
Brighten
350
2C60
  3
ColorChange
350
2C64
  3
Conceptual
350
2C5D
  3
Dim
350
2C5F
  3
Facepattern
350
2C63
  3
Flat
350
2C55
  3
FlatWithEdges
350
2C56
  3
Gouraud
350
2C57
  3
GouraudWithEdges
350
2C58
  3
Linepattern
350
2C62
  3
Realistic
350
2C5E
  3
Thicken
350
2C61
  0
XRECORD
  5
2E86
102
{ACAD_REACTORS
330
2C37
102
}
330
2C37
100
AcDbXrecord
280
     1
 90
        1
330
2C97
330
3091
330
3097
  0
DICTIONARY
  5
2E7D
102
{ACAD_REACTORS
330
2C37
102
}
330
2C37
100
AcDbDictionary
281
     1
  3
CANNOSCALE
350
2E80
  3
CMLEADERSTYLE
350
2E7F
  3
CTABLESTYLE
350
2E7E
  3
DIMASSOC
350
2E83
  3
INDEXCTL
350
2E82
  3
SORTENTS
350
2E81
  0
DICTIONARY
  5
2E2D
102
{ACAD_REACTORS
330
2C37
102
}
330
2C37
100
AcDbDictionary
281
     1
  3
AcmStdDictionary
350
2E3B
  0
DICTIONARY
  5
2D7A
102
{ACAD_REACTORS
330
2C37
102
}
330
2C37
100
AcDbDictionary
281
     1
  3
AcMgSettings
350
2D7B
  0
DICTIONARY
  5
3016
102
{ACAD_REACTORS
330
2C37
102
}
330
2C37
100
AcDbDictionary
281
     1
  3
DIMENSION
350
301B
  3
FEA
350
301A
  3
HATCH (1)
350
3017
  3
HATCH (2)
350
3018
  3
SIMPLE WELD
350
301C
  3
SYMBOLS
350
3019
  0
XRECORD
  5
30B9
102
{ACAD_REACTORS
330
2C37
102
}
330
2C37
100
AcDbXrecord
280
     1
  1
DWGPROPS COOKIE
  2

  3

  4

  6

  7

  8
A090053
  9

300
AmdtFileType=84
301
=
302
=
303
=
304
=
305
=
306
=
307
=
308
=
309
=
 40
1.042147071759259
 41
2452321.396199653
 42
2456217.591720683
  1

 90
        1
  0
DICTIONARY
  5
2F7C
102
{ACAD_REACTORS
330
2F7B
102
}
330
2F7B
100
AcDbDictionary
281
     1
  0
XRECORD
  5
2E56
102
{ACAD_REACTORS
330
2E55
102
}
330
2E55
100
AcDbXrecord
280
     1
290
     1
  0
XRECORD
  5
2E58
102
{ACAD_REACTORS
330
2E57
102
}
330
2E57
100
AcDbXrecord
280
     1
290
     1
  0
XRECORD
  5
2E5A
102
{ACAD_REACTORS
330
2E59
102
}
330
2E59
100
AcDbXrecord
280
     1
290
     1
  0
XRECORD
  5
2E5C
102
{ACAD_REACTORS
330
2E5B
102
}
330
2E5B
100
AcDbXrecord
280
     1
290
     1
  0
XRECORD
  5
2E5E
102
{ACAD_REACTORS
330
2E5D
102
}
330
2E5D
100
AcDbXrecord
280
     1
290
     1
  0
XRECORD
  5
2E60
102
{ACAD_REACTORS
330
2E5F
102
}
330
2E5F
100
AcDbXrecord
280
     1
290
     1
  0
XRECORD
  5
2E62
102
{ACAD_REACTORS
330
2E61
102
}
330
2E61
100
AcDbXrecord
280
     1
290
     1
  0
XRECORD
  5
2E64
102
{ACAD_REACTORS
330
2E63
102
}
330
2E63
100
AcDbXrecord
280
     1
290
     1
  0
XRECORD
  5
2E66
102
{ACAD_REACTORS
330
2E65
102
}
330
2E65
100
AcDbXrecord
280
     1
290
     1
  0
XRECORD
  5
2E68
102
{ACAD_REACTORS
330
2E67
102
}
330
2E67
100
AcDbXrecord
280
     1
290
     1
  0
XRECORD
  5
2E6A
102
{ACAD_REACTORS
330
2E69
102
}
330
2E69
100
AcDbXrecord
280
     1
290
     1
  0
XRECORD
  5
2E6C
102
{ACAD_REACTORS
330
2E6B
102
}
330
2E6B
100
AcDbXrecord
280
     1
290
     1
  0
XRECORD
  5
30B8
102
{ACAD_REACTORS
330
30B7
102
}
330
30B7
100
AcDbXrecord
280
     1
 70
     1
340
2C66
340
2CB9
 70
    -1
  0
DICTIONARY
  5
2E6E
102
{ACAD_REACTORS
330
2E6D
102
}
330
2E6D
100
AcDbDictionary
281
     1
  3
*A1
350
2E6F
  0
DICTIONARY
  5
3093
102
{ACAD_REACTORS
330
3092
102
}
330
3092
100
AcDbDictionary
281
     1
  3
ACDB_ANNOTATIONSCALE_VIEW_COLLECTION
350
3094
  3
ACDB_ANNOTATIONSCALES
350
3095
  0
DICTIONARY
  5
3099
102
{ACAD_REACTORS
330
3098
102
}
330
3098
100
AcDbDictionary
281
     1
  3
ACDB_ANNOTATIONSCALE_VIEW_COLLECTION
350
309A
  3
ACDB_ANNOTATIONSCALES
350
309B
  0
XRECORD
  5
30BB
102
{ACAD_REACTORS
330
30BA
102
}
330
30BA
100
AcDbXrecord
280
     1
 70
     1
  0
XRECORD
  5
30BD
102
{ACAD_REACTORS
330
30BA
102
}
330
30BA
100
AcDbXrecord
280
     1
340
2C8D
  0
XRECORD
  5
30BE
102
{ACAD_REACTORS
330
30BA
102
}
330
30BA
100
AcDbXrecord
280
     1
340
2C8D
  0
XRECORD
  5
30BC
102
{ACAD_REACTORS
330
30BA
102
}
330
30BA
100
AcDbXrecord
280
     1
340
2C8D
  0
LAYOUT
  5
2CA2
102
{ACAD_XDICTIONARY
360
30C2
102
}
102
{ACAD_REACTORS
330
2C94
102
}
330
2C94
100
AcDbPlotSettings
  1

  2
自動 EPSON LP-9600S (W2450527 上)
  4

  6

 40
0.0
 41
0.0
 42
0.0
 43
0.0
 44
0.0
 45
0.0
 46
0.0
 47
0.0
 48
0.0
 49
0.0
140
0.0
141
0.0
142
1.0
143
1.0
 70
  1712
 72
     0
 73
     0
 74
     0
  7

 75
     0
147
1.0
148
0.0
149
0.0
100
AcDbLayout
  1
Model
 70
     1
 71
     0
 10
0.0
 20
0.0
 11
12.0
 21
9.0
 12
0.0
 22
0.0
 32
0.0
 14
0.0
 24
0.0
 34
0.0
 15
0.0
 25
0.0
 35
0.0
146
0.0
 13
0.0
 23
0.0
 33
0.0
 16
1.0
 26
0.0
 36
0.0
 17
0.0
 27
1.0
 37
0.0
 76
     0
330
2C9F
331
2CA3
  0
LAYOUT
  5
2C9E
102
{ACAD_XDICTIONARY
360
30C0
102
}
102
{ACAD_REACTORS
330
2C94
102
}
330
2C94
100
AcDbPlotSettings
  1

  2
自動 EPSON LP-9600S (W2450527 上)
  4

  6

 40
0.0
 41
0.0
 42
0.0
 43
0.0
 44
0.0
 45
0.0
 46
0.0
 47
0.0
 48
0.0
 49
0.0
140
0.0
141
0.0
142
1.0
143
1.0
 70
   688
 72
     0
 73
     0
 74
     5
  7

 75
    16
147
1.0
148
0.0
149
0.0
100
AcDbLayout
  1
レイアウト1
 70
     1
 71
     1
 10
0.0
 20
0.0
 11
12.0
 21
9.0
 12
0.0
 22
0.0
 32
0.0
 14
1.000000000000000E+20
 24
1.000000000000000E+20
 34
1.000000000000000E+20
 15
-1.000000000000000E+20
 25
-1.000000000000000E+20
 35
-1.000000000000000E+20
146
0.0
 13
0.0
 23
0.0
 33
0.0
 16
1.0
 26
0.0
 36
0.0
 17
0.0
 27
1.0
 37
0.0
 76
     0
330
2C9B
  0
MATERIAL
  5
2C44
102
{ACAD_XDICTIONARY
360
2C45
102
}
102
{ACAD_REACTORS
330
2C3B
102
}
330
2C3B
100
AcDbMaterial
  1
ByBlock
 72
     0
 43
0.0208333333333333
 43
0.0
 43
0.0
 43
0.0
 43
0.0
 43
0.0208333333333333
 43
0.0
 43
0.0
 43
0.0
 43
0.0
 43
1.0
 43
0.0
 43
0.0
 43
0.0
 43
0.0
 43
1.0
 77
     0
 47
0.0208333333333333
 47
0.0
 47
0.0
 47
0.0
 47
0.0
 47
0.0208333333333333
 47
0.0
 47
0.0
 47
0.0
 47
0.0
 47
1.0
 47
0.0
 47
0.0
 47
0.0
 47
0.0
 47
1.0
171
     0
 49
0.0208333333333333
 49
0.0
 49
0.0
 49
0.0
 49
0.0
 49
0.0208333333333333
 49
0.0
 49
0.0
 49
0.0
 49
0.0
 49
1.0
 49
0.0
 49
0.0
 49
0.0
 49
0.0
 49
1.0
175
     0
142
0.0208333333333333
142
0.0
142
0.0
142
0.0
142
0.0
142
0.0208333333333333
142
0.0
142
0.0
142
0.0
142
0.0
142
1.0
142
0.0
142
0.0
142
0.0
142
0.0
142
1.0
179
     0
144
0.0208333333333333
144
0.0
144
0.0
144
0.0
144
0.0
144
0.0208333333333333
144
0.0
144
0.0
144
0.0
144
0.0
144
1.0
144
0.0
144
0.0
144
0.0
144
0.0
144
1.0
147
0.0208333333333333
147
0.0
147
0.0
147
0.0
147
0.0
147
0.0208333333333333
147
0.0
147
0.0
147
0.0
147
0.0
147
1.0
147
0.0
147
0.0
147
0.0
147
0.0
147
1.0
  0
MATERIAL
  5
2C3C
102
{ACAD_XDICTIONARY
360
2C3D
102
}
102
{ACAD_REACTORS
330
2C3B
102
}
330
2C3B
100
AcDbMaterial
  1
ByLayer
 72
     0
 43
0.0208333333333333
 43
0.0
 43
0.0
 43
0.0
 43
0.0
 43
0.0208333333333333
 43
0.0
 43
0.0
 43
0.0
 43
0.0
 43
1.0
 43
0.0
 43
0.0
 43
0.0
 43
0.0
 43
1.0
 77
     0
 47
0.0208333333333333
 47
0.0
 47
0.0
 47
0.0
 47
0.0
 47
0.0208333333333333
 47
0.0
 47
0.0
 47
0.0
 47
0.0
 47
1.0
 47
0.0
 47
0.0
 47
0.0
 47
0.0
 47
1.0
171
     0
 49
0.0208333333333333
 49
0.0
 49
0.0
 49
0.0
 49
0.0
 49
0.0208333333333333
 49
0.0
 49
0.0
 49
0.0
 49
0.0
 49
1.0
 49
0.0
 49
0.0
 49
0.0
 49
0.0
 49
1.0
175
     0
142
0.0208333333333333
142
0.0
142
0.0
142
0.0
142
0.0
142
0.0208333333333333
142
0.0
142
0.0
142
0.0
142
0.0
142
1.0
142
0.0
142
0.0
142
0.0
142
0.0
142
1.0
179
     0
144
0.0208333333333333
144
0.0
144
0.0
144
0.0
144
0.0
144
0.0208333333333333
144
0.0
144
0.0
144
0.0
144
0.0
144
1.0
144
0.0
144
0.0
144
0.0
144
0.0
144
1.0
147
0.0208333333333333
147
0.0
147
0.0
147
0.0
147
0.0
147
0.0208333333333333
147
0.0
147
0.0
147
0.0
147
0.0
147
1.0
147
0.0
147
0.0
147
0.0
147
0.0
147
1.0
  0
MATERIAL
  5
2C4C
102
{ACAD_XDICTIONARY
360
2C4D
102
}
102
{ACAD_REACTORS
330
2C3B
102
}
330
2C3B
100
AcDbMaterial
  1
Global
 72
     0
 43
0.0208333333333333
 43
0.0
 43
0.0
 43
0.0
 43
0.0
 43
0.0208333333333333
 43
0.0
 43
0.0
 43
0.0
 43
0.0
 43
1.0
 43
0.0
 43
0.0
 43
0.0
 43
0.0
 43
1.0
 77
     0
 47
0.0208333333333333
 47
0.0
 47
0.0
 47
0.0
 47
0.0
 47
0.0208333333333333
 47
0.0
 47
0.0
 47
0.0
 47
0.0
 47
1.0
 47
0.0
 47
0.0
 47
0.0
 47
0.0
 47
1.0
171
     0
 49
0.0208333333333333
 49
0.0
 49
0.0
 49
0.0
 49
0.0
 49
0.0208333333333333
 49
0.0
 49
0.0
 49
0.0
 49
0.0
 49
1.0
 49
0.0
 49
0.0
 49
0.0
 49
0.0
 49
1.0
175
     0
142
0.0208333333333333
142
0.0
142
0.0
142
0.0
142
0.0
142
0.0208333333333333
142
0.0
142
0.0
142
0.0
142
0.0
142
1.0
142
0.0
142
0.0
142
0.0
142
0.0
142
1.0
179
     0
144
0.0208333333333333
144
0.0
144
0.0
144
0.0
144
0.0
144
0.0208333333333333
144
0.0
144
0.0
144
0.0
144
0.0
144
1.0
144
0.0
144
0.0
144
0.0
144
0.0
144
1.0
147
0.0208333333333333
147
0.0
147
0.0
147
0.0
147
0.0
147
0.0208333333333333
147
0.0
147
0.0
147
0.0
147
0.0
147
1.0
147
0.0
147
0.0
147
0.0
147
0.0
147
1.0
  0
MLEADERSTYLE
  5
2C99
102
{ACAD_REACTORS
330
2C98
102
}
330
2C98
100
AcDbMLeaderStyle
170
     2
171
     1
172
     0
 90
        2
 40
0.0
 41
0.0
173
     1
 91
-1056964608
340
2C8D
 92
       -2
290
     1
 42
0.09
291
     1
 43
0.36
  3
Standard
 44
0.18
300

342
2C88
174
     1
178
     6
175
     1
176
     0
 93
-1056964608
 45
0.18
292
     0
297
     0
 46
0.18
 94
-1056964608
 47
1.0
 49
1.0
140
1.0
293
     1
141
0.0
294
     1
177
     0
142
1.0
295
     0
296
     0
143
0.125
1001
ACAD_MLEADERVER
1070
     2
  0
MLINESTYLE
  5
2C92
102
{ACAD_REACTORS
330
2C91
102
}
330
2C91
100
AcDbMlineStyle
  2
STANDARD
 70
     0
  3

 62
   256
 51
90.0
 52
90.0
 71
     2
 49
0.5
 62
   256
  6
BYLAYER
 49
-0.5
 62
   256
  6
BYLAYER
  0
ACDBPLACEHOLDER
  5
2C3A
102
{ACAD_REACTORS
330
2C39
102
}
330
2C39
  0
SCALE
  5
2C66
102
{ACAD_REACTORS
330
2C65
102
}
330
2C65
100
AcDbScale
 70
     0
300
1:1
140
1.0
141
1.0
290
     1
  0
SCALE
  5
2C67
102
{ACAD_REACTORS
330
2C65
102
}
330
2C65
100
AcDbScale
 70
     0
300
1:2
140
1.0
141
2.0
290
     0
  0
SCALE
  5
2C68
102
{ACAD_REACTORS
330
2C65
102
}
330
2C65
100
AcDbScale
 70
     0
300
1:4
140
1.0
141
4.0
290
     0
  0
SCALE
  5
2C69
102
{ACAD_REACTORS
330
2C65
102
}
330
2C65
100
AcDbScale
 70
     0
300
1:5
140
1.0
141
5.0
290
     0
  0
SCALE
  5
2C6A
102
{ACAD_REACTORS
330
2C65
102
}
330
2C65
100
AcDbScale
 70
     0
300
1:8
140
1.0
141
8.0
290
     0
  0
SCALE
  5
2C6B
102
{ACAD_REACTORS
330
2C65
102
}
330
2C65
100
AcDbScale
 70
     0
300
1:10
140
1.0
141
10.0
290
     0
  0
SCALE
  5
2C6C
102
{ACAD_REACTORS
330
2C65
102
}
330
2C65
100
AcDbScale
 70
     0
300
1:16
140
1.0
141
16.0
290
     0
  0
SCALE
  5
2C6D
102
{ACAD_REACTORS
330
2C65
102
}
330
2C65
100
AcDbScale
 70
     0
300
1:20
140
1.0
141
20.0
290
     0
  0
SCALE
  5
2C6E
102
{ACAD_REACTORS
330
2C65
102
}
330
2C65
100
AcDbScale
 70
     0
300
1:30
140
1.0
141
30.0
290
     0
  0
SCALE
  5
2C6F
102
{ACAD_REACTORS
330
2C65
102
}
330
2C65
100
AcDbScale
 70
     0
300
1:40
140
1.0
141
40.0
290
     0
  0
SCALE
  5
2C70
102
{ACAD_REACTORS
330
2C65
102
}
330
2C65
100
AcDbScale
 70
     0
300
1:50
140
1.0
141
50.0
290
     0
  0
SCALE
  5
2C71
102
{ACAD_REACTORS
330
2C65
102
}
330
2C65
100
AcDbScale
 70
     0
300
1:100
140
1.0
141
100.0
290
     0
  0
SCALE
  5
2C72
102
{ACAD_REACTORS
330
2C65
102
}
330
2C65
100
AcDbScale
 70
     0
300
2:1
140
2.0
141
1.0
290
     0
  0
SCALE
  5
2C73
102
{ACAD_REACTORS
330
2C65
102
}
330
2C65
100
AcDbScale
 70
     0
300
4:1
140
4.0
141
1.0
290
     0
  0
SCALE
  5
2C74
102
{ACAD_REACTORS
330
2C65
102
}
330
2C65
100
AcDbScale
 70
     0
300
8:1
140
8.0
141
1.0
290
     0
  0
SCALE
  5
2C75
102
{ACAD_REACTORS
330
2C65
102
}
330
2C65
100
AcDbScale
 70
     0
300
10:1
140
10.0
141
1.0
290
     0
  0
SCALE
  5
2C76
102
{ACAD_REACTORS
330
2C65
102
}
330
2C65
100
AcDbScale
 70
     0
300
100:1
140
100.0
141
1.0
290
     0
  0
SCALE
  5
2C77
102
{ACAD_REACTORS
330
2C65
102
}
330
2C65
100
AcDbScale
 70
     0
300
1/128" = 1'-0"
140
0.0078125
141
12.0
290
     0
  0
SCALE
  5
2C78
102
{ACAD_REACTORS
330
2C65
102
}
330
2C65
100
AcDbScale
 70
     0
300
1/64" = 1'-0"
140
0.015625
141
12.0
290
     0
  0
SCALE
  5
2C79
102
{ACAD_REACTORS
330
2C65
102
}
330
2C65
100
AcDbScale
 70
     0
300
1/32" = 1'-0"
140
0.03125
141
12.0
290
     0
  0
SCALE
  5
2C7A
102
{ACAD_REACTORS
330
2C65
102
}
330
2C65
100
AcDbScale
 70
     0
300
1/16" = 1'-0"
140
0.0625
141
12.0
290
     0
  0
SCALE
  5
2C7B
102
{ACAD_REACTORS
330
2C65
102
}
330
2C65
100
AcDbScale
 70
     0
300
3/32" = 1'-0"
140
0.09375
141
12.0
290
     0
  0
SCALE
  5
2C7C
102
{ACAD_REACTORS
330
2C65
102
}
330
2C65
100
AcDbScale
 70
     0
300
1/8" = 1'-0"
140
0.125
141
12.0
290
     0
  0
SCALE
  5
2C7D
102
{ACAD_REACTORS
330
2C65
102
}
330
2C65
100
AcDbScale
 70
     0
300
3/16" = 1'-0"
140
0.1875
141
12.0
290
     0
  0
SCALE
  5
2C7E
102
{ACAD_REACTORS
330
2C65
102
}
330
2C65
100
AcDbScale
 70
     0
300
1/4" = 1'-0"
140
0.25
141
12.0
290
     0
  0
SCALE
  5
2C7F
102
{ACAD_REACTORS
330
2C65
102
}
330
2C65
100
AcDbScale
 70
     0
300
3/8" = 1'-0"
140
0.375
141
12.0
290
     0
  0
SCALE
  5
2C80
102
{ACAD_REACTORS
330
2C65
102
}
330
2C65
100
AcDbScale
 70
     0
300
1/2" = 1'-0"
140
0.5
141
12.0
290
     0
  0
SCALE
  5
2C81
102
{ACAD_REACTORS
330
2C65
102
}
330
2C65
100
AcDbScale
 70
     0
300
3/4" = 1'-0"
140
0.75
141
12.0
290
     0
  0
SCALE
  5
2C82
102
{ACAD_REACTORS
330
2C65
102
}
330
2C65
100
AcDbScale
 70
     0
300
1" = 1'-0"
140
1.0
141
12.0
290
     0
  0
SCALE
  5
2C83
102
{ACAD_REACTORS
330
2C65
102
}
330
2C65
100
AcDbScale
 70
     0
300
1-1/2" = 1'-0"
140
1.5
141
12.0
290
     0
  0
SCALE
  5
2C84
102
{ACAD_REACTORS
330
2C65
102
}
330
2C65
100
AcDbScale
 70
     0
300
3" = 1'-0"
140
3.0
141
12.0
290
     0
  0
SCALE
  5
2C85
102
{ACAD_REACTORS
330
2C65
102
}
330
2C65
100
AcDbScale
 70
     0
300
6" = 1'-0"
140
6.0
141
12.0
290
     0
  0
SCALE
  5
2C86
102
{ACAD_REACTORS
330
2C65
102
}
330
2C65
100
AcDbScale
 70
     0
300
1'-0" = 1'-0"
140
12.0
141
12.0
290
     0
  0
TABLESTYLE
  5
2C97
102
{ACAD_XDICTIONARY
360
2E84
102
}
102
{ACAD_REACTORS
330
2C96
102
}
330
2C96
100
AcDbTableStyle
  3
Standard
 70
     0
 71
     0
 40
0.06
 41
0.06
280
     0
281
     0
  7
STANDARD
140
0.18
170
     2
 62
     0
 63
     7
283
     0
274
    -2
284
     1
 64
     0
275
    -2
285
     1
 65
     0
276
    -2
286
     1
 66
     0
277
    -2
287
     1
 67
     0
278
    -2
288
     1
 68
     0
279
    -2
289
     1
 69
     0
  7
STANDARD
140
0.25
170
     5
 62
     0
 63
     7
283
     0
274
    -2
284
     1
 64
     0
275
    -2
285
     1
 65
     0
276
    -2
286
     1
 66
     0
277
    -2
287
     1
 67
     0
278
    -2
288
     1
 68
     0
279
    -2
289
     1
 69
     0
  7
STANDARD
140
0.18
170
     5
 62
     0
 63
     7
283
     0
274
    -2
284
     1
 64
     0
275
    -2
285
     1
 65
     0
276
    -2
286
     1
 66
     0
277
    -2
287
     1
 67
     0
278
    -2
288
     1
 68
     0
279
    -2
289
     1
 69
     0
  0
VISUALSTYLE
  5
2C5A
102
{ACAD_REACTORS
330
2C54
102
}
330
2C54
100
AcDbVisualStyle
  2
2dWireframe
 70
     4
 71
     0
 72
     2
 73
     0
 90
        0
 40
-0.6
 41
-30.0
 62
     5
 63
     7
 74
     1
 91
        4
 64
     7
 65
   257
 75
     1
175
     1
 42
1.0
 92
        0
 66
   257
 43
1.0
 76
     1
 77
     6
 78
     2
 67
     7
 79
     5
170
     0
171
     0
290
     0
174
     0
 93
        1
 44
0.0
173
     0
291
     0
 45
0.0
1001
ACAD
1000
AcDbSavedByObjectVersion
1070
     0
1000
AcDbSavedByObjectVersion
1070
     0
  0
VISUALSTYLE
  5
2C5C
102
{ACAD_REACTORS
330
2C54
102
}
330
2C54
100
AcDbVisualStyle
  2
3D Hidden
 70
     6
 71
     1
 72
     2
 73
     2
 90
        0
 40
-0.6
 41
-30.0
 62
     5
 63
     7
 74
     2
 91
        2
 64
     7
 65
   257
 75
     2
175
     1
 42
40.0
 92
        0
 66
   257
 43
1.0
 76
     1
 77
     6
 78
     2
 67
     7
 79
     3
170
     0
171
     0
290
     0
174
     0
 93
        1
 44
0.0
173
     0
291
     0
 45
0.0
1001
ACAD
1000
AcDbSavedByObjectVersion
1070
     0
1000
AcDbSavedByObjectVersion
1070
     0
  0
VISUALSTYLE
  5
2C5B
102
{ACAD_REACTORS
330
2C54
102
}
330
2C54
100
AcDbVisualStyle
  2
3dWireframe
 70
     5
 71
     0
 72
     2
 73
     0
 90
        0
 40
-0.6
 41
-30.0
 62
     5
 63
     7
 74
     1
 91
        4
 64
     7
 65
   257
 75
     1
175
     1
 42
1.0
 92
        0
 66
   257
 43
1.0
 76
     1
 77
     6
 78
     2
 67
     7
 79
     5
170
     0
171
     0
290
     0
174
     0
 93
        1
 44
0.0
173
     0
291
     0
 45
0.0
1001
ACAD
1000
AcDbSavedByObjectVersion
1070
     0
1000
AcDbSavedByObjectVersion
1070
     0
  0
VISUALSTYLE
  5
2C59
102
{ACAD_REACTORS
330
2C54
102
}
330
2C54
100
AcDbVisualStyle
  2
Basic
 70
     7
 71
     1
 72
     0
 73
     1
 90
        0
 40
-0.6
 41
-30.0
 62
     5
 63
     7
 74
     0
 91
        4
 64
     7
 65
   257
 75
     1
175
     1
 42
1.0
 92
        8
 66
     7
 43
1.0
 76
     1
 77
     6
 78
     2
 67
     7
 79
     5
170
     0
171
     0
290
     0
174
     0
 93
        1
 44
0.0
173
     0
291
     1
 45
0.0
1001
ACAD
1000
AcDbSavedByObjectVersion
1070
     0
1000
AcDbSavedByObjectVersion
1070
     0
  0
VISUALSTYLE
  5
2C60
102
{ACAD_REACTORS
330
2C54
102
}
330
2C54
100
AcDbVisualStyle
  2
Brighten
 70
    12
 71
     2
 72
     2
 73
     0
 90
        0
 40
-0.6
 41
-30.0
 62
     5
 63
     7
 74
     1
 91
        4
 64
     7
 65
   257
 75
     1
175
     1
 42
1.0
 92
        8
 66
     7
 43
1.0
 76
     1
 77
     6
 78
     2
 67
     7
 79
     5
170
     0
171
     0
290
     0
174
     0
 93
        1
 44
50.0
173
     0
291
     1
 45
0.0
1001
ACAD
1000
AcDbSavedByObjectVersion
1070
     0
1000
AcDbSavedByObjectVersion
1070
     0
  0
VISUALSTYLE
  5
2C64
102
{ACAD_REACTORS
330
2C54
102
}
330
2C54
100
AcDbVisualStyle
  2
ColorChange
 70
    16
 71
     2
 72
     2
 73
     3
 90
        0
 40
-0.6
 41
-30.0
 62
     5
 63
     8
 74
     1
 91
        4
 64
     7
 65
   257
 75
     1
175
     1
 42
1.0
 92
        8
 66
     8
 43
1.0
 76
     1
 77
     6
 78
     2
 67
     7
 79
     5
170
     0
171
     0
290
     0
174
     0
 93
        1
 44
0.0
173
     0
291
     1
 45
0.0
1001
ACAD
1000
AcDbSavedByObjectVersion
1070
     0
1000
AcDbSavedByObjectVersion
1070
     0
  0
VISUALSTYLE
  5
2C5D
102
{ACAD_REACTORS
330
2C54
102
}
330
2C54
100
AcDbVisualStyle
  2
Conceptual
 70
     9
 71
     3
 72
     2
 73
     0
 90
        0
 40
-0.6
 41
-30.0
 62
     5
 63
     7
 74
     2
 91
        2
 64
     7
 65
   257
 75
     1
175
     1
 42
40.0
 92
        8
 66
     7
 43
1.0
 76
     1
 77
     6
 78
     2
 67
     7
 79
     3
170
     0
171
     0
290
     0
174
     0
 93
        1
 44
0.0
173
     0
291
     0
 45
0.0
1001
ACAD
1000
AcDbSavedByObjectVersion
1070
     0
1000
AcDbSavedByObjectVersion
1070
     0
  0
VISUALSTYLE
  5
2C5F
102
{ACAD_REACTORS
330
2C54
102
}
330
2C54
100
AcDbVisualStyle
  2
Dim
 70
    11
 71
     2
 72
     2
 73
     0
 90
        0
 40
-0.6
 41
-30.0
 62
     5
 63
     7
 74
     1
 91
        4
 64
     7
 65
   257
 75
     1
175
     1
 42
1.0
 92
        8
 66
     7
 43
1.0
 76
     1
 77
     6
 78
     2
 67
     7
 79
     5
170
     0
171
     0
290
     0
174
     0
 93
        1
 44
-50.0
173
     0
291
     1
 45
0.0
1001
ACAD
1000
AcDbSavedByObjectVersion
1070
     0
1000
AcDbSavedByObjectVersion
1070
     0
  0
VISUALSTYLE
  5
2C63
102
{ACAD_REACTORS
330
2C54
102
}
330
2C54
100
AcDbVisualStyle
  2
Facepattern
 70
    15
 71
     2
 72
     2
 73
     0
 90
        0
 40
-0.6
 41
-30.0
 62
     5
 63
     7
 74
     1
 91
        4
 64
     7
 65
   257
 75
     1
175
     1
 42
1.0
 92
        8
 66
     7
 43
1.0
 76
     1
 77
     6
 78
     2
 67
     7
 79
     5
170
     0
171
     0
290
     0
174
     0
 93
        1
 44
0.0
173
     0
291
     1
 45
0.0
1001
ACAD
1000
AcDbSavedByObjectVersion
1070
     0
1000
AcDbSavedByObjectVersion
1070
     0
  0
VISUALSTYLE
  5
2C55
102
{ACAD_REACTORS
330
2C54
102
}
330
2C54
100
AcDbVisualStyle
  2
Flat
 70
     0
 71
     2
 72
     1
 73
     1
 90
        2
 40
-0.6
 41
30.0
 62
     5
 63
     7
 74
     0
 91
        4
 64
     7
 65
   257
 75
     1
175
     1
 42
1.0
 92
        8
 66
     7
 43
1.0
 76
     1
 77
     6
 78
     2
 67
     7
 79
     5
170
     0
171
     0
290
     0
174
     0
 93
       13
 44
0.0
173
     0
291
     1
 45
0.0
1001
ACAD
1000
AcDbSavedByObjectVersion
1070
     0
1000
AcDbSavedByObjectVersion
1070
     0
  0
VISUALSTYLE
  5
2C56
102
{ACAD_REACTORS
330
2C54
102
}
330
2C54
100
AcDbVisualStyle
  2
FlatWithEdges
 70
     1
 71
     2
 72
     1
 73
     1
 90
        2
 40
-0.6
 41
30.0
 62
     5
 63
     7
 74
     1
 91
        4
 64
     7
 65
   257
 75
     1
175
     1
 42
1.0
 92
        0
 66
   257
 43
1.0
 76
     1
 77
     6
 78
     2
 67
     7
 79
     5
170
     0
171
     0
290
     0
174
     0
 93
       13
 44
0.0
173
     0
291
     1
 45
0.0
1001
ACAD
1000
AcDbSavedByObjectVersion
1070
     0
1000
AcDbSavedByObjectVersion
1070
     0
  0
VISUALSTYLE
  5
2C57
102
{ACAD_REACTORS
330
2C54
102
}
330
2C54
100
AcDbVisualStyle
  2
Gouraud
 70
     2
 71
     2
 72
     2
 73
     1
 90
        2
 40
-0.6
 41
30.0
 62
     5
 63
     7
 74
     0
 91
        4
 64
     7
 65
   257
 75
     1
175
     1
 42
1.0
 92
        0
 66
     7
 43
1.0
 76
     1
 77
     6
 78
     2
 67
     7
 79
     5
170
     0
171
     0
290
     0
174
     0
 93
       13
 44
0.0
173
     0
291
     1
 45
0.0
1001
ACAD
1000
AcDbSavedByObjectVersion
1070
     0
1000
AcDbSavedByObjectVersion
1070
     0
  0
VISUALSTYLE
  5
2C58
102
{ACAD_REACTORS
330
2C54
102
}
330
2C54
100
AcDbVisualStyle
  2
GouraudWithEdges
 70
     3
 71
     2
 72
     2
 73
     1
 90
        2
 40
-0.6
 41
30.0
 62
     5
 63
     7
 74
     1
 91
        4
 64
     7
 65
   257
 75
     1
175
     1
 42
1.0
 92
        0
 66
   257
 43
1.0
 76
     1
 77
     6
 78
     2
 67
     7
 79
     5
170
     0
171
     0
290
     0
174
     0
 93
       13
 44
0.0
173
     0
291
     1
 45
0.0
1001
ACAD
1000
AcDbSavedByObjectVersion
1070
     0
1000
AcDbSavedByObjectVersion
1070
     0
  0
VISUALSTYLE
  5
2C62
102
{ACAD_REACTORS
330
2C54
102
}
330
2C54
100
AcDbVisualStyle
  2
Linepattern
 70
    14
 71
     2
 72
     2
 73
     0
 90
        0
 40
-0.6
 41
-30.0
 62
     5
 63
     7
 74
     1
 91
        4
 64
     7
 65
   257
 75
     7
175
     7
 42
1.0
 92
        8
 66
     7
 43
1.0
 76
     1
 77
     6
 78
     2
 67
     7
 79
     5
170
     0
171
     0
290
     0
174
     0
 93
        1
 44
0.0
173
     0
291
     1
 45
0.0
1001
ACAD
1000
AcDbSavedByObjectVersion
1070
     0
1000
AcDbSavedByObjectVersion
1070
     0
  0
VISUALSTYLE
  5
2C5E
102
{ACAD_REACTORS
330
2C54
102
}
330
2C54
100
AcDbVisualStyle
  2
Realistic
 70
     8
 71
     2
 72
     2
 73
     0
 90
        0
 40
-0.6
 41
-30.0
 62
     5
 63
     7
 74
     1
 91
        0
 64
     7
 65
   257
 75
     1
175
     1
 42
1.0
 92
        8
 66
     8
 43
1.0
 76
     1
 77
     6
 78
     2
 67
     7
 79
     5
170
     0
171
     0
290
     0
174
     0
 93
       13
 44
0.0
173
     0
291
     0
 45
0.0
1001
ACAD
1000
AcDbSavedByObjectVersion
1070
     0
1000
AcDbSavedByObjectVersion
1070
     0
  0
VISUALSTYLE
  5
2C61
102
{ACAD_REACTORS
330
2C54
102
}
330
2C54
100
AcDbVisualStyle
  2
Thicken
 70
    13
 71
     2
 72
     2
 73
     0
 90
        0
 40
-0.6
 41
-30.0
 62
     5
 63
     7
 74
     1
 91
        4
 64
     7
 65
   257
 75
     1
175
     1
 42
1.0
 92
       12
 66
     7
 43
1.0
 76
     1
 77
     6
 78
     2
 67
     7
 79
     5
170
     0
171
     0
290
     0
174
     0
 93
        1
 44
0.0
173
     0
291
     1
 45
0.0
1001
ACAD
1000
AcDbSavedByObjectVersion
1070
     0
1000
AcDbSavedByObjectVersion
1070
     0
  0
DICTIONARYVAR
  5
2E80
102
{ACAD_REACTORS
330
2E7D
102
}
330
2E7D
100
DictionaryVariables
280
     0
  1
1:1
  0
DICTIONARYVAR
  5
2E7F
102
{ACAD_REACTORS
330
2E7D
102
}
330
2E7D
100
DictionaryVariables
280
     0
  1
STANDARD
  0
DICTIONARYVAR
  5
2E7E
102
{ACAD_REACTORS
330
2E7D
102
}
330
2E7D
100
DictionaryVariables
280
     0
  1
STANDARD
  0
DICTIONARYVAR
  5
2E83
102
{ACAD_REACTORS
330
2E7D
102
}
330
2E7D
100
DictionaryVariables
280
     0
  1
1
  0
DICTIONARYVAR
  5
2E82
102
{ACAD_REACTORS
330
2E7D
102
}
330
2E7D
100
DictionaryVariables
280
     0
  1
1
  0
DICTIONARYVAR
  5
2E81
102
{ACAD_REACTORS
330
2E7D
102
}
330
2E7D
100
DictionaryVariables
280
     0
  1
127
  0
DICTIONARY
  5
2E3B
102
{ACAD_REACTORS
330
2E2D
102
}
330
2E2D
100
AcDbDictionary
281
     1
  0
DICTIONARY
  5
2D7B
102
{ACAD_REACTORS
330
2D7A
102
}
330
2D7A
100
AcDbDictionary
281
     1
  3
DWGSETTINGS
350
2EA2
  3
TRANSSETTINGS
350
2EA3
  0
ACAMGFILTERDAT
  5
301B
102
{ACAD_REACTORS
330
3016
102
}
330
3016
100
AcAmgFilterDat
 70
    15
  1
DIMENSION,AMDT_*_DIM
  2
*
  3
*
  4
*
  5
*
290
     1
  0
ACAMGFILTERDAT
  5
301A
102
{ACAD_REACTORS
330
3016
102
}
330
3016
100
AcAmgFilterDat
 70
    15
  1
*
  2
AM_FEA-AM_*
  3
*
  4
*
  5
*
290
     1
  0
ACAMGFILTERDAT
  5
3017
102
{ACAD_REACTORS
330
3016
102
}
330
3016
100
AcAmgFilterDat
 70
    15
  1
HATCH
  2
*
  3
*
  4
*
  5
*
290
     1
  0
ACAMGFILTERDAT
  5
3018
102
{ACAD_REACTORS
330
3016
102
}
330
3016
100
AcAmgFilterDat
 70
    15
  1
LINE
  2
8,8N,*-8,*-8N,AM_8,AM_8N,*-AM_8,*-AM_8N
  3
*
  4
*
  5
INSERT,STDPART2D
290
     1
  0
ACAMGFILTERDAT
  5
301C
102
{ACAD_REACTORS
330
3016
102
}
330
3016
100
AcAmgFilterDat
 70
    15
  1
ARC
  2
AM_5
  3
*
  4
2
  5
INSERT
290
     0
  0
ACAMGFILTERDAT
  5
3019
102
{ACAD_REACTORS
330
3016
102
}
330
3016
100
AcAmgFilterDat
 70
    15
  1
ACMFCFRAME,ACMDATUMTARGET,ACMDATUMID,ACMWELDSYM,ACMSURFSYM,ACMFEATID,ACMPARTREF,ACMBALLOON,AMDTEDGESYM,AMGSCREWCALCTABLE,ACMMARKSTAMP
  2
*
  3
*
  4
*
  5
*
290
     1
  0
LAYER_INDEX
  5
2E6F
102
{ACAD_REACTORS
330
2E6E
102
}
330
2E6E
100
AcDbIndex
 40
2456217.591720683
100
AcDbLayerIndex
  8
0
360
2E70
 90
        0
  8
OUTLINE
360
2E71
 90
       32
  8
SIZE
360
2E72
 90
       46
  8
BASIS
360
2E73
 90
        1
  8
DETAIL
360
2E74
 90
       45
  8
ARRANGE
360
2E75
 90
        2
  8
DEFPOINTS
360
2E76
 90
        0
  8
ETC
360
2E77
 90
        3
  8
FIX
360
2E78
 90
        0
  8
NOTE
360
2E79
 90
       14
  8
SERVICESPACE
360
2E7A
 90
        0
  8
SYMBOLLINE
360
2E7B
 90
        0
  8
DETAIL___1
360
2E7C
 90
        0
  0
DICTIONARY
  5
3094
102
{ACAD_REACTORS
330
3093
102
}
330
3093
100
AcDbDictionary
281
     1
  0
DICTIONARY
  5
3095
102
{ACAD_REACTORS
330
3093
102
}
330
3093
100
AcDbDictionary
281
     1
  0
DICTIONARY
  5
309A
102
{ACAD_REACTORS
330
3099
102
}
330
3099
100
AcDbDictionary
281
     1
  0
DICTIONARY
  5
309B
102
{ACAD_REACTORS
330
3099
102
}
330
3099
100
AcDbDictionary
281
     1
  0
DICTIONARY
  5
30C2
330
2CA2
100
AcDbDictionary
280
     1
281
     1
  3
ACAD_XREC_ROUNDTRIP
360
30C3
  0
DICTIONARY
  5
30C0
330
2C9E
100
AcDbDictionary
280
     1
281
     1
  3
ACAD_XREC_ROUNDTRIP
360
30C1
  0
DICTIONARY
  5
2C45
330
2C44
100
AcDbDictionary
280
     1
281
     1
  3
ACAD_XREC_ROUNDTRIP
360
2E8E
  3
BUMPTILE
360
2C47
  3
DIFFUSETILE
360
2C46
  3
OPACITYTILE
360
2C4A
  3
REFLECTIONTILE
360
2C49
  3
REFRACTIONTILE
360
2C4B
  3
SPECULARTILE
360
2C48
  0
DICTIONARY
  5
2C3D
330
2C3C
100
AcDbDictionary
280
     1
281
     1
  3
ACAD_XREC_ROUNDTRIP
360
2E8D
  3
BUMPTILE
360
2C3F
  3
DIFFUSETILE
360
2C3E
  3
OPACITYTILE
360
2C42
  3
REFLECTIONTILE
360
2C41
  3
REFRACTIONTILE
360
2C43
  3
SPECULARTILE
360
2C40
  0
DICTIONARY
  5
2C4D
330
2C4C
100
AcDbDictionary
280
     1
281
     1
  3
ACAD_XREC_ROUNDTRIP
360
2E8F
  3
BUMPTILE
360
2C4F
  3
DIFFUSETILE
360
2C4E
  3
OPACITYTILE
360
2C52
  3
REFLECTIONTILE
360
2C51
  3
REFRACTIONTILE
360
2C53
  3
SPECULARTILE
360
2C50
  0
DICTIONARY
  5
2E84
330
2C97
100
AcDbDictionary
280
     1
281
     1
  3
ACAD_ROUNDTRIP_2008_TABLESTYLE_CELLSTYLEMAP
360
30B5
  3
ACAD_XREC_ROUNDTRIP
360
30BF
  0
IDBUFFER
  5
2E70
330
0
100
AcDbIdBuffer
  0
IDBUFFER
  5
2E71
330
0
100
AcDbIdBuffer
330
953
330
954
330
955
330
956
330
957
330
958
330
303F
330
3041
330
3048
330
306C
330
306E
330
306F
330
3070
330
3071
330
3072
330
3073
330
3074
330
3075
330
3076
330
3077
330
3078
330
3079
330
307A
330
307B
330
307C
330
307D
330
307E
330
307F
330
3086
330
3087
330
309D
330
30A0
  0
IDBUFFER
  5
2E72
330
0
100
AcDbIdBuffer
330
3027
330
3028
330
3029
330
302A
330
302B
330
302C
330
3035
330
3036
330
3037
330
3038
330
3039
330
303A
330
3051
330
3052
330
3053
330
3054
330
3055
330
3056
330
3057
330
3058
330
3059
330
305A
330
305B
330
305C
330
305D
330
305E
330
305F
330
3060
330
3061
330
3062
330
3063
330
3064
330
3080
330
3081
330
3082
330
3083
330
3084
330
3085
330
3088
330
3089
330
308A
330
308B
330
308C
330
308D
330
308E
330
308F
  0
IDBUFFER
  5
2E73
330
0
100
AcDbIdBuffer
330
3023
  0
IDBUFFER
  5
2E74
330
0
100
AcDbIdBuffer
330
3091
330
3097
330
30A1
330
30A2
330
30A3
330
30A4
330
30A5
330
30A6
330
30A7
330
30A8
330
30A9
330
30AA
330
30AB
330
30AC
330
30AD
330
30AE
330
30AF
330
30B0
330
3024
330
3025
330
3026
330
302D
330
302E
330
302F
330
3030
330
3031
330
3032
330
3033
330
3034
330
303B
330
303D
330
303E
330
3040
330
3043
330
3044
330
3046
330
3047
330
3049
330
304A
330
304C
330
304D
330
304E
330
304F
330
3050
330
3090
  0
IDBUFFER
  5
2E75
330
0
100
AcDbIdBuffer
330
3021
330
3022
  0
IDBUFFER
  5
2E76
330
0
100
AcDbIdBuffer
  0
IDBUFFER
  5
2E77
330
0
100
AcDbIdBuffer
330
301E
330
301F
330
3020
  0
IDBUFFER
  5
2E78
330
0
100
AcDbIdBuffer
  0
IDBUFFER
  5
2E79
330
0
100
AcDbIdBuffer
330
306B
330
306D
330
309E
330
309F
330
303C
330
3042
330
3045
330
304B
330
3065
330
3066
330
3067
330
3068
330
3069
330
306A
  0
IDBUFFER
  5
2E7A
330
0
100
AcDbIdBuffer
  0
IDBUFFER
  5
2E7B
330
0
100
AcDbIdBuffer
  0
IDBUFFER
  5
2E7C
330
0
100
AcDbIdBuffer
  0
XRECORD
  5
30C3
102
{ACAD_REACTORS
330
30C2
102
}
330
30C2
100
AcDbXrecord
280
     1
102
SHADEPLOT
 70
     0
102
SHADEPLOTRESLEVEL
 70
     2
102
SHADEPLOTCUSTOMDPI
 70
   300
  0
XRECORD
  5
30C1
102
{ACAD_REACTORS
330
30C0
102
}
330
30C0
100
AcDbXrecord
280
     1
102
SHADEPLOT
 70
     0
102
SHADEPLOTRESLEVEL
 70
     2
102
SHADEPLOTCUSTOMDPI
 70
   300
  0
XRECORD
  5
2E8E
102
{ACAD_REACTORS
330
2C45
102
}
330
2C45
100
AcDbXrecord
280
     1
102
MATERIAL
148
0.0
149
0.0
149
0.0
 93
        0
 94
      127
282
     0
 72
     0
 77
     0
171
     0
175
     0
179
     0
273
     0
  0
XRECORD
  5
2C47
102
{ACAD_REACTORS
330
2C45
102
}
330
2C45
100
AcDbXrecord
280
     1
270
     1
271
     1
  0
XRECORD
  5
2C46
102
{ACAD_REACTORS
330
2C45
102
}
330
2C45
100
AcDbXrecord
280
     1
270
     1
271
     1
  0
XRECORD
  5
2C4A
102
{ACAD_REACTORS
330
2C45
102
}
330
2C45
100
AcDbXrecord
280
     1
270
     1
271
     1
  0
XRECORD
  5
2C49
102
{ACAD_REACTORS
330
2C45
102
}
330
2C45
100
AcDbXrecord
280
     1
270
     1
271
     1
  0
XRECORD
  5
2C4B
102
{ACAD_REACTORS
330
2C45
102
}
330
2C45
100
AcDbXrecord
280
     1
270
     1
271
     1
  0
XRECORD
  5
2C48
102
{ACAD_REACTORS
330
2C45
102
}
330
2C45
100
AcDbXrecord
280
     1
270
     1
271
     1
  0
XRECORD
  5
2E8D
102
{ACAD_REACTORS
330
2C3D
102
}
330
2C3D
100
AcDbXrecord
280
     1
102
MATERIAL
148
0.0
149
0.0
149
0.0
 93
        0
 94
      127
282
     0
 72
     0
 77
     0
171
     0
175
     0
179
     0
273
     0
  0
XRECORD
  5
2C3F
102
{ACAD_REACTORS
330
2C3D
102
}
330
2C3D
100
AcDbXrecord
280
     1
270
     1
271
     1
  0
XRECORD
  5
2C3E
102
{ACAD_REACTORS
330
2C3D
102
}
330
2C3D
100
AcDbXrecord
280
     1
270
     1
271
     1
  0
XRECORD
  5
2C42
102
{ACAD_REACTORS
330
2C3D
102
}
330
2C3D
100
AcDbXrecord
280
     1
270
     1
271
     1
  0
XRECORD
  5
2C41
102
{ACAD_REACTORS
330
2C3D
102
}
330
2C3D
100
AcDbXrecord
280
     1
270
     1
271
     1
  0
XRECORD
  5
2C43
102
{ACAD_REACTORS
330
2C3D
102
}
330
2C3D
100
AcDbXrecord
280
     1
270
     1
271
     1
  0
XRECORD
  5
2C40
102
{ACAD_REACTORS
330
2C3D
102
}
330
2C3D
100
AcDbXrecord
280
     1
270
     1
271
     1
  0
XRECORD
  5
2E8F
102
{ACAD_REACTORS
330
2C4D
102
}
330
2C4D
100
AcDbXrecord
280
     1
102
MATERIAL
148
0.0
149
0.0
149
0.0
 93
        0
 94
      127
282
     0
 72
     0
 77
     0
171
     0
175
     0
179
     0
273
     0
  0
XRECORD
  5
2C4F
102
{ACAD_REACTORS
330
2C4D
102
}
330
2C4D
100
AcDbXrecord
280
     1
270
     1
271
     1
  0
XRECORD
  5
2C4E
102
{ACAD_REACTORS
330
2C4D
102
}
330
2C4D
100
AcDbXrecord
280
     1
270
     1
271
     1
  0
XRECORD
  5
2C52
102
{ACAD_REACTORS
330
2C4D
102
}
330
2C4D
100
AcDbXrecord
280
     1
270
     1
271
     1
  0
XRECORD
  5
2C51
102
{ACAD_REACTORS
330
2C4D
102
}
330
2C4D
100
AcDbXrecord
280
     1
270
     1
271
     1
  0
XRECORD
  5
2C53
102
{ACAD_REACTORS
330
2C4D
102
}
330
2C4D
100
AcDbXrecord
280
     1
270
     1
271
     1
  0
XRECORD
  5
2C50
102
{ACAD_REACTORS
330
2C4D
102
}
330
2C4D
100
AcDbXrecord
280
     1
270
     1
271
     1
  0
CELLSTYLEMAP
  5
30B5
102
{ACAD_REACTORS
330
2E84
102
}
330
2E84
100
AcDbCellStyleMap
 90
        3
300
CELLSTYLE
  1
TABLEFORMAT_BEGIN
 90
        5
170
     1
 91
        0
 92
    32768
 62
   257
 93
        1
300
CONTENTFORMAT
  1
CONTENTFORMAT_BEGIN
 90
        0
 91
        0
 92
      512
 93
        0
300

 40
0.0
140
1.0
 94
        5
 62
     0
340
2C88
144
0.25
309
CONTENTFORMAT_END
171
     1
301
MARGIN
  1
CELLMARGIN_BEGIN
 40
0.06
 40
0.06
 40
0.06
 40
0.06
 40
0.18
 40
0.18
309
CELLMARGIN_END
 94
        6
 95
        1
302
GRIDFORMAT
  1
GRIDFORMAT_BEGIN
 90
        0
 91
        1
 62
     0
 92
       -2
340
0
 93
        0
 40
0.045
309
GRIDFORMAT_END
 95
        2
302
GRIDFORMAT
  1
GRIDFORMAT_BEGIN
 90
        0
 91
        1
 62
     0
 92
       -2
340
0
 93
        0
 40
0.045
309
GRIDFORMAT_END
 95
        4
302
GRIDFORMAT
  1
GRIDFORMAT_BEGIN
 90
        0
 91
        1
 62
     0
 92
       -2
340
0
 93
        0
 40
0.045
309
GRIDFORMAT_END
 95
        8
302
GRIDFORMAT
  1
GRIDFORMAT_BEGIN
 90
        0
 91
        1
 62
     0
 92
       -2
340
0
 93
        0
 40
0.045
309
GRIDFORMAT_END
 95
       16
302
GRIDFORMAT
  1
GRIDFORMAT_BEGIN
 90
        0
 91
        1
 62
     0
 92
       -2
340
0
 93
        0
 40
0.045
309
GRIDFORMAT_END
 95
       32
302
GRIDFORMAT
  1
GRIDFORMAT_BEGIN
 90
        0
 91
        1
 62
     0
 92
       -2
340
0
 93
        0
 40
0.045
309
GRIDFORMAT_END
309
TABLEFORMAT_END
  1
CELLSTYLE_BEGIN
 90
        1
 91
        1
300
_TITLE
309
CELLSTYLE_END
300
CELLSTYLE
  1
TABLEFORMAT_BEGIN
 90
        5
170
     1
 91
        0
 92
        0
 62
   257
 93
        1
300
CONTENTFORMAT
  1
CONTENTFORMAT_BEGIN
 90
        0
 91
        0
 92
      512
 93
        0
300

 40
0.0
140
1.0
 94
        5
 62
     0
340
2C88
144
0.18
309
CONTENTFORMAT_END
171
     1
301
MARGIN
  1
CELLMARGIN_BEGIN
 40
0.06
 40
0.06
 40
0.06
 40
0.06
 40
0.18
 40
0.18
309
CELLMARGIN_END
 94
        6
 95
        1
302
GRIDFORMAT
  1
GRIDFORMAT_BEGIN
 90
        0
 91
        1
 62
     0
 92
       -2
340
0
 93
        0
 40
0.045
309
GRIDFORMAT_END
 95
        2
302
GRIDFORMAT
  1
GRIDFORMAT_BEGIN
 90
        0
 91
        1
 62
     0
 92
       -2
340
0
 93
        0
 40
0.045
309
GRIDFORMAT_END
 95
        4
302
GRIDFORMAT
  1
GRIDFORMAT_BEGIN
 90
        0
 91
        1
 62
     0
 92
       -2
340
0
 93
        0
 40
0.045
309
GRIDFORMAT_END
 95
        8
302
GRIDFORMAT
  1
GRIDFORMAT_BEGIN
 90
        0
 91
        1
 62
     0
 92
       -2
340
0
 93
        0
 40
0.045
309
GRIDFORMAT_END
 95
       16
302
GRIDFORMAT
  1
GRIDFORMAT_BEGIN
 90
        0
 91
        1
 62
     0
 92
       -2
340
0
 93
        0
 40
0.045
309
GRIDFORMAT_END
 95
       32
302
GRIDFORMAT
  1
GRIDFORMAT_BEGIN
 90
        0
 91
        1
 62
     0
 92
       -2
340
0
 93
        0
 40
0.045
309
GRIDFORMAT_END
309
TABLEFORMAT_END
  1
CELLSTYLE_BEGIN
 90
        2
 91
        1
300
_HEADER
309
CELLSTYLE_END
300
CELLSTYLE
  1
TABLEFORMAT_BEGIN
 90
        5
170
     1
 91
        0
 92
        0
 62
   257
 93
        1
300
CONTENTFORMAT
  1
CONTENTFORMAT_BEGIN
 90
        0
 91
        0
 92
      512
 93
        0
300

 40
0.0
140
1.0
 94
        2
 62
     0
340
2C88
144
0.18
309
CONTENTFORMAT_END
171
     1
301
MARGIN
  1
CELLMARGIN_BEGIN
 40
0.06
 40
0.06
 40
0.06
 40
0.06
 40
0.18
 40
0.18
309
CELLMARGIN_END
 94
        6
 95
        1
302
GRIDFORMAT
  1
GRIDFORMAT_BEGIN
 90
        0
 91
        1
 62
     0
 92
       -2
340
0
 93
        0
 40
0.045
309
GRIDFORMAT_END
 95
        2
302
GRIDFORMAT
  1
GRIDFORMAT_BEGIN
 90
        0
 91
        1
 62
     0
 92
       -2
340
0
 93
        0
 40
0.045
309
GRIDFORMAT_END
 95
        4
302
GRIDFORMAT
  1
GRIDFORMAT_BEGIN
 90
        0
 91
        1
 62
     0
 92
       -2
340
0
 93
        0
 40
0.045
309
GRIDFORMAT_END
 95
        8
302
GRIDFORMAT
  1
GRIDFORMAT_BEGIN
 90
        0
 91
        1
 62
     0
 92
       -2
340
0
 93
        0
 40
0.045
309
GRIDFORMAT_END
 95
       16
302
GRIDFORMAT
  1
GRIDFORMAT_BEGIN
 90
        0
 91
        1
 62
     0
 92
       -2
340
0
 93
        0
 40
0.045
309
GRIDFORMAT_END
 95
       32
302
GRIDFORMAT
  1
GRIDFORMAT_BEGIN
 90
        0
 91
        1
 62
     0
 92
       -2
340
0
 93
        0
 40
0.045
309
GRIDFORMAT_END
309
TABLEFORMAT_END
  1
CELLSTYLE_BEGIN
 90
        3
 91
        2
300
_DATA
309
CELLSTYLE_END
  0
XRECORD
  5
30BF
102
{ACAD_REACTORS
330
2E84
102
}
330
2E84
100
AcDbXrecord
280
     1
102
ACAD_ROUNDTRIP_PRE2007_TABLESTYLE
 90
      512
 91
        0
  1

 92
      512
 93
        0
  2

 94
      512
 95
        0
  3

  0
ENDSEC
  0
EOF
