  0
SECTION
  2
HEADER
  9
$ACADVER
  1
AC1009
  9
$DWGCODEPAGE
  3
dos932
  9
$INSBASE
 10
0.0
 20
0.0
 30
0.0
  9
$EXTMIN
 10
-938.095077
 20
-390.609729
 30
-0.003052
  9
$EXTMAX
 10
893.682873
 20
876.708993
 30
50.003052
  9
$LIMMIN
 10
-2970.0
 20
-2100.0
  9
$LIMMAX
 10
2970.0
 20
2100.0
  9
$ORTHOMODE
 70
     1
  9
$REGENMODE
 70
     1
  9
$FILLMODE
 70
     1
  9
$QTEXTMODE
 70
     0
  9
$MIRRTEXT
 70
     0
  9
$DRAGMODE
 70
     2
  9
$LTSCALE
 40
20.0
  9
$OSMODE
 70
  1023
  9
$ATTMODE
 70
     1
  9
$TEXTSIZE
 40
64.0
  9
$TRACEWID
 40
0.05
  9
$TEXTSTYLE
  7
STANDARD
  9
$CLAYER
  8
SIZE
  9
$CELTYPE
  6
CONTINUOUS
  9
$CECOLOR
 62
     7
  9
$DIMSCALE
 40
1.0
  9
$DIMASZ
 40
12.0
  9
$DIMEXO
 40
20.0
  9
$DIMDLI
 40
200.0
  9
$DIMRND
 40
0.0
  9
$DIMDLE
 40
0.0
  9
$DIMEXE
 40
20.0
  9
$DIMTP
 40
0.0
  9
$DIMTM
 40
0.0
  9
$DIMTXT
 40
64.0
  9
$DIMCEN
 40
0.09
  9
$DIMTSZ
 40
0.0
  9
$DIMTOL
 70
     0
  9
$DIMLIM
 70
     0
  9
$DIMTIH
 70
     0
  9
$DIMTOH
 70
     0
  9
$DIMSE1
 70
     0
  9
$DIMSE2
 70
     0
  9
$DIMTAD
 70
     1
  9
$DIMZIN
 70
     8
  9
$DIMBLK
  1
DOT1
  9
$DIMASO
 70
     1
  9
$DIMSHO
 70
     0
  9
$DIMPOST
  1

  9
$DIMAPOST
  1

  9
$DIMALT
 70
     0
  9
$DIMALTD
 70
     2
  9
$DIMALTF
 40
25.4
  9
$DIMLFAC
 40
1.0
  9
$DIMTOFL
 70
     1
  9
$DIMTVP
 40
0.0
  9
$DIMTIX
 70
     1
  9
$DIMSOXD
 70
     0
  9
$DIMSAH
 70
     1
  9
$DIMBLK1
  1
_ORIGIN
  9
$DIMBLK2
  1
_ORIGIN
  9
$DIMSTYLE
  2
STANDARD
  9
$DIMCLRD
 70
     7
  9
$DIMCLRE
 70
     7
  9
$DIMCLRT
 70
     7
  9
$DIMTFAC
 40
1.0
  9
$DIMGAP
 40
25.0
  9
$LUNITS
 70
     2
  9
$LUPREC
 70
     4
  9
$SKETCHINC
 40
0.1
  9
$FILLETRAD
 40
4.0
  9
$AUNITS
 70
     1
  9
$AUPREC
 70
     3
  9
$MENU
  1
ACAD
  9
$ELEVATION
 40
0.0
  9
$PELEVATION
 40
0.0
  9
$THICKNESS
 40
50.0
  9
$LIMCHECK
 70
     0
  9
$BLIPMODE
 70
     0
  9
$CHAMFERA
 40
0.0
  9
$CHAMFERB
 40
0.0
  9
$SKPOLY
 70
     0
  9
$TDCREATE
 40
2453434.58448934
  9
$TDUPDATE
 40
2453837.815966516
  9
$TDINDWG
 40
0.1424422454
  9
$TDUSRTIMER
 40
0.1424422454
  9
$USRTIMER
 70
     1
  9
$ANGBASE
 50
0.0
  9
$ANGDIR
 70
     0
  9
$PDMODE
 70
     3
  9
$PDSIZE
 40
-2.0
  9
$PLINEWID
 40
0.0
  9
$COORDS
 70
     2
  9
$SPLFRAME
 70
     0
  9
$SPLINETYPE
 70
     6
  9
$SPLINESEGS
 70
     8
  9
$ATTDIA
 70
     0
  9
$ATTREQ
 70
     1
  9
$HANDLING
 70
     0
  9
$HANDSEED
  5
8276
  9
$SURFTAB1
 70
     6
  9
$SURFTAB2
 70
     6
  9
$SURFTYPE
 70
     6
  9
$SURFU
 70
     6
  9
$SURFV
 70
     6
  9
$UCSNAME
  2

  9
$UCSORG
 10
0.0
 20
0.0
 30
0.0
  9
$UCSXDIR
 10
1.0
 20
0.0
 30
0.0
  9
$UCSYDIR
 10
0.0
 20
1.0
 30
0.0
  9
$PUCSNAME
  2

  9
$PUCSORG
 10
0.0
 20
0.0
 30
0.0
  9
$PUCSXDIR
 10
1.0
 20
0.0
 30
0.0
  9
$PUCSYDIR
 10
0.0
 20
1.0
 30
0.0
  9
$USERI1
 70
     0
  9
$USERI2
 70
     0
  9
$USERI3
 70
     0
  9
$USERI4
 70
     0
  9
$USERI5
 70
     0
  9
$USERR1
 40
20.0
  9
$USERR2
 40
0.0
  9
$USERR3
 40
0.0
  9
$USERR4
 40
0.0
  9
$USERR5
 40
0.0
  9
$WORLDVIEW
 70
     1
  9
$SHADEDGE
 70
     3
  9
$SHADEDIF
 70
    70
  9
$TILEMODE
 70
     1
  9
$MAXACTVP
 70
    48
  9
$PINSBASE
 10
0.0
 20
0.0
 30
0.0
  9
$PLIMCHECK
 70
     0
  9
$PEXTMIN
 10
-100000000000000000000.0
 20
-100000000000000000000.0
 30
-100000000000000000000.0
  9
$PEXTMAX
 10
100000000000000000000.0
 20
100000000000000000000.0
 30
100000000000000000000.0
  9
$PLIMMIN
 10
0.0
 20
0.0
  9
$PLIMMAX
 10
12.0
 20
9.0
  9
$UNITMODE
 70
     0
  9
$VISRETAIN
 70
     0
  9
$PLINEGEN
 70
     0
  9
$PSLTSCALE
 70
     0
  9
$TREEDEPTH
 70
  3020
  0
ENDSEC
  0
SECTION
  2
TABLES
  0
TABLE
  2
LTYPE
 70
     2
  0
LTYPE
  2
CONTINUOUS
 70
     0
  3
実線
 72
    65
 73
     0
 40
0.0
  0
LTYPE
  2
DASHDOT
 70
    64
  3

 72
    65
 73
     4
 40
1.0
 49
0.5
 49
-0.25
 49
0.0
 49
-0.25
  0
ENDTAB
  0
TABLE
  2
LAYER
 70
    12
  0
LAYER
  2
0
 70
     0
 62
     7
  6
CONTINUOUS
  0
LAYER
  2
OUTLINE
 70
     0
 62
     3
  6
CONTINUOUS
  0
LAYER
  2
DETAIL
 70
     0
 62
     5
  6
CONTINUOUS
  0
LAYER
  2
SIZE
 70
     0
 62
    30
  6
CONTINUOUS
  0
LAYER
  2
ARRANGE
 70
     0
 62
     1
  6
CONTINUOUS
  0
LAYER
  2
DEFPOINTS
 70
     0
 62
     7
  6
CONTINUOUS
  0
LAYER
  2
ETC
 70
     0
 62
    61
  6
CONTINUOUS
  0
LAYER
  2
FIX
 70
     0
 62
    11
  6
CONTINUOUS
  0
LAYER
  2
NOTE
 70
     0
 62
     4
  6
CONTINUOUS
  0
LAYER
  2
BASIS
 70
    64
 62
     6
  6
DASHDOT
  0
LAYER
  2
SERVICESPACE
 70
    64
 62
     2
  6
DASHDOT
  0
LAYER
  2
SYMBOLLINE
 70
    64
 62
    15
  6
CONTINUOUS
  0
ENDTAB
  0
TABLE
  2
STYLE
 70
     1
  0
STYLE
  2
STANDARD
 70
     0
 40
64.0
 41
0.9
 50
0.0
 71
     0
 42
64.0
  3
SIMPLEX.shx
  4
BIGFONT.shx
  0
ENDTAB
  0
TABLE
  2
APPID
 70
     2
  0
APPID
  2
ACAD
 70
     0
  0
APPID
  2
AUTOCAD_POSTSCRIPT_FIGURE
 70
     0
  0
ENDTAB
  0
TABLE
  2
DIMSTYLE
 70
     1
  0
DIMSTYLE
  2
STANDARD
 70
     0
  3

  4

  5

  6

  7

 40
1.0
 41
0.18
 42
0.0625
 43
0.38
 44
0.18
 45
0.0
 46
0.0
 47
0.0
 48
0.0
140
0.18
141
0.09
142
0.0
143
25.4
144
1.0
145
0.0
146
1.0
147
0.09
 71
     0
 72
     0
 73
     1
 74
     1
 75
     0
 76
     0
 77
     0
 78
     0
170
     0
171
     2
172
     0
173
     0
174
     0
175
     0
176
     7
177
     7
178
     7
  0
ENDTAB
  0
TABLE
  2
VIEW
 70
     1
  0
VIEW
  2
ALL
 70
     0
 40
4282.619808
 10
0.0
 20
41.309904
 41
5940.0
 11
0.0
 21
0.0
 31
1.0
 12
0.0
 22
0.0
 32
0.0
 42
50.0
 43
0.0
 44
0.0
 50
0.0
 71
     0
  0
ENDTAB
  0
TABLE
  2
UCS
 70
     0
  0
ENDTAB
  0
TABLE
  2
VPORT
 70
     1
  0
VPORT
  2
*ACTIVE
 70
     0
 10
0.0
 20
0.0
 11
1.0
 21
1.0
 12
-22.206102
 22
243.049632
 13
0.0
 23
0.0
 14
1.0
 24
1.0
 15
0.0
 25
0.0
 16
0.0
 26
0.0
 36
1.0
 17
0.0
 27
0.0
 37
0.0
 40
1281.720071
 41
1.658444
 42
50.0
 43
0.0
 44
0.0
 50
0.0
 51
0.0
 71
     0
 72
  1000
 73
     1
 74
     0
 75
     0
 76
     0
 77
     0
 78
     0
  0
ENDTAB
  0
ENDSEC
  0
SECTION
  2
BLOCKS
  0
BLOCK
  8
0
  2
DOT1
 70
     0
 10
0.0
 20
0.0
 30
0.0
  3
DOT1
  1

  0
CIRCLE
  8
SIZE
  6
CONTINUOUS
 62
     7
 10
0.0
 20
0.0
 30
0.0
 40
3.0
  0
ENDBLK
  8
0
  0
BLOCK
  8
0
  2
_ORIGIN
 70
     0
 10
0.0
 20
0.0
 30
0.0
  3
_ORIGIN
  1

  0
CIRCLE
  8
0
  6
CONTINUOUS
 62
     7
 10
0.0
 20
0.0
 30
0.0
 40
0.5
  0
LINE
  8
0
  6
CONTINUOUS
 62
     7
 10
0.0
 20
0.0
 30
0.0
 11
-1.0
 21
0.0
 31
0.0
  0
ENDBLK
  8
0
  0
ENDSEC
  0
SECTION
  2
ENTITIES
  0
TEXT
  8
ETC
  6
CONTINUOUS
 62
    61
 10
367.33893
 20
707.214686
 30
0.0
 40
40.0
  1
JT-SB216GSN-W_6
 41
0.9
  0
TEXT
  8
ETC
  6
CONTINUOUS
 62
    61
 10
373.146335
 20
562.518993
 30
0.0
 40
40.0
  1
ジェットタオル
 41
0.9
  0
LINE
  8
NOTE
  6
CONTINUOUS
 62
     4
 10
-151.043377
 20
-12.458745
 30
0.0
 11
-469.491081
 21
-324.799146
 31
0.0
  0
LINE
  8
NOTE
  6
CONTINUOUS
 62
     4
 10
-171.377818
 20
-46.904507
 30
0.0
 11
-151.043377
 21
-12.458745
 31
0.0
  0
LINE
  8
NOTE
  6
CONTINUOUS
 62
     4
 10
-151.043377
 20
-12.458745
 30
0.0
 11
-185.876401
 21
-32.122429
 31
0.0
  0
TEXT
  8
NOTE
  6
CONTINUOUS
 62
     4
 10
-929.480929
 20
-296.005427
 30
0.0
 40
64.0
  1
スイッチカバー
 41
0.9
  0
LINE
  8
NOTE
  6
CONTINUOUS
 62
     4
 10
-469.491081
 20
-324.799146
 30
0.0
 11
-937.754991
 21
-324.799146
 31
0.0
  0
LINE
  8
DETAIL
  6
CONTINUOUS
 62
     5
 10
-148.393679
 20
-50.550673
 30
0.0
 11
-148.405634
 21
-53.953716
 31
0.0
  0
LINE
  8
DETAIL
  6
CONTINUOUS
 62
     5
 10
-151.130117
 20
-2.504378
 30
0.0
 11
-149.611598
 21
-176.771348
 31
0.0
  0
LINE
  8
DETAIL
  6
CONTINUOUS
 62
     5
 10
148.869883
 20
-2.504378
 30
0.0
 11
147.35132
 21
-176.771241
 31
0.0
  0
LINE
  8
DETAIL
  6
CONTINUOUS
 62
     5
 10
-141.178892
 20
-213.768
 30
0.0
 11
-125.119525
 21
-214.229219
 31
0.0
  0
LINE
  8
DETAIL
  6
CONTINUOUS
 62
     5
 10
-129.454834
 20
-213.603993
 30
0.0
 11
-120.714753
 21
-213.844019
 31
0.0
  0
LINE
  8
DETAIL
  6
CONTINUOUS
 62
     5
 10
-136.591126
 20
-221.750666
 30
0.0
 11
-121.075205
 21
-222.170636
 31
0.0
  0
LINE
  8
DETAIL
  6
CONTINUOUS
 62
     5
 10
-147.655337
 20
-204.275758
 30
0.0
 11
-147.285305
 21
-211.81822
 31
0.0
  0
LINE
  8
DETAIL
  6
CONTINUOUS
 62
     5
 10
-141.951139
 20
-213.739852
 30
0.0
 11
-141.178888
 21
-213.768
 31
0.0
  0
LINE
  8
DETAIL
  6
CONTINUOUS
 62
     5
 10
-136.885569
 20
-213.390984
 30
0.0
 11
-129.454834
 21
-213.603993
 31
0.0
  0
LINE
  8
DETAIL
  6
CONTINUOUS
 62
     5
 10
-141.326109
 20
-213.259484
 30
0.0
 11
-136.885569
 21
-213.390984
 31
0.0
  0
LINE
  8
DETAIL
  6
CONTINUOUS
 62
     5
 10
-139.681349
 20
-221.589939
 30
0.0
 11
-139.681002
 21
-221.58997
 31
0.0
  0
LINE
  8
DETAIL
  6
CONTINUOUS
 62
     5
 10
-137.309991
 20
-221.72796
 30
0.0
 11
-136.59095
 21
-221.750706
 31
0.0
  0
LINE
  8
DETAIL
  6
CONTINUOUS
 62
     5
 10
-138.137361
 20
-221.693562
 30
0.0
 11
-137.309991
 21
-221.72796
 31
0.0
  0
LINE
  8
DETAIL
  6
CONTINUOUS
 62
     5
 10
-138.949141
 20
-221.647046
 30
0.0
 11
-138.137361
 21
-221.693562
 31
0.0
  0
LINE
  8
DETAIL
  6
CONTINUOUS
 62
     5
 10
-139.681349
 20
-221.589939
 30
0.0
 11
-138.949141
 21
-221.647046
 31
0.0
  0
LINE
  8
DETAIL
  6
CONTINUOUS
 62
     5
 10
-146.251537
 20
-215.347108
 30
0.0
 11
-146.271065
 21
-213.076561
 31
0.0
  0
LINE
  8
DETAIL
  6
CONTINUOUS
 62
     5
 10
-136.61201
 20
-221.749179
 30
0.0
 11
-136.591126
 21
-221.750666
 31
0.0
  0
LINE
  8
DETAIL
  6
CONTINUOUS
 62
     5
 10
-136.712003
 20
-221.716085
 30
0.0
 11
-136.61201
 21
-221.749179
 31
0.0
  0
LINE
  8
DETAIL
  6
CONTINUOUS
 62
     5
 10
-147.285292
 20
-211.818505
 30
0.0
 11
-147.267601
 21
-211.977887
 31
0.0
  0
LINE
  8
DETAIL
  6
CONTINUOUS
 62
     5
 10
-147.285845
 20
-211.798564
 30
0.0
 11
-147.273717
 21
-211.901023
 31
0.0
  0
LINE
  8
DETAIL
  6
CONTINUOUS
 62
     5
 10
-139.994349
 20
-221.559923
 30
0.0
 11
-139.681002
 21
-221.58997
 31
0.0
  0
LINE
  8
DETAIL
  6
CONTINUOUS
 62
     5
 10
-140.355371
 20
-221.519356
 30
0.0
 11
-139.994349
 21
-221.559923
 31
0.0
  0
LINE
  8
DETAIL
  6
CONTINUOUS
 62
     5
 10
-140.697549
 20
-221.473651
 30
0.0
 11
-140.355371
 21
-221.519356
 31
0.0
  0
LINE
  8
DETAIL
  6
CONTINUOUS
 62
     5
 10
-141.023767
 20
-221.421973
 30
0.0
 11
-140.697549
 21
-221.473651
 31
0.0
  0
LINE
  8
DETAIL
  6
CONTINUOUS
 62
     5
 10
-141.338703
 20
-221.362677
 30
0.0
 11
-141.023767
 21
-221.421973
 31
0.0
  0
LINE
  8
DETAIL
  6
CONTINUOUS
 62
     5
 10
-141.639224
 20
-221.295379
 30
0.0
 11
-141.338703
 21
-221.362677
 31
0.0
  0
LINE
  8
DETAIL
  6
CONTINUOUS
 62
     5
 10
-141.937213
 20
-221.216373
 30
0.0
 11
-141.639224
 21
-221.295379
 31
0.0
  0
LINE
  8
DETAIL
  6
CONTINUOUS
 62
     5
 10
-142.250771
 20
-221.118186
 30
0.0
 11
-141.937213
 21
-221.216373
 31
0.0
  0
LINE
  8
DETAIL
  6
CONTINUOUS
 62
     5
 10
-142.593726
 20
-220.990847
 30
0.0
 11
-142.250771
 21
-221.118186
 31
0.0
  0
LINE
  8
DETAIL
  6
CONTINUOUS
 62
     5
 10
-142.957785
 20
-220.829752
 30
0.0
 11
-142.593726
 21
-220.990847
 31
0.0
  0
LINE
  8
DETAIL
  6
CONTINUOUS
 62
     5
 10
-143.330335
 20
-220.633123
 30
0.0
 11
-142.957785
 21
-220.829752
 31
0.0
  0
LINE
  8
DETAIL
  6
CONTINUOUS
 62
     5
 10
-143.699914
 20
-220.401231
 30
0.0
 11
-143.330335
 21
-220.633123
 31
0.0
  0
LINE
  8
DETAIL
  6
CONTINUOUS
 62
     5
 10
-144.061518
 20
-220.132601
 30
0.0
 11
-143.699914
 21
-220.401231
 31
0.0
  0
LINE
  8
DETAIL
  6
CONTINUOUS
 62
     5
 10
-144.411446
 20
-219.825395
 30
0.0
 11
-144.061518
 21
-220.132601
 31
0.0
  0
LINE
  8
DETAIL
  6
CONTINUOUS
 62
     5
 10
-144.746301
 20
-219.477537
 30
0.0
 11
-144.411446
 21
-219.825395
 31
0.0
  0
LINE
  8
DETAIL
  6
CONTINUOUS
 62
     5
 10
-145.062618
 20
-219.085885
 30
0.0
 11
-144.746301
 21
-219.477537
 31
0.0
  0
LINE
  8
DETAIL
  6
CONTINUOUS
 62
     5
 10
-145.356216
 20
-218.646095
 30
0.0
 11
-145.062618
 21
-219.085885
 31
0.0
  0
LINE
  8
DETAIL
  6
CONTINUOUS
 62
     5
 10
-145.621824
 20
-218.153633
 30
0.0
 11
-145.356216
 21
-218.646095
 31
0.0
  0
LINE
  8
DETAIL
  6
CONTINUOUS
 62
     5
 10
-145.852912
 20
-217.605309
 30
0.0
 11
-145.621824
 21
-218.153633
 31
0.0
  0
LINE
  8
DETAIL
  6
CONTINUOUS
 62
     5
 10
-146.040398
 20
-217.000448
 30
0.0
 11
-145.852912
 21
-217.605309
 31
0.0
  0
LINE
  8
DETAIL
  6
CONTINUOUS
 62
     5
 10
-146.173763
 20
-216.338198
 30
0.0
 11
-146.040398
 21
-217.000448
 31
0.0
  0
LINE
  8
DETAIL
  6
CONTINUOUS
 62
     5
 10
-146.20493
 20
-216.102922
 30
0.0
 11
-146.173763
 21
-216.338198
 31
0.0
  0
LINE
  8
DETAIL
  6
CONTINUOUS
 62
     5
 10
-147.285845
 20
-211.798564
 30
0.0
 11
-147.285306
 21
-211.81822
 31
0.0
  0
LINE
  8
DETAIL
  6
CONTINUOUS
 62
     5
 10
-141.18449
 20
-213.767534
 30
0.0
 11
-141.178892
 21
-213.768
 31
0.0
  0
LINE
  8
DETAIL
  6
CONTINUOUS
 62
     5
 10
-141.224969
 20
-213.74546
 30
0.0
 11
-141.18449
 21
-213.767534
 31
0.0
  0
LINE
  8
DETAIL
  6
CONTINUOUS
 62
     5
 10
-141.261426
 20
-213.691959
 30
0.0
 11
-141.224969
 21
-213.74546
 31
0.0
  0
LINE
  8
DETAIL
  6
CONTINUOUS
 62
     5
 10
-141.291461
 20
-213.610553
 30
0.0
 11
-141.261426
 21
-213.691959
 31
0.0
  0
LINE
  8
DETAIL
  6
CONTINUOUS
 62
     5
 10
-141.313095
 20
-213.506602
 30
0.0
 11
-141.291461
 21
-213.610553
 31
0.0
  0
LINE
  8
DETAIL
  6
CONTINUOUS
 62
     5
 10
-141.324903
 20
-213.386953
 30
0.0
 11
-141.313095
 21
-213.506602
 31
0.0
  0
LINE
  8
DETAIL
  6
CONTINUOUS
 62
     5
 10
-147.19728
 20
-212.202331
 30
0.0
 11
-147.160627
 21
-212.306507
 31
0.0
  0
LINE
  8
DETAIL
  6
CONTINUOUS
 62
     5
 10
-147.208835
 20
-212.089878
 30
0.0
 11
-147.19728
 21
-212.202331
 31
0.0
  0
LINE
  8
DETAIL
  6
CONTINUOUS
 62
     5
 10
-146.214813
 20
-216.012086
 30
0.0
 11
-146.251537
 21
-215.34711
 31
0.0
  0
LINE
  8
DETAIL
  6
CONTINUOUS
 62
     5
 10
-146.206437
 20
-216.089747
 30
0.0
 11
-146.214813
 21
-216.012086
 31
0.0
  0
LINE
  8
DETAIL
  6
CONTINUOUS
 62
     5
 10
-147.267601
 20
-211.977887
 30
0.0
 11
-147.217325
 21
-212.170938
 31
0.0
  0
LINE
  8
DETAIL
  6
CONTINUOUS
 62
     5
 10
-147.247935
 20
-211.998122
 30
0.0
 11
-147.20885
 21
-212.089883
 31
0.0
  0
LINE
  8
DETAIL
  6
CONTINUOUS
 62
     5
 10
-147.273717
 20
-211.901023
 30
0.0
 11
-147.247935
 21
-211.998122
 31
0.0
  0
LINE
  8
DETAIL
  6
CONTINUOUS
 62
     5
 10
-142.249016
 20
-213.22643
 30
0.0
 11
-141.326109
 21
-213.259484
 31
0.0
  0
LINE
  8
DETAIL
  6
CONTINUOUS
 62
     5
 10
-143.122266
 20
-213.180051
 30
0.0
 11
-142.249016
 21
-213.22643
 31
0.0
  0
LINE
  8
DETAIL
  6
CONTINUOUS
 62
     5
 10
-143.903434
 20
-213.121244
 30
0.0
 11
-143.122266
 21
-213.180051
 31
0.0
  0
LINE
  8
DETAIL
  6
CONTINUOUS
 62
     5
 10
-144.561252
 20
-213.05375
 30
0.0
 11
-143.903434
 21
-213.121244
 31
0.0
  0
LINE
  8
DETAIL
  6
CONTINUOUS
 62
     5
 10
-145.100599
 20
-212.980814
 30
0.0
 11
-144.561252
 21
-213.05375
 31
0.0
  0
LINE
  8
DETAIL
  6
CONTINUOUS
 62
     5
 10
-145.554178
 20
-212.901631
 30
0.0
 11
-145.100599
 21
-212.980814
 31
0.0
  0
LINE
  8
DETAIL
  6
CONTINUOUS
 62
     5
 10
-145.94649
 20
-212.813619
 30
0.0
 11
-145.554178
 21
-212.901631
 31
0.0
  0
LINE
  8
DETAIL
  6
CONTINUOUS
 62
     5
 10
-146.290502
 20
-212.713481
 30
0.0
 11
-145.94649
 21
-212.813619
 31
0.0
  0
LINE
  8
DETAIL
  6
CONTINUOUS
 62
     5
 10
-146.592608
 20
-212.596614
 30
0.0
 11
-146.290502
 21
-212.713481
 31
0.0
  0
LINE
  8
DETAIL
  6
CONTINUOUS
 62
     5
 10
-146.852571
 20
-212.457133
 30
0.0
 11
-146.592608
 21
-212.596614
 31
0.0
  0
LINE
  8
DETAIL
  6
CONTINUOUS
 62
     5
 10
-147.062155
 20
-212.289512
 30
0.0
 11
-146.852571
 21
-212.457133
 31
0.0
  0
LINE
  8
DETAIL
  6
CONTINUOUS
 62
     5
 10
-147.217325
 20
-212.170938
 30
0.0
 11
-147.160622
 21
-212.306505
 31
0.0
  0
LINE
  8
DETAIL
  6
CONTINUOUS
 62
     5
 10
-147.160627
 20
-212.306507
 30
0.0
 11
-147.160306
 21
-212.307161
 31
0.0
  0
LINE
  8
DETAIL
  6
CONTINUOUS
 62
     5
 10
-142.760529
 20
-213.697254
 30
0.0
 11
-141.951139
 21
-213.739852
 31
0.0
  0
LINE
  8
DETAIL
  6
CONTINUOUS
 62
     5
 10
-143.499175
 20
-213.64225
 30
0.0
 11
-142.760529
 21
-213.697254
 31
0.0
  0
LINE
  8
DETAIL
  6
CONTINUOUS
 62
     5
 10
-144.165785
 20
-213.573816
 30
0.0
 11
-143.499175
 21
-213.64225
 31
0.0
  0
LINE
  8
DETAIL
  6
CONTINUOUS
 62
     5
 10
-144.758376
 20
-213.491227
 30
0.0
 11
-144.165785
 21
-213.573816
 31
0.0
  0
LINE
  8
DETAIL
  6
CONTINUOUS
 62
     5
 10
-145.276365
 20
-213.394085
 30
0.0
 11
-144.758376
 21
-213.491227
 31
0.0
  0
LINE
  8
DETAIL
  6
CONTINUOUS
 62
     5
 10
-145.725995
 20
-213.280976
 30
0.0
 11
-145.276365
 21
-213.394085
 31
0.0
  0
LINE
  8
DETAIL
  6
CONTINUOUS
 62
     5
 10
-146.121795
 20
-213.146527
 30
0.0
 11
-145.725995
 21
-213.280976
 31
0.0
  0
LINE
  8
DETAIL
  6
CONTINUOUS
 62
     5
 10
-146.473679
 20
-212.981591
 30
0.0
 11
-146.121795
 21
-213.146527
 31
0.0
  0
LINE
  8
DETAIL
  6
CONTINUOUS
 62
     5
 10
-146.776122
 20
-212.778703
 30
0.0
 11
-146.473679
 21
-212.981591
 31
0.0
  0
LINE
  8
DETAIL
  6
CONTINUOUS
 62
     5
 10
-147.016047
 20
-212.536151
 30
0.0
 11
-146.776122
 21
-212.778703
 31
0.0
  0
LINE
  8
DETAIL
  6
CONTINUOUS
 62
     5
 10
-147.160306
 20
-212.307161
 30
0.0
 11
-147.016047
 21
-212.536151
 31
0.0
  0
LINE
  8
DETAIL
  6
CONTINUOUS
 62
     5
 10
-147.208828
 20
-212.089878
 30
0.0
 11
-147.062155
 21
-212.289512
 31
0.0
  0
LINE
  8
DETAIL
  6
CONTINUOUS
 62
     5
 10
-149.365554
 20
-178.065962
 30
0.0
 11
-149.351111
 21
-178.194247
 31
0.0
  0
LINE
  8
DETAIL
  6
CONTINUOUS
 62
     5
 10
-149.393454
 20
-177.829373
 30
0.0
 11
-149.365554
 21
-178.065962
 31
0.0
  0
LINE
  8
DETAIL
  6
CONTINUOUS
 62
     5
 10
-149.598408
 20
-176.881151
 30
0.0
 11
-149.611598
 21
-176.771348
 31
0.0
  0
LINE
  8
DETAIL
  6
CONTINUOUS
 62
     5
 10
-149.371164
 20
-177.992477
 30
0.0
 11
-149.44399
 21
-177.415722
 31
0.0
  0
LINE
  8
DETAIL
  6
CONTINUOUS
 62
     5
 10
-149.432737
 20
-177.526518
 30
0.0
 11
-149.419995
 21
-177.62038
 31
0.0
  0
LINE
  8
DETAIL
  6
CONTINUOUS
 62
     5
 10
-149.445113
 20
-177.439863
 30
0.0
 11
-149.432737
 21
-177.526518
 31
0.0
  0
LINE
  8
DETAIL
  6
CONTINUOUS
 62
     5
 10
-149.457102
 20
-177.360485
 30
0.0
 11
-149.445113
 21
-177.439863
 31
0.0
  0
LINE
  8
DETAIL
  6
CONTINUOUS
 62
     5
 10
-149.468675
 20
-177.288476
 30
0.0
 11
-149.457102
 21
-177.360485
 31
0.0
  0
LINE
  8
DETAIL
  6
CONTINUOUS
 62
     5
 10
-147.635394
 20
-204.757165
 30
0.0
 11
-147.630127
 21
-204.789626
 31
0.0
  0
LINE
  8
DETAIL
  6
CONTINUOUS
 62
     5
 10
-149.44399
 20
-177.415722
 30
0.0
 11
-149.523915
 21
-176.961903
 31
0.0
  0
LINE
  8
DETAIL
  6
CONTINUOUS
 62
     5
 10
-149.51346
 20
-177.061153
 30
0.0
 11
-149.560897
 21
-176.986218
 31
0.0
  0
LINE
  8
DETAIL
  6
CONTINUOUS
 62
     5
 10
-148.604896
 20
-187.504593
 30
0.0
 11
-148.397335
 21
-201.320065
 31
0.0
  0
LINE
  8
DETAIL
  6
CONTINUOUS
 62
     5
 10
-148.397335
 20
-201.320065
 30
0.0
 11
-148.385976
 21
-201.667693
 31
0.0
  0
LINE
  8
DETAIL
  6
CONTINUOUS
 62
     5
 10
-148.604896
 20
-187.504591
 30
0.0
 11
-148.605999
 21
-187.475196
 31
0.0
  0
LINE
  8
DETAIL
  6
CONTINUOUS
 62
     5
 10
-148.680087
 20
-186.377897
 30
0.0
 11
-148.604896
 21
-187.504593
 31
0.0
  0
LINE
  8
DETAIL
  6
CONTINUOUS
 62
     5
 10
-148.809456
 20
-184.544744
 30
0.0
 11
-148.667137
 21
-186.580474
 31
0.0
  0
LINE
  8
DETAIL
  6
CONTINUOUS
 62
     5
 10
-148.917892
 20
-183.092309
 30
0.0
 11
-148.785968
 21
-184.883713
 31
0.0
  0
LINE
  8
DETAIL
  6
CONTINUOUS
 62
     5
 10
-149.009464
 20
-181.927804
 30
0.0
 11
-148.89397
 21
-183.421042
 31
0.0
  0
LINE
  8
DETAIL
  6
CONTINUOUS
 62
     5
 10
-149.096569
 20
-180.874677
 30
0.0
 11
-148.969209
 21
-182.448403
 31
0.0
  0
LINE
  8
DETAIL
  6
CONTINUOUS
 62
     5
 10
-149.167283
 20
-180.078427
 30
0.0
 11
-149.084873
 21
-181.030083
 31
0.0
  0
LINE
  8
DETAIL
  6
CONTINUOUS
 62
     5
 10
-148.281474
 20
-202.53452
 30
0.0
 11
-148.076535
 21
-203.322731
 31
0.0
  0
LINE
  8
DETAIL
  6
CONTINUOUS
 62
     5
 10
-148.350894
 20
-202.074803
 30
0.0
 11
-148.281474
 21
-202.53452
 31
0.0
  0
LINE
  8
DETAIL
  6
CONTINUOUS
 62
     5
 10
-148.385976
 20
-201.667693
 30
0.0
 11
-148.350894
 21
-202.074803
 31
0.0
  0
LINE
  8
DETAIL
  6
CONTINUOUS
 62
     5
 10
-149.143716
 20
-180.327347
 30
0.0
 11
-149.248073
 21
-179.181688
 31
0.0
  0
LINE
  8
DETAIL
  6
CONTINUOUS
 62
     5
 10
-149.306468
 20
-178.590866
 30
0.0
 11
-149.240381
 21
-179.282233
 31
0.0
  0
LINE
  8
DETAIL
  6
CONTINUOUS
 62
     5
 10
-149.371164
 20
-177.992477
 30
0.0
 11
-149.305815
 21
-178.618855
 31
0.0
  0
LINE
  8
DETAIL
  6
CONTINUOUS
 62
     5
 10
-149.5613
 20
-176.985582
 30
0.0
 11
-149.5983
 21
-176.881456
 31
0.0
  0
LINE
  8
DETAIL
  6
CONTINUOUS
 62
     5
 10
-149.490341
 20
-177.167168
 30
0.0
 11
-149.479781
 21
-177.22397
 31
0.0
  0
LINE
  8
DETAIL
  6
CONTINUOUS
 62
     5
 10
-149.500229
 20
-177.118376
 30
0.0
 11
-149.490341
 21
-177.167168
 31
0.0
  0
LINE
  8
DETAIL
  6
CONTINUOUS
 62
     5
 10
-149.509235
 20
-177.078069
 30
0.0
 11
-149.500229
 21
-177.118376
 31
0.0
  0
LINE
  8
DETAIL
  6
CONTINUOUS
 62
     5
 10
-149.517019
 20
-177.046899
 30
0.0
 11
-149.509235
 21
-177.078069
 31
0.0
  0
LINE
  8
DETAIL
  6
CONTINUOUS
 62
     5
 10
-149.523017
 20
-177.025724
 30
0.0
 11
-149.517019
 21
-177.046899
 31
0.0
  0
LINE
  8
DETAIL
  6
CONTINUOUS
 62
     5
 10
-149.526189
 20
-177.015967
 30
0.0
 11
-149.523017
 21
-177.025724
 31
0.0
  0
LINE
  8
DETAIL
  6
CONTINUOUS
 62
     5
 10
-149.526278
 20
-177.015721
 30
0.0
 11
-149.526189
 21
-177.015967
 31
0.0
  0
LINE
  8
DETAIL
  6
CONTINUOUS
 62
     5
 10
-147.853831
 20
-203.90542
 30
0.0
 11
-148.076535
 21
-203.322731
 31
0.0
  0
LINE
  8
DETAIL
  6
CONTINUOUS
 62
     5
 10
-149.523915
 20
-176.961903
 30
0.0
 11
-149.611595
 21
-176.771647
 31
0.0
  0
LINE
  8
DETAIL
  6
CONTINUOUS
 62
     5
 10
-147.654233
 20
-204.29827
 30
0.0
 11
-147.853831
 21
-203.90542
 31
0.0
  0
LINE
  8
DETAIL
  6
CONTINUOUS
 62
     5
 10
-148.544761
 20
-61.17074
 30
0.0
 11
-148.577915
 21
-61.370002
 31
0.0
  0
LINE
  8
DETAIL
  6
CONTINUOUS
 62
     5
 10
-148.517054
 20
-60.837874
 30
0.0
 11
-148.544761
 21
-61.17074
 31
0.0
  0
LINE
  8
DETAIL
  6
CONTINUOUS
 62
     5
 10
-148.494532
 20
-60.371622
 30
0.0
 11
-148.517054
 21
-60.837874
 31
0.0
  0
LINE
  8
DETAIL
  6
CONTINUOUS
 62
     5
 10
-148.474476
 20
-59.731616
 30
0.0
 11
-148.494532
 21
-60.371622
 31
0.0
  0
LINE
  8
DETAIL
  6
CONTINUOUS
 62
     5
 10
-148.45627
 20
-58.905967
 30
0.0
 11
-148.474476
 21
-59.731616
 31
0.0
  0
LINE
  8
DETAIL
  6
CONTINUOUS
 62
     5
 10
-148.44031
 20
-57.912902
 30
0.0
 11
-148.45627
 21
-58.905967
 31
0.0
  0
LINE
  8
DETAIL
  6
CONTINUOUS
 62
     5
 10
-148.426544
 20
-56.753603
 30
0.0
 11
-148.44031
 21
-57.912902
 31
0.0
  0
LINE
  8
DETAIL
  6
CONTINUOUS
 62
     5
 10
-148.414978
 20
-55.432074
 30
0.0
 11
-148.426544
 21
-56.753603
 31
0.0
  0
LINE
  8
DETAIL
  6
CONTINUOUS
 62
     5
 10
-148.405634
 20
-53.953716
 30
0.0
 11
-148.414978
 21
-55.432074
 31
0.0
  0
LINE
  8
DETAIL
  6
CONTINUOUS
 62
     5
 10
-148.541705
 20
-62.28162
 30
0.0
 11
-148.453717
 21
-63.087421
 31
0.0
  0
LINE
  8
DETAIL
  6
CONTINUOUS
 62
     5
 10
-148.577915
 20
-61.370003
 30
0.0
 11
-148.541705
 21
-62.28162
 31
0.0
  0
LINE
  8
DETAIL
  6
CONTINUOUS
 62
     5
 10
25.469882
 20
-215.610384
 30
0.0
 11
30.009661
 21
-215.572473
 31
0.0
  0
LINE
  8
DETAIL
  6
CONTINUOUS
 62
     5
 10
22.454049
 20
-216.140739
 30
0.0
 11
35.252737
 21
-216.029364
 31
0.0
  0
LINE
  8
DETAIL
  6
CONTINUOUS
 62
     5
 10
22.005612
 20
-223.925721
 30
0.0
 11
34.423208
 21
-223.821907
 31
0.0
  0
LINE
  8
DETAIL
  6
CONTINUOUS
 62
     5
 10
-50.888688
 20
-215.862062
 30
0.0
 11
-37.5212
 21
-216.029277
 31
0.0
  0
LINE
  8
DETAIL
  6
CONTINUOUS
 62
     5
 10
-53.800363
 20
-215.311488
 30
0.0
 11
-47.166142
 21
-215.405993
 31
0.0
  0
LINE
  8
DETAIL
  6
CONTINUOUS
 62
     5
 10
-49.596089
 20
-223.667524
 30
0.0
 11
-36.683443
 21
-223.821907
 31
0.0
  0
LINE
  8
DETAIL
  6
CONTINUOUS
 62
     5
 10
-94.016952
 20
-215.021421
 30
0.0
 11
-79.162454
 21
-215.354204
 31
0.0
  0
LINE
  8
DETAIL
  6
CONTINUOUS
 62
     5
 10
-89.09427
 20
-214.629619
 30
0.0
 11
-79.216908
 21
-214.846693
 31
0.0
  0
LINE
  8
DETAIL
  6
CONTINUOUS
 62
     5
 10
-91.101397
 20
-222.89619
 30
0.0
 11
-76.813675
 21
-223.20142
 31
0.0
  0
LINE
  8
DETAIL
  6
CONTINUOUS
 62
     5
 10
-109.343682
 20
-214.646214
 30
0.0
 11
-94.016952
 21
-215.021421
 31
0.0
  0
LINE
  8
DETAIL
  6
CONTINUOUS
 62
     5
 10
-125.119525
 20
-214.229219
 30
0.0
 11
-109.343682
 21
-214.646214
 31
0.0
  0
LINE
  8
DETAIL
  6
CONTINUOUS
 62
     5
 10
-120.714753
 20
-213.844019
 30
0.0
 11
-112.762501
 21
-214.05335
 31
0.0
  0
LINE
  8
DETAIL
  6
CONTINUOUS
 62
     5
 10
-112.762501
 20
-214.05335
 30
0.0
 11
-99.591278
 21
-214.382593
 31
0.0
  0
LINE
  8
DETAIL
  6
CONTINUOUS
 62
     5
 10
-99.591278
 20
-214.382593
 30
0.0
 11
-89.09427
 21
-214.629619
 31
0.0
  0
LINE
  8
DETAIL
  6
CONTINUOUS
 62
     5
 10
-105.857244
 20
-222.552215
 30
0.0
 11
-91.101397
 21
-222.89619
 31
0.0
  0
LINE
  8
DETAIL
  6
CONTINUOUS
 62
     5
 10
-121.075205
 20
-222.170636
 30
0.0
 11
-105.857244
 21
-222.552215
 31
0.0
  0
LINE
  8
DETAIL
  6
CONTINUOUS
 62
     5
 10
-64.780426
 20
-215.6364
 30
0.0
 11
-50.888688
 21
-215.862062
 31
0.0
  0
LINE
  8
DETAIL
  6
CONTINUOUS
 62
     5
 10
-79.162454
 20
-215.354204
 30
0.0
 11
-64.780426
 21
-215.6364
 31
0.0
  0
LINE
  8
DETAIL
  6
CONTINUOUS
 62
     5
 10
-79.216908
 20
-214.846693
 30
0.0
 11
-71.712223
 21
-214.999335
 31
0.0
  0
LINE
  8
DETAIL
  6
CONTINUOUS
 62
     5
 10
-71.712223
 20
-214.999335
 30
0.0
 11
-63.748088
 21
-215.147809
 31
0.0
  0
LINE
  8
DETAIL
  6
CONTINUOUS
 62
     5
 10
-63.748088
 20
-215.147809
 30
0.0
 11
-53.800363
 21
-215.311488
 31
0.0
  0
LINE
  8
DETAIL
  6
CONTINUOUS
 62
     5
 10
-62.978287
 20
-223.460222
 30
0.0
 11
-49.596089
 21
-223.667524
 31
0.0
  0
LINE
  8
DETAIL
  6
CONTINUOUS
 62
     5
 10
-76.813675
 20
-223.20142
 30
0.0
 11
-62.978287
 21
-223.460222
 31
0.0
  0
LINE
  8
DETAIL
  6
CONTINUOUS
 62
     5
 10
-12.53961
 20
-216.202444
 30
0.0
 11
-1.130124
 21
-216.221262
 31
0.0
  0
LINE
  8
DETAIL
  6
CONTINUOUS
 62
     5
 10
-11.391144
 20
-215.697346
 30
0.0
 11
-6.194038
 21
-215.70882
 31
0.0
  0
LINE
  8
DETAIL
  6
CONTINUOUS
 62
     5
 10
-12.368213
 20
-223.983853
 30
0.0
 11
-1.130117
 21
-224.001805
 31
0.0
  0
LINE
  8
DETAIL
  6
CONTINUOUS
 62
     5
 10
-24.722833
 20
-216.140682
 30
0.0
 11
-12.53961
 21
-216.202444
 31
0.0
  0
LINE
  8
DETAIL
  6
CONTINUOUS
 62
     5
 10
-37.5212
 20
-216.029277
 30
0.0
 11
-24.722833
 21
-216.140682
 31
0.0
  0
LINE
  8
DETAIL
  6
CONTINUOUS
 62
     5
 10
-47.166142
 20
-215.405993
 30
0.0
 11
-41.487721
 21
-215.477047
 31
0.0
  0
LINE
  8
DETAIL
  6
CONTINUOUS
 62
     5
 10
-16.647524
 20
-215.677821
 30
0.0
 11
-11.391144
 21
-215.697346
 31
0.0
  0
LINE
  8
DETAIL
  6
CONTINUOUS
 62
     5
 10
-21.872267
 20
-215.650454
 30
0.0
 11
-16.647524
 21
-215.677821
 31
0.0
  0
LINE
  8
DETAIL
  6
CONTINUOUS
 62
     5
 10
-26.586423
 20
-215.61899
 30
0.0
 11
-21.872267
 21
-215.650454
 31
0.0
  0
LINE
  8
DETAIL
  6
CONTINUOUS
 62
     5
 10
-30.8378
 20
-215.585079
 30
0.0
 11
-26.586423
 21
-215.61899
 31
0.0
  0
LINE
  8
DETAIL
  6
CONTINUOUS
 62
     5
 10
-34.709073
 20
-215.549633
 30
0.0
 11
-30.8378
 21
-215.585079
 31
0.0
  0
LINE
  8
DETAIL
  6
CONTINUOUS
 62
     5
 10
-38.245348
 20
-215.513437
 30
0.0
 11
-34.709073
 21
-215.549633
 31
0.0
  0
LINE
  8
DETAIL
  6
CONTINUOUS
 62
     5
 10
-41.487721
 20
-215.477047
 30
0.0
 11
-38.245348
 21
-215.513437
 31
0.0
  0
LINE
  8
DETAIL
  6
CONTINUOUS
 62
     5
 10
-24.265846
 20
-223.925721
 30
0.0
 11
-12.368213
 21
-223.983853
 31
0.0
  0
LINE
  8
DETAIL
  6
CONTINUOUS
 62
     5
 10
-36.683443
 20
-223.821907
 30
0.0
 11
-24.265846
 21
-223.925721
 31
0.0
  0
LINE
  8
DETAIL
  6
CONTINUOUS
 62
     5
 10
-6.194038
 20
-215.70882
 30
0.0
 11
-1.130132
 21
-215.712521
 31
0.0
  0
LINE
  8
DETAIL
  6
CONTINUOUS
 62
     5
 10
20.300682
 20
-215.646258
 30
0.0
 11
25.469882
 21
-215.610384
 31
0.0
  0
LINE
  8
DETAIL
  6
CONTINUOUS
 62
     5
 10
14.591813
 20
-215.676899
 30
0.0
 11
20.300682
 21
-215.646258
 31
0.0
  0
LINE
  8
DETAIL
  6
CONTINUOUS
 62
     5
 10
9.171403
 20
-215.697226
 30
0.0
 11
14.591813
 21
-215.676899
 31
0.0
  0
LINE
  8
DETAIL
  6
CONTINUOUS
 62
     5
 10
3.951308
 20
-215.708794
 30
0.0
 11
9.171403
 21
-215.697226
 31
0.0
  0
LINE
  8
DETAIL
  6
CONTINUOUS
 62
     5
 10
-1.130132
 20
-215.712521
 30
0.0
 11
3.951308
 21
-215.708794
 31
0.0
  0
LINE
  8
DETAIL
  6
CONTINUOUS
 62
     5
 10
10.270042
 20
-216.202474
 30
0.0
 11
22.454049
 21
-216.140739
 31
0.0
  0
LINE
  8
DETAIL
  6
CONTINUOUS
 62
     5
 10
-1.130124
 20
-216.221262
 30
0.0
 11
10.270042
 21
-216.202474
 31
0.0
  0
LINE
  8
DETAIL
  6
CONTINUOUS
 62
     5
 10
10.107979
 20
-223.983853
 30
0.0
 11
22.005612
 21
-223.925721
 31
0.0
  0
LINE
  8
DETAIL
  6
CONTINUOUS
 62
     5
 10
-1.130117
 20
-224.001805
 30
0.0
 11
10.107979
 21
-223.983853
 31
0.0
  0
LINE
  8
DETAIL
  6
CONTINUOUS
 62
     5
 10
91.747279
 20
-215.021643
 30
0.0
 11
107.073587
 21
-214.646465
 31
0.0
  0
LINE
  8
DETAIL
  6
CONTINUOUS
 62
     5
 10
97.236434
 20
-214.384882
 30
0.0
 11
110.666668
 21
-214.049105
 31
0.0
  0
LINE
  8
DETAIL
  6
CONTINUOUS
 62
     5
 10
103.597009
 20
-222.552215
 30
0.0
 11
118.81497
 21
-222.170636
 31
0.0
  0
LINE
  8
DETAIL
  6
CONTINUOUS
 62
     5
 10
62.511651
 20
-215.636554
 30
0.0
 11
76.893256
 21
-215.354394
 31
0.0
  0
LINE
  8
DETAIL
  6
CONTINUOUS
 62
     5
 10
63.588773
 20
-215.110082
 30
0.0
 11
76.649417
 21
-214.853165
 31
0.0
  0
LINE
  8
DETAIL
  6
CONTINUOUS
 62
     5
 10
60.718052
 20
-223.460222
 30
0.0
 11
74.55344
 21
-223.20142
 31
0.0
  0
LINE
  8
DETAIL
  6
CONTINUOUS
 62
     5
 10
40.902882
 20
-215.45705
 30
0.0
 11
46.511566
 21
-215.384232
 31
0.0
  0
LINE
  8
DETAIL
  6
CONTINUOUS
 62
     5
 10
37.627792
 20
-215.495383
 30
0.0
 11
40.902882
 21
-215.45705
 31
0.0
  0
LINE
  8
DETAIL
  6
CONTINUOUS
 62
     5
 10
34.020816
 20
-215.533994
 30
0.0
 11
37.627792
 21
-215.495383
 31
0.0
  0
LINE
  8
DETAIL
  6
CONTINUOUS
 62
     5
 10
30.009661
 20
-215.572473
 30
0.0
 11
34.020816
 21
-215.533994
 31
0.0
  0
LINE
  8
DETAIL
  6
CONTINUOUS
 62
     5
 10
48.620191
 20
-215.862181
 30
0.0
 11
62.511651
 21
-215.636554
 31
0.0
  0
LINE
  8
DETAIL
  6
CONTINUOUS
 62
     5
 10
35.252737
 20
-216.029364
 30
0.0
 11
48.620191
 21
-215.862181
 31
0.0
  0
LINE
  8
DETAIL
  6
CONTINUOUS
 62
     5
 10
46.511566
 20
-215.384232
 30
0.0
 11
51.029087
 21
-215.319192
 31
0.0
  0
LINE
  8
DETAIL
  6
CONTINUOUS
 62
     5
 10
51.029087
 20
-215.319192
 30
0.0
 11
56.187835
 21
-215.238241
 31
0.0
  0
LINE
  8
DETAIL
  6
CONTINUOUS
 62
     5
 10
56.187835
 20
-215.238241
 30
0.0
 11
63.588773
 21
-215.110082
 31
0.0
  0
LINE
  8
DETAIL
  6
CONTINUOUS
 62
     5
 10
47.335854
 20
-223.667524
 30
0.0
 11
60.718052
 21
-223.460222
 31
0.0
  0
LINE
  8
DETAIL
  6
CONTINUOUS
 62
     5
 10
34.423208
 20
-223.821907
 30
0.0
 11
47.335854
 21
-223.667524
 31
0.0
  0
LINE
  8
DETAIL
  6
CONTINUOUS
 62
     5
 10
76.893256
 20
-215.354394
 30
0.0
 11
91.747279
 21
-215.021643
 31
0.0
  0
LINE
  8
DETAIL
  6
CONTINUOUS
 62
     5
 10
76.649417
 20
-214.853165
 30
0.0
 11
83.861025
 21
-214.696706
 31
0.0
  0
LINE
  8
DETAIL
  6
CONTINUOUS
 62
     5
 10
83.861025
 20
-214.696706
 30
0.0
 11
97.236434
 21
-214.384882
 31
0.0
  0
LINE
  8
DETAIL
  6
CONTINUOUS
 62
     5
 10
88.841162
 20
-222.89619
 30
0.0
 11
103.597009
 21
-222.552215
 31
0.0
  0
LINE
  8
DETAIL
  6
CONTINUOUS
 62
     5
 10
74.55344
 20
-223.20142
 30
0.0
 11
88.841162
 21
-222.89619
 31
0.0
  0
LINE
  8
DETAIL
  6
CONTINUOUS
 62
     5
 10
145.025058
 20
-211.818489
 30
0.0
 11
145.394992
 21
-204.277958
 31
0.0
  0
LINE
  8
DETAIL
  6
CONTINUOUS
 62
     5
 10
144.80192
 20
-212.289512
 30
0.0
 11
144.948594
 21
-212.089878
 31
0.0
  0
LINE
  8
DETAIL
  6
CONTINUOUS
 62
     5
 10
144.753389
 20
-212.539235
 30
0.0
 11
144.900124
 21
-212.307054
 31
0.0
  0
LINE
  8
DETAIL
  6
CONTINUOUS
 62
     5
 10
144.217139
 20
-213.720797
 30
0.0
 11
144.310398
 21
-212.916419
 31
0.0
  0
LINE
  8
DETAIL
  6
CONTINUOUS
 62
     5
 10
143.944695
 20
-216.102922
 30
0.0
 11
144.217139
 21
-213.720797
 31
0.0
  0
LINE
  8
DETAIL
  6
CONTINUOUS
 62
     5
 10
143.946203
 20
-216.089747
 30
0.0
 11
143.954579
 21
-216.012086
 31
0.0
  0
LINE
  8
DETAIL
  6
CONTINUOUS
 62
     5
 10
138.924256
 20
-213.767534
 30
0.0
 11
138.918658
 21
-213.768
 31
0.0
  0
LINE
  8
DETAIL
  6
CONTINUOUS
 62
     5
 10
138.964735
 20
-213.745461
 30
0.0
 11
138.924256
 21
-213.767534
 31
0.0
  0
LINE
  8
DETAIL
  6
CONTINUOUS
 62
     5
 10
139.001192
 20
-213.691959
 30
0.0
 11
138.964735
 21
-213.745461
 31
0.0
  0
LINE
  8
DETAIL
  6
CONTINUOUS
 62
     5
 10
139.031226
 20
-213.610553
 30
0.0
 11
139.001192
 21
-213.691959
 31
0.0
  0
LINE
  8
DETAIL
  6
CONTINUOUS
 62
     5
 10
139.05286
 20
-213.506602
 30
0.0
 11
139.031226
 21
-213.610553
 31
0.0
  0
LINE
  8
DETAIL
  6
CONTINUOUS
 62
     5
 10
139.064669
 20
-213.386953
 30
0.0
 11
139.05286
 21
-213.506602
 31
0.0
  0
LINE
  8
DETAIL
  6
CONTINUOUS
 62
     5
 10
134.351776
 20
-221.749179
 30
0.0
 11
134.330892
 21
-221.750666
 31
0.0
  0
LINE
  8
DETAIL
  6
CONTINUOUS
 62
     5
 10
122.849182
 20
-214.229497
 30
0.0
 11
138.918658
 21
-213.768
 31
0.0
  0
LINE
  8
DETAIL
  6
CONTINUOUS
 62
     5
 10
107.073587
 20
-214.646465
 30
0.0
 11
122.849182
 21
-214.229497
 31
0.0
  0
LINE
  8
DETAIL
  6
CONTINUOUS
 62
     5
 10
110.666668
 20
-214.049105
 30
0.0
 11
124.376098
 21
-213.682593
 31
0.0
  0
LINE
  8
DETAIL
  6
CONTINUOUS
 62
     5
 10
124.376098
 20
-213.682593
 30
0.0
 11
130.955881
 21
-213.497247
 31
0.0
  0
LINE
  8
DETAIL
  6
CONTINUOUS
 62
     5
 10
130.955881
 20
-213.497247
 30
0.0
 11
139.065874
 21
-213.259484
 31
0.0
  0
LINE
  8
DETAIL
  6
CONTINUOUS
 62
     5
 10
144.592336
 20
-212.457133
 30
0.0
 11
144.80192
 21
-212.289512
 31
0.0
  0
LINE
  8
DETAIL
  6
CONTINUOUS
 62
     5
 10
144.332373
 20
-212.596614
 30
0.0
 11
144.592336
 21
-212.457133
 31
0.0
  0
LINE
  8
DETAIL
  6
CONTINUOUS
 62
     5
 10
144.030267
 20
-212.713481
 30
0.0
 11
144.332373
 21
-212.596614
 31
0.0
  0
LINE
  8
DETAIL
  6
CONTINUOUS
 62
     5
 10
143.686255
 20
-212.813619
 30
0.0
 11
144.030267
 21
-212.713481
 31
0.0
  0
LINE
  8
DETAIL
  6
CONTINUOUS
 62
     5
 10
143.293943
 20
-212.901631
 30
0.0
 11
143.686255
 21
-212.813619
 31
0.0
  0
LINE
  8
DETAIL
  6
CONTINUOUS
 62
     5
 10
142.840364
 20
-212.980814
 30
0.0
 11
143.293943
 21
-212.901631
 31
0.0
  0
LINE
  8
DETAIL
  6
CONTINUOUS
 62
     5
 10
142.301017
 20
-213.05375
 30
0.0
 11
142.840364
 21
-212.980814
 31
0.0
  0
LINE
  8
DETAIL
  6
CONTINUOUS
 62
     5
 10
141.643199
 20
-213.121244
 30
0.0
 11
142.301017
 21
-213.05375
 31
0.0
  0
LINE
  8
DETAIL
  6
CONTINUOUS
 62
     5
 10
140.862032
 20
-213.180051
 30
0.0
 11
141.643199
 21
-213.121244
 31
0.0
  0
LINE
  8
DETAIL
  6
CONTINUOUS
 62
     5
 10
139.988781
 20
-213.22643
 30
0.0
 11
140.862032
 21
-213.180051
 31
0.0
  0
LINE
  8
DETAIL
  6
CONTINUOUS
 62
     5
 10
139.065874
 20
-213.259484
 30
0.0
 11
139.988781
 21
-213.22643
 31
0.0
  0
LINE
  8
DETAIL
  6
CONTINUOUS
 62
     5
 10
144.5128
 20
-212.781215
 30
0.0
 11
144.753389
 21
-212.539235
 31
0.0
  0
LINE
  8
DETAIL
  6
CONTINUOUS
 62
     5
 10
144.20984
 20
-212.983592
 30
0.0
 11
144.5128
 21
-212.781215
 31
0.0
  0
LINE
  8
DETAIL
  6
CONTINUOUS
 62
     5
 10
143.857527
 20
-213.148123
 30
0.0
 11
144.20984
 21
-212.983592
 31
0.0
  0
LINE
  8
DETAIL
  6
CONTINUOUS
 62
     5
 10
143.461289
 20
-213.282277
 30
0.0
 11
143.857527
 21
-213.148123
 31
0.0
  0
LINE
  8
DETAIL
  6
CONTINUOUS
 62
     5
 10
143.011143
 20
-213.395166
 30
0.0
 11
143.461289
 21
-213.282277
 31
0.0
  0
LINE
  8
DETAIL
  6
CONTINUOUS
 62
     5
 10
142.492495
 20
-213.492139
 30
0.0
 11
143.011143
 21
-213.395166
 31
0.0
  0
LINE
  8
DETAIL
  6
CONTINUOUS
 62
     5
 10
141.899081
 20
-213.57459
 30
0.0
 11
142.492495
 21
-213.492139
 31
0.0
  0
LINE
  8
DETAIL
  6
CONTINUOUS
 62
     5
 10
141.231555
 20
-213.642896
 30
0.0
 11
141.899081
 21
-213.57459
 31
0.0
  0
LINE
  8
DETAIL
  6
CONTINUOUS
 62
     5
 10
140.491994
 20
-213.697775
 30
0.0
 11
141.231555
 21
-213.642896
 31
0.0
  0
LINE
  8
DETAIL
  6
CONTINUOUS
 62
     5
 10
139.681788
 20
-213.740248
 30
0.0
 11
140.491994
 21
-213.697775
 31
0.0
  0
LINE
  8
DETAIL
  6
CONTINUOUS
 62
     5
 10
138.918653
 20
-213.768
 30
0.0
 11
139.681788
 21
-213.740248
 31
0.0
  0
LINE
  8
DETAIL
  6
CONTINUOUS
 62
     5
 10
118.81497
 20
-222.170636
 30
0.0
 11
134.330892
 21
-221.750666
 31
0.0
  0
LINE
  8
DETAIL
  6
CONTINUOUS
 62
     5
 10
136.688906
 20
-221.647046
 30
0.0
 11
137.421114
 21
-221.589939
 31
0.0
  0
LINE
  8
DETAIL
  6
CONTINUOUS
 62
     5
 10
135.877126
 20
-221.693562
 30
0.0
 11
136.688906
 21
-221.647046
 31
0.0
  0
LINE
  8
DETAIL
  6
CONTINUOUS
 62
     5
 10
135.049757
 20
-221.72796
 30
0.0
 11
135.877126
 21
-221.693562
 31
0.0
  0
LINE
  8
DETAIL
  6
CONTINUOUS
 62
     5
 10
134.330715
 20
-221.750706
 30
0.0
 11
135.049757
 21
-221.72796
 31
0.0
  0
LINE
  8
DETAIL
  6
CONTINUOUS
 62
     5
 10
137.421114
 20
-221.589939
 30
0.0
 11
137.420767
 21
-221.58997
 31
0.0
  0
LINE
  8
DETAIL
  6
CONTINUOUS
 62
     5
 10
143.913529
 20
-216.338198
 30
0.0
 11
143.944695
 21
-216.102922
 31
0.0
  0
LINE
  8
DETAIL
  6
CONTINUOUS
 62
     5
 10
143.780164
 20
-217.000448
 30
0.0
 11
143.913529
 21
-216.338198
 31
0.0
  0
LINE
  8
DETAIL
  6
CONTINUOUS
 62
     5
 10
143.592677
 20
-217.605309
 30
0.0
 11
143.780164
 21
-217.000448
 31
0.0
  0
LINE
  8
DETAIL
  6
CONTINUOUS
 62
     5
 10
143.361589
 20
-218.153633
 30
0.0
 11
143.592677
 21
-217.605309
 31
0.0
  0
LINE
  8
DETAIL
  6
CONTINUOUS
 62
     5
 10
143.095981
 20
-218.646095
 30
0.0
 11
143.361589
 21
-218.153633
 31
0.0
  0
LINE
  8
DETAIL
  6
CONTINUOUS
 62
     5
 10
142.802383
 20
-219.085885
 30
0.0
 11
143.095981
 21
-218.646095
 31
0.0
  0
LINE
  8
DETAIL
  6
CONTINUOUS
 62
     5
 10
142.486066
 20
-219.477537
 30
0.0
 11
142.802383
 21
-219.085885
 31
0.0
  0
LINE
  8
DETAIL
  6
CONTINUOUS
 62
     5
 10
142.151211
 20
-219.825395
 30
0.0
 11
142.486066
 21
-219.477537
 31
0.0
  0
LINE
  8
DETAIL
  6
CONTINUOUS
 62
     5
 10
141.801284
 20
-220.132601
 30
0.0
 11
142.151211
 21
-219.825395
 31
0.0
  0
LINE
  8
DETAIL
  6
CONTINUOUS
 62
     5
 10
141.439679
 20
-220.401231
 30
0.0
 11
141.801284
 21
-220.132601
 31
0.0
  0
LINE
  8
DETAIL
  6
CONTINUOUS
 62
     5
 10
141.070101
 20
-220.633123
 30
0.0
 11
141.439679
 21
-220.401231
 31
0.0
  0
LINE
  8
DETAIL
  6
CONTINUOUS
 62
     5
 10
140.697551
 20
-220.829752
 30
0.0
 11
141.070101
 21
-220.633123
 31
0.0
  0
LINE
  8
DETAIL
  6
CONTINUOUS
 62
     5
 10
140.333492
 20
-220.990847
 30
0.0
 11
140.697551
 21
-220.829752
 31
0.0
  0
LINE
  8
DETAIL
  6
CONTINUOUS
 62
     5
 10
139.990536
 20
-221.118186
 30
0.0
 11
140.333492
 21
-220.990847
 31
0.0
  0
LINE
  8
DETAIL
  6
CONTINUOUS
 62
     5
 10
139.676979
 20
-221.216373
 30
0.0
 11
139.990536
 21
-221.118186
 31
0.0
  0
LINE
  8
DETAIL
  6
CONTINUOUS
 62
     5
 10
139.37899
 20
-221.295379
 30
0.0
 11
139.676979
 21
-221.216373
 31
0.0
  0
LINE
  8
DETAIL
  6
CONTINUOUS
 62
     5
 10
139.078468
 20
-221.362677
 30
0.0
 11
139.37899
 21
-221.295379
 31
0.0
  0
LINE
  8
DETAIL
  6
CONTINUOUS
 62
     5
 10
138.763532
 20
-221.421973
 30
0.0
 11
139.078468
 21
-221.362677
 31
0.0
  0
LINE
  8
DETAIL
  6
CONTINUOUS
 62
     5
 10
138.437314
 20
-221.473651
 30
0.0
 11
138.763532
 21
-221.421973
 31
0.0
  0
LINE
  8
DETAIL
  6
CONTINUOUS
 62
     5
 10
138.095137
 20
-221.519356
 30
0.0
 11
138.437314
 21
-221.473651
 31
0.0
  0
LINE
  8
DETAIL
  6
CONTINUOUS
 62
     5
 10
137.734114
 20
-221.559923
 30
0.0
 11
138.095137
 21
-221.519356
 31
0.0
  0
LINE
  8
DETAIL
  6
CONTINUOUS
 62
     5
 10
137.420767
 20
-221.58997
 30
0.0
 11
137.734114
 21
-221.559923
 31
0.0
  0
LINE
  8
DETAIL
  6
CONTINUOUS
 62
     5
 10
144.900425
 20
-212.306429
 30
0.0
 11
144.900119
 21
-212.307051
 31
0.0
  0
LINE
  8
DETAIL
  6
CONTINUOUS
 62
     5
 10
144.987701
 20
-211.998122
 30
0.0
 11
145.013482
 21
-211.901023
 31
0.0
  0
LINE
  8
DETAIL
  6
CONTINUOUS
 62
     5
 10
144.948615
 20
-212.089883
 30
0.0
 11
144.987701
 21
-211.998122
 31
0.0
  0
LINE
  8
DETAIL
  6
CONTINUOUS
 62
     5
 10
144.900425
 20
-212.306429
 30
0.0
 11
144.955846
 21
-212.174481
 31
0.0
  0
LINE
  8
DETAIL
  6
CONTINUOUS
 62
     5
 10
144.955846
 20
-212.174481
 30
0.0
 11
145.006737
 21
-211.98144
 31
0.0
  0
LINE
  8
DETAIL
  6
CONTINUOUS
 62
     5
 10
145.013482
 20
-211.901023
 30
0.0
 11
145.02561
 21
-211.798564
 31
0.0
  0
LINE
  8
DETAIL
  6
CONTINUOUS
 62
     5
 10
145.006737
 20
-211.98144
 30
0.0
 11
145.025058
 21
-211.818489
 31
0.0
  0
LINE
  8
DETAIL
  6
CONTINUOUS
 62
     5
 10
144.937052
 20
-212.202327
 30
0.0
 11
144.900425
 21
-212.306429
 31
0.0
  0
LINE
  8
DETAIL
  6
CONTINUOUS
 62
     5
 10
144.948616
 20
-212.089883
 30
0.0
 11
144.937052
 21
-212.202327
 31
0.0
  0
LINE
  8
DETAIL
  6
CONTINUOUS
 62
     5
 10
145.02561
 20
-211.798564
 30
0.0
 11
145.025071
 21
-211.818218
 31
0.0
  0
ARC
  8
DETAIL
  6
CONTINUOUS
 62
     5
 10
146.851367
 20
-176.766985
 30
0.0
 40
0.500015
 50
323.80915
 51
324.889847
  0
LINE
  8
DETAIL
  6
CONTINUOUS
 62
     5
 10
146.118047
 20
-201.321837
 30
0.0
 11
145.900405
 21
-201.631339
 31
0.0
  0
LINE
  8
DETAIL
  6
CONTINUOUS
 62
     5
 10
145.482444
 20
-204.134225
 30
0.0
 11
145.598696
 21
-203.905419
 31
0.0
  0
LINE
  8
DETAIL
  6
CONTINUOUS
 62
     5
 10
145.393995
 20
-204.298275
 30
0.0
 11
145.593597
 21
-203.90542
 31
0.0
  0
LINE
  8
DETAIL
  6
CONTINUOUS
 62
     5
 10
145.492618
 20
-204.078367
 30
0.0
 11
145.579603
 21
-203.907171
 31
0.0
  0
LINE
  8
DETAIL
  6
CONTINUOUS
 62
     5
 10
145.491557
 20
-204.133395
 30
0.0
 11
145.47836
 21
-204.156649
 31
0.0
  0
LINE
  8
DETAIL
  6
CONTINUOUS
 62
     5
 10
145.732999
 20
-203.576375
 30
0.0
 11
145.491557
 21
-204.133395
 31
0.0
  0
LINE
  8
DETAIL
  6
CONTINUOUS
 62
     5
 10
146.095844
 20
-202.028711
 30
0.0
 11
146.137099
 21
-201.320065
 31
0.0
  0
LINE
  8
DETAIL
  6
CONTINUOUS
 62
     5
 10
145.988758
 20
-202.696845
 30
0.0
 11
146.095844
 21
-202.028711
 31
0.0
  0
LINE
  8
DETAIL
  6
CONTINUOUS
 62
     5
 10
145.821402
 20
-203.322731
 30
0.0
 11
145.988758
 21
-202.696845
 31
0.0
  0
LINE
  8
DETAIL
  6
CONTINUOUS
 62
     5
 10
145.598696
 20
-203.905419
 30
0.0
 11
145.821402
 21
-203.322731
 31
0.0
  0
LINE
  8
DETAIL
  6
CONTINUOUS
 62
     5
 10
146.09074
 20
-202.028711
 30
0.0
 11
146.131994
 21
-201.320064
 31
0.0
  0
LINE
  8
DETAIL
  6
CONTINUOUS
 62
     5
 10
145.983655
 20
-202.696845
 30
0.0
 11
146.09074
 21
-202.028711
 31
0.0
  0
LINE
  8
DETAIL
  6
CONTINUOUS
 62
     5
 10
145.8163
 20
-203.322731
 30
0.0
 11
145.983655
 21
-202.696845
 31
0.0
  0
LINE
  8
DETAIL
  6
CONTINUOUS
 62
     5
 10
145.593597
 20
-203.90542
 30
0.0
 11
145.8163
 21
-203.322731
 31
0.0
  0
LINE
  8
DETAIL
  6
CONTINUOUS
 62
     5
 10
146.076778
 20
-202.030485
 30
0.0
 11
146.118047
 21
-201.321837
 31
0.0
  0
LINE
  8
DETAIL
  6
CONTINUOUS
 62
     5
 10
145.96968
 20
-202.698615
 30
0.0
 11
146.076778
 21
-202.030485
 31
0.0
  0
LINE
  8
DETAIL
  6
CONTINUOUS
 62
     5
 10
145.802315
 20
-203.324494
 30
0.0
 11
145.96968
 21
-202.698615
 31
0.0
  0
LINE
  8
DETAIL
  6
CONTINUOUS
 62
     5
 10
147.301131
 20
-176.985448
 30
0.0
 11
147.253225
 21
-177.06115
 31
0.0
  0
LINE
  8
DETAIL
  6
CONTINUOUS
 62
     5
 10
147.263502
 20
-176.962652
 30
0.0
 11
147.351359
 21
-176.7718
 31
0.0
  0
LINE
  8
DETAIL
  6
CONTINUOUS
 62
     5
 10
147.338203
 20
-176.881026
 30
0.0
 11
147.301131
 21
-176.985448
 31
0.0
  0
LINE
  8
DETAIL
  6
CONTINUOUS
 62
     5
 10
147.26284
 20
-177.025538
 30
0.0
 11
147.263406
 21
-177.023705
 31
0.0
  0
LINE
  8
DETAIL
  6
CONTINUOUS
 62
     5
 10
147.256882
 20
-177.046532
 30
0.0
 11
147.26284
 21
-177.025538
 31
0.0
  0
LINE
  8
DETAIL
  6
CONTINUOUS
 62
     5
 10
147.249132
 20
-177.07751
 30
0.0
 11
147.256882
 21
-177.046532
 31
0.0
  0
LINE
  8
DETAIL
  6
CONTINUOUS
 62
     5
 10
147.240155
 20
-177.117623
 30
0.0
 11
147.249132
 21
-177.07751
 31
0.0
  0
LINE
  8
DETAIL
  6
CONTINUOUS
 62
     5
 10
147.230292
 20
-177.166211
 30
0.0
 11
147.240155
 21
-177.117623
 31
0.0
  0
LINE
  8
DETAIL
  6
CONTINUOUS
 62
     5
 10
147.219755
 20
-177.222802
 30
0.0
 11
147.230292
 21
-177.166211
 31
0.0
  0
LINE
  8
DETAIL
  6
CONTINUOUS
 62
     5
 10
147.183412
 20
-177.418124
 30
0.0
 11
147.263502
 21
-176.962652
 31
0.0
  0
LINE
  8
DETAIL
  6
CONTINUOUS
 62
     5
 10
145.414055
 20
-204.005761
 30
0.0
 11
145.406452
 21
-204.057772
 31
0.0
  0
LINE
  8
DETAIL
  6
CONTINUOUS
 62
     5
 10
145.471993
 20
-204.191606
 30
0.0
 11
145.493895
 21
-204.071353
 31
0.0
  0
LINE
  8
DETAIL
  6
CONTINUOUS
 62
     5
 10
145.448904
 20
-204.321683
 30
0.0
 11
145.471993
 21
-204.191606
 31
0.0
  0
LINE
  8
DETAIL
  6
CONTINUOUS
 62
     5
 10
145.400458
 20
-204.604505
 30
0.0
 11
145.448904
 21
-204.321683
 31
0.0
  0
LINE
  8
DETAIL
  6
CONTINUOUS
 62
     5
 10
145.369889
 20
-204.789646
 30
0.0
 11
145.400458
 21
-204.604505
 31
0.0
  0
LINE
  8
DETAIL
  6
CONTINUOUS
 62
     5
 10
147.197119
 20
-177.358872
 30
0.0
 11
147.208671
 21
-177.287088
 31
0.0
  0
LINE
  8
DETAIL
  6
CONTINUOUS
 62
     5
 10
147.185149
 20
-177.43802
 30
0.0
 11
147.197119
 21
-177.358872
 31
0.0
  0
LINE
  8
DETAIL
  6
CONTINUOUS
 62
     5
 10
147.172792
 20
-177.524443
 30
0.0
 11
147.185149
 21
-177.43802
 31
0.0
  0
LINE
  8
DETAIL
  6
CONTINUOUS
 62
     5
 10
147.160066
 20
-177.618074
 30
0.0
 11
147.172792
 21
-177.524443
 31
0.0
  0
LINE
  8
DETAIL
  6
CONTINUOUS
 62
     5
 10
147.105677
 20
-178.062836
 30
0.0
 11
147.133555
 21
-177.826625
 31
0.0
  0
LINE
  8
DETAIL
  6
CONTINUOUS
 62
     5
 10
147.351363
 20
-176.771348
 30
0.0
 11
147.338203
 21
-176.881026
 31
0.0
  0
LINE
  8
DETAIL
  6
CONTINUOUS
 62
     5
 10
147.076477
 20
-178.325719
 30
0.0
 11
147.105677
 21
-178.062836
 31
0.0
  0
LINE
  8
DETAIL
  6
CONTINUOUS
 62
     5
 10
147.110458
 20
-177.996586
 30
0.0
 11
147.183412
 21
-177.418124
 31
0.0
  0
LINE
  8
DETAIL
  6
CONTINUOUS
 62
     5
 10
147.045952
 20
-178.615247
 30
0.0
 11
147.110458
 21
-177.996586
 31
0.0
  0
LINE
  8
DETAIL
  6
CONTINUOUS
 62
     5
 10
146.987158
 20
-179.188815
 30
0.0
 11
147.045656
 21
-178.596493
 31
0.0
  0
LINE
  8
DETAIL
  6
CONTINUOUS
 62
     5
 10
146.93306
 20
-179.770635
 30
0.0
 11
146.997487
 21
-179.101355
 31
0.0
  0
LINE
  8
DETAIL
  6
CONTINUOUS
 62
     5
 10
146.867306
 20
-180.530943
 30
0.0
 11
146.945018
 21
-179.658505
 31
0.0
  0
LINE
  8
DETAIL
  6
CONTINUOUS
 62
     5
 10
145.905997
 20
-203.038476
 30
0.0
 11
145.732999
 21
-203.576375
 31
0.0
  0
LINE
  8
DETAIL
  6
CONTINUOUS
 62
     5
 10
146.021239
 20
-202.53452
 30
0.0
 11
145.905997
 21
-203.038476
 31
0.0
  0
LINE
  8
DETAIL
  6
CONTINUOUS
 62
     5
 10
146.090659
 20
-202.074803
 30
0.0
 11
146.021239
 21
-202.53452
 31
0.0
  0
LINE
  8
DETAIL
  6
CONTINUOUS
 62
     5
 10
146.125741
 20
-201.667693
 30
0.0
 11
146.090659
 21
-202.074803
 31
0.0
  0
LINE
  8
DETAIL
  6
CONTINUOUS
 62
     5
 10
146.780197
 20
-181.563817
 30
0.0
 11
146.882694
 21
-180.33634
 31
0.0
  0
LINE
  8
DETAIL
  6
CONTINUOUS
 62
     5
 10
146.684654
 20
-182.758558
 30
0.0
 11
146.79121
 21
-181.413504
 31
0.0
  0
LINE
  8
DETAIL
  6
CONTINUOUS
 62
     5
 10
146.581189
 20
-184.123038
 30
0.0
 11
146.704592
 21
-182.488224
 31
0.0
  0
LINE
  8
DETAIL
  6
CONTINUOUS
 62
     5
 10
146.467965
 20
-185.697343
 30
0.0
 11
146.605683
 21
-183.778696
 31
0.0
  0
LINE
  8
DETAIL
  6
CONTINUOUS
 62
     5
 10
146.345764
 20
-187.475184
 30
0.0
 11
146.486995
 21
-185.41313
 31
0.0
  0
LINE
  8
DETAIL
  6
CONTINUOUS
 62
     5
 10
146.16218
 20
-190.337068
 30
0.0
 11
146.346624
 21
-187.475254
 31
0.0
  0
LINE
  8
DETAIL
  6
CONTINUOUS
 62
     5
 10
145.234758
 20
-207.495118
 30
0.0
 11
145.466894
 21
-202.847459
 31
0.0
  0
LINE
  8
DETAIL
  6
CONTINUOUS
 62
     5
 10
146.344661
 20
-187.504591
 30
0.0
 11
146.345764
 21
-187.475196
 31
0.0
  0
LINE
  8
DETAIL
  6
CONTINUOUS
 62
     5
 10
146.1371
 20
-201.320065
 30
0.0
 11
146.125741
 21
-201.667693
 31
0.0
  0
LINE
  8
DETAIL
  6
CONTINUOUS
 62
     5
 10
146.243655
 20
-189.110058
 30
0.0
 11
146.1371
 21
-201.320065
 31
0.0
  0
LINE
  8
DETAIL
  6
CONTINUOUS
 62
     5
 10
146.1371
 20
-201.320065
 30
0.0
 11
146.131995
 21
-201.320064
 31
0.0
  0
LINE
  8
DETAIL
  6
CONTINUOUS
 62
     5
 10
146.131995
 20
-201.320064
 30
0.0
 11
146.118047
 21
-201.321837
 31
0.0
  0
LINE
  8
DETAIL
  6
CONTINUOUS
 62
     5
 10
-143.368515
 20
-2.632672
 30
0.0
 11
-1.130117
 21
-2.642344
 31
0.0
  0
LINE
  8
DETAIL
  6
CONTINUOUS
 62
     5
 10
-148.369868
 20
-2.0
 30
0.0
 11
148.369868
 21
-2.0
 31
0.0
  0
LINE
  8
DETAIL
  6
CONTINUOUS
 62
     5
 10
-149.459543
 20
-2.017233
 30
0.0
 11
-149.329413
 21
-2.0
 31
0.0
  0
LINE
  8
DETAIL
  6
CONTINUOUS
 62
     5
 10
-148.375363
 20
-2.0
 30
0.0
 11
-148.505512
 21
-2.017233
 31
0.0
  0
LINE
  8
DETAIL
  6
CONTINUOUS
 62
     5
 10
-149.405791
 20
-6.266453
 30
0.0
 11
-149.43672
 21
-6.273557
 31
0.0
  0
LINE
  8
DETAIL
  6
CONTINUOUS
 62
     5
 10
-149.370883
 20
-6.266453
 30
0.0
 11
-149.401811
 21
-6.273557
 31
0.0
  0
LINE
  8
DETAIL
  6
CONTINUOUS
 62
     5
 10
-149.335974
 20
-6.266453
 30
0.0
 11
-149.366903
 21
-6.273557
 31
0.0
  0
LINE
  8
DETAIL
  6
CONTINUOUS
 62
     5
 10
-149.375246
 20
-9.766556
 30
0.0
 11
-149.406175
 21
-9.773659
 31
0.0
  0
LINE
  8
DETAIL
  6
CONTINUOUS
 62
     5
 10
-149.340338
 20
-9.766556
 30
0.0
 11
-149.371266
 21
-9.773659
 31
0.0
  0
LINE
  8
DETAIL
  6
CONTINUOUS
 62
     5
 10
-149.305429
 20
-9.766556
 30
0.0
 11
-149.336358
 21
-9.773659
 31
0.0
  0
LINE
  8
DETAIL
  6
CONTINUOUS
 62
     5
 10
-149.354186
 20
-6.261982
 30
0.0
 11
-149.407943
 21
-6.266947
 31
0.0
  0
LINE
  8
DETAIL
  6
CONTINUOUS
 62
     5
 10
-149.319277
 20
-6.261982
 30
0.0
 11
-149.373034
 21
-6.266947
 31
0.0
  0
LINE
  8
DETAIL
  6
CONTINUOUS
 62
     5
 10
-149.284369
 20
-6.261982
 30
0.0
 11
-149.338126
 21
-6.266947
 31
0.0
  0
LINE
  8
DETAIL
  6
CONTINUOUS
 62
     5
 10
-149.323641
 20
-9.762084
 30
0.0
 11
-149.377398
 21
-9.76705
 31
0.0
  0
LINE
  8
DETAIL
  6
CONTINUOUS
 62
     5
 10
-149.288732
 20
-9.762084
 30
0.0
 11
-149.342489
 21
-9.76705
 31
0.0
  0
LINE
  8
DETAIL
  6
CONTINUOUS
 62
     5
 10
-149.253824
 20
-9.762084
 30
0.0
 11
-149.307581
 21
-9.76705
 31
0.0
  0
LINE
  8
DETAIL
  6
CONTINUOUS
 62
     5
 10
-149.334907
 20
-2.0
 30
0.0
 11
-149.43918
 21
-2.010993
 31
0.0
  0
LINE
  8
DETAIL
  6
CONTINUOUS
 62
     5
 10
-149.722913
 20
-2.0
 30
0.0
 11
-149.83408
 21
-2.012514
 31
0.0
  0
LINE
  8
DETAIL
  6
CONTINUOUS
 62
     5
 10
-148.111748
 20
-2.0
 30
0.0
 11
-148.223615
 21
-2.012676
 31
0.0
  0
LINE
  8
DETAIL
  6
CONTINUOUS
 62
     5
 10
-149.373517
 20
-6.262605
 30
0.0
 11
-149.405791
 21
-6.266453
 31
0.0
  0
LINE
  8
DETAIL
  6
CONTINUOUS
 62
     5
 10
-149.338609
 20
-6.262605
 30
0.0
 11
-149.370883
 21
-6.266453
 31
0.0
  0
LINE
  8
DETAIL
  6
CONTINUOUS
 62
     5
 10
-149.342972
 20
-9.762708
 30
0.0
 11
-149.375246
 21
-9.766556
 31
0.0
  0
LINE
  8
DETAIL
  6
CONTINUOUS
 62
     5
 10
-149.308064
 20
-9.762708
 30
0.0
 11
-149.340338
 21
-9.766556
 31
0.0
  0
LINE
  8
DETAIL
  6
CONTINUOUS
 62
     5
 10
-149.722895
 20
-2.0
 30
0.0
 11
-149.538916
 21
-2.0
 31
0.0
  0
LINE
  8
DETAIL
  6
CONTINUOUS
 62
     5
 10
-150.630103
 20
-2.0
 30
0.0
 11
-149.924331
 21
-2.0
 31
0.0
  0
LINE
  8
DETAIL
  6
CONTINUOUS
 62
     5
 10
-148.375363
 20
-2.0
 30
0.0
 11
-149.329413
 21
-2.0
 31
0.0
  0
LINE
  8
DETAIL
  6
CONTINUOUS
 62
     5
 10
-148.867341
 20
-2.504378
 30
0.0
 11
-148.611724
 21
-2.504378
 31
0.0
  0
LINE
  8
DETAIL
  6
CONTINUOUS
 62
     5
 10
-151.130117
 20
-2.504378
 30
0.0
 11
-149.837463
 21
-2.504378
 31
0.0
  0
LINE
  8
DETAIL
  6
CONTINUOUS
 62
     5
 10
-148.875416
 20
-2.504378
 30
0.0
 11
-149.829344
 21
-2.504378
 31
0.0
  0
LINE
  8
DETAIL
  6
CONTINUOUS
 62
     5
 10
-149.356804
 20
-6.261993
 30
0.0
 11
-149.373517
 21
-6.262605
 31
0.0
  0
LINE
  8
DETAIL
  6
CONTINUOUS
 62
     5
 10
-149.321895
 20
-6.261993
 30
0.0
 11
-149.338609
 21
-6.262605
 31
0.0
  0
LINE
  8
DETAIL
  6
CONTINUOUS
 62
     5
 10
-149.3037
 20
-6.262605
 30
0.0
 11
-149.335974
 21
-6.266453
 31
0.0
  0
LINE
  8
DETAIL
  6
CONTINUOUS
 62
     5
 10
-149.286987
 20
-6.261993
 30
0.0
 11
-149.3037
 21
-6.262605
 31
0.0
  0
LINE
  8
DETAIL
  6
CONTINUOUS
 62
     5
 10
-149.326259
 20
-9.762096
 30
0.0
 11
-149.342972
 21
-9.762708
 31
0.0
  0
LINE
  8
DETAIL
  6
CONTINUOUS
 62
     5
 10
-149.291351
 20
-9.762096
 30
0.0
 11
-149.308064
 21
-9.762708
 31
0.0
  0
LINE
  8
DETAIL
  6
CONTINUOUS
 62
     5
 10
-149.273155
 20
-9.762708
 30
0.0
 11
-149.305429
 21
-9.766556
 31
0.0
  0
LINE
  8
DETAIL
  6
CONTINUOUS
 62
     5
 10
-149.256442
 20
-9.762096
 30
0.0
 11
-149.273155
 21
-9.762708
 31
0.0
  0
LINE
  8
DETAIL
  6
CONTINUOUS
 62
     5
 10
-149.335352
 20
-7.7562
 30
0.0
 11
-149.276514
 21
-7.762026
 31
0.0
  0
LINE
  8
DETAIL
  6
CONTINUOUS
 62
     5
 10
-149.370261
 20
-7.7562
 30
0.0
 11
-149.311423
 21
-7.762026
 31
0.0
  0
LINE
  8
DETAIL
  6
CONTINUOUS
 62
     5
 10
-149.405169
 20
-7.7562
 30
0.0
 11
-149.346331
 21
-7.762026
 31
0.0
  0
LINE
  8
DETAIL
  6
CONTINUOUS
 62
     5
 10
-148.867336
 20
-2.504997
 30
0.0
 11
-148.875416
 21
-2.504378
 31
0.0
  0
LINE
  8
DETAIL
  6
CONTINUOUS
 62
     5
 10
-149.299817
 20
-7.761119
 30
0.0
 11
-149.273896
 21
-7.762014
 31
0.0
  0
LINE
  8
DETAIL
  6
CONTINUOUS
 62
     5
 10
-149.334726
 20
-7.761119
 30
0.0
 11
-149.308804
 21
-7.762014
 31
0.0
  0
LINE
  8
DETAIL
  6
CONTINUOUS
 62
     5
 10
-149.369634
 20
-7.761119
 30
0.0
 11
-149.343713
 21
-7.762014
 31
0.0
  0
LINE
  8
DETAIL
  6
CONTINUOUS
 62
     5
 10
-149.269272
 20
-11.261222
 30
0.0
 11
-149.243351
 21
-11.262117
 31
0.0
  0
LINE
  8
DETAIL
  6
CONTINUOUS
 62
     5
 10
-149.304181
 20
-11.261222
 30
0.0
 11
-149.27826
 21
-11.262117
 31
0.0
  0
LINE
  8
DETAIL
  6
CONTINUOUS
 62
     5
 10
-149.339089
 20
-11.261222
 30
0.0
 11
-149.313168
 21
-11.262117
 31
0.0
  0
LINE
  8
DETAIL
  6
CONTINUOUS
 62
     5
 10
-149.304808
 20
-11.256303
 30
0.0
 11
-149.245969
 21
-11.262128
 31
0.0
  0
LINE
  8
DETAIL
  6
CONTINUOUS
 62
     5
 10
-149.339716
 20
-11.256303
 30
0.0
 11
-149.280878
 21
-11.262128
 31
0.0
  0
LINE
  8
DETAIL
  6
CONTINUOUS
 62
     5
 10
-149.374625
 20
-11.256303
 30
0.0
 11
-149.315786
 21
-11.262128
 31
0.0
  0
LINE
  8
DETAIL
  6
CONTINUOUS
 62
     5
 10
-149.334033
 20
-7.756461
 30
0.0
 11
-149.299817
 21
-7.761119
 31
0.0
  0
LINE
  8
DETAIL
  6
CONTINUOUS
 62
     5
 10
-149.366644
 20
-7.748169
 30
0.0
 11
-149.334033
 21
-7.756461
 31
0.0
  0
LINE
  8
DETAIL
  6
CONTINUOUS
 62
     5
 10
-149.368942
 20
-7.756461
 30
0.0
 11
-149.334726
 21
-7.761119
 31
0.0
  0
LINE
  8
DETAIL
  6
CONTINUOUS
 62
     5
 10
-149.401553
 20
-7.748169
 30
0.0
 11
-149.368942
 21
-7.756461
 31
0.0
  0
LINE
  8
DETAIL
  6
CONTINUOUS
 62
     5
 10
-149.40385
 20
-7.756461
 30
0.0
 11
-149.369634
 21
-7.761119
 31
0.0
  0
LINE
  8
DETAIL
  6
CONTINUOUS
 62
     5
 10
-149.436461
 20
-7.748169
 30
0.0
 11
-149.40385
 21
-7.756461
 31
0.0
  0
LINE
  8
DETAIL
  6
CONTINUOUS
 62
     5
 10
-148.638899
 20
-29.408799
 30
0.0
 11
-148.646973
 21
-29.40818
 31
0.0
  0
LINE
  8
DETAIL
  6
CONTINUOUS
 62
     5
 10
-149.435325
 20
-48.056192
 30
0.0
 11
-149.427587
 21
-48.05599
 31
0.0
  0
LINE
  8
DETAIL
  6
CONTINUOUS
 62
     5
 10
-145.018753
 20
-2.623663
 30
0.0
 11
-143.353376
 21
-2.63355
 31
0.0
  0
LINE
  8
DETAIL
  6
CONTINUOUS
 62
     5
 10
-145.760358
 20
-2.615451
 30
0.0
 11
-145.018753
 21
-2.623663
 31
0.0
  0
LINE
  8
DETAIL
  6
CONTINUOUS
 62
     5
 10
-146.385802
 20
-2.605266
 30
0.0
 11
-145.760358
 21
-2.615451
 31
0.0
  0
LINE
  8
DETAIL
  6
CONTINUOUS
 62
     5
 10
-146.90995
 20
-2.59341
 30
0.0
 11
-146.385802
 21
-2.605266
 31
0.0
  0
LINE
  8
DETAIL
  6
CONTINUOUS
 62
     5
 10
-147.356394
 20
-2.580085
 30
0.0
 11
-146.90995
 21
-2.59341
 31
0.0
  0
LINE
  8
DETAIL
  6
CONTINUOUS
 62
     5
 10
-147.744579
 20
-2.56536
 30
0.0
 11
-147.356394
 21
-2.580085
 31
0.0
  0
LINE
  8
DETAIL
  6
CONTINUOUS
 62
     5
 10
-148.06274
 20
-2.55038
 30
0.0
 11
-147.744579
 21
-2.56536
 31
0.0
  0
LINE
  8
DETAIL
  6
CONTINUOUS
 62
     5
 10
-148.310676
 20
-2.535998
 30
0.0
 11
-148.077879
 21
-2.549502
 31
0.0
  0
LINE
  8
DETAIL
  6
CONTINUOUS
 62
     5
 10
-148.464234
 20
-2.524778
 30
0.0
 11
-148.310676
 21
-2.535998
 31
0.0
  0
LINE
  8
DETAIL
  6
CONTINUOUS
 62
     5
 10
-148.554074
 20
-2.515925
 30
0.0
 11
-148.464234
 21
-2.524778
 31
0.0
  0
LINE
  8
DETAIL
  6
CONTINUOUS
 62
     5
 10
-148.597682
 20
-2.509217
 30
0.0
 11
-148.554074
 21
-2.515925
 31
0.0
  0
LINE
  8
DETAIL
  6
CONTINUOUS
 62
     5
 10
-148.611724
 20
-2.504378
 30
0.0
 11
-148.597682
 21
-2.509217
 31
0.0
  0
LINE
  8
DETAIL
  6
CONTINUOUS
 62
     5
 10
-149.393472
 20
-7.738292
 30
0.0
 11
-149.336737
 21
-7.755773
 31
0.0
  0
LINE
  8
DETAIL
  6
CONTINUOUS
 62
     5
 10
-149.428381
 20
-7.738292
 30
0.0
 11
-149.371645
 21
-7.755773
 31
0.0
  0
LINE
  8
DETAIL
  6
CONTINUOUS
 62
     5
 10
-149.463289
 20
-7.738292
 30
0.0
 11
-149.406554
 21
-7.755773
 31
0.0
  0
LINE
  8
DETAIL
  6
CONTINUOUS
 62
     5
 10
-149.362927
 20
-11.238394
 30
0.0
 11
-149.306192
 21
-11.255876
 31
0.0
  0
LINE
  8
DETAIL
  6
CONTINUOUS
 62
     5
 10
-149.397836
 20
-11.238394
 30
0.0
 11
-149.3411
 21
-11.255876
 31
0.0
  0
LINE
  8
DETAIL
  6
CONTINUOUS
 62
     5
 10
-149.432744
 20
-11.238394
 30
0.0
 11
-149.376009
 21
-11.255876
 31
0.0
  0
LINE
  8
DETAIL
  6
CONTINUOUS
 62
     5
 10
-149.303488
 20
-11.256564
 30
0.0
 11
-149.269272
 21
-11.261222
 31
0.0
  0
LINE
  8
DETAIL
  6
CONTINUOUS
 62
     5
 10
-149.3361
 20
-11.248271
 30
0.0
 11
-149.303488
 21
-11.256564
 31
0.0
  0
LINE
  8
DETAIL
  6
CONTINUOUS
 62
     5
 10
-149.338397
 20
-11.256564
 30
0.0
 11
-149.304181
 21
-11.261222
 31
0.0
  0
LINE
  8
DETAIL
  6
CONTINUOUS
 62
     5
 10
-149.371008
 20
-11.248271
 30
0.0
 11
-149.338397
 21
-11.256564
 31
0.0
  0
LINE
  8
DETAIL
  6
CONTINUOUS
 62
     5
 10
-149.373305
 20
-11.256564
 30
0.0
 11
-149.339089
 21
-11.261222
 31
0.0
  0
LINE
  8
DETAIL
  6
CONTINUOUS
 62
     5
 10
-149.405917
 20
-11.248271
 30
0.0
 11
-149.373305
 21
-11.256564
 31
0.0
  0
LINE
  8
DETAIL
  6
CONTINUOUS
 62
     5
 10
-149.397304
 20
-7.736638
 30
0.0
 11
-149.366644
 21
-7.748169
 31
0.0
  0
LINE
  8
DETAIL
  6
CONTINUOUS
 62
     5
 10
-149.432213
 20
-7.736638
 30
0.0
 11
-149.401553
 21
-7.748169
 31
0.0
  0
LINE
  8
DETAIL
  6
CONTINUOUS
 62
     5
 10
-149.467121
 20
-7.736638
 30
0.0
 11
-149.436461
 21
-7.748169
 31
0.0
  0
LINE
  8
DETAIL
  6
CONTINUOUS
 62
     5
 10
-149.366759
 20
-11.236741
 30
0.0
 11
-149.3361
 21
-11.248271
 31
0.0
  0
LINE
  8
DETAIL
  6
CONTINUOUS
 62
     5
 10
-149.401668
 20
-11.236741
 30
0.0
 11
-149.371008
 21
-11.248271
 31
0.0
  0
LINE
  8
DETAIL
  6
CONTINUOUS
 62
     5
 10
-149.436576
 20
-11.236741
 30
0.0
 11
-149.405917
 21
-11.248271
 31
0.0
  0
LINE
  8
DETAIL
  6
CONTINUOUS
 62
     5
 10
-149.446785
 20
-7.709033
 30
0.0
 11
-149.394701
 21
-7.737617
 31
0.0
  0
LINE
  8
DETAIL
  6
CONTINUOUS
 62
     5
 10
-149.481694
 20
-7.709033
 30
0.0
 11
-149.42961
 21
-7.737617
 31
0.0
  0
LINE
  8
DETAIL
  6
CONTINUOUS
 62
     5
 10
-149.516602
 20
-7.709033
 30
0.0
 11
-149.464518
 21
-7.737617
 31
0.0
  0
LINE
  8
DETAIL
  6
CONTINUOUS
 62
     5
 10
-149.41624
 20
-11.209136
 30
0.0
 11
-149.364156
 21
-11.23772
 31
0.0
  0
LINE
  8
DETAIL
  6
CONTINUOUS
 62
     5
 10
-149.451149
 20
-11.209136
 30
0.0
 11
-149.399065
 21
-11.23772
 31
0.0
  0
LINE
  8
DETAIL
  6
CONTINUOUS
 62
     5
 10
-149.486057
 20
-11.209136
 30
0.0
 11
-149.433973
 21
-11.23772
 31
0.0
  0
LINE
  8
DETAIL
  6
CONTINUOUS
 62
     5
 10
-149.367107
 20
-52.426581
 30
0.0
 11
-149.369496
 21
-52.365907
 31
0.0
  0
LINE
  8
DETAIL
  6
CONTINUOUS
 62
     5
 10
-149.36479
 20
-52.476813
 30
0.0
 11
-149.367107
 21
-52.426581
 31
0.0
  0
LINE
  8
DETAIL
  6
CONTINUOUS
 62
     5
 10
-149.362539
 20
-52.516733
 30
0.0
 11
-149.36479
 21
-52.476813
 31
0.0
  0
LINE
  8
DETAIL
  6
CONTINUOUS
 62
     5
 10
-149.360368
 20
-52.546094
 30
0.0
 11
-149.362539
 21
-52.516733
 31
0.0
  0
LINE
  8
DETAIL
  6
CONTINUOUS
 62
     5
 10
-149.358284
 20
-52.564819
 30
0.0
 11
-149.360368
 21
-52.546094
 31
0.0
  0
LINE
  8
DETAIL
  6
CONTINUOUS
 62
     5
 10
-149.356284
 20
-52.57297
 30
0.0
 11
-149.358284
 21
-52.564819
 31
0.0
  0
LINE
  8
DETAIL
  6
CONTINUOUS
 62
     5
 10
-149.35542
 20
-52.573166
 30
0.0
 11
-149.356284
 21
-52.57297
 31
0.0
  0
LINE
  8
DETAIL
  6
CONTINUOUS
 62
     5
 10
-149.425741
 20
-7.722285
 30
0.0
 11
-149.397304
 21
-7.736638
 31
0.0
  0
LINE
  8
DETAIL
  6
CONTINUOUS
 62
     5
 10
-149.451755
 20
-7.705533
 30
0.0
 11
-149.425741
 21
-7.722285
 31
0.0
  0
LINE
  8
DETAIL
  6
CONTINUOUS
 62
     5
 10
-149.460649
 20
-7.722285
 30
0.0
 11
-149.432213
 21
-7.736638
 31
0.0
  0
LINE
  8
DETAIL
  6
CONTINUOUS
 62
     5
 10
-149.486664
 20
-7.705533
 30
0.0
 11
-149.460649
 21
-7.722285
 31
0.0
  0
LINE
  8
DETAIL
  6
CONTINUOUS
 62
     5
 10
-149.495558
 20
-7.722285
 30
0.0
 11
-149.467121
 21
-7.736638
 31
0.0
  0
LINE
  8
DETAIL
  6
CONTINUOUS
 62
     5
 10
-149.521572
 20
-7.705533
 30
0.0
 11
-149.495558
 21
-7.722285
 31
0.0
  0
LINE
  8
DETAIL
  6
CONTINUOUS
 62
     5
 10
-149.395196
 20
-11.222388
 30
0.0
 11
-149.366759
 21
-11.236741
 31
0.0
  0
LINE
  8
DETAIL
  6
CONTINUOUS
 62
     5
 10
-149.42121
 20
-11.205636
 30
0.0
 11
-149.395196
 21
-11.222388
 31
0.0
  0
LINE
  8
DETAIL
  6
CONTINUOUS
 62
     5
 10
-149.430104
 20
-11.222388
 30
0.0
 11
-149.401668
 21
-11.236741
 31
0.0
  0
LINE
  8
DETAIL
  6
CONTINUOUS
 62
     5
 10
-149.456119
 20
-11.205636
 30
0.0
 11
-149.430104
 21
-11.222388
 31
0.0
  0
LINE
  8
DETAIL
  6
CONTINUOUS
 62
     5
 10
-149.465013
 20
-11.222388
 30
0.0
 11
-149.436576
 21
-11.236741
 31
0.0
  0
LINE
  8
DETAIL
  6
CONTINUOUS
 62
     5
 10
-149.491027
 20
-11.205636
 30
0.0
 11
-149.465013
 21
-11.222388
 31
0.0
  0
LINE
  8
DETAIL
  6
CONTINUOUS
 62
     5
 10
-149.338813
 20
-51.823259
 30
0.0
 11
-149.361914
 21
-51.710553
 31
0.0
  0
LINE
  8
DETAIL
  6
CONTINUOUS
 62
     5
 10
-149.274951
 20
-51.918988
 30
0.0
 11
-149.338813
 21
-51.823259
 31
0.0
  0
LINE
  8
DETAIL
  6
CONTINUOUS
 62
     5
 10
-149.208183
 20
-51.964325
 30
0.0
 11
-149.274951
 21
-51.918988
 31
0.0
  0
LINE
  8
DETAIL
  6
CONTINUOUS
 62
     5
 10
-149.361914
 20
-51.710553
 30
0.0
 11
-149.365153
 21
-51.705175
 31
0.0
  0
LINE
  8
DETAIL
  6
CONTINUOUS
 62
     5
 10
-149.237148
 20
-51.954552
 30
0.0
 11
-149.209663
 21
-51.970463
 31
0.0
  0
LINE
  8
DETAIL
  6
CONTINUOUS
 62
     5
 10
-149.277369
 20
-51.92023
 30
0.0
 11
-149.237148
 21
-51.954552
 31
0.0
  0
LINE
  8
DETAIL
  6
CONTINUOUS
 62
     5
 10
-149.308484
 20
-51.88296
 30
0.0
 11
-149.277369
 21
-51.92023
 31
0.0
  0
LINE
  8
DETAIL
  6
CONTINUOUS
 62
     5
 10
-149.33065
 20
-51.846312
 30
0.0
 11
-149.308484
 21
-51.88296
 31
0.0
  0
LINE
  8
DETAIL
  6
CONTINUOUS
 62
     5
 10
-148.620976
 20
-48.85987
 30
0.0
 11
-148.644077
 21
-48.747164
 31
0.0
  0
LINE
  8
DETAIL
  6
CONTINUOUS
 62
     5
 10
-148.601699
 20
-48.888766
 30
0.0
 11
-148.620976
 21
-48.85987
 31
0.0
  0
LINE
  8
DETAIL
  6
CONTINUOUS
 62
     5
 10
-143.523829
 20
-27.651539
 30
0.0
 11
-142.437465
 21
-27.762612
 31
0.0
  0
LINE
  8
DETAIL
  6
CONTINUOUS
 62
     5
 10
-144.438655
 20
-27.531959
 30
0.0
 11
-143.523829
 21
-27.651539
 31
0.0
  0
LINE
  8
DETAIL
  6
CONTINUOUS
 62
     5
 10
-145.197462
 20
-27.406941
 30
0.0
 11
-144.438655
 21
-27.531959
 31
0.0
  0
LINE
  8
DETAIL
  6
CONTINUOUS
 62
     5
 10
-145.827469
 20
-27.277687
 30
0.0
 11
-145.197462
 21
-27.406941
 31
0.0
  0
LINE
  8
DETAIL
  6
CONTINUOUS
 62
     5
 10
-146.359407
 20
-27.142748
 30
0.0
 11
-145.827469
 21
-27.277687
 31
0.0
  0
LINE
  8
DETAIL
  6
CONTINUOUS
 62
     5
 10
-146.814786
 20
-26.999985
 30
0.0
 11
-146.359407
 21
-27.142748
 31
0.0
  0
LINE
  8
DETAIL
  6
CONTINUOUS
 62
     5
 10
-147.20814
 20
-26.846612
 30
0.0
 11
-146.814786
 21
-26.999985
 31
0.0
  0
LINE
  8
DETAIL
  6
CONTINUOUS
 62
     5
 10
-147.548818
 20
-26.678983
 30
0.0
 11
-147.20814
 21
-26.846612
 31
0.0
  0
LINE
  8
DETAIL
  6
CONTINUOUS
 62
     5
 10
-147.841863
 20
-26.492251
 30
0.0
 11
-147.548818
 21
-26.678983
 31
0.0
  0
LINE
  8
DETAIL
  6
CONTINUOUS
 62
     5
 10
-148.088184
 20
-26.279815
 30
0.0
 11
-147.841863
 21
-26.492251
 31
0.0
  0
LINE
  8
DETAIL
  6
CONTINUOUS
 62
     5
 10
-148.283794
 20
-26.032695
 30
0.0
 11
-148.088184
 21
-26.279815
 31
0.0
  0
LINE
  8
DETAIL
  6
CONTINUOUS
 62
     5
 10
-148.416959
 20
-25.743651
 30
0.0
 11
-148.283794
 21
-26.032695
 31
0.0
  0
LINE
  8
DETAIL
  6
CONTINUOUS
 62
     5
 10
-148.473138
 20
-25.409233
 30
0.0
 11
-148.416959
 21
-25.743651
 31
0.0
  0
LINE
  8
DETAIL
  6
CONTINUOUS
 62
     5
 10
-149.308785
 20
-9.767161
 30
0.0
 11
-149.36291
 21
-9.782762
 31
0.0
  0
LINE
  8
DETAIL
  6
CONTINUOUS
 62
     5
 10
-149.343694
 20
-9.767161
 30
0.0
 11
-149.397819
 21
-9.782762
 31
0.0
  0
LINE
  8
DETAIL
  6
CONTINUOUS
 62
     5
 10
-149.378602
 20
-9.767161
 30
0.0
 11
-149.432727
 21
-9.782762
 31
0.0
  0
LINE
  8
DETAIL
  6
CONTINUOUS
 62
     5
 10
-149.33933
 20
-6.267059
 30
0.0
 11
-149.393455
 21
-6.28266
 31
0.0
  0
LINE
  8
DETAIL
  6
CONTINUOUS
 62
     5
 10
-149.374239
 20
-6.267059
 30
0.0
 11
-149.428364
 21
-6.28266
 31
0.0
  0
LINE
  8
DETAIL
  6
CONTINUOUS
 62
     5
 10
-149.409147
 20
-6.267059
 30
0.0
 11
-149.463272
 21
-6.28266
 31
0.0
  0
LINE
  8
DETAIL
  6
CONTINUOUS
 62
     5
 10
-149.365642
 20
-9.783699
 30
0.0
 11
-149.393043
 21
-9.796338
 31
0.0
  0
LINE
  8
DETAIL
  6
CONTINUOUS
 62
     5
 10
-149.336358
 20
-9.773659
 30
0.0
 11
-149.365642
 21
-9.783699
 31
0.0
  0
LINE
  8
DETAIL
  6
CONTINUOUS
 62
     5
 10
-149.400551
 20
-9.783699
 30
0.0
 11
-149.427952
 21
-9.796338
 31
0.0
  0
LINE
  8
DETAIL
  6
CONTINUOUS
 62
     5
 10
-149.371266
 20
-9.773659
 30
0.0
 11
-149.400551
 21
-9.783699
 31
0.0
  0
LINE
  8
DETAIL
  6
CONTINUOUS
 62
     5
 10
-149.435459
 20
-9.783699
 30
0.0
 11
-149.46286
 21
-9.796338
 31
0.0
  0
LINE
  8
DETAIL
  6
CONTINUOUS
 62
     5
 10
-149.406175
 20
-9.773659
 30
0.0
 11
-149.435459
 21
-9.783699
 31
0.0
  0
LINE
  8
DETAIL
  6
CONTINUOUS
 62
     5
 10
-148.579849
 20
-47.297848
 30
0.0
 11
-148.582404
 21
-47.588269
 31
0.0
  0
LINE
  8
DETAIL
  6
CONTINUOUS
 62
     5
 10
-148.572074
 20
-45.956437
 30
0.0
 11
-148.579849
 21
-47.297848
 31
0.0
  0
LINE
  8
DETAIL
  6
CONTINUOUS
 62
     5
 10
-148.567985
 20
-43.901485
 30
0.0
 11
-148.572074
 21
-45.956437
 31
0.0
  0
LINE
  8
DETAIL
  6
CONTINUOUS
 62
     5
 10
-148.390747
 20
-46.589249
 30
0.0
 11
-148.393679
 21
-50.550673
 31
0.0
  0
LINE
  8
DETAIL
  6
CONTINUOUS
 62
     5
 10
-148.57024
 20
-41.474418
 30
0.0
 11
-148.567985
 21
-43.901485
 31
0.0
  0
LINE
  8
DETAIL
  6
CONTINUOUS
 62
     5
 10
-148.396843
 20
-42.12738
 30
0.0
 11
-148.390747
 21
-46.589249
 31
0.0
  0
LINE
  8
DETAIL
  6
CONTINUOUS
 62
     5
 10
-148.578783
 20
-38.736357
 30
0.0
 11
-148.57024
 21
-41.474418
 31
0.0
  0
LINE
  8
DETAIL
  6
CONTINUOUS
 62
     5
 10
-148.411879
 20
-37.227976
 30
0.0
 11
-148.396843
 21
-42.12738
 31
0.0
  0
LINE
  8
DETAIL
  6
CONTINUOUS
 62
     5
 10
-148.435664
 20
-31.958417
 30
0.0
 11
-148.411879
 21
-37.227976
 31
0.0
  0
LINE
  8
DETAIL
  6
CONTINUOUS
 62
     5
 10
-148.593398
 20
-35.755665
 30
0.0
 11
-148.578783
 21
-38.736357
 31
0.0
  0
LINE
  8
DETAIL
  6
CONTINUOUS
 62
     5
 10
-148.634693
 20
-48.673564
 30
0.0
 11
-148.644077
 21
-48.747164
 31
0.0
  0
LINE
  8
DETAIL
  6
CONTINUOUS
 62
     5
 10
-148.625033
 20
-48.513607
 30
0.0
 11
-148.634693
 21
-48.673564
 31
0.0
  0
LINE
  8
DETAIL
  6
CONTINUOUS
 62
     5
 10
-148.615244
 20
-48.239075
 30
0.0
 11
-148.625033
 21
-48.513607
 31
0.0
  0
LINE
  8
DETAIL
  6
CONTINUOUS
 62
     5
 10
-148.605589
 20
-47.814341
 30
0.0
 11
-148.615244
 21
-48.239075
 31
0.0
  0
LINE
  8
DETAIL
  6
CONTINUOUS
 62
     5
 10
-148.596473
 20
-47.195944
 30
0.0
 11
-148.605589
 21
-47.814341
 31
0.0
  0
LINE
  8
DETAIL
  6
CONTINUOUS
 62
     5
 10
-148.588465
 20
-46.332803
 30
0.0
 11
-148.596473
 21
-47.195944
 31
0.0
  0
LINE
  8
DETAIL
  6
CONTINUOUS
 62
     5
 10
-148.582337
 20
-45.17074
 30
0.0
 11
-148.588465
 21
-46.332803
 31
0.0
  0
LINE
  8
DETAIL
  6
CONTINUOUS
 62
     5
 10
-148.579077
 20
-43.701199
 30
0.0
 11
-148.582337
 21
-45.17074
 31
0.0
  0
LINE
  8
DETAIL
  6
CONTINUOUS
 62
     5
 10
-148.579341
 20
-41.98161
 30
0.0
 11
-148.579077
 21
-43.701199
 31
0.0
  0
LINE
  8
DETAIL
  6
CONTINUOUS
 62
     5
 10
-148.583112
 20
-40.113261
 30
0.0
 11
-148.579341
 21
-41.98161
 31
0.0
  0
LINE
  8
DETAIL
  6
CONTINUOUS
 62
     5
 10
-148.589702
 20
-38.229747
 30
0.0
 11
-148.583112
 21
-40.113261
 31
0.0
  0
LINE
  8
DETAIL
  6
CONTINUOUS
 62
     5
 10
-148.607566
 20
-34.762843
 30
0.0
 11
-148.589702
 21
-38.229747
 31
0.0
  0
LINE
  8
DETAIL
  6
CONTINUOUS
 62
     5
 10
-149.544927
 20
-10.654994
 30
0.0
 11
-149.547834
 21
-10.336339
 31
0.0
  0
LINE
  8
DETAIL
  6
CONTINUOUS
 62
     5
 10
-149.544485
 20
-10.74892
 30
0.0
 11
-149.544927
 21
-10.654994
 31
0.0
  0
LINE
  8
DETAIL
  6
CONTINUOUS
 62
     5
 10
-149.55528
 20
-10.280529
 30
0.0
 11
-149.554838
 21
-10.374455
 31
0.0
  0
LINE
  8
DETAIL
  6
CONTINUOUS
 62
     5
 10
-149.575472
 20
-7.154891
 30
0.0
 11
-149.578379
 21
-6.836236
 31
0.0
  0
LINE
  8
DETAIL
  6
CONTINUOUS
 62
     5
 10
-149.57503
 20
-7.248817
 30
0.0
 11
-149.575472
 21
-7.154891
 31
0.0
  0
LINE
  8
DETAIL
  6
CONTINUOUS
 62
     5
 10
-149.585825
 20
-6.780426
 30
0.0
 11
-149.585383
 21
-6.874352
 31
0.0
  0
LINE
  8
DETAIL
  6
CONTINUOUS
 62
     5
 10
-149.579835
 20
-10.654994
 30
0.0
 11
-149.582742
 21
-10.336339
 31
0.0
  0
LINE
  8
DETAIL
  6
CONTINUOUS
 62
     5
 10
-149.579394
 20
-10.74892
 30
0.0
 11
-149.579835
 21
-10.654994
 31
0.0
  0
LINE
  8
DETAIL
  6
CONTINUOUS
 62
     5
 10
-149.590188
 20
-10.280529
 30
0.0
 11
-149.589747
 21
-10.374455
 31
0.0
  0
LINE
  8
DETAIL
  6
CONTINUOUS
 62
     5
 10
-149.61038
 20
-7.154891
 30
0.0
 11
-149.613287
 21
-6.836236
 31
0.0
  0
LINE
  8
DETAIL
  6
CONTINUOUS
 62
     5
 10
-149.609939
 20
-7.248817
 30
0.0
 11
-149.61038
 21
-7.154891
 31
0.0
  0
LINE
  8
DETAIL
  6
CONTINUOUS
 62
     5
 10
-149.620733
 20
-6.780426
 30
0.0
 11
-149.620292
 21
-6.874352
 31
0.0
  0
LINE
  8
DETAIL
  6
CONTINUOUS
 62
     5
 10
-149.614744
 20
-10.654994
 30
0.0
 11
-149.617651
 21
-10.336339
 31
0.0
  0
LINE
  8
DETAIL
  6
CONTINUOUS
 62
     5
 10
-149.614302
 20
-10.74892
 30
0.0
 11
-149.614744
 21
-10.654994
 31
0.0
  0
LINE
  8
DETAIL
  6
CONTINUOUS
 62
     5
 10
-149.625097
 20
-10.280529
 30
0.0
 11
-149.624655
 21
-10.374455
 31
0.0
  0
LINE
  8
DETAIL
  6
CONTINUOUS
 62
     5
 10
-149.645289
 20
-7.154891
 30
0.0
 11
-149.648196
 21
-6.836236
 31
0.0
  0
LINE
  8
DETAIL
  6
CONTINUOUS
 62
     5
 10
-149.644847
 20
-7.248817
 30
0.0
 11
-149.645289
 21
-7.154891
 31
0.0
  0
LINE
  8
DETAIL
  6
CONTINUOUS
 62
     5
 10
-148.611724
 20
-2.504378
 30
0.0
 11
-148.435664
 21
-31.958417
 31
0.0
  0
LINE
  8
DETAIL
  6
CONTINUOUS
 62
     5
 10
-149.555049
 20
-10.338215
 30
0.0
 11
-149.55308
 21
-10.591747
 31
0.0
  0
LINE
  8
DETAIL
  6
CONTINUOUS
 62
     5
 10
-149.585594
 20
-6.838112
 30
0.0
 11
-149.583625
 21
-7.091644
 31
0.0
  0
LINE
  8
DETAIL
  6
CONTINUOUS
 62
     5
 10
-149.589957
 20
-10.338215
 30
0.0
 11
-149.587988
 21
-10.591747
 31
0.0
  0
LINE
  8
DETAIL
  6
CONTINUOUS
 62
     5
 10
-149.620502
 20
-6.838112
 30
0.0
 11
-149.618533
 21
-7.091644
 31
0.0
  0
LINE
  8
DETAIL
  6
CONTINUOUS
 62
     5
 10
-149.624866
 20
-10.338215
 30
0.0
 11
-149.622897
 21
-10.591747
 31
0.0
  0
LINE
  8
DETAIL
  6
CONTINUOUS
 62
     5
 10
-149.655411
 20
-6.838112
 30
0.0
 11
-149.653442
 21
-7.091644
 31
0.0
  0
LINE
  8
DETAIL
  6
CONTINUOUS
 62
     5
 10
-148.613723
 20
-32.606411
 30
0.0
 11
-148.593398
 21
-35.755665
 31
0.0
  0
LINE
  8
DETAIL
  6
CONTINUOUS
 62
     5
 10
-148.627546
 20
-31.825781
 30
0.0
 11
-148.607566
 21
-34.762843
 31
0.0
  0
LINE
  8
DETAIL
  6
CONTINUOUS
 62
     5
 10
-148.867336
 20
-2.504997
 30
0.0
 11
-148.613723
 21
-32.606411
 31
0.0
  0
LINE
  8
DETAIL
  6
CONTINUOUS
 62
     5
 10
-148.875416
 20
-2.504378
 30
0.0
 11
-148.627546
 21
-31.825781
 31
0.0
  0
LINE
  8
DETAIL
  6
CONTINUOUS
 62
     5
 10
-149.418574
 20
-48.931099
 30
0.0
 11
-149.829355
 21
-2.766288
 31
0.0
  0
LINE
  8
DETAIL
  6
CONTINUOUS
 62
     5
 10
-149.431212
 20
-48.498236
 30
0.0
 11
-149.837463
 21
-2.504378
 31
0.0
  0
LINE
  8
DETAIL
  6
CONTINUOUS
 62
     5
 10
-149.584149
 20
-7.038823
 30
0.0
 11
-149.580291
 21
-7.340545
 31
0.0
  0
LINE
  8
DETAIL
  6
CONTINUOUS
 62
     5
 10
-149.553604
 20
-10.538926
 30
0.0
 11
-149.549746
 21
-10.840648
 31
0.0
  0
LINE
  8
DETAIL
  6
CONTINUOUS
 62
     5
 10
-149.619058
 20
-7.038823
 30
0.0
 11
-149.6152
 21
-7.340545
 31
0.0
  0
LINE
  8
DETAIL
  6
CONTINUOUS
 62
     5
 10
-149.588513
 20
-10.538926
 30
0.0
 11
-149.584655
 21
-10.840648
 31
0.0
  0
LINE
  8
DETAIL
  6
CONTINUOUS
 62
     5
 10
-149.653966
 20
-7.038823
 30
0.0
 11
-149.650108
 21
-7.340545
 31
0.0
  0
LINE
  8
DETAIL
  6
CONTINUOUS
 62
     5
 10
-149.623421
 20
-10.538926
 30
0.0
 11
-149.619563
 21
-10.840648
 31
0.0
  0
LINE
  8
DETAIL
  6
CONTINUOUS
 62
     5
 10
-149.411932
 20
-50.17589
 30
0.0
 11
-149.431212
 21
-48.498236
 31
0.0
  0
LINE
  8
DETAIL
  6
CONTINUOUS
 62
     5
 10
-149.274883
 20
-6.906395
 30
0.0
 11
-149.279768
 21
-6.521678
 31
0.0
  0
LINE
  8
DETAIL
  6
CONTINUOUS
 62
     5
 10
-149.244338
 20
-10.406498
 30
0.0
 11
-149.249223
 21
-10.021781
 31
0.0
  0
LINE
  8
DETAIL
  6
CONTINUOUS
 62
     5
 10
-149.401133
 20
-50.274568
 30
0.0
 11
-149.419371
 21
-48.856696
 31
0.0
  0
LINE
  8
DETAIL
  6
CONTINUOUS
 62
     5
 10
-150.220234
 20
-2.500864
 30
0.0
 11
-150.220191
 21
-2.504378
 31
0.0
  0
LINE
  8
DETAIL
  6
CONTINUOUS
 62
     5
 10
-149.578379
 20
-6.836236
 30
0.0
 11
-149.580564
 21
-6.688698
 31
0.0
  0
LINE
  8
DETAIL
  6
CONTINUOUS
 62
     5
 10
-149.547834
 20
-10.336339
 30
0.0
 11
-149.550019
 21
-10.188801
 31
0.0
  0
LINE
  8
DETAIL
  6
CONTINUOUS
 62
     5
 10
-149.613287
 20
-6.836236
 30
0.0
 11
-149.615472
 21
-6.688698
 31
0.0
  0
LINE
  8
DETAIL
  6
CONTINUOUS
 62
     5
 10
-149.582742
 20
-10.336339
 30
0.0
 11
-149.584927
 21
-10.188801
 31
0.0
  0
LINE
  8
DETAIL
  6
CONTINUOUS
 62
     5
 10
-149.648196
 20
-6.836236
 30
0.0
 11
-149.650381
 21
-6.688698
 31
0.0
  0
LINE
  8
DETAIL
  6
CONTINUOUS
 62
     5
 10
-149.617651
 20
-10.336339
 30
0.0
 11
-149.619836
 21
-10.188801
 31
0.0
  0
LINE
  8
DETAIL
  6
CONTINUOUS
 62
     5
 10
-149.393031
 20
-51.386837
 30
0.0
 11
-149.411932
 21
-50.17589
 31
0.0
  0
LINE
  8
DETAIL
  6
CONTINUOUS
 62
     5
 10
-149.386419
 20
-51.088044
 30
0.0
 11
-149.401455
 21
-50.252468
 31
0.0
  0
LINE
  8
DETAIL
  6
CONTINUOUS
 62
     5
 10
-149.580702
 20
-7.317963
 30
0.0
 11
-149.57933
 21
-7.391111
 31
0.0
  0
LINE
  8
DETAIL
  6
CONTINUOUS
 62
     5
 10
-149.550157
 20
-10.818066
 30
0.0
 11
-149.548785
 21
-10.891214
 31
0.0
  0
LINE
  8
DETAIL
  6
CONTINUOUS
 62
     5
 10
-149.61561
 20
-7.317963
 30
0.0
 11
-149.614239
 21
-7.391111
 31
0.0
  0
LINE
  8
DETAIL
  6
CONTINUOUS
 62
     5
 10
-149.585065
 20
-10.818066
 30
0.0
 11
-149.583694
 21
-10.891214
 31
0.0
  0
LINE
  8
DETAIL
  6
CONTINUOUS
 62
     5
 10
-149.650519
 20
-7.317963
 30
0.0
 11
-149.649147
 21
-7.391111
 31
0.0
  0
LINE
  8
DETAIL
  6
CONTINUOUS
 62
     5
 10
-149.619974
 20
-10.818066
 30
0.0
 11
-149.618602
 21
-10.891214
 31
0.0
  0
LINE
  8
DETAIL
  6
CONTINUOUS
 62
     5
 10
-149.284877
 20
-6.292396
 30
0.0
 11
-149.286986
 21
-6.262005
 31
0.0
  0
LINE
  8
DETAIL
  6
CONTINUOUS
 62
     5
 10
-149.282405
 20
-6.381231
 30
0.0
 11
-149.284877
 21
-6.292396
 31
0.0
  0
LINE
  8
DETAIL
  6
CONTINUOUS
 62
     5
 10
-149.279768
 20
-6.521678
 30
0.0
 11
-149.282405
 21
-6.381231
 31
0.0
  0
LINE
  8
DETAIL
  6
CONTINUOUS
 62
     5
 10
-149.254332
 20
-9.792499
 30
0.0
 11
-149.256442
 21
-9.762107
 31
0.0
  0
LINE
  8
DETAIL
  6
CONTINUOUS
 62
     5
 10
-149.25186
 20
-9.881333
 30
0.0
 11
-149.254332
 21
-9.792499
 31
0.0
  0
LINE
  8
DETAIL
  6
CONTINUOUS
 62
     5
 10
-149.249223
 20
-10.021781
 30
0.0
 11
-149.25186
 21
-9.881333
 31
0.0
  0
LINE
  8
DETAIL
  6
CONTINUOUS
 62
     5
 10
-149.382232
 20
-51.913894
 30
0.0
 11
-149.393031
 21
-51.386837
 31
0.0
  0
LINE
  8
DETAIL
  6
CONTINUOUS
 62
     5
 10
-149.580564
 20
-6.688698
 30
0.0
 11
-149.582246
 21
-6.609781
 31
0.0
  0
LINE
  8
DETAIL
  6
CONTINUOUS
 62
     5
 10
-149.615472
 20
-6.688698
 30
0.0
 11
-149.617154
 21
-6.609781
 31
0.0
  0
LINE
  8
DETAIL
  6
CONTINUOUS
 62
     5
 10
-149.550019
 20
-10.188801
 30
0.0
 11
-149.551701
 21
-10.109884
 31
0.0
  0
LINE
  8
DETAIL
  6
CONTINUOUS
 62
     5
 10
-149.650381
 20
-6.688698
 30
0.0
 11
-149.652063
 21
-6.609781
 31
0.0
  0
LINE
  8
DETAIL
  6
CONTINUOUS
 62
     5
 10
-149.584927
 20
-10.188801
 30
0.0
 11
-149.586609
 21
-10.109884
 31
0.0
  0
LINE
  8
DETAIL
  6
CONTINUOUS
 62
     5
 10
-149.619836
 20
-10.188801
 30
0.0
 11
-149.621518
 21
-10.109884
 31
0.0
  0
LINE
  8
DETAIL
  6
CONTINUOUS
 62
     5
 10
-149.390236
 20
-50.904602
 30
0.0
 11
-149.379728
 21
-51.364555
 31
0.0
  0
LINE
  8
DETAIL
  6
CONTINUOUS
 62
     5
 10
-149.579384
 20
-7.386955
 30
0.0
 11
-149.578359
 21
-7.43092
 31
0.0
  0
LINE
  8
DETAIL
  6
CONTINUOUS
 62
     5
 10
-149.614292
 20
-7.386955
 30
0.0
 11
-149.613268
 21
-7.43092
 31
0.0
  0
LINE
  8
DETAIL
  6
CONTINUOUS
 62
     5
 10
-149.548839
 20
-10.887057
 30
0.0
 11
-149.547814
 21
-10.931023
 31
0.0
  0
LINE
  8
DETAIL
  6
CONTINUOUS
 62
     5
 10
-149.649201
 20
-7.386955
 30
0.0
 11
-149.648176
 21
-7.43092
 31
0.0
  0
LINE
  8
DETAIL
  6
CONTINUOUS
 62
     5
 10
-149.583747
 20
-10.887057
 30
0.0
 11
-149.582723
 21
-10.931023
 31
0.0
  0
LINE
  8
DETAIL
  6
CONTINUOUS
 62
     5
 10
-149.618656
 20
-10.887057
 30
0.0
 11
-149.617631
 21
-10.931023
 31
0.0
  0
LINE
  8
DETAIL
  6
CONTINUOUS
 62
     5
 10
-149.374446
 20
-52.214381
 30
0.0
 11
-149.382232
 21
-51.913894
 31
0.0
  0
LINE
  8
DETAIL
  6
CONTINUOUS
 62
     5
 10
-149.380791
 20
-51.327085
 30
0.0
 11
-149.376724
 21
-51.470045
 31
0.0
  0
LINE
  8
DETAIL
  6
CONTINUOUS
 62
     5
 10
-149.583926
 20
-6.567035
 30
0.0
 11
-149.584355
 21
-6.564608
 31
0.0
  0
LINE
  8
DETAIL
  6
CONTINUOUS
 62
     5
 10
-149.583449
 20
-6.5745
 30
0.0
 11
-149.583926
 21
-6.567035
 31
0.0
  0
LINE
  8
DETAIL
  6
CONTINUOUS
 62
     5
 10
-149.582902
 20
-6.587968
 30
0.0
 11
-149.583449
 21
-6.5745
 31
0.0
  0
LINE
  8
DETAIL
  6
CONTINUOUS
 62
     5
 10
-149.582246
 20
-6.609781
 30
0.0
 11
-149.582902
 21
-6.587968
 31
0.0
  0
LINE
  8
DETAIL
  6
CONTINUOUS
 62
     5
 10
-149.578609
 20
-7.419462
 30
0.0
 11
-149.577719
 21
-7.451237
 31
0.0
  0
LINE
  8
DETAIL
  6
CONTINUOUS
 62
     5
 10
-149.618835
 20
-6.567035
 30
0.0
 11
-149.619263
 21
-6.564608
 31
0.0
  0
LINE
  8
DETAIL
  6
CONTINUOUS
 62
     5
 10
-149.618358
 20
-6.5745
 30
0.0
 11
-149.618835
 21
-6.567035
 31
0.0
  0
LINE
  8
DETAIL
  6
CONTINUOUS
 62
     5
 10
-149.61781
 20
-6.587968
 30
0.0
 11
-149.618358
 21
-6.5745
 31
0.0
  0
LINE
  8
DETAIL
  6
CONTINUOUS
 62
     5
 10
-149.617154
 20
-6.609781
 30
0.0
 11
-149.61781
 21
-6.587968
 31
0.0
  0
LINE
  8
DETAIL
  6
CONTINUOUS
 62
     5
 10
-149.613518
 20
-7.419462
 30
0.0
 11
-149.612627
 21
-7.451237
 31
0.0
  0
LINE
  8
DETAIL
  6
CONTINUOUS
 62
     5
 10
-149.653743
 20
-6.567035
 30
0.0
 11
-149.654172
 21
-6.564608
 31
0.0
  0
LINE
  8
DETAIL
  6
CONTINUOUS
 62
     5
 10
-149.653266
 20
-6.5745
 30
0.0
 11
-149.653743
 21
-6.567035
 31
0.0
  0
LINE
  8
DETAIL
  6
CONTINUOUS
 62
     5
 10
-149.652719
 20
-6.587968
 30
0.0
 11
-149.653266
 21
-6.5745
 31
0.0
  0
LINE
  8
DETAIL
  6
CONTINUOUS
 62
     5
 10
-149.652063
 20
-6.609781
 30
0.0
 11
-149.652719
 21
-6.587968
 31
0.0
  0
LINE
  8
DETAIL
  6
CONTINUOUS
 62
     5
 10
-149.553381
 20
-10.067138
 30
0.0
 11
-149.55381
 21
-10.064711
 31
0.0
  0
LINE
  8
DETAIL
  6
CONTINUOUS
 62
     5
 10
-149.552905
 20
-10.074602
 30
0.0
 11
-149.553381
 21
-10.067138
 31
0.0
  0
LINE
  8
DETAIL
  6
CONTINUOUS
 62
     5
 10
-149.552357
 20
-10.08807
 30
0.0
 11
-149.552905
 21
-10.074602
 31
0.0
  0
LINE
  8
DETAIL
  6
CONTINUOUS
 62
     5
 10
-149.551701
 20
-10.109884
 30
0.0
 11
-149.552357
 21
-10.08807
 31
0.0
  0
LINE
  8
DETAIL
  6
CONTINUOUS
 62
     5
 10
-149.648426
 20
-7.419462
 30
0.0
 11
-149.647535
 21
-7.451237
 31
0.0
  0
LINE
  8
DETAIL
  6
CONTINUOUS
 62
     5
 10
-149.548064
 20
-10.919565
 30
0.0
 11
-149.547174
 21
-10.95134
 31
0.0
  0
LINE
  8
DETAIL
  6
CONTINUOUS
 62
     5
 10
-149.58829
 20
-10.067138
 30
0.0
 11
-149.588718
 21
-10.064711
 31
0.0
  0
LINE
  8
DETAIL
  6
CONTINUOUS
 62
     5
 10
-149.587813
 20
-10.074602
 30
0.0
 11
-149.58829
 21
-10.067138
 31
0.0
  0
LINE
  8
DETAIL
  6
CONTINUOUS
 62
     5
 10
-149.587266
 20
-10.08807
 30
0.0
 11
-149.587813
 21
-10.074602
 31
0.0
  0
LINE
  8
DETAIL
  6
CONTINUOUS
 62
     5
 10
-149.586609
 20
-10.109884
 30
0.0
 11
-149.587266
 21
-10.08807
 31
0.0
  0
LINE
  8
DETAIL
  6
CONTINUOUS
 62
     5
 10
-149.582973
 20
-10.919565
 30
0.0
 11
-149.582082
 21
-10.95134
 31
0.0
  0
LINE
  8
DETAIL
  6
CONTINUOUS
 62
     5
 10
-149.623198
 20
-10.067138
 30
0.0
 11
-149.623627
 21
-10.064711
 31
0.0
  0
LINE
  8
DETAIL
  6
CONTINUOUS
 62
     5
 10
-149.622722
 20
-10.074602
 30
0.0
 11
-149.623198
 21
-10.067138
 31
0.0
  0
LINE
  8
DETAIL
  6
CONTINUOUS
 62
     5
 10
-149.622174
 20
-10.08807
 30
0.0
 11
-149.622722
 21
-10.074602
 31
0.0
  0
LINE
  8
DETAIL
  6
CONTINUOUS
 62
     5
 10
-149.621518
 20
-10.109884
 30
0.0
 11
-149.622174
 21
-10.08807
 31
0.0
  0
LINE
  8
DETAIL
  6
CONTINUOUS
 62
     5
 10
-149.617881
 20
-10.919565
 30
0.0
 11
-149.616991
 21
-10.95134
 31
0.0
  0
LINE
  8
DETAIL
  6
CONTINUOUS
 62
     5
 10
-149.369496
 20
-52.365907
 30
0.0
 11
-149.374446
 21
-52.214381
 31
0.0
  0
LINE
  8
DETAIL
  6
CONTINUOUS
 62
     5
 10
-149.373955
 20
-51.552225
 30
0.0
 11
-149.379728
 21
-51.364555
 31
0.0
  0
LINE
  8
DETAIL
  6
CONTINUOUS
 62
     5
 10
-149.373955
 20
-51.552225
 30
0.0
 11
-149.372238
 21
-51.596517
 31
0.0
  0
LINE
  8
DETAIL
  6
CONTINUOUS
 62
     5
 10
-149.475216
 20
-7.686804
 30
0.0
 11
-149.451755
 21
-7.705533
 31
0.0
  0
LINE
  8
DETAIL
  6
CONTINUOUS
 62
     5
 10
-149.496053
 20
-7.666507
 30
0.0
 11
-149.475216
 21
-7.686804
 31
0.0
  0
LINE
  8
DETAIL
  6
CONTINUOUS
 62
     5
 10
-149.514251
 20
-7.645039
 30
0.0
 11
-149.496053
 21
-7.666507
 31
0.0
  0
LINE
  8
DETAIL
  6
CONTINUOUS
 62
     5
 10
-149.529841
 20
-7.622781
 30
0.0
 11
-149.514251
 21
-7.645039
 31
0.0
  0
LINE
  8
DETAIL
  6
CONTINUOUS
 62
     5
 10
-149.542899
 20
-7.600083
 30
0.0
 11
-149.529841
 21
-7.622781
 31
0.0
  0
LINE
  8
DETAIL
  6
CONTINUOUS
 62
     5
 10
-149.553541
 20
-7.577276
 30
0.0
 11
-149.542899
 21
-7.600083
 31
0.0
  0
LINE
  8
DETAIL
  6
CONTINUOUS
 62
     5
 10
-149.561833
 20
-7.554911
 30
0.0
 11
-149.553541
 21
-7.577276
 31
0.0
  0
LINE
  8
DETAIL
  6
CONTINUOUS
 62
     5
 10
-149.567958
 20
-7.533487
 30
0.0
 11
-149.561833
 21
-7.554911
 31
0.0
  0
LINE
  8
DETAIL
  6
CONTINUOUS
 62
     5
 10
-149.572162
 20
-7.513576
 30
0.0
 11
-149.567958
 21
-7.533487
 31
0.0
  0
LINE
  8
DETAIL
  6
CONTINUOUS
 62
     5
 10
-149.574682
 20
-7.496575
 30
0.0
 11
-149.572162
 21
-7.513576
 31
0.0
  0
LINE
  8
DETAIL
  6
CONTINUOUS
 62
     5
 10
-149.575927
 20
-7.484391
 30
0.0
 11
-149.574682
 21
-7.496575
 31
0.0
  0
LINE
  8
DETAIL
  6
CONTINUOUS
 62
     5
 10
-149.576588
 20
-7.475403
 30
0.0
 11
-149.575927
 21
-7.484391
 31
0.0
  0
LINE
  8
DETAIL
  6
CONTINUOUS
 62
     5
 10
-149.577027
 20
-7.467655
 30
0.0
 11
-149.576588
 21
-7.475403
 31
0.0
  0
LINE
  8
DETAIL
  6
CONTINUOUS
 62
     5
 10
-149.577386
 20
-7.459816
 30
0.0
 11
-149.577027
 21
-7.467655
 31
0.0
  0
LINE
  8
DETAIL
  6
CONTINUOUS
 62
     5
 10
-149.577953
 20
-7.441276
 30
0.0
 11
-149.577386
 21
-7.459816
 31
0.0
  0
LINE
  8
DETAIL
  6
CONTINUOUS
 62
     5
 10
-149.510124
 20
-7.686804
 30
0.0
 11
-149.486664
 21
-7.705533
 31
0.0
  0
LINE
  8
DETAIL
  6
CONTINUOUS
 62
     5
 10
-149.530961
 20
-7.666507
 30
0.0
 11
-149.510124
 21
-7.686804
 31
0.0
  0
LINE
  8
DETAIL
  6
CONTINUOUS
 62
     5
 10
-149.54916
 20
-7.645039
 30
0.0
 11
-149.530961
 21
-7.666507
 31
0.0
  0
LINE
  8
DETAIL
  6
CONTINUOUS
 62
     5
 10
-149.564749
 20
-7.622781
 30
0.0
 11
-149.54916
 21
-7.645039
 31
0.0
  0
LINE
  8
DETAIL
  6
CONTINUOUS
 62
     5
 10
-149.577808
 20
-7.600083
 30
0.0
 11
-149.564749
 21
-7.622781
 31
0.0
  0
LINE
  8
DETAIL
  6
CONTINUOUS
 62
     5
 10
-149.58845
 20
-7.577276
 30
0.0
 11
-149.577808
 21
-7.600083
 31
0.0
  0
LINE
  8
DETAIL
  6
CONTINUOUS
 62
     5
 10
-149.596742
 20
-7.554911
 30
0.0
 11
-149.58845
 21
-7.577276
 31
0.0
  0
LINE
  8
DETAIL
  6
CONTINUOUS
 62
     5
 10
-149.602866
 20
-7.533487
 30
0.0
 11
-149.596742
 21
-7.554911
 31
0.0
  0
LINE
  8
DETAIL
  6
CONTINUOUS
 62
     5
 10
-149.607071
 20
-7.513576
 30
0.0
 11
-149.602866
 21
-7.533487
 31
0.0
  0
LINE
  8
DETAIL
  6
CONTINUOUS
 62
     5
 10
-149.609591
 20
-7.496575
 30
0.0
 11
-149.607071
 21
-7.513576
 31
0.0
  0
LINE
  8
DETAIL
  6
CONTINUOUS
 62
     5
 10
-149.610836
 20
-7.484391
 30
0.0
 11
-149.609591
 21
-7.496575
 31
0.0
  0
LINE
  8
DETAIL
  6
CONTINUOUS
 62
     5
 10
-149.611497
 20
-7.475403
 30
0.0
 11
-149.610836
 21
-7.484391
 31
0.0
  0
LINE
  8
DETAIL
  6
CONTINUOUS
 62
     5
 10
-149.611935
 20
-7.467655
 30
0.0
 11
-149.611497
 21
-7.475403
 31
0.0
  0
LINE
  8
DETAIL
  6
CONTINUOUS
 62
     5
 10
-149.612295
 20
-7.459816
 30
0.0
 11
-149.611935
 21
-7.467655
 31
0.0
  0
LINE
  8
DETAIL
  6
CONTINUOUS
 62
     5
 10
-149.612861
 20
-7.441276
 30
0.0
 11
-149.612295
 21
-7.459816
 31
0.0
  0
LINE
  8
DETAIL
  6
CONTINUOUS
 62
     5
 10
-149.545033
 20
-7.686804
 30
0.0
 11
-149.521572
 21
-7.705533
 31
0.0
  0
LINE
  8
DETAIL
  6
CONTINUOUS
 62
     5
 10
-149.56587
 20
-7.666507
 30
0.0
 11
-149.545033
 21
-7.686804
 31
0.0
  0
LINE
  8
DETAIL
  6
CONTINUOUS
 62
     5
 10
-149.584068
 20
-7.645039
 30
0.0
 11
-149.56587
 21
-7.666507
 31
0.0
  0
LINE
  8
DETAIL
  6
CONTINUOUS
 62
     5
 10
-149.599658
 20
-7.622781
 30
0.0
 11
-149.584068
 21
-7.645039
 31
0.0
  0
LINE
  8
DETAIL
  6
CONTINUOUS
 62
     5
 10
-149.612716
 20
-7.600083
 30
0.0
 11
-149.599658
 21
-7.622781
 31
0.0
  0
LINE
  8
DETAIL
  6
CONTINUOUS
 62
     5
 10
-149.623358
 20
-7.577276
 30
0.0
 11
-149.612716
 21
-7.600083
 31
0.0
  0
LINE
  8
DETAIL
  6
CONTINUOUS
 62
     5
 10
-149.63165
 20
-7.554911
 30
0.0
 11
-149.623358
 21
-7.577276
 31
0.0
  0
LINE
  8
DETAIL
  6
CONTINUOUS
 62
     5
 10
-149.637775
 20
-7.533487
 30
0.0
 11
-149.63165
 21
-7.554911
 31
0.0
  0
LINE
  8
DETAIL
  6
CONTINUOUS
 62
     5
 10
-149.641979
 20
-7.513576
 30
0.0
 11
-149.637775
 21
-7.533487
 31
0.0
  0
LINE
  8
DETAIL
  6
CONTINUOUS
 62
     5
 10
-149.644499
 20
-7.496575
 30
0.0
 11
-149.641979
 21
-7.513576
 31
0.0
  0
LINE
  8
DETAIL
  6
CONTINUOUS
 62
     5
 10
-149.645744
 20
-7.484391
 30
0.0
 11
-149.644499
 21
-7.496575
 31
0.0
  0
LINE
  8
DETAIL
  6
CONTINUOUS
 62
     5
 10
-149.646405
 20
-7.475403
 30
0.0
 11
-149.645744
 21
-7.484391
 31
0.0
  0
LINE
  8
DETAIL
  6
CONTINUOUS
 62
     5
 10
-149.646844
 20
-7.467655
 30
0.0
 11
-149.646405
 21
-7.475403
 31
0.0
  0
LINE
  8
DETAIL
  6
CONTINUOUS
 62
     5
 10
-149.647203
 20
-7.459816
 30
0.0
 11
-149.646844
 21
-7.467655
 31
0.0
  0
LINE
  8
DETAIL
  6
CONTINUOUS
 62
     5
 10
-149.64777
 20
-7.441276
 30
0.0
 11
-149.647203
 21
-7.459816
 31
0.0
  0
LINE
  8
DETAIL
  6
CONTINUOUS
 62
     5
 10
-149.444671
 20
-11.186906
 30
0.0
 11
-149.42121
 21
-11.205636
 31
0.0
  0
LINE
  8
DETAIL
  6
CONTINUOUS
 62
     5
 10
-149.465508
 20
-11.16661
 30
0.0
 11
-149.444671
 21
-11.186906
 31
0.0
  0
LINE
  8
DETAIL
  6
CONTINUOUS
 62
     5
 10
-149.483706
 20
-11.145142
 30
0.0
 11
-149.465508
 21
-11.16661
 31
0.0
  0
LINE
  8
DETAIL
  6
CONTINUOUS
 62
     5
 10
-149.499296
 20
-11.122883
 30
0.0
 11
-149.483706
 21
-11.145142
 31
0.0
  0
LINE
  8
DETAIL
  6
CONTINUOUS
 62
     5
 10
-149.512354
 20
-11.100186
 30
0.0
 11
-149.499296
 21
-11.122883
 31
0.0
  0
LINE
  8
DETAIL
  6
CONTINUOUS
 62
     5
 10
-149.522997
 20
-11.077378
 30
0.0
 11
-149.512354
 21
-11.100186
 31
0.0
  0
LINE
  8
DETAIL
  6
CONTINUOUS
 62
     5
 10
-149.531288
 20
-11.055013
 30
0.0
 11
-149.522997
 21
-11.077378
 31
0.0
  0
LINE
  8
DETAIL
  6
CONTINUOUS
 62
     5
 10
-149.537413
 20
-11.03359
 30
0.0
 11
-149.531288
 21
-11.055013
 31
0.0
  0
LINE
  8
DETAIL
  6
CONTINUOUS
 62
     5
 10
-149.541617
 20
-11.013679
 30
0.0
 11
-149.537413
 21
-11.03359
 31
0.0
  0
LINE
  8
DETAIL
  6
CONTINUOUS
 62
     5
 10
-149.544137
 20
-10.996677
 30
0.0
 11
-149.541617
 21
-11.013679
 31
0.0
  0
LINE
  8
DETAIL
  6
CONTINUOUS
 62
     5
 10
-149.545382
 20
-10.984493
 30
0.0
 11
-149.544137
 21
-10.996677
 31
0.0
  0
LINE
  8
DETAIL
  6
CONTINUOUS
 62
     5
 10
-149.546043
 20
-10.975506
 30
0.0
 11
-149.545382
 21
-10.984493
 31
0.0
  0
LINE
  8
DETAIL
  6
CONTINUOUS
 62
     5
 10
-149.546482
 20
-10.967757
 30
0.0
 11
-149.546043
 21
-10.975506
 31
0.0
  0
LINE
  8
DETAIL
  6
CONTINUOUS
 62
     5
 10
-149.546842
 20
-10.959919
 30
0.0
 11
-149.546482
 21
-10.967757
 31
0.0
  0
LINE
  8
DETAIL
  6
CONTINUOUS
 62
     5
 10
-149.547408
 20
-10.941378
 30
0.0
 11
-149.546842
 21
-10.959919
 31
0.0
  0
LINE
  8
DETAIL
  6
CONTINUOUS
 62
     5
 10
-149.479579
 20
-11.186906
 30
0.0
 11
-149.456119
 21
-11.205636
 31
0.0
  0
LINE
  8
DETAIL
  6
CONTINUOUS
 62
     5
 10
-149.500416
 20
-11.16661
 30
0.0
 11
-149.479579
 21
-11.186906
 31
0.0
  0
LINE
  8
DETAIL
  6
CONTINUOUS
 62
     5
 10
-149.518615
 20
-11.145142
 30
0.0
 11
-149.500416
 21
-11.16661
 31
0.0
  0
LINE
  8
DETAIL
  6
CONTINUOUS
 62
     5
 10
-149.534204
 20
-11.122883
 30
0.0
 11
-149.518615
 21
-11.145142
 31
0.0
  0
LINE
  8
DETAIL
  6
CONTINUOUS
 62
     5
 10
-149.547263
 20
-11.100186
 30
0.0
 11
-149.534204
 21
-11.122883
 31
0.0
  0
LINE
  8
DETAIL
  6
CONTINUOUS
 62
     5
 10
-149.557905
 20
-11.077378
 30
0.0
 11
-149.547263
 21
-11.100186
 31
0.0
  0
LINE
  8
DETAIL
  6
CONTINUOUS
 62
     5
 10
-149.566197
 20
-11.055013
 30
0.0
 11
-149.557905
 21
-11.077378
 31
0.0
  0
LINE
  8
DETAIL
  6
CONTINUOUS
 62
     5
 10
-149.572322
 20
-11.03359
 30
0.0
 11
-149.566197
 21
-11.055013
 31
0.0
  0
LINE
  8
DETAIL
  6
CONTINUOUS
 62
     5
 10
-149.576526
 20
-11.013679
 30
0.0
 11
-149.572322
 21
-11.03359
 31
0.0
  0
LINE
  8
DETAIL
  6
CONTINUOUS
 62
     5
 10
-149.579046
 20
-10.996677
 30
0.0
 11
-149.576526
 21
-11.013679
 31
0.0
  0
LINE
  8
DETAIL
  6
CONTINUOUS
 62
     5
 10
-149.580291
 20
-10.984493
 30
0.0
 11
-149.579046
 21
-10.996677
 31
0.0
  0
LINE
  8
DETAIL
  6
CONTINUOUS
 62
     5
 10
-149.580952
 20
-10.975506
 30
0.0
 11
-149.580291
 21
-10.984493
 31
0.0
  0
LINE
  8
DETAIL
  6
CONTINUOUS
 62
     5
 10
-149.58139
 20
-10.967757
 30
0.0
 11
-149.580952
 21
-10.975506
 31
0.0
  0
LINE
  8
DETAIL
  6
CONTINUOUS
 62
     5
 10
-149.58175
 20
-10.959919
 30
0.0
 11
-149.58139
 21
-10.967757
 31
0.0
  0
LINE
  8
DETAIL
  6
CONTINUOUS
 62
     5
 10
-149.582316
 20
-10.941378
 30
0.0
 11
-149.58175
 21
-10.959919
 31
0.0
  0
LINE
  8
DETAIL
  6
CONTINUOUS
 62
     5
 10
-149.514488
 20
-11.186906
 30
0.0
 11
-149.491027
 21
-11.205636
 31
0.0
  0
LINE
  8
DETAIL
  6
CONTINUOUS
 62
     5
 10
-149.535325
 20
-11.16661
 30
0.0
 11
-149.514488
 21
-11.186906
 31
0.0
  0
LINE
  8
DETAIL
  6
CONTINUOUS
 62
     5
 10
-149.553523
 20
-11.145142
 30
0.0
 11
-149.535325
 21
-11.16661
 31
0.0
  0
LINE
  8
DETAIL
  6
CONTINUOUS
 62
     5
 10
-149.569113
 20
-11.122883
 30
0.0
 11
-149.553523
 21
-11.145142
 31
0.0
  0
LINE
  8
DETAIL
  6
CONTINUOUS
 62
     5
 10
-149.582171
 20
-11.100186
 30
0.0
 11
-149.569113
 21
-11.122883
 31
0.0
  0
LINE
  8
DETAIL
  6
CONTINUOUS
 62
     5
 10
-149.592814
 20
-11.077378
 30
0.0
 11
-149.582171
 21
-11.100186
 31
0.0
  0
LINE
  8
DETAIL
  6
CONTINUOUS
 62
     5
 10
-149.601105
 20
-11.055013
 30
0.0
 11
-149.592814
 21
-11.077378
 31
0.0
  0
LINE
  8
DETAIL
  6
CONTINUOUS
 62
     5
 10
-149.60723
 20
-11.03359
 30
0.0
 11
-149.601105
 21
-11.055013
 31
0.0
  0
LINE
  8
DETAIL
  6
CONTINUOUS
 62
     5
 10
-149.611434
 20
-11.013679
 30
0.0
 11
-149.60723
 21
-11.03359
 31
0.0
  0
LINE
  8
DETAIL
  6
CONTINUOUS
 62
     5
 10
-149.613954
 20
-10.996677
 30
0.0
 11
-149.611434
 21
-11.013679
 31
0.0
  0
LINE
  8
DETAIL
  6
CONTINUOUS
 62
     5
 10
-149.615199
 20
-10.984493
 30
0.0
 11
-149.613954
 21
-10.996677
 31
0.0
  0
LINE
  8
DETAIL
  6
CONTINUOUS
 62
     5
 10
-149.61586
 20
-10.975506
 30
0.0
 11
-149.615199
 21
-10.984493
 31
0.0
  0
LINE
  8
DETAIL
  6
CONTINUOUS
 62
     5
 10
-149.616299
 20
-10.967757
 30
0.0
 11
-149.61586
 21
-10.975506
 31
0.0
  0
LINE
  8
DETAIL
  6
CONTINUOUS
 62
     5
 10
-149.616659
 20
-10.959919
 30
0.0
 11
-149.616299
 21
-10.967757
 31
0.0
  0
LINE
  8
DETAIL
  6
CONTINUOUS
 62
     5
 10
-149.617225
 20
-10.941378
 30
0.0
 11
-149.616659
 21
-10.959919
 31
0.0
  0
LINE
  8
DETAIL
  6
CONTINUOUS
 62
     5
 10
-149.369134
 20
-51.656217
 30
0.0
 11
-149.373972
 21
-51.548242
 31
0.0
  0
LINE
  8
DETAIL
  6
CONTINUOUS
 62
     5
 10
-149.370614
 20
-51.633348
 30
0.0
 11
-149.369065
 21
-51.663702
 31
0.0
  0
LINE
  8
DETAIL
  6
CONTINUOUS
 62
     5
 10
-149.367551
 20
-51.688739
 30
0.0
 11
-149.366783
 21
-51.699696
 31
0.0
  0
LINE
  8
DETAIL
  6
CONTINUOUS
 62
     5
 10
-149.368307
 20
-51.676804
 30
0.0
 11
-149.367551
 21
-51.688739
 31
0.0
  0
LINE
  8
DETAIL
  6
CONTINUOUS
 62
     5
 10
-149.369065
 20
-51.663702
 30
0.0
 11
-149.368307
 21
-51.676804
 31
0.0
  0
LINE
  8
DETAIL
  6
CONTINUOUS
 62
     5
 10
-149.576929
 20
-7.462208
 30
0.0
 11
-149.5765
 21
-7.464635
 31
0.0
  0
LINE
  8
DETAIL
  6
CONTINUOUS
 62
     5
 10
-149.577405
 20
-7.454744
 30
0.0
 11
-149.576929
 21
-7.462208
 31
0.0
  0
LINE
  8
DETAIL
  6
CONTINUOUS
 62
     5
 10
-149.611837
 20
-7.462208
 30
0.0
 11
-149.611409
 21
-7.464635
 31
0.0
  0
LINE
  8
DETAIL
  6
CONTINUOUS
 62
     5
 10
-149.612314
 20
-7.454744
 30
0.0
 11
-149.611837
 21
-7.462208
 31
0.0
  0
LINE
  8
DETAIL
  6
CONTINUOUS
 62
     5
 10
-149.646746
 20
-7.462208
 30
0.0
 11
-149.646317
 21
-7.464635
 31
0.0
  0
LINE
  8
DETAIL
  6
CONTINUOUS
 62
     5
 10
-149.647222
 20
-7.454744
 30
0.0
 11
-149.646746
 21
-7.462208
 31
0.0
  0
LINE
  8
DETAIL
  6
CONTINUOUS
 62
     5
 10
-149.546384
 20
-10.962311
 30
0.0
 11
-149.545955
 21
-10.964738
 31
0.0
  0
LINE
  8
DETAIL
  6
CONTINUOUS
 62
     5
 10
-149.546861
 20
-10.954846
 30
0.0
 11
-149.546384
 21
-10.962311
 31
0.0
  0
LINE
  8
DETAIL
  6
CONTINUOUS
 62
     5
 10
-149.581292
 20
-10.962311
 30
0.0
 11
-149.580864
 21
-10.964738
 31
0.0
  0
LINE
  8
DETAIL
  6
CONTINUOUS
 62
     5
 10
-149.581769
 20
-10.954846
 30
0.0
 11
-149.581292
 21
-10.962311
 31
0.0
  0
LINE
  8
DETAIL
  6
CONTINUOUS
 62
     5
 10
-149.616201
 20
-10.962311
 30
0.0
 11
-149.615772
 21
-10.964738
 31
0.0
  0
LINE
  8
DETAIL
  6
CONTINUOUS
 62
     5
 10
-149.616678
 20
-10.954846
 30
0.0
 11
-149.616201
 21
-10.962311
 31
0.0
  0
LINE
  8
DETAIL
  6
CONTINUOUS
 62
     5
 10
-149.321657
 20
-6.265426
 30
0.0
 11
-149.321895
 21
-6.262005
 31
0.0
  0
LINE
  8
DETAIL
  6
CONTINUOUS
 62
     5
 10
-149.356117
 20
-6.271897
 30
0.0
 11
-149.356803
 21
-6.262005
 31
0.0
  0
LINE
  8
DETAIL
  6
CONTINUOUS
 62
     5
 10
-149.291112
 20
-9.765529
 30
0.0
 11
-149.29135
 21
-9.762107
 31
0.0
  0
LINE
  8
DETAIL
  6
CONTINUOUS
 62
     5
 10
-149.325572
 20
-9.772
 30
0.0
 11
-149.326259
 21
-9.762107
 31
0.0
  0
LINE
  8
DETAIL
  6
CONTINUOUS
 62
     5
 10
-149.345182
 20
-51.813207
 30
0.0
 11
-149.33065
 21
-51.846312
 31
0.0
  0
LINE
  8
DETAIL
  6
CONTINUOUS
 62
     5
 10
-149.353693
 20
-51.786569
 30
0.0
 11
-149.345182
 21
-51.813207
 31
0.0
  0
LINE
  8
DETAIL
  6
CONTINUOUS
 62
     5
 10
-149.358421
 20
-51.766629
 30
0.0
 11
-149.353693
 21
-51.786569
 31
0.0
  0
LINE
  8
DETAIL
  6
CONTINUOUS
 62
     5
 10
-149.361128
 20
-51.751777
 30
0.0
 11
-149.358421
 21
-51.766629
 31
0.0
  0
LINE
  8
DETAIL
  6
CONTINUOUS
 62
     5
 10
-149.362866
 20
-51.739836
 30
0.0
 11
-149.361128
 21
-51.751777
 31
0.0
  0
LINE
  8
DETAIL
  6
CONTINUOUS
 62
     5
 10
-149.364118
 20
-51.72943
 30
0.0
 11
-149.362866
 21
-51.739836
 31
0.0
  0
LINE
  8
DETAIL
  6
CONTINUOUS
 62
     5
 10
-149.365115
 20
-51.71968
 30
0.0
 11
-149.364118
 21
-51.72943
 31
0.0
  0
LINE
  8
DETAIL
  6
CONTINUOUS
 62
     5
 10
-149.365982
 20
-51.709909
 30
0.0
 11
-149.365115
 21
-51.71968
 31
0.0
  0
LINE
  8
DETAIL
  6
CONTINUOUS
 62
     5
 10
-149.369134
 20
-51.656217
 30
0.0
 11
-149.365982
 21
-51.709909
 31
0.0
  0
LINE
  8
DETAIL
  6
CONTINUOUS
 62
     5
 10
-149.825782
 20
-2.0107
 30
0.0
 11
-149.722895
 21
-2.0
 31
0.0
  0
LINE
  8
DETAIL
  6
CONTINUOUS
 62
     5
 10
-149.924331
 20
-2.04237
 30
0.0
 11
-149.825782
 21
-2.0107
 31
0.0
  0
LINE
  8
DETAIL
  6
CONTINUOUS
 62
     5
 10
-148.474141
 20
-2.010992
 30
0.0
 11
-148.369868
 21
-2.0
 31
0.0
  0
LINE
  8
DETAIL
  6
CONTINUOUS
 62
     5
 10
-148.573891
 20
-2.043512
 30
0.0
 11
-148.474141
 21
-2.010992
 31
0.0
  0
LINE
  8
DETAIL
  6
CONTINUOUS
 62
     5
 10
-149.43918
 20
-2.010993
 30
0.0
 11
-149.538916
 21
-2.043511
 31
0.0
  0
LINE
  8
DETAIL
  6
CONTINUOUS
 62
     5
 10
-149.396187
 20
-6.283596
 30
0.0
 11
-149.423588
 21
-6.296236
 31
0.0
  0
LINE
  8
DETAIL
  6
CONTINUOUS
 62
     5
 10
-149.366903
 20
-6.273557
 30
0.0
 11
-149.396187
 21
-6.283596
 31
0.0
  0
LINE
  8
DETAIL
  6
CONTINUOUS
 62
     5
 10
-149.431096
 20
-6.283596
 30
0.0
 11
-149.458497
 21
-6.296236
 31
0.0
  0
LINE
  8
DETAIL
  6
CONTINUOUS
 62
     5
 10
-149.401811
 20
-6.273557
 30
0.0
 11
-149.431096
 21
-6.283596
 31
0.0
  0
LINE
  8
DETAIL
  6
CONTINUOUS
 62
     5
 10
-149.466004
 20
-6.283596
 30
0.0
 11
-149.493405
 21
-6.296236
 31
0.0
  0
LINE
  8
DETAIL
  6
CONTINUOUS
 62
     5
 10
-149.43672
 20
-6.273557
 30
0.0
 11
-149.466004
 21
-6.283596
 31
0.0
  0
LINE
  8
DETAIL
  6
CONTINUOUS
 62
     5
 10
-149.83408
 20
-2.012514
 30
0.0
 11
-149.939852
 21
-2.049512
 31
0.0
  0
LINE
  8
DETAIL
  6
CONTINUOUS
 62
     5
 10
-148.600026
 20
-2.3924
 30
0.0
 11
-148.611724
 21
-2.504378
 31
0.0
  0
LINE
  8
DETAIL
  6
CONTINUOUS
 62
     5
 10
-148.563572
 20
-2.285879
 30
0.0
 11
-148.600026
 21
-2.3924
 31
0.0
  0
LINE
  8
DETAIL
  6
CONTINUOUS
 62
     5
 10
-148.50421
 20
-2.190214
 30
0.0
 11
-148.563572
 21
-2.285879
 31
0.0
  0
LINE
  8
DETAIL
  6
CONTINUOUS
 62
     5
 10
-148.42495
 20
-2.110256
 30
0.0
 11
-148.50421
 21
-2.190214
 31
0.0
  0
LINE
  8
DETAIL
  6
CONTINUOUS
 62
     5
 10
-148.32981
 20
-2.050059
 30
0.0
 11
-148.42495
 21
-2.110256
 31
0.0
  0
LINE
  8
DETAIL
  6
CONTINUOUS
 62
     5
 10
-148.223615
 20
-2.012676
 30
0.0
 11
-148.32981
 21
-2.050059
 31
0.0
  0
LINE
  8
DETAIL
  6
CONTINUOUS
 62
     5
 10
-142.602468
 20
-2.52152
 30
0.0
 11
-142.596538
 21
-2.635103
 31
0.0
  0
LINE
  8
DETAIL
  6
CONTINUOUS
 62
     5
 10
-142.599752
 20
-2.406799
 30
0.0
 11
-142.602468
 21
-2.52152
 31
0.0
  0
LINE
  8
DETAIL
  6
CONTINUOUS
 62
     5
 10
-142.588535
 20
-2.297011
 30
0.0
 11
-142.599752
 21
-2.406799
 31
0.0
  0
LINE
  8
DETAIL
  6
CONTINUOUS
 62
     5
 10
-142.56941
 20
-2.197965
 30
0.0
 11
-142.588535
 21
-2.297011
 31
0.0
  0
LINE
  8
DETAIL
  6
CONTINUOUS
 62
     5
 10
-142.543389
 20
-2.114902
 30
0.0
 11
-142.56941
 21
-2.197965
 31
0.0
  0
LINE
  8
DETAIL
  6
CONTINUOUS
 62
     5
 10
-142.511849
 20
-2.052218
 30
0.0
 11
-142.543389
 21
-2.114902
 31
0.0
  0
LINE
  8
DETAIL
  6
CONTINUOUS
 62
     5
 10
-142.476459
 20
-2.013229
 30
0.0
 11
-142.511849
 21
-2.052218
 31
0.0
  0
LINE
  8
DETAIL
  6
CONTINUOUS
 62
     5
 10
-142.439092
 20
-2.0
 30
0.0
 11
-142.476459
 21
-2.013229
 31
0.0
  0
LINE
  8
DETAIL
  6
CONTINUOUS
 62
     5
 10
-148.505512
 20
-2.017233
 30
0.0
 11
-148.626747
 21
-2.067777
 31
0.0
  0
LINE
  8
DETAIL
  6
CONTINUOUS
 62
     5
 10
-149.364295
 20
-9.783162
 30
0.0
 11
-149.415708
 21
-9.809502
 31
0.0
  0
LINE
  8
DETAIL
  6
CONTINUOUS
 62
     5
 10
-149.399203
 20
-9.783162
 30
0.0
 11
-149.450616
 21
-9.809502
 31
0.0
  0
LINE
  8
DETAIL
  6
CONTINUOUS
 62
     5
 10
-149.434112
 20
-9.783162
 30
0.0
 11
-149.485525
 21
-9.809502
 31
0.0
  0
LINE
  8
DETAIL
  6
CONTINUOUS
 62
     5
 10
-149.354369
 20
-52.570456
 30
0.0
 11
-149.35542
 21
-52.573166
 31
0.0
  0
LINE
  8
DETAIL
  6
CONTINUOUS
 62
     5
 10
-148.644077
 20
-48.747164
 30
0.0
 11
-149.361914
 21
-51.710553
 31
0.0
  0
LINE
  8
DETAIL
  6
CONTINUOUS
 62
     5
 10
-148.6362
 20
-49.592701
 30
0.0
 11
-149.354369
 21
-52.570456
 31
0.0
  0
LINE
  8
DETAIL
  6
CONTINUOUS
 62
     5
 10
-148.859349
 20
-2.374241
 30
0.0
 11
-148.875416
 21
-2.504378
 31
0.0
  0
LINE
  8
DETAIL
  6
CONTINUOUS
 62
     5
 10
-149.830409
 20
-2.416533
 30
0.0
 11
-149.837463
 21
-2.504378
 31
0.0
  0
LINE
  8
DETAIL
  6
CONTINUOUS
 62
     5
 10
-148.666354
 20
-2.097969
 30
0.0
 11
-148.573891
 21
-2.043512
 31
0.0
  0
LINE
  8
DETAIL
  6
CONTINUOUS
 62
     5
 10
-148.741007
 20
-2.16655
 30
0.0
 11
-148.666354
 21
-2.097969
 31
0.0
  0
LINE
  8
DETAIL
  6
CONTINUOUS
 62
     5
 10
-148.797791
 20
-2.244595
 30
0.0
 11
-148.741007
 21
-2.16655
 31
0.0
  0
LINE
  8
DETAIL
  6
CONTINUOUS
 62
     5
 10
-148.837313
 20
-2.32861
 30
0.0
 11
-148.797791
 21
-2.244595
 31
0.0
  0
LINE
  8
DETAIL
  6
CONTINUOUS
 62
     5
 10
-148.860402
 20
-2.41657
 30
0.0
 11
-148.837313
 21
-2.32861
 31
0.0
  0
LINE
  8
DETAIL
  6
CONTINUOUS
 62
     5
 10
-148.867341
 20
-2.504378
 30
0.0
 11
-148.860402
 21
-2.41657
 31
0.0
  0
LINE
  8
DETAIL
  6
CONTINUOUS
 62
     5
 10
-149.241223
 20
-10.823916
 30
0.0
 11
-149.244338
 21
-10.406498
 31
0.0
  0
LINE
  8
DETAIL
  6
CONTINUOUS
 62
     5
 10
-149.240664
 20
-11.003259
 30
0.0
 11
-149.241223
 21
-10.823916
 31
0.0
  0
LINE
  8
DETAIL
  6
CONTINUOUS
 62
     5
 10
-149.240852
 20
-11.143011
 30
0.0
 11
-149.240664
 21
-11.003259
 31
0.0
  0
LINE
  8
DETAIL
  6
CONTINUOUS
 62
     5
 10
-149.241773
 20
-11.231737
 30
0.0
 11
-149.240852
 21
-11.143011
 31
0.0
  0
LINE
  8
DETAIL
  6
CONTINUOUS
 62
     5
 10
-149.243352
 20
-11.262106
 30
0.0
 11
-149.241773
 21
-11.231737
 31
0.0
  0
LINE
  8
DETAIL
  6
CONTINUOUS
 62
     5
 10
-149.27826
 20
-11.262106
 30
0.0
 11
-149.278096
 21
-11.258947
 31
0.0
  0
LINE
  8
DETAIL
  6
CONTINUOUS
 62
     5
 10
-149.313169
 20
-11.262106
 30
0.0
 11
-149.31274
 21
-11.253859
 31
0.0
  0
LINE
  8
DETAIL
  6
CONTINUOUS
 62
     5
 10
-149.271768
 20
-7.323813
 30
0.0
 11
-149.274883
 21
-6.906395
 31
0.0
  0
LINE
  8
DETAIL
  6
CONTINUOUS
 62
     5
 10
-149.271209
 20
-7.503156
 30
0.0
 11
-149.271768
 21
-7.323813
 31
0.0
  0
LINE
  8
DETAIL
  6
CONTINUOUS
 62
     5
 10
-149.271397
 20
-7.642909
 30
0.0
 11
-149.271209
 21
-7.503156
 31
0.0
  0
LINE
  8
DETAIL
  6
CONTINUOUS
 62
     5
 10
-149.272318
 20
-7.731634
 30
0.0
 11
-149.271397
 21
-7.642909
 31
0.0
  0
LINE
  8
DETAIL
  6
CONTINUOUS
 62
     5
 10
-149.273897
 20
-7.762003
 30
0.0
 11
-149.272318
 21
-7.731634
 31
0.0
  0
LINE
  8
DETAIL
  6
CONTINUOUS
 62
     5
 10
-149.308805
 20
-7.762003
 30
0.0
 11
-149.308641
 21
-7.758845
 31
0.0
  0
LINE
  8
DETAIL
  6
CONTINUOUS
 62
     5
 10
-149.343714
 20
-7.762003
 30
0.0
 11
-149.343285
 21
-7.753756
 31
0.0
  0
LINE
  8
DETAIL
  6
CONTINUOUS
 62
     5
 10
-148.630802
 20
-49.559526
 30
0.0
 11
-148.6362
 21
-49.592701
 31
0.0
  0
LINE
  8
DETAIL
  6
CONTINUOUS
 62
     5
 10
-148.625606
 20
-49.505848
 30
0.0
 11
-148.630802
 21
-49.559526
 31
0.0
  0
LINE
  8
DETAIL
  6
CONTINUOUS
 62
     5
 10
-148.620611
 20
-49.431744
 30
0.0
 11
-148.625606
 21
-49.505848
 31
0.0
  0
LINE
  8
DETAIL
  6
CONTINUOUS
 62
     5
 10
-148.61581
 20
-49.337125
 30
0.0
 11
-148.620611
 21
-49.431744
 31
0.0
  0
LINE
  8
DETAIL
  6
CONTINUOUS
 62
     5
 10
-148.611214
 20
-49.222108
 30
0.0
 11
-148.61581
 21
-49.337125
 31
0.0
  0
LINE
  8
DETAIL
  6
CONTINUOUS
 62
     5
 10
-148.606835
 20
-49.087017
 30
0.0
 11
-148.611214
 21
-49.222108
 31
0.0
  0
LINE
  8
DETAIL
  6
CONTINUOUS
 62
     5
 10
-148.598717
 20
-48.756437
 30
0.0
 11
-148.606835
 21
-49.087017
 31
0.0
  0
LINE
  8
DETAIL
  6
CONTINUOUS
 62
     5
 10
-149.554737
 20
-10.075143
 30
0.0
 11
-149.554895
 21
-10.090522
 31
0.0
  0
LINE
  8
DETAIL
  6
CONTINUOUS
 62
     5
 10
-149.589645
 20
-10.075143
 30
0.0
 11
-149.589804
 21
-10.090522
 31
0.0
  0
LINE
  8
DETAIL
  6
CONTINUOUS
 62
     5
 10
-149.624554
 20
-10.075143
 30
0.0
 11
-149.624712
 21
-10.090522
 31
0.0
  0
LINE
  8
DETAIL
  6
CONTINUOUS
 62
     5
 10
-149.585282
 20
-6.575041
 30
0.0
 11
-149.58544
 21
-6.590419
 31
0.0
  0
LINE
  8
DETAIL
  6
CONTINUOUS
 62
     5
 10
-149.62019
 20
-6.575041
 30
0.0
 11
-149.620349
 21
-6.590419
 31
0.0
  0
LINE
  8
DETAIL
  6
CONTINUOUS
 62
     5
 10
-149.655099
 20
-6.575041
 30
0.0
 11
-149.655257
 21
-6.590419
 31
0.0
  0
LINE
  8
DETAIL
  6
CONTINUOUS
 62
     5
 10
-148.591497
 20
-48.347002
 30
0.0
 11
-148.598717
 21
-48.756437
 31
0.0
  0
LINE
  8
DETAIL
  6
CONTINUOUS
 62
     5
 10
-148.582404
 20
-47.588269
 30
0.0
 11
-148.591497
 21
-48.347002
 31
0.0
  0
LINE
  8
DETAIL
  6
CONTINUOUS
 62
     5
 10
-149.554894
 20
-10.084026
 30
0.0
 11
-149.555178
 21
-10.115407
 31
0.0
  0
LINE
  8
DETAIL
  6
CONTINUOUS
 62
     5
 10
-149.589803
 20
-10.084026
 30
0.0
 11
-149.590087
 21
-10.115407
 31
0.0
  0
LINE
  8
DETAIL
  6
CONTINUOUS
 62
     5
 10
-149.624711
 20
-10.084026
 30
0.0
 11
-149.624995
 21
-10.115407
 31
0.0
  0
LINE
  8
DETAIL
  6
CONTINUOUS
 62
     5
 10
-149.585439
 20
-6.583924
 30
0.0
 11
-149.585723
 21
-6.615304
 31
0.0
  0
LINE
  8
DETAIL
  6
CONTINUOUS
 62
     5
 10
-149.620348
 20
-6.583924
 30
0.0
 11
-149.620632
 21
-6.615304
 31
0.0
  0
LINE
  8
DETAIL
  6
CONTINUOUS
 62
     5
 10
-149.655256
 20
-6.583924
 30
0.0
 11
-149.65554
 21
-6.615304
 31
0.0
  0
LINE
  8
DETAIL
  6
CONTINUOUS
 62
     5
 10
-149.555147
 20
-10.105154
 30
0.0
 11
-149.555327
 21
-10.13176
 31
0.0
  0
LINE
  8
DETAIL
  6
CONTINUOUS
 62
     5
 10
-149.590055
 20
-10.105154
 30
0.0
 11
-149.590236
 21
-10.13176
 31
0.0
  0
LINE
  8
DETAIL
  6
CONTINUOUS
 62
     5
 10
-149.585691
 20
-6.605051
 30
0.0
 11
-149.585872
 21
-6.631657
 31
0.0
  0
LINE
  8
DETAIL
  6
CONTINUOUS
 62
     5
 10
-149.624964
 20
-10.105154
 30
0.0
 11
-149.625144
 21
-10.13176
 31
0.0
  0
LINE
  8
DETAIL
  6
CONTINUOUS
 62
     5
 10
-149.6206
 20
-6.605051
 30
0.0
 11
-149.620781
 21
-6.631657
 31
0.0
  0
LINE
  8
DETAIL
  6
CONTINUOUS
 62
     5
 10
-149.655508
 20
-6.605051
 30
0.0
 11
-149.655689
 21
-6.631657
 31
0.0
  0
LINE
  8
DETAIL
  6
CONTINUOUS
 62
     5
 10
-149.555178
 20
-10.115407
 30
0.0
 11
-149.555434
 21
-10.206764
 31
0.0
  0
LINE
  8
DETAIL
  6
CONTINUOUS
 62
     5
 10
-149.590087
 20
-10.115407
 30
0.0
 11
-149.590342
 21
-10.206764
 31
0.0
  0
LINE
  8
DETAIL
  6
CONTINUOUS
 62
     5
 10
-149.585723
 20
-6.615304
 30
0.0
 11
-149.585979
 21
-6.706661
 31
0.0
  0
LINE
  8
DETAIL
  6
CONTINUOUS
 62
     5
 10
-149.624995
 20
-10.115407
 30
0.0
 11
-149.625251
 21
-10.206764
 31
0.0
  0
LINE
  8
DETAIL
  6
CONTINUOUS
 62
     5
 10
-149.620632
 20
-6.615304
 30
0.0
 11
-149.620887
 21
-6.706661
 31
0.0
  0
LINE
  8
DETAIL
  6
CONTINUOUS
 62
     5
 10
-149.65554
 20
-6.615304
 30
0.0
 11
-149.655796
 21
-6.706661
 31
0.0
  0
LINE
  8
DETAIL
  6
CONTINUOUS
 62
     5
 10
-149.555456
 20
-10.183622
 30
0.0
 11
-149.555191
 21
-10.307663
 31
0.0
  0
LINE
  8
DETAIL
  6
CONTINUOUS
 62
     5
 10
-149.586001
 20
-6.68352
 30
0.0
 11
-149.585736
 21
-6.807561
 31
0.0
  0
LINE
  8
DETAIL
  6
CONTINUOUS
 62
     5
 10
-149.590365
 20
-10.183622
 30
0.0
 11
-149.590099
 21
-10.307663
 31
0.0
  0
LINE
  8
DETAIL
  6
CONTINUOUS
 62
     5
 10
-149.62091
 20
-6.68352
 30
0.0
 11
-149.620644
 21
-6.807561
 31
0.0
  0
LINE
  8
DETAIL
  6
CONTINUOUS
 62
     5
 10
-149.625273
 20
-10.183622
 30
0.0
 11
-149.625008
 21
-10.307663
 31
0.0
  0
LINE
  8
DETAIL
  6
CONTINUOUS
 62
     5
 10
-149.655796
 20
-6.706661
 30
0.0
 11
-149.6552
 21
-6.874352
 31
0.0
  0
LINE
  8
DETAIL
  6
CONTINUOUS
 62
     5
 10
-149.39484
 20
-6.283059
 30
0.0
 11
-149.446253
 21
-6.309399
 31
0.0
  0
LINE
  8
DETAIL
  6
CONTINUOUS
 62
     5
 10
-149.429748
 20
-6.283059
 30
0.0
 11
-149.481161
 21
-6.309399
 31
0.0
  0
LINE
  8
DETAIL
  6
CONTINUOUS
 62
     5
 10
-149.464657
 20
-6.283059
 30
0.0
 11
-149.51607
 21
-6.309399
 31
0.0
  0
LINE
  8
DETAIL
  6
CONTINUOUS
 62
     5
 10
-150.211536
 20
-2.403677
 30
0.0
 11
-150.220234
 21
-2.500864
 31
0.0
  0
LINE
  8
DETAIL
  6
CONTINUOUS
 62
     5
 10
-150.185951
 20
-2.314839
 30
0.0
 11
-150.211536
 21
-2.403677
 31
0.0
  0
LINE
  8
DETAIL
  6
CONTINUOUS
 62
     5
 10
-150.147462
 20
-2.237359
 30
0.0
 11
-150.185951
 21
-2.314839
 31
0.0
  0
LINE
  8
DETAIL
  6
CONTINUOUS
 62
     5
 10
-150.09913
 20
-2.171262
 30
0.0
 11
-150.147462
 21
-2.237359
 31
0.0
  0
LINE
  8
DETAIL
  6
CONTINUOUS
 62
     5
 10
-150.043768
 20
-2.116726
 30
0.0
 11
-150.09913
 21
-2.171262
 31
0.0
  0
LINE
  8
DETAIL
  6
CONTINUOUS
 62
     5
 10
-149.984495
 20
-2.073927
 30
0.0
 11
-150.043768
 21
-2.116726
 31
0.0
  0
LINE
  8
DETAIL
  6
CONTINUOUS
 62
     5
 10
-149.924331
 20
-2.04237
 30
0.0
 11
-149.984495
 21
-2.073927
 31
0.0
  0
LINE
  8
DETAIL
  6
CONTINUOUS
 62
     5
 10
-149.538916
 20
-2.043511
 30
0.0
 11
-149.632824
 21
-2.097841
 31
0.0
  0
LINE
  8
DETAIL
  6
CONTINUOUS
 62
     5
 10
-149.462361
 20
-9.846399
 30
0.0
 11
-149.480897
 21
-9.866002
 31
0.0
  0
LINE
  8
DETAIL
  6
CONTINUOUS
 62
     5
 10
-149.441509
 20
-9.828032
 30
0.0
 11
-149.462361
 21
-9.846399
 31
0.0
  0
LINE
  8
DETAIL
  6
CONTINUOUS
 62
     5
 10
-149.418376
 20
-9.811232
 30
0.0
 11
-149.441509
 21
-9.828032
 31
0.0
  0
LINE
  8
DETAIL
  6
CONTINUOUS
 62
     5
 10
-149.393043
 20
-9.796338
 30
0.0
 11
-149.418376
 21
-9.811232
 31
0.0
  0
LINE
  8
DETAIL
  6
CONTINUOUS
 62
     5
 10
-149.453284
 20
-9.811232
 30
0.0
 11
-149.476417
 21
-9.828032
 31
0.0
  0
LINE
  8
DETAIL
  6
CONTINUOUS
 62
     5
 10
-149.427952
 20
-9.796338
 30
0.0
 11
-149.453284
 21
-9.811232
 31
0.0
  0
LINE
  8
DETAIL
  6
CONTINUOUS
 62
     5
 10
-149.488193
 20
-9.811232
 30
0.0
 11
-149.511326
 21
-9.828032
 31
0.0
  0
LINE
  8
DETAIL
  6
CONTINUOUS
 62
     5
 10
-149.46286
 20
-9.796338
 30
0.0
 11
-149.488193
 21
-9.811232
 31
0.0
  0
LINE
  8
DETAIL
  6
CONTINUOUS
 62
     5
 10
-149.492906
 20
-6.346296
 30
0.0
 11
-149.511442
 21
-6.365899
 31
0.0
  0
LINE
  8
DETAIL
  6
CONTINUOUS
 62
     5
 10
-149.472054
 20
-6.32793
 30
0.0
 11
-149.492906
 21
-6.346296
 31
0.0
  0
LINE
  8
DETAIL
  6
CONTINUOUS
 62
     5
 10
-149.448921
 20
-6.311129
 30
0.0
 11
-149.472054
 21
-6.32793
 31
0.0
  0
LINE
  8
DETAIL
  6
CONTINUOUS
 62
     5
 10
-149.423588
 20
-6.296236
 30
0.0
 11
-149.448921
 21
-6.311129
 31
0.0
  0
LINE
  8
DETAIL
  6
CONTINUOUS
 62
     5
 10
-149.483829
 20
-6.311129
 30
0.0
 11
-149.506962
 21
-6.32793
 31
0.0
  0
LINE
  8
DETAIL
  6
CONTINUOUS
 62
     5
 10
-149.458497
 20
-6.296236
 30
0.0
 11
-149.483829
 21
-6.311129
 31
0.0
  0
LINE
  8
DETAIL
  6
CONTINUOUS
 62
     5
 10
-149.518738
 20
-6.311129
 30
0.0
 11
-149.541871
 21
-6.32793
 31
0.0
  0
LINE
  8
DETAIL
  6
CONTINUOUS
 62
     5
 10
-149.493405
 20
-6.296236
 30
0.0
 11
-149.518738
 21
-6.311129
 31
0.0
  0
LINE
  8
DETAIL
  6
CONTINUOUS
 62
     5
 10
-149.939852
 20
-2.049512
 30
0.0
 11
-150.02445
 21
-2.102776
 31
0.0
  0
LINE
  8
DETAIL
  6
CONTINUOUS
 62
     5
 10
-149.54439
 20
-10.876501
 30
0.0
 11
-149.544485
 21
-10.74892
 31
0.0
  0
LINE
  8
DETAIL
  6
CONTINUOUS
 62
     5
 10
-149.544587
 20
-10.914042
 30
0.0
 11
-149.54439
 21
-10.876501
 31
0.0
  0
LINE
  8
DETAIL
  6
CONTINUOUS
 62
     5
 10
-149.54487
 20
-10.938927
 30
0.0
 11
-149.544587
 21
-10.914042
 31
0.0
  0
LINE
  8
DETAIL
  6
CONTINUOUS
 62
     5
 10
-149.545194
 20
-10.953933
 30
0.0
 11
-149.54487
 21
-10.938927
 31
0.0
  0
LINE
  8
DETAIL
  6
CONTINUOUS
 62
     5
 10
-149.54556
 20
-10.962184
 30
0.0
 11
-149.545194
 21
-10.953933
 31
0.0
  0
LINE
  8
DETAIL
  6
CONTINUOUS
 62
     5
 10
-149.545955
 20
-10.964738
 30
0.0
 11
-149.54556
 21
-10.962184
 31
0.0
  0
LINE
  8
DETAIL
  6
CONTINUOUS
 62
     5
 10
-149.579298
 20
-10.876501
 30
0.0
 11
-149.579394
 21
-10.74892
 31
0.0
  0
LINE
  8
DETAIL
  6
CONTINUOUS
 62
     5
 10
-149.579495
 20
-10.914042
 30
0.0
 11
-149.579298
 21
-10.876501
 31
0.0
  0
LINE
  8
DETAIL
  6
CONTINUOUS
 62
     5
 10
-149.579778
 20
-10.938927
 30
0.0
 11
-149.579495
 21
-10.914042
 31
0.0
  0
LINE
  8
DETAIL
  6
CONTINUOUS
 62
     5
 10
-149.580103
 20
-10.953933
 30
0.0
 11
-149.579778
 21
-10.938927
 31
0.0
  0
LINE
  8
DETAIL
  6
CONTINUOUS
 62
     5
 10
-149.580468
 20
-10.962184
 30
0.0
 11
-149.580103
 21
-10.953933
 31
0.0
  0
LINE
  8
DETAIL
  6
CONTINUOUS
 62
     5
 10
-149.580864
 20
-10.964738
 30
0.0
 11
-149.580468
 21
-10.962184
 31
0.0
  0
LINE
  8
DETAIL
  6
CONTINUOUS
 62
     5
 10
-149.614207
 20
-10.876501
 30
0.0
 11
-149.614302
 21
-10.74892
 31
0.0
  0
LINE
  8
DETAIL
  6
CONTINUOUS
 62
     5
 10
-149.614404
 20
-10.914042
 30
0.0
 11
-149.614207
 21
-10.876501
 31
0.0
  0
LINE
  8
DETAIL
  6
CONTINUOUS
 62
     5
 10
-149.614687
 20
-10.938927
 30
0.0
 11
-149.614404
 21
-10.914042
 31
0.0
  0
LINE
  8
DETAIL
  6
CONTINUOUS
 62
     5
 10
-149.615011
 20
-10.953933
 30
0.0
 11
-149.614687
 21
-10.938927
 31
0.0
  0
LINE
  8
DETAIL
  6
CONTINUOUS
 62
     5
 10
-149.615377
 20
-10.962184
 30
0.0
 11
-149.615011
 21
-10.953933
 31
0.0
  0
LINE
  8
DETAIL
  6
CONTINUOUS
 62
     5
 10
-149.615772
 20
-10.964738
 30
0.0
 11
-149.615377
 21
-10.962184
 31
0.0
  0
LINE
  8
DETAIL
  6
CONTINUOUS
 62
     5
 10
-149.554205
 20
-10.067265
 30
0.0
 11
-149.554571
 21
-10.075515
 31
0.0
  0
LINE
  8
DETAIL
  6
CONTINUOUS
 62
     5
 10
-149.55381
 20
-10.064711
 30
0.0
 11
-149.554205
 21
-10.067265
 31
0.0
  0
LINE
  8
DETAIL
  6
CONTINUOUS
 62
     5
 10
-149.589114
 20
-10.067265
 30
0.0
 11
-149.589479
 21
-10.075515
 31
0.0
  0
LINE
  8
DETAIL
  6
CONTINUOUS
 62
     5
 10
-149.588718
 20
-10.064711
 30
0.0
 11
-149.589114
 21
-10.067265
 31
0.0
  0
LINE
  8
DETAIL
  6
CONTINUOUS
 62
     5
 10
-149.624022
 20
-10.067265
 30
0.0
 11
-149.624388
 21
-10.075515
 31
0.0
  0
LINE
  8
DETAIL
  6
CONTINUOUS
 62
     5
 10
-149.623627
 20
-10.064711
 30
0.0
 11
-149.624022
 21
-10.067265
 31
0.0
  0
LINE
  8
DETAIL
  6
CONTINUOUS
 62
     5
 10
-149.574935
 20
-7.376398
 30
0.0
 11
-149.57503
 21
-7.248817
 31
0.0
  0
LINE
  8
DETAIL
  6
CONTINUOUS
 62
     5
 10
-149.575132
 20
-7.413939
 30
0.0
 11
-149.574935
 21
-7.376398
 31
0.0
  0
LINE
  8
DETAIL
  6
CONTINUOUS
 62
     5
 10
-149.575415
 20
-7.438824
 30
0.0
 11
-149.575132
 21
-7.413939
 31
0.0
  0
LINE
  8
DETAIL
  6
CONTINUOUS
 62
     5
 10
-149.575739
 20
-7.453831
 30
0.0
 11
-149.575415
 21
-7.438824
 31
0.0
  0
LINE
  8
DETAIL
  6
CONTINUOUS
 62
     5
 10
-149.576105
 20
-7.462081
 30
0.0
 11
-149.575739
 21
-7.453831
 31
0.0
  0
LINE
  8
DETAIL
  6
CONTINUOUS
 62
     5
 10
-149.5765
 20
-7.464635
 30
0.0
 11
-149.576105
 21
-7.462081
 31
0.0
  0
LINE
  8
DETAIL
  6
CONTINUOUS
 62
     5
 10
-149.609843
 20
-7.376398
 30
0.0
 11
-149.609939
 21
-7.248817
 31
0.0
  0
LINE
  8
DETAIL
  6
CONTINUOUS
 62
     5
 10
-149.61004
 20
-7.413939
 30
0.0
 11
-149.609843
 21
-7.376398
 31
0.0
  0
LINE
  8
DETAIL
  6
CONTINUOUS
 62
     5
 10
-149.610323
 20
-7.438824
 30
0.0
 11
-149.61004
 21
-7.413939
 31
0.0
  0
LINE
  8
DETAIL
  6
CONTINUOUS
 62
     5
 10
-149.610648
 20
-7.453831
 30
0.0
 11
-149.610323
 21
-7.438824
 31
0.0
  0
LINE
  8
DETAIL
  6
CONTINUOUS
 62
     5
 10
-149.611013
 20
-7.462081
 30
0.0
 11
-149.610648
 21
-7.453831
 31
0.0
  0
LINE
  8
DETAIL
  6
CONTINUOUS
 62
     5
 10
-149.611409
 20
-7.464635
 30
0.0
 11
-149.611013
 21
-7.462081
 31
0.0
  0
LINE
  8
DETAIL
  6
CONTINUOUS
 62
     5
 10
-149.644752
 20
-7.376398
 30
0.0
 11
-149.644847
 21
-7.248817
 31
0.0
  0
LINE
  8
DETAIL
  6
CONTINUOUS
 62
     5
 10
-149.644949
 20
-7.413939
 30
0.0
 11
-149.644752
 21
-7.376398
 31
0.0
  0
LINE
  8
DETAIL
  6
CONTINUOUS
 62
     5
 10
-149.645232
 20
-7.438824
 30
0.0
 11
-149.644949
 21
-7.413939
 31
0.0
  0
LINE
  8
DETAIL
  6
CONTINUOUS
 62
     5
 10
-149.645556
 20
-7.453831
 30
0.0
 11
-149.645232
 21
-7.438824
 31
0.0
  0
LINE
  8
DETAIL
  6
CONTINUOUS
 62
     5
 10
-149.645922
 20
-7.462081
 30
0.0
 11
-149.645556
 21
-7.453831
 31
0.0
  0
LINE
  8
DETAIL
  6
CONTINUOUS
 62
     5
 10
-149.646317
 20
-7.464635
 30
0.0
 11
-149.645922
 21
-7.462081
 31
0.0
  0
LINE
  8
DETAIL
  6
CONTINUOUS
 62
     5
 10
-149.58475
 20
-6.567162
 30
0.0
 11
-149.585116
 21
-6.575413
 31
0.0
  0
LINE
  8
DETAIL
  6
CONTINUOUS
 62
     5
 10
-149.584355
 20
-6.564608
 30
0.0
 11
-149.58475
 21
-6.567162
 31
0.0
  0
LINE
  8
DETAIL
  6
CONTINUOUS
 62
     5
 10
-149.619659
 20
-6.567162
 30
0.0
 11
-149.620024
 21
-6.575413
 31
0.0
  0
LINE
  8
DETAIL
  6
CONTINUOUS
 62
     5
 10
-149.619263
 20
-6.564608
 30
0.0
 11
-149.619659
 21
-6.567162
 31
0.0
  0
LINE
  8
DETAIL
  6
CONTINUOUS
 62
     5
 10
-149.654567
 20
-6.567162
 30
0.0
 11
-149.654933
 21
-6.575413
 31
0.0
  0
LINE
  8
DETAIL
  6
CONTINUOUS
 62
     5
 10
-149.654172
 20
-6.564608
 30
0.0
 11
-149.654567
 21
-6.567162
 31
0.0
  0
LINE
  8
DETAIL
  6
CONTINUOUS
 62
     5
 10
-149.580756
 20
-2.067775
 30
0.0
 11
-149.459543
 21
-2.017233
 31
0.0
  0
LINE
  8
DETAIL
  6
CONTINUOUS
 62
     5
 10
-149.684562
 20
-2.148076
 30
0.0
 11
-149.580756
 21
-2.067775
 31
0.0
  0
LINE
  8
DETAIL
  6
CONTINUOUS
 62
     5
 10
-149.763929
 20
-2.252685
 30
0.0
 11
-149.684562
 21
-2.148076
 31
0.0
  0
LINE
  8
DETAIL
  6
CONTINUOUS
 62
     5
 10
-149.813294
 20
-2.374236
 30
0.0
 11
-149.763929
 21
-2.252685
 31
0.0
  0
LINE
  8
DETAIL
  6
CONTINUOUS
 62
     5
 10
-149.829344
 20
-2.504378
 30
0.0
 11
-149.813294
 21
-2.374236
 31
0.0
  0
LINE
  8
DETAIL
  6
CONTINUOUS
 62
     5
 10
-150.741278
 20
-2.012515
 30
0.0
 11
-150.630103
 21
-2.0
 31
0.0
  0
LINE
  8
DETAIL
  6
CONTINUOUS
 62
     5
 10
-150.847061
 20
-2.049518
 30
0.0
 11
-150.741278
 21
-2.012515
 31
0.0
  0
LINE
  8
DETAIL
  6
CONTINUOUS
 62
     5
 10
-150.942586
 20
-2.109661
 30
0.0
 11
-150.847061
 21
-2.049518
 31
0.0
  0
LINE
  8
DETAIL
  6
CONTINUOUS
 62
     5
 10
-151.023129
 20
-2.190892
 30
0.0
 11
-150.942586
 21
-2.109661
 31
0.0
  0
LINE
  8
DETAIL
  6
CONTINUOUS
 62
     5
 10
-151.082409
 20
-2.286827
 30
0.0
 11
-151.023129
 21
-2.190892
 31
0.0
  0
LINE
  8
DETAIL
  6
CONTINUOUS
 62
     5
 10
-151.118537
 20
-2.392941
 30
0.0
 11
-151.082409
 21
-2.286827
 31
0.0
  0
LINE
  8
DETAIL
  6
CONTINUOUS
 62
     5
 10
-151.130117
 20
-2.504378
 30
0.0
 11
-151.118537
 21
-2.392941
 31
0.0
  0
LINE
  8
DETAIL
  6
CONTINUOUS
 62
     5
 10
-148.626747
 20
-2.067777
 30
0.0
 11
-148.730576
 21
-2.14808
 31
0.0
  0
LINE
  8
DETAIL
  6
CONTINUOUS
 62
     5
 10
-149.49727
 20
-9.846399
 30
0.0
 11
-149.515806
 21
-9.866002
 31
0.0
  0
LINE
  8
DETAIL
  6
CONTINUOUS
 62
     5
 10
-149.476417
 20
-9.828032
 30
0.0
 11
-149.49727
 21
-9.846399
 31
0.0
  0
LINE
  8
DETAIL
  6
CONTINUOUS
 62
     5
 10
-149.532178
 20
-9.846399
 30
0.0
 11
-149.550714
 21
-9.866002
 31
0.0
  0
LINE
  8
DETAIL
  6
CONTINUOUS
 62
     5
 10
-149.511326
 20
-9.828032
 30
0.0
 11
-149.532178
 21
-9.846399
 31
0.0
  0
LINE
  8
DETAIL
  6
CONTINUOUS
 62
     5
 10
-149.527815
 20
-6.346296
 30
0.0
 11
-149.546351
 21
-6.365899
 31
0.0
  0
LINE
  8
DETAIL
  6
CONTINUOUS
 62
     5
 10
-149.506962
 20
-6.32793
 30
0.0
 11
-149.527815
 21
-6.346296
 31
0.0
  0
LINE
  8
DETAIL
  6
CONTINUOUS
 62
     5
 10
-149.562723
 20
-6.346296
 30
0.0
 11
-149.581259
 21
-6.365899
 31
0.0
  0
LINE
  8
DETAIL
  6
CONTINUOUS
 62
     5
 10
-149.541871
 20
-6.32793
 30
0.0
 11
-149.562723
 21
-6.346296
 31
0.0
  0
LINE
  8
DETAIL
  6
CONTINUOUS
 62
     5
 10
-149.80689
 20
-2.32849
 30
0.0
 11
-149.830409
 21
-2.416533
 31
0.0
  0
LINE
  8
DETAIL
  6
CONTINUOUS
 62
     5
 10
-149.766612
 20
-2.244403
 30
0.0
 11
-149.80689
 21
-2.32849
 31
0.0
  0
LINE
  8
DETAIL
  6
CONTINUOUS
 62
     5
 10
-149.708771
 20
-2.166345
 30
0.0
 11
-149.766612
 21
-2.244403
 31
0.0
  0
LINE
  8
DETAIL
  6
CONTINUOUS
 62
     5
 10
-149.632824
 20
-2.097841
 30
0.0
 11
-149.708771
 21
-2.166345
 31
0.0
  0
LINE
  8
DETAIL
  6
CONTINUOUS
 62
     5
 10
-149.554547
 20
-10.06698
 30
0.0
 11
-149.554737
 21
-10.075143
 31
0.0
  0
LINE
  8
DETAIL
  6
CONTINUOUS
 62
     5
 10
-149.554304
 20
-10.059239
 30
0.0
 11
-149.554547
 21
-10.06698
 31
0.0
  0
LINE
  8
DETAIL
  6
CONTINUOUS
 62
     5
 10
-149.55396
 20
-10.051354
 30
0.0
 11
-149.554304
 21
-10.059239
 31
0.0
  0
LINE
  8
DETAIL
  6
CONTINUOUS
 62
     5
 10
-149.553372
 20
-10.041997
 30
0.0
 11
-149.55396
 21
-10.051354
 31
0.0
  0
LINE
  8
DETAIL
  6
CONTINUOUS
 62
     5
 10
-149.552167
 20
-10.029217
 30
0.0
 11
-149.553372
 21
-10.041997
 31
0.0
  0
LINE
  8
DETAIL
  6
CONTINUOUS
 62
     5
 10
-149.549829
 20
-10.012663
 30
0.0
 11
-149.552167
 21
-10.029217
 31
0.0
  0
LINE
  8
DETAIL
  6
CONTINUOUS
 62
     5
 10
-149.54595
 20
-9.993476
 30
0.0
 11
-149.549829
 21
-10.012663
 31
0.0
  0
LINE
  8
DETAIL
  6
CONTINUOUS
 62
     5
 10
-149.5403
 20
-9.972835
 30
0.0
 11
-149.54595
 21
-9.993476
 31
0.0
  0
LINE
  8
DETAIL
  6
CONTINUOUS
 62
     5
 10
-149.532646
 20
-9.951247
 30
0.0
 11
-149.5403
 21
-9.972835
 31
0.0
  0
LINE
  8
DETAIL
  6
CONTINUOUS
 62
     5
 10
-149.522911
 20
-9.92937
 30
0.0
 11
-149.532646
 21
-9.951247
 31
0.0
  0
LINE
  8
DETAIL
  6
CONTINUOUS
 62
     5
 10
-149.51111
 20
-9.907745
 30
0.0
 11
-149.522911
 21
-9.92937
 31
0.0
  0
LINE
  8
DETAIL
  6
CONTINUOUS
 62
     5
 10
-149.49713
 20
-9.886541
 30
0.0
 11
-149.51111
 21
-9.907745
 31
0.0
  0
LINE
  8
DETAIL
  6
CONTINUOUS
 62
     5
 10
-149.480897
 20
-9.866002
 30
0.0
 11
-149.49713
 21
-9.886541
 31
0.0
  0
LINE
  8
DETAIL
  6
CONTINUOUS
 62
     5
 10
-149.589455
 20
-10.06698
 30
0.0
 11
-149.589645
 21
-10.075143
 31
0.0
  0
LINE
  8
DETAIL
  6
CONTINUOUS
 62
     5
 10
-149.589212
 20
-10.059239
 30
0.0
 11
-149.589455
 21
-10.06698
 31
0.0
  0
LINE
  8
DETAIL
  6
CONTINUOUS
 62
     5
 10
-149.588869
 20
-10.051354
 30
0.0
 11
-149.589212
 21
-10.059239
 31
0.0
  0
LINE
  8
DETAIL
  6
CONTINUOUS
 62
     5
 10
-149.588281
 20
-10.041997
 30
0.0
 11
-149.588869
 21
-10.051354
 31
0.0
  0
LINE
  8
DETAIL
  6
CONTINUOUS
 62
     5
 10
-149.587076
 20
-10.029217
 30
0.0
 11
-149.588281
 21
-10.041997
 31
0.0
  0
LINE
  8
DETAIL
  6
CONTINUOUS
 62
     5
 10
-149.584738
 20
-10.012663
 30
0.0
 11
-149.587076
 21
-10.029217
 31
0.0
  0
LINE
  8
DETAIL
  6
CONTINUOUS
 62
     5
 10
-149.580859
 20
-9.993476
 30
0.0
 11
-149.584738
 21
-10.012663
 31
0.0
  0
LINE
  8
DETAIL
  6
CONTINUOUS
 62
     5
 10
-149.575209
 20
-9.972835
 30
0.0
 11
-149.580859
 21
-9.993476
 31
0.0
  0
LINE
  8
DETAIL
  6
CONTINUOUS
 62
     5
 10
-149.567554
 20
-9.951247
 30
0.0
 11
-149.575209
 21
-9.972835
 31
0.0
  0
LINE
  8
DETAIL
  6
CONTINUOUS
 62
     5
 10
-149.55782
 20
-9.92937
 30
0.0
 11
-149.567554
 21
-9.951247
 31
0.0
  0
LINE
  8
DETAIL
  6
CONTINUOUS
 62
     5
 10
-149.546019
 20
-9.907745
 30
0.0
 11
-149.55782
 21
-9.92937
 31
0.0
  0
LINE
  8
DETAIL
  6
CONTINUOUS
 62
     5
 10
-149.532039
 20
-9.886541
 30
0.0
 11
-149.546019
 21
-9.907745
 31
0.0
  0
LINE
  8
DETAIL
  6
CONTINUOUS
 62
     5
 10
-149.515806
 20
-9.866002
 30
0.0
 11
-149.532039
 21
-9.886541
 31
0.0
  0
LINE
  8
DETAIL
  6
CONTINUOUS
 62
     5
 10
-149.624364
 20
-10.06698
 30
0.0
 11
-149.624554
 21
-10.075143
 31
0.0
  0
LINE
  8
DETAIL
  6
CONTINUOUS
 62
     5
 10
-149.624121
 20
-10.059239
 30
0.0
 11
-149.624364
 21
-10.06698
 31
0.0
  0
LINE
  8
DETAIL
  6
CONTINUOUS
 62
     5
 10
-149.623777
 20
-10.051354
 30
0.0
 11
-149.624121
 21
-10.059239
 31
0.0
  0
LINE
  8
DETAIL
  6
CONTINUOUS
 62
     5
 10
-149.623189
 20
-10.041997
 30
0.0
 11
-149.623777
 21
-10.051354
 31
0.0
  0
LINE
  8
DETAIL
  6
CONTINUOUS
 62
     5
 10
-149.621984
 20
-10.029217
 30
0.0
 11
-149.623189
 21
-10.041997
 31
0.0
  0
LINE
  8
DETAIL
  6
CONTINUOUS
 62
     5
 10
-149.619646
 20
-10.012663
 30
0.0
 11
-149.621984
 21
-10.029217
 31
0.0
  0
LINE
  8
DETAIL
  6
CONTINUOUS
 62
     5
 10
-149.615767
 20
-9.993476
 30
0.0
 11
-149.619646
 21
-10.012663
 31
0.0
  0
LINE
  8
DETAIL
  6
CONTINUOUS
 62
     5
 10
-149.610117
 20
-9.972835
 30
0.0
 11
-149.615767
 21
-9.993476
 31
0.0
  0
LINE
  8
DETAIL
  6
CONTINUOUS
 62
     5
 10
-149.602463
 20
-9.951247
 30
0.0
 11
-149.610117
 21
-9.972835
 31
0.0
  0
LINE
  8
DETAIL
  6
CONTINUOUS
 62
     5
 10
-149.592728
 20
-9.92937
 30
0.0
 11
-149.602463
 21
-9.951247
 31
0.0
  0
LINE
  8
DETAIL
  6
CONTINUOUS
 62
     5
 10
-149.580927
 20
-9.907745
 30
0.0
 11
-149.592728
 21
-9.92937
 31
0.0
  0
LINE
  8
DETAIL
  6
CONTINUOUS
 62
     5
 10
-149.566947
 20
-9.886541
 30
0.0
 11
-149.580927
 21
-9.907745
 31
0.0
  0
LINE
  8
DETAIL
  6
CONTINUOUS
 62
     5
 10
-149.550714
 20
-9.866002
 30
0.0
 11
-149.566947
 21
-9.886541
 31
0.0
  0
LINE
  8
DETAIL
  6
CONTINUOUS
 62
     5
 10
-149.585091
 20
-6.566877
 30
0.0
 11
-149.585282
 21
-6.575041
 31
0.0
  0
LINE
  8
DETAIL
  6
CONTINUOUS
 62
     5
 10
-149.584849
 20
-6.559137
 30
0.0
 11
-149.585091
 21
-6.566877
 31
0.0
  0
LINE
  8
DETAIL
  6
CONTINUOUS
 62
     5
 10
-149.584505
 20
-6.551251
 30
0.0
 11
-149.584849
 21
-6.559137
 31
0.0
  0
LINE
  8
DETAIL
  6
CONTINUOUS
 62
     5
 10
-149.583917
 20
-6.541894
 30
0.0
 11
-149.584505
 21
-6.551251
 31
0.0
  0
LINE
  8
DETAIL
  6
CONTINUOUS
 62
     5
 10
-149.582712
 20
-6.529114
 30
0.0
 11
-149.583917
 21
-6.541894
 31
0.0
  0
LINE
  8
DETAIL
  6
CONTINUOUS
 62
     5
 10
-149.580374
 20
-6.51256
 30
0.0
 11
-149.582712
 21
-6.529114
 31
0.0
  0
LINE
  8
DETAIL
  6
CONTINUOUS
 62
     5
 10
-149.576495
 20
-6.493373
 30
0.0
 11
-149.580374
 21
-6.51256
 31
0.0
  0
LINE
  8
DETAIL
  6
CONTINUOUS
 62
     5
 10
-149.570845
 20
-6.472732
 30
0.0
 11
-149.576495
 21
-6.493373
 31
0.0
  0
LINE
  8
DETAIL
  6
CONTINUOUS
 62
     5
 10
-149.563191
 20
-6.451144
 30
0.0
 11
-149.570845
 21
-6.472732
 31
0.0
  0
LINE
  8
DETAIL
  6
CONTINUOUS
 62
     5
 10
-149.553456
 20
-6.429267
 30
0.0
 11
-149.563191
 21
-6.451144
 31
0.0
  0
LINE
  8
DETAIL
  6
CONTINUOUS
 62
     5
 10
-149.541655
 20
-6.407642
 30
0.0
 11
-149.553456
 21
-6.429267
 31
0.0
  0
LINE
  8
DETAIL
  6
CONTINUOUS
 62
     5
 10
-149.527675
 20
-6.386438
 30
0.0
 11
-149.541655
 21
-6.407642
 31
0.0
  0
LINE
  8
DETAIL
  6
CONTINUOUS
 62
     5
 10
-149.511442
 20
-6.365899
 30
0.0
 11
-149.527675
 21
-6.386438
 31
0.0
  0
LINE
  8
DETAIL
  6
CONTINUOUS
 62
     5
 10
-149.62
 20
-6.566877
 30
0.0
 11
-149.62019
 21
-6.575041
 31
0.0
  0
LINE
  8
DETAIL
  6
CONTINUOUS
 62
     5
 10
-149.619757
 20
-6.559137
 30
0.0
 11
-149.62
 21
-6.566877
 31
0.0
  0
LINE
  8
DETAIL
  6
CONTINUOUS
 62
     5
 10
-149.619414
 20
-6.551251
 30
0.0
 11
-149.619757
 21
-6.559137
 31
0.0
  0
LINE
  8
DETAIL
  6
CONTINUOUS
 62
     5
 10
-149.618825
 20
-6.541894
 30
0.0
 11
-149.619414
 21
-6.551251
 31
0.0
  0
LINE
  8
DETAIL
  6
CONTINUOUS
 62
     5
 10
-149.617621
 20
-6.529114
 30
0.0
 11
-149.618825
 21
-6.541894
 31
0.0
  0
LINE
  8
DETAIL
  6
CONTINUOUS
 62
     5
 10
-149.615283
 20
-6.51256
 30
0.0
 11
-149.617621
 21
-6.529114
 31
0.0
  0
LINE
  8
DETAIL
  6
CONTINUOUS
 62
     5
 10
-149.611404
 20
-6.493373
 30
0.0
 11
-149.615283
 21
-6.51256
 31
0.0
  0
LINE
  8
DETAIL
  6
CONTINUOUS
 62
     5
 10
-149.605754
 20
-6.472732
 30
0.0
 11
-149.611404
 21
-6.493373
 31
0.0
  0
LINE
  8
DETAIL
  6
CONTINUOUS
 62
     5
 10
-149.598099
 20
-6.451144
 30
0.0
 11
-149.605754
 21
-6.472732
 31
0.0
  0
LINE
  8
DETAIL
  6
CONTINUOUS
 62
     5
 10
-149.588365
 20
-6.429267
 30
0.0
 11
-149.598099
 21
-6.451144
 31
0.0
  0
LINE
  8
DETAIL
  6
CONTINUOUS
 62
     5
 10
-149.576564
 20
-6.407642
 30
0.0
 11
-149.588365
 21
-6.429267
 31
0.0
  0
LINE
  8
DETAIL
  6
CONTINUOUS
 62
     5
 10
-149.562584
 20
-6.386438
 30
0.0
 11
-149.576564
 21
-6.407642
 31
0.0
  0
LINE
  8
DETAIL
  6
CONTINUOUS
 62
     5
 10
-149.546351
 20
-6.365899
 30
0.0
 11
-149.562584
 21
-6.386438
 31
0.0
  0
LINE
  8
DETAIL
  6
CONTINUOUS
 62
     5
 10
-149.654908
 20
-6.566877
 30
0.0
 11
-149.655099
 21
-6.575041
 31
0.0
  0
LINE
  8
DETAIL
  6
CONTINUOUS
 62
     5
 10
-149.654666
 20
-6.559137
 30
0.0
 11
-149.654908
 21
-6.566877
 31
0.0
  0
LINE
  8
DETAIL
  6
CONTINUOUS
 62
     5
 10
-149.654322
 20
-6.551251
 30
0.0
 11
-149.654666
 21
-6.559137
 31
0.0
  0
LINE
  8
DETAIL
  6
CONTINUOUS
 62
     5
 10
-149.653734
 20
-6.541894
 30
0.0
 11
-149.654322
 21
-6.551251
 31
0.0
  0
LINE
  8
DETAIL
  6
CONTINUOUS
 62
     5
 10
-149.652529
 20
-6.529114
 30
0.0
 11
-149.653734
 21
-6.541894
 31
0.0
  0
LINE
  8
DETAIL
  6
CONTINUOUS
 62
     5
 10
-149.650191
 20
-6.51256
 30
0.0
 11
-149.652529
 21
-6.529114
 31
0.0
  0
LINE
  8
DETAIL
  6
CONTINUOUS
 62
     5
 10
-149.646312
 20
-6.493373
 30
0.0
 11
-149.650191
 21
-6.51256
 31
0.0
  0
LINE
  8
DETAIL
  6
CONTINUOUS
 62
     5
 10
-149.640662
 20
-6.472732
 30
0.0
 11
-149.646312
 21
-6.493373
 31
0.0
  0
LINE
  8
DETAIL
  6
CONTINUOUS
 62
     5
 10
-149.633008
 20
-6.451144
 30
0.0
 11
-149.640662
 21
-6.472732
 31
0.0
  0
LINE
  8
DETAIL
  6
CONTINUOUS
 62
     5
 10
-149.623273
 20
-6.429267
 30
0.0
 11
-149.633008
 21
-6.451144
 31
0.0
  0
LINE
  8
DETAIL
  6
CONTINUOUS
 62
     5
 10
-149.611472
 20
-6.407642
 30
0.0
 11
-149.623273
 21
-6.429267
 31
0.0
  0
LINE
  8
DETAIL
  6
CONTINUOUS
 62
     5
 10
-149.597492
 20
-6.386438
 30
0.0
 11
-149.611472
 21
-6.407642
 31
0.0
  0
LINE
  8
DETAIL
  6
CONTINUOUS
 62
     5
 10
-149.581259
 20
-6.365899
 30
0.0
 11
-149.597492
 21
-6.386438
 31
0.0
  0
LINE
  8
DETAIL
  6
CONTINUOUS
 62
     5
 10
-148.809965
 20
-2.252691
 30
0.0
 11
-148.859349
 21
-2.374241
 31
0.0
  0
LINE
  8
DETAIL
  6
CONTINUOUS
 62
     5
 10
-148.730576
 20
-2.14808
 30
0.0
 11
-148.809965
 21
-2.252691
 31
0.0
  0
LINE
  8
DETAIL
  6
CONTINUOUS
 62
     5
 10
-1.130117
 20
-2.642344
 30
0.0
 11
141.106052
 21
-2.632681
 31
0.0
  0
LINE
  8
DETAIL
  6
CONTINUOUS
 62
     5
 10
144.658777
 20
-2.59269
 30
0.0
 11
145.10581
 21
-2.579392
 31
0.0
  0
LINE
  8
DETAIL
  6
CONTINUOUS
 62
     5
 10
140.342234
 20
-2.521521
 30
0.0
 11
140.336304
 21
-2.635104
 31
0.0
  0
LINE
  8
DETAIL
  6
CONTINUOUS
 62
     5
 10
140.339518
 20
-2.406799
 30
0.0
 11
140.342234
 21
-2.521521
 31
0.0
  0
LINE
  8
DETAIL
  6
CONTINUOUS
 62
     5
 10
140.328301
 20
-2.297011
 30
0.0
 11
140.339518
 21
-2.406799
 31
0.0
  0
LINE
  8
DETAIL
  6
CONTINUOUS
 62
     5
 10
140.309176
 20
-2.197964
 30
0.0
 11
140.328301
 21
-2.297011
 31
0.0
  0
LINE
  8
DETAIL
  6
CONTINUOUS
 62
     5
 10
140.283155
 20
-2.114901
 30
0.0
 11
140.309176
 21
-2.197964
 31
0.0
  0
LINE
  8
DETAIL
  6
CONTINUOUS
 62
     5
 10
140.251615
 20
-2.052217
 30
0.0
 11
140.283155
 21
-2.114901
 31
0.0
  0
LINE
  8
DETAIL
  6
CONTINUOUS
 62
     5
 10
140.216225
 20
-2.013229
 30
0.0
 11
140.251615
 21
-2.052217
 31
0.0
  0
LINE
  8
DETAIL
  6
CONTINUOUS
 62
     5
 10
140.178857
 20
-2.0
 30
0.0
 11
140.216225
 21
-2.013229
 31
0.0
  0
LINE
  8
DETAIL
  6
CONTINUOUS
 62
     5
 10
141.106052
 20
-2.632681
 30
0.0
 11
142.765782
 21
-2.622855
 31
0.0
  0
LINE
  8
DETAIL
  6
CONTINUOUS
 62
     5
 10
144.133479
 20
-2.604528
 30
0.0
 11
144.658777
 21
-2.59269
 31
0.0
  0
LINE
  8
DETAIL
  6
CONTINUOUS
 62
     5
 10
143.506953
 20
-2.614685
 30
0.0
 11
144.133479
 21
-2.604528
 31
0.0
  0
LINE
  8
DETAIL
  6
CONTINUOUS
 62
     5
 10
142.765782
 20
-2.622855
 30
0.0
 11
143.506953
 21
-2.614685
 31
0.0
  0
LINE
  8
DETAIL
  6
CONTINUOUS
 62
     5
 10
147.764215
 20
-2.102776
 30
0.0
 11
147.679617
 21
-2.049512
 31
0.0
  0
LINE
  8
DETAIL
  6
CONTINUOUS
 62
     5
 10
147.679617
 20
-2.049512
 30
0.0
 11
147.573845
 21
-2.012514
 31
0.0
  0
LINE
  8
DETAIL
  6
CONTINUOUS
 62
     5
 10
147.724261
 20
-2.073927
 30
0.0
 11
147.664096
 21
-2.04237
 31
0.0
  0
LINE
  8
DETAIL
  6
CONTINUOUS
 62
     5
 10
147.783534
 20
-2.116726
 30
0.0
 11
147.724261
 21
-2.073927
 31
0.0
  0
LINE
  8
DETAIL
  6
CONTINUOUS
 62
     5
 10
147.838895
 20
-2.171262
 30
0.0
 11
147.783534
 21
-2.116726
 31
0.0
  0
LINE
  8
DETAIL
  6
CONTINUOUS
 62
     5
 10
147.887227
 20
-2.237359
 30
0.0
 11
147.838895
 21
-2.171262
 31
0.0
  0
LINE
  8
DETAIL
  6
CONTINUOUS
 62
     5
 10
147.925716
 20
-2.314839
 30
0.0
 11
147.887227
 21
-2.237359
 31
0.0
  0
LINE
  8
DETAIL
  6
CONTINUOUS
 62
     5
 10
147.951301
 20
-2.403677
 30
0.0
 11
147.925716
 21
-2.314839
 31
0.0
  0
LINE
  8
DETAIL
  6
CONTINUOUS
 62
     5
 10
147.96
 20
-2.500864
 30
0.0
 11
147.951301
 21
-2.403677
 31
0.0
  0
LINE
  8
DETAIL
  6
CONTINUOUS
 62
     5
 10
146.339791
 20
-2.3924
 30
0.0
 11
146.35149
 21
-2.504378
 31
0.0
  0
LINE
  8
DETAIL
  6
CONTINUOUS
 62
     5
 10
146.303337
 20
-2.285879
 30
0.0
 11
146.339791
 21
-2.3924
 31
0.0
  0
LINE
  8
DETAIL
  6
CONTINUOUS
 62
     5
 10
146.243975
 20
-2.190214
 30
0.0
 11
146.303337
 21
-2.285879
 31
0.0
  0
LINE
  8
DETAIL
  6
CONTINUOUS
 62
     5
 10
146.164715
 20
-2.110256
 30
0.0
 11
146.243975
 21
-2.190214
 31
0.0
  0
LINE
  8
DETAIL
  6
CONTINUOUS
 62
     5
 10
146.069575
 20
-2.050059
 30
0.0
 11
146.164715
 21
-2.110256
 31
0.0
  0
LINE
  8
DETAIL
  6
CONTINUOUS
 62
     5
 10
145.96338
 20
-2.012675
 30
0.0
 11
146.069575
 21
-2.050059
 31
0.0
  0
LINE
  8
DETAIL
  6
CONTINUOUS
 62
     5
 10
145.851513
 20
-2.0
 30
0.0
 11
145.96338
 21
-2.012675
 31
0.0
  0
LINE
  8
DETAIL
  6
CONTINUOUS
 62
     5
 10
148.858302
 20
-2.392941
 30
0.0
 11
148.869883
 21
-2.504378
 31
0.0
  0
LINE
  8
DETAIL
  6
CONTINUOUS
 62
     5
 10
148.822175
 20
-2.286827
 30
0.0
 11
148.858302
 21
-2.392941
 31
0.0
  0
LINE
  8
DETAIL
  6
CONTINUOUS
 62
     5
 10
148.762894
 20
-2.190892
 30
0.0
 11
148.822175
 21
-2.286827
 31
0.0
  0
LINE
  8
DETAIL
  6
CONTINUOUS
 62
     5
 10
148.682351
 20
-2.109661
 30
0.0
 11
148.762894
 21
-2.190892
 31
0.0
  0
LINE
  8
DETAIL
  6
CONTINUOUS
 62
     5
 10
148.586827
 20
-2.049518
 30
0.0
 11
148.682351
 21
-2.109661
 31
0.0
  0
LINE
  8
DETAIL
  6
CONTINUOUS
 62
     5
 10
148.481043
 20
-2.012515
 30
0.0
 11
148.586827
 21
-2.049518
 31
0.0
  0
LINE
  8
DETAIL
  6
CONTINUOUS
 62
     5
 10
148.369868
 20
-2.0
 30
0.0
 11
148.481043
 21
-2.012515
 31
0.0
  0
LINE
  8
DETAIL
  6
CONTINUOUS
 62
     5
 10
147.565548
 20
-2.0107
 30
0.0
 11
147.664096
 21
-2.04237
 31
0.0
  0
LINE
  8
DETAIL
  6
CONTINUOUS
 62
     5
 10
147.46266
 20
-2.0
 30
0.0
 11
147.565548
 21
-2.0107
 31
0.0
  0
LINE
  8
DETAIL
  6
CONTINUOUS
 62
     5
 10
146.35149
 20
-2.504378
 30
0.0
 11
148.869883
 21
-2.504378
 31
0.0
  0
LINE
  8
DETAIL
  6
CONTINUOUS
 62
     5
 10
146.337425
 20
-2.509222
 30
0.0
 11
146.35149
 21
-2.504378
 31
0.0
  0
LINE
  8
DETAIL
  6
CONTINUOUS
 62
     5
 10
146.293521
 20
-2.515964
 30
0.0
 11
146.337425
 21
-2.509222
 31
0.0
  0
LINE
  8
DETAIL
  6
CONTINUOUS
 62
     5
 10
146.202855
 20
-2.524875
 30
0.0
 11
146.293521
 21
-2.515964
 31
0.0
  0
LINE
  8
DETAIL
  6
CONTINUOUS
 62
     5
 10
146.047893
 20
-2.536164
 30
0.0
 11
146.202855
 21
-2.524875
 31
0.0
  0
LINE
  8
DETAIL
  6
CONTINUOUS
 62
     5
 10
145.813512
 20
-2.549719
 30
0.0
 11
146.047893
 21
-2.536164
 31
0.0
  0
LINE
  8
DETAIL
  6
CONTINUOUS
 62
     5
 10
145.494358
 20
-2.564699
 30
0.0
 11
145.813512
 21
-2.549719
 31
0.0
  0
LINE
  8
DETAIL
  6
CONTINUOUS
 62
     5
 10
145.10581
 20
-2.579392
 30
0.0
 11
145.494358
 21
-2.564699
 31
0.0
  0
LINE
  8
DETAIL
  6
CONTINUOUS
 62
     5
 39
50.0
 10
-102.0
 20
0.0
 30
0.0
 11
102.0
 21
0.0
 31
0.0
  0
LINE
  8
DETAIL
  6
CONTINUOUS
 62
     5
 39
50.0
 10
102.0
 20
0.0
 30
0.0
 11
102.0
 21
-2.0
 31
0.0
  0
LINE
  8
DETAIL
  6
CONTINUOUS
 62
     5
 39
50.0
 10
-102.0
 20
-2.0
 30
0.0
 11
-102.0
 21
0.0
 31
0.0
  0
LINE
  8
SIZE
  6
CONTINUOUS
 62
    30
 10
20.0
 20
0.0
 30
0.0
 11
308.089975
 21
0.0
 31
0.0
  0
LINE
  8
SIZE
  6
CONTINUOUS
 62
    30
 10
20.0
 20
-2.0
 30
0.0
 11
308.089975
 21
-2.0
 31
0.0
  0
LINE
  8
SIZE
  6
CONTINUOUS
 62
    30
 10
288.089975
 20
12.0
 30
0.0
 11
288.089975
 21
24.0
 31
0.0
  0
LINE
  8
SIZE
  6
CONTINUOUS
 62
    30
 10
288.089975
 20
-14.0
 30
0.0
 11
288.089975
 21
-26.0
 31
0.0
  0
LINE
  8
SIZE
  6
CONTINUOUS
 62
    30
 10
288.089975
 20
115.678504
 30
0.0
 11
288.089975
 21
0.0
 31
0.0
  0
TEXT
  8
SIZE
  6
CONTINUOUS
 62
    30
 10
263.089975
 20
44.694504
 30
0.0
 40
64.0
  1
2
 50
90.0
 41
0.9
 51
0.0
  7
STANDARD
 71
     0
 72
     1
 11
263.089975
 21
71.478504
 31
0.0
210
0.0
220
0.0
230
1.0
  0
LINE
  8
SIZE
  6
CONTINUOUS
 62
    30
 10
288.089975
 20
0.0
 30
0.0
 11
288.089975
 21
-2.0
 31
0.0
  0
LINE
  8
SIZE
  6
CONTINUOUS
 62
    30
 10
288.089975
 20
0.0
 30
0.0
 11
288.089975
 21
-2.0
 31
0.0
  0
CIRCLE
  8
SIZE
  6
CONTINUOUS
 62
    30
 10
288.089975
 20
0.0
 30
0.0
 40
6.0
  0
LINE
  8
SIZE
  6
CONTINUOUS
 62
    30
 10
288.089975
 20
0.0
 30
0.0
 11
288.089975
 21
12.0
 31
0.0
  0
CIRCLE
  8
SIZE
  6
CONTINUOUS
 62
    30
 10
288.089975
 20
-2.0
 30
0.0
 40
6.0
  0
LINE
  8
SIZE
  6
CONTINUOUS
 62
    30
 10
288.089975
 20
-2.0
 30
0.0
 11
288.089975
 21
-14.0
 31
0.0
  0
POINT
  8
DEFPOINTS
  6
CONTINUOUS
 62
    30
 10
0.0
 20
0.0
 30
0.0
  0
POINT
  8
DEFPOINTS
  6
CONTINUOUS
 62
    30
 10
0.0
 20
-2.0
 30
0.0
  0
POINT
  8
DEFPOINTS
  6
CONTINUOUS
 62
    30
 10
288.089975
 20
-2.0
 30
0.0
  0
LINE
  8
SIZE
  6
CONTINUOUS
 62
    30
 10
168.369868
 20
-2.0
 30
0.0
 11
308.089975
 21
-2.0
 31
0.0
  0
LINE
  8
SIZE
  6
CONTINUOUS
 62
    30
 10
20.0
 20
-224.0
 30
0.0
 11
308.089975
 21
-224.0
 31
0.0
  0
LINE
  8
SIZE
  6
CONTINUOUS
 62
    30
 10
288.089975
 20
-14.0
 30
0.0
 11
288.089975
 21
-212.0
 31
0.0
  0
CIRCLE
  8
SIZE
  6
CONTINUOUS
 62
    30
 10
288.089975
 20
-2.0
 30
0.0
 40
6.0
  0
LINE
  8
SIZE
  6
CONTINUOUS
 62
    30
 10
288.089975
 20
-2.0
 30
0.0
 11
288.089975
 21
-14.0
 31
0.0
  0
CIRCLE
  8
SIZE
  6
CONTINUOUS
 62
    30
 10
288.089975
 20
-224.0
 30
0.0
 40
6.0
  0
LINE
  8
SIZE
  6
CONTINUOUS
 62
    30
 10
288.089975
 20
-224.0
 30
0.0
 11
288.089975
 21
-212.0
 31
0.0
  0
TEXT
  8
SIZE
  6
CONTINUOUS
 62
    30
 10
263.089975
 20
-193.352
 30
0.0
 40
64.0
  1
222
 50
90.0
 41
0.9
 51
0.0
  7
STANDARD
 71
     0
 72
     1
 11
263.089975
 21
-113.0
 31
0.0
210
0.0
220
0.0
230
1.0
  0
POINT
  8
DEFPOINTS
  6
CONTINUOUS
 62
    30
 10
148.369868
 20
-2.0
 30
0.0
  0
POINT
  8
DEFPOINTS
  6
CONTINUOUS
 62
    30
 10
0.0
 20
-224.0
 30
0.0
  0
POINT
  8
DEFPOINTS
  6
CONTINUOUS
 62
    30
 10
288.089975
 20
-224.0
 30
0.0
  0
LINE
  8
NOTE
  6
CONTINUOUS
 62
     4
 10
511.508206
 20
207.724494
 30
0.0
 11
199.430446
 21
207.724494
 31
0.0
  0
TEXT
  8
NOTE
  6
CONTINUOUS
 62
     4
 10
211.334616
 20
232.061674
 30
0.0
 40
64.0
  1
φ7×10
 50
0.0
 41
0.9
  0
LINE
  8
NOTE
  6
CONTINUOUS
 62
     4
 39
50.0
 10
0.0
 20
0.0
 30
0.0
 11
0.0
 21
17.441855
 31
0.0
  0
LINE
  8
NOTE
  6
CONTINUOUS
 62
     4
 10
-28.75
 20
-20.0
 30
0.0
 11
-28.75
 21
20.0
 31
0.0
  0
LINE
  8
NOTE
  6
CONTINUOUS
 62
     4
 10
-48.75
 20
0.0
 30
0.0
 11
-8.75
 21
0.0
 31
0.0
  0
LINE
  8
NOTE
  6
CONTINUOUS
 62
     4
 10
-86.25
 20
-20.0
 30
0.0
 11
-86.25
 21
20.0
 31
0.0
  0
LINE
  8
NOTE
  6
CONTINUOUS
 62
     4
 10
-106.25
 20
0.0
 30
0.0
 11
-66.25
 21
0.0
 31
0.0
  0
CIRCLE
  8
FIX
  6
CONTINUOUS
 62
    11
 10
-86.25
 20
0.0
 30
0.0
 40
3.5
  0
CIRCLE
  8
FIX
  6
CONTINUOUS
 62
    11
 10
-28.75
 20
0.0
 30
0.0
 40
3.5
  0
LINE
  8
NOTE
  6
CONTINUOUS
 62
     4
 10
-46.0
 20
0.0
 30
0.0
 11
-205.665135
 21
101.455362
 31
0.0
  0
LINE
  8
NOTE
  6
CONTINUOUS
 62
     4
 10
-72.22449
 20
30.203909
 30
0.0
 11
-46.0
 21
0.0
 31
0.0
  0
LINE
  8
NOTE
  6
CONTINUOUS
 62
     4
 10
-46.0
 20
0.0
 30
0.0
 11
-83.813029
 21
13.045107
 31
0.0
  0
LINE
  8
NOTE
  6
CONTINUOUS
 62
     4
 10
-46.0
 20
-20.0
 30
0.0
 11
-46.0
 21
20.0
 31
0.0
  0
LINE
  8
NOTE
  6
CONTINUOUS
 62
     4
 10
-26.0
 20
0.0
 30
0.0
 11
-66.0
 21
0.0
 31
0.0
  0
CIRCLE
  8
FIX
  6
CONTINUOUS
 62
    11
 10
28.75
 20
0.0
 30
0.0
 40
3.5
  0
CIRCLE
  8
FIX
  6
CONTINUOUS
 62
    11
 10
86.25
 20
0.0
 30
0.0
 40
3.5
  0
LINE
  8
NOTE
  6
CONTINUOUS
 62
     4
 10
86.25
 20
-20.0
 30
0.0
 11
86.25
 21
20.0
 31
0.0
  0
LINE
  8
NOTE
  6
CONTINUOUS
 62
     4
 10
106.25
 20
0.0
 30
0.0
 11
66.25
 21
0.0
 31
0.0
  0
LINE
  8
NOTE
  6
CONTINUOUS
 62
     4
 10
28.75
 20
-20.0
 30
0.0
 11
28.75
 21
20.0
 31
0.0
  0
LINE
  8
NOTE
  6
CONTINUOUS
 62
     4
 10
48.75
 20
0.0
 30
0.0
 11
8.75
 21
0.0
 31
0.0
  0
LINE
  8
NOTE
  6
CONTINUOUS
 62
     4
 10
86.259088
 20
0.017327
 30
0.0
 11
199.430446
 21
207.724494
 31
0.0
  0
LINE
  8
NOTE
  6
CONTINUOUS
 62
     4
 10
97.215484
 20
38.479255
 30
0.0
 11
86.247565
 21
0.012324
 31
0.0
  0
LINE
  8
NOTE
  6
CONTINUOUS
 62
     4
 10
86.247565
 20
0.012324
 30
0.0
 11
114.979527
 21
27.841704
 31
0.0
  0
TEXT
  8
NOTE
  6
CONTINUOUS
 62
     4
 10
-295.393434
 20
123.122545
 30
0.0
 40
64.0
  1
EL
 41
0.9
  0
LINE
  8
NOTE
  6
CONTINUOUS
 62
     4
 10
-301.249767
 20
101.455362
 30
0.0
 11
-205.665135
 21
101.455362
 31
0.0
  0
LINE
  8
SIZE
  6
CONTINUOUS
 62
    30
 10
-28.75
 20
23.5
 30
0.0
 11
-28.75
 21
231.493835
 31
0.0
  0
LINE
  8
SIZE
  6
CONTINUOUS
 62
    30
 10
28.75
 20
23.5
 30
0.0
 11
28.75
 21
231.493835
 31
0.0
  0
LINE
  8
SIZE
  6
CONTINUOUS
 62
    30
 10
-40.75
 20
211.493835
 30
0.0
 11
-52.75
 21
211.493835
 31
0.0
  0
LINE
  8
SIZE
  6
CONTINUOUS
 62
    30
 10
40.75
 20
211.493835
 30
0.0
 11
52.75
 21
211.493835
 31
0.0
  0
LINE
  8
SIZE
  6
CONTINUOUS
 62
    30
 10
-368.787211
 20
211.493835
 30
0.0
 11
-28.75
 21
211.493835
 31
0.0
  0
TEXT
  8
SIZE
  6
CONTINUOUS
 62
    30
 10
-350.191782
 20
236.493835
 30
0.0
 40
64.0
  1
57.5
 50
0.0
 41
0.9
 51
0.0
  7
STANDARD
 71
     0
 72
     1
 11
-256.015782
 21
236.493835
 31
0.0
210
0.0
220
0.0
230
1.0
  0
LINE
  8
SIZE
  6
CONTINUOUS
 62
    30
 10
-28.75
 20
211.493835
 30
0.0
 11
28.75
 21
211.493835
 31
0.0
  0
LINE
  8
SIZE
  6
CONTINUOUS
 62
    30
 10
-28.75
 20
211.493835
 30
0.0
 11
28.75
 21
211.493835
 31
0.0
  0
CIRCLE
  8
SIZE
  6
CONTINUOUS
 62
    30
 10
-28.75
 20
211.493835
 30
0.0
 40
6.0
  0
LINE
  8
SIZE
  6
CONTINUOUS
 62
    30
 10
-28.75
 20
211.493835
 30
0.0
 11
-40.75
 21
211.493835
 31
0.0
  0
CIRCLE
  8
SIZE
  6
CONTINUOUS
 62
    30
 10
28.75
 20
211.493835
 30
0.0
 40
6.0
  0
LINE
  8
SIZE
  6
CONTINUOUS
 62
    30
 10
28.75
 20
211.493835
 30
0.0
 11
40.75
 21
211.493835
 31
0.0
  0
POINT
  8
DEFPOINTS
  6
CONTINUOUS
 62
    30
 10
-28.75
 20
3.5
 30
0.0
  0
POINT
  8
DEFPOINTS
  6
CONTINUOUS
 62
    30
 10
28.75
 20
3.5
 30
0.0
  0
POINT
  8
DEFPOINTS
  6
CONTINUOUS
 62
    30
 10
28.75
 20
211.493835
 30
0.0
  0
LINE
  8
SIZE
  6
CONTINUOUS
 62
    30
 10
-86.25
 20
23.5
 30
0.0
 11
-86.25
 21
366.889813
 31
0.0
  0
LINE
  8
SIZE
  6
CONTINUOUS
 62
    30
 10
86.25
 20
23.5
 30
0.0
 11
86.25
 21
366.889813
 31
0.0
  0
LINE
  8
SIZE
  6
CONTINUOUS
 62
    30
 10
-74.25
 20
346.889813
 30
0.0
 11
74.25
 21
346.889813
 31
0.0
  0
LINE
  8
SIZE
  6
CONTINUOUS
 62
    30
 10
-414.925746
 20
346.889813
 30
0.0
 11
-86.25
 21
346.889813
 31
0.0
  0
TEXT
  8
SIZE
  6
CONTINUOUS
 62
    30
 10
-395.41146
 20
371.889813
 30
0.0
 40
64.0
  1
172.5
 50
0.0
 41
0.9
 51
0.0
  7
STANDARD
 71
     0
 72
     1
 11
-280.21146
 21
371.889813
 31
0.0
210
0.0
220
0.0
230
1.0
  0
CIRCLE
  8
SIZE
  6
CONTINUOUS
 62
    30
 10
-86.25
 20
346.889813
 30
0.0
 40
6.0
  0
LINE
  8
SIZE
  6
CONTINUOUS
 62
    30
 10
-86.25
 20
346.889813
 30
0.0
 11
-74.25
 21
346.889813
 31
0.0
  0
CIRCLE
  8
SIZE
  6
CONTINUOUS
 62
    30
 10
86.25
 20
346.889813
 30
0.0
 40
6.0
  0
LINE
  8
SIZE
  6
CONTINUOUS
 62
    30
 10
86.25
 20
346.889813
 30
0.0
 11
74.25
 21
346.889813
 31
0.0
  0
POINT
  8
DEFPOINTS
  6
CONTINUOUS
 62
    30
 10
-86.25
 20
3.5
 30
0.0
  0
POINT
  8
DEFPOINTS
  6
CONTINUOUS
 62
    30
 10
86.25
 20
3.5
 30
0.0
  0
POINT
  8
DEFPOINTS
  6
CONTINUOUS
 62
    30
 10
86.25
 20
346.889813
 30
0.0
  0
LINE
  8
SIZE
  6
CONTINUOUS
 62
    30
 10
-102.0
 20
20.0
 30
0.0
 11
-102.0
 21
498.646113
 31
0.0
  0
LINE
  8
SIZE
  6
CONTINUOUS
 62
    30
 10
102.0
 20
20.0
 30
0.0
 11
102.0
 21
498.646113
 31
0.0
  0
LINE
  8
SIZE
  6
CONTINUOUS
 62
    30
 10
-90.0
 20
478.646113
 30
0.0
 11
90.0
 21
478.646113
 31
0.0
  0
CIRCLE
  8
SIZE
  6
CONTINUOUS
 62
    30
 10
-102.0
 20
478.646113
 30
0.0
 40
6.0
  0
LINE
  8
SIZE
  6
CONTINUOUS
 62
    30
 10
-102.0
 20
478.646113
 30
0.0
 11
-90.0
 21
478.646113
 31
0.0
  0
CIRCLE
  8
SIZE
  6
CONTINUOUS
 62
    30
 10
102.0
 20
478.646113
 30
0.0
 40
6.0
  0
LINE
  8
SIZE
  6
CONTINUOUS
 62
    30
 10
102.0
 20
478.646113
 30
0.0
 11
90.0
 21
478.646113
 31
0.0
  0
TEXT
  8
SIZE
  6
CONTINUOUS
 62
    30
 10
-81.504
 20
503.646113
 30
0.0
 40
64.0
  1
204
 50
0.0
 41
0.9
 51
0.0
  7
STANDARD
 71
     0
 72
     1
 11
0.0
 21
503.646113
 31
0.0
210
0.0
220
0.0
230
1.0
  0
POINT
  8
DEFPOINTS
  6
CONTINUOUS
 62
    30
 10
-102.0
 20
0.0
 30
0.0
  0
POINT
  8
DEFPOINTS
  6
CONTINUOUS
 62
    30
 10
102.0
 20
0.0
 30
0.0
  0
POINT
  8
DEFPOINTS
  6
CONTINUOUS
 62
    30
 10
102.0
 20
478.646113
 30
0.0
  0
LINE
  8
SIZE
  6
CONTINUOUS
 62
    30
 10
-151.130117
 20
17.495622
 30
0.0
 11
-151.130117
 21
613.57495
 31
0.0
  0
LINE
  8
SIZE
  6
CONTINUOUS
 62
    30
 10
148.869883
 20
17.495622
 30
0.0
 11
148.869883
 21
613.57495
 31
0.0
  0
LINE
  8
SIZE
  6
CONTINUOUS
 62
    30
 10
-139.130117
 20
593.57495
 30
0.0
 11
136.869883
 21
593.57495
 31
0.0
  0
CIRCLE
  8
SIZE
  6
CONTINUOUS
 62
    30
 10
-151.130117
 20
593.57495
 30
0.0
 40
6.0
  0
LINE
  8
SIZE
  6
CONTINUOUS
 62
    30
 10
-151.130117
 20
593.57495
 30
0.0
 11
-139.130117
 21
593.57495
 31
0.0
  0
CIRCLE
  8
SIZE
  6
CONTINUOUS
 62
    30
 10
148.869883
 20
593.57495
 30
0.0
 40
6.0
  0
LINE
  8
SIZE
  6
CONTINUOUS
 62
    30
 10
148.869883
 20
593.57495
 30
0.0
 11
136.869883
 21
593.57495
 31
0.0
  0
TEXT
  8
SIZE
  6
CONTINUOUS
 62
    30
 10
-82.634117
 20
618.57495
 30
0.0
 40
64.0
  1
300
 50
0.0
 41
0.9
 51
0.0
  7
STANDARD
 71
     0
 72
     1
 11
-1.130117
 21
618.57495
 31
0.0
210
0.0
220
0.0
230
1.0
  0
POINT
  8
DEFPOINTS
  6
CONTINUOUS
 62
    30
 10
-151.130117
 20
-2.504378
 30
0.0
  0
POINT
  8
DEFPOINTS
  6
CONTINUOUS
 62
    30
 10
148.869883
 20
-2.504378
 30
0.0
  0
POINT
  8
DEFPOINTS
  6
CONTINUOUS
 62
    30
 10
148.869883
 20
593.57495
 30
0.0
  0
CIRCLE
  8
ARRANGE
  6
CONTINUOUS
 62
     1
 39
50.0
 10
0.0
 20
0.0
 30
0.0
 40
40.0
  0
LINE
  8
OUTLINE
  6
CONTINUOUS
 62
     3
 10
-149.924331
 20
-2.0
 30
0.0
 11
148.586827
 21
-2.049518
 31
0.0
  0
LINE
  8
OUTLINE
  6
CONTINUOUS
 62
     3
 39
50.0
 10
-102.0
 20
0.0
 30
0.0
 11
102.0
 21
0.0
 31
0.0
  0
LINE
  8
OUTLINE
  6
CONTINUOUS
 62
     3
 10
-1.130117
 20
-224.001805
 30
0.0
 11
10.107979
 21
-223.983853
 31
0.0
  0
LINE
  8
OUTLINE
  6
CONTINUOUS
 62
     3
 39
50.0
 10
-102.0
 20
-2.0
 30
0.0
 11
-102.0
 21
0.0
 31
0.0
  0
LINE
  8
OUTLINE
  6
CONTINUOUS
 62
     3
 10
-151.130117
 20
-2.504378
 30
0.0
 11
-149.611598
 21
-176.771348
 31
0.0
  0
LINE
  8
OUTLINE
  6
CONTINUOUS
 62
     3
 10
-121.075205
 20
-222.170636
 30
0.0
 11
-105.857244
 21
-222.552215
 31
0.0
  0
LINE
  8
OUTLINE
  6
CONTINUOUS
 62
     3
 10
-148.076535
 20
-203.322731
 30
0.0
 11
-148.243889
 21
-202.696845
 31
0.0
  0
LINE
  8
OUTLINE
  6
CONTINUOUS
 62
     3
 10
-148.281474
 20
-202.53452
 30
0.0
 11
-148.166232
 21
-203.038476
 31
0.0
  0
LINE
  8
OUTLINE
  6
CONTINUOUS
 62
     3
 10
-147.993234
 20
-203.576375
 30
0.0
 11
-147.751792
 21
-204.133395
 31
0.0
  0
LINE
  8
OUTLINE
  6
CONTINUOUS
 62
     3
 10
-147.751792
 20
-204.133395
 30
0.0
 11
-147.738594
 21
-204.156649
 31
0.0
  0
LINE
  8
OUTLINE
  6
CONTINUOUS
 62
     3
 10
-147.858931
 20
-203.905419
 30
0.0
 11
-148.081636
 21
-203.322731
 31
0.0
  0
LINE
  8
OUTLINE
  6
CONTINUOUS
 62
     3
 10
-147.853831
 20
-203.90542
 30
0.0
 11
-148.076535
 21
-203.322731
 31
0.0
  0
LINE
  8
OUTLINE
  6
CONTINUOUS
 62
     3
 10
-147.75413
 20
-204.071353
 30
0.0
 11
-147.732227
 21
-204.191606
 31
0.0
  0
LINE
  8
OUTLINE
  6
CONTINUOUS
 62
     3
 10
-148.166232
 20
-203.038476
 30
0.0
 11
-147.993234
 21
-203.576375
 31
0.0
  0
LINE
  8
OUTLINE
  6
CONTINUOUS
 62
     3
 10
-147.732227
 20
-204.191606
 30
0.0
 11
-147.685275
 21
-204.459381
 31
0.0
  0
LINE
  8
OUTLINE
  6
CONTINUOUS
 62
     3
 10
-149.523915
 20
-176.961903
 30
0.0
 11
-149.611595
 21
-176.771647
 31
0.0
  0
LINE
  8
OUTLINE
  6
CONTINUOUS
 62
     3
 10
-148.356079
 20
-202.028711
 30
0.0
 11
-148.397333
 21
-201.320065
 31
0.0
  0
LINE
  8
OUTLINE
  6
CONTINUOUS
 62
     3
 10
-148.243889
 20
-202.696845
 30
0.0
 11
-148.350974
 21
-202.028711
 31
0.0
  0
LINE
  8
OUTLINE
  6
CONTINUOUS
 62
     3
 10
-149.526278
 20
-177.015721
 30
0.0
 11
-149.526189
 21
-177.015967
 31
0.0
  0
LINE
  8
OUTLINE
  6
CONTINUOUS
 62
     3
 10
-149.526189
 20
-177.015967
 30
0.0
 11
-149.523017
 21
-177.025724
 31
0.0
  0
LINE
  8
OUTLINE
  6
CONTINUOUS
 62
     3
 10
-149.523017
 20
-177.025724
 30
0.0
 11
-149.517019
 21
-177.046899
 31
0.0
  0
LINE
  8
OUTLINE
  6
CONTINUOUS
 62
     3
 10
-149.517019
 20
-177.046899
 30
0.0
 11
-149.509235
 21
-177.078069
 31
0.0
  0
LINE
  8
OUTLINE
  6
CONTINUOUS
 62
     3
 10
-149.509235
 20
-177.078069
 30
0.0
 11
-149.500229
 21
-177.118376
 31
0.0
  0
LINE
  8
OUTLINE
  6
CONTINUOUS
 62
     3
 10
-149.500229
 20
-177.118376
 30
0.0
 11
-149.490341
 21
-177.167168
 31
0.0
  0
LINE
  8
OUTLINE
  6
CONTINUOUS
 62
     3
 10
-149.490341
 20
-177.167168
 30
0.0
 11
-149.479781
 21
-177.22397
 31
0.0
  0
LINE
  8
OUTLINE
  6
CONTINUOUS
 62
     3
 10
-149.5613
 20
-176.985582
 30
0.0
 11
-149.5983
 21
-176.881456
 31
0.0
  0
LINE
  8
OUTLINE
  6
CONTINUOUS
 62
     3
 10
-149.371164
 20
-177.992477
 30
0.0
 11
-149.305815
 21
-178.618855
 31
0.0
  0
LINE
  8
OUTLINE
  6
CONTINUOUS
 62
     3
 10
-149.306468
 20
-178.590866
 30
0.0
 11
-149.240381
 21
-179.282233
 31
0.0
  0
LINE
  8
OUTLINE
  6
CONTINUOUS
 62
     3
 10
-149.143716
 20
-180.327347
 30
0.0
 11
-149.248073
 21
-179.181688
 31
0.0
  0
LINE
  8
OUTLINE
  6
CONTINUOUS
 62
     3
 10
-148.350894
 20
-202.074803
 30
0.0
 11
-148.281474
 21
-202.53452
 31
0.0
  0
LINE
  8
OUTLINE
  6
CONTINUOUS
 62
     3
 10
-149.167283
 20
-180.078427
 30
0.0
 11
-149.084873
 21
-181.030083
 31
0.0
  0
LINE
  8
OUTLINE
  6
CONTINUOUS
 62
     3
 10
-149.096569
 20
-180.874677
 30
0.0
 11
-148.969209
 21
-182.448403
 31
0.0
  0
LINE
  8
OUTLINE
  6
CONTINUOUS
 62
     3
 10
-149.009464
 20
-181.927804
 30
0.0
 11
-148.89397
 21
-183.421042
 31
0.0
  0
LINE
  8
OUTLINE
  6
CONTINUOUS
 62
     3
 10
-148.917892
 20
-183.092309
 30
0.0
 11
-148.785968
 21
-184.883713
 31
0.0
  0
LINE
  8
OUTLINE
  6
CONTINUOUS
 62
     3
 10
-148.809456
 20
-184.544744
 30
0.0
 11
-148.667137
 21
-186.580474
 31
0.0
  0
LINE
  8
OUTLINE
  6
CONTINUOUS
 62
     3
 10
-148.680087
 20
-186.377897
 30
0.0
 11
-148.50389
 21
-189.110023
 31
0.0
  0
LINE
  8
OUTLINE
  6
CONTINUOUS
 62
     3
 10
-148.604896
 20
-187.504591
 30
0.0
 11
-148.605999
 21
-187.475196
 31
0.0
  0
LINE
  8
OUTLINE
  6
CONTINUOUS
 62
     3
 10
-148.50389
 20
-189.110023
 30
0.0
 11
-148.397335
 21
-201.320065
 31
0.0
  0
LINE
  8
OUTLINE
  6
CONTINUOUS
 62
     3
 10
-149.51346
 20
-177.061153
 30
0.0
 11
-149.560897
 21
-176.986218
 31
0.0
  0
LINE
  8
OUTLINE
  6
CONTINUOUS
 62
     3
 10
-149.44399
 20
-177.415722
 30
0.0
 11
-149.523915
 21
-176.961903
 31
0.0
  0
LINE
  8
OUTLINE
  6
CONTINUOUS
 62
     3
 10
-149.468675
 20
-177.288476
 30
0.0
 11
-149.457102
 21
-177.360485
 31
0.0
  0
LINE
  8
OUTLINE
  6
CONTINUOUS
 62
     3
 10
-149.457102
 20
-177.360485
 30
0.0
 11
-149.445113
 21
-177.439863
 31
0.0
  0
LINE
  8
OUTLINE
  6
CONTINUOUS
 62
     3
 10
-149.445113
 20
-177.439863
 30
0.0
 11
-149.432737
 21
-177.526518
 31
0.0
  0
LINE
  8
OUTLINE
  6
CONTINUOUS
 62
     3
 10
-149.432737
 20
-177.526518
 30
0.0
 11
-149.419995
 21
-177.62038
 31
0.0
  0
LINE
  8
OUTLINE
  6
CONTINUOUS
 62
     3
 10
-149.371164
 20
-177.992477
 30
0.0
 11
-149.44399
 21
-177.415722
 31
0.0
  0
LINE
  8
OUTLINE
  6
CONTINUOUS
 62
     3
 10
-149.598408
 20
-176.881151
 30
0.0
 11
-149.611598
 21
-176.771348
 31
0.0
  0
LINE
  8
OUTLINE
  6
CONTINUOUS
 62
     3
 10
-149.393454
 20
-177.829373
 30
0.0
 11
-149.365554
 21
-178.065962
 31
0.0
  0
LINE
  8
OUTLINE
  6
CONTINUOUS
 62
     3
 10
-149.365554
 20
-178.065962
 30
0.0
 11
-149.351111
 21
-178.194247
 31
0.0
  0
LINE
  8
OUTLINE
  6
CONTINUOUS
 62
     3
 10
-147.635394
 20
-204.757165
 30
0.0
 11
-147.630127
 21
-204.789626
 31
0.0
  0
LINE
  8
OUTLINE
  6
CONTINUOUS
 62
     3
 10
-147.339537
 20
-206.578821
 30
0.0
 11
-147.303158
 21
-209.967823
 31
0.0
  0
LINE
  8
OUTLINE
  6
CONTINUOUS
 62
     3
 10
-147.160306
 20
-212.307161
 30
0.0
 11
-147.016047
 21
-212.536151
 31
0.0
  0
LINE
  8
OUTLINE
  6
CONTINUOUS
 62
     3
 10
-147.016047
 20
-212.536151
 30
0.0
 11
-146.776122
 21
-212.778703
 31
0.0
  0
LINE
  8
OUTLINE
  6
CONTINUOUS
 62
     3
 10
-146.776122
 20
-212.778703
 30
0.0
 11
-146.527532
 21
-212.945465
 31
0.0
  0
LINE
  8
OUTLINE
  6
CONTINUOUS
 62
     3
 10
-147.160627
 20
-212.306507
 30
0.0
 11
-147.160306
 21
-212.307161
 31
0.0
  0
LINE
  8
OUTLINE
  6
CONTINUOUS
 62
     3
 10
-147.217325
 20
-212.170938
 30
0.0
 11
-147.160622
 21
-212.306505
 31
0.0
  0
LINE
  8
OUTLINE
  6
CONTINUOUS
 62
     3
 10
-147.267601
 20
-211.977887
 30
0.0
 11
-147.217325
 21
-212.170938
 31
0.0
  0
LINE
  8
OUTLINE
  6
CONTINUOUS
 62
     3
 10
-146.206437
 20
-216.089747
 30
0.0
 11
-146.214813
 21
-216.012086
 31
0.0
  0
LINE
  8
OUTLINE
  6
CONTINUOUS
 62
     3
 10
-146.214813
 20
-216.012086
 30
0.0
 11
-146.251537
 21
-215.34711
 31
0.0
  0
LINE
  8
OUTLINE
  6
CONTINUOUS
 62
     3
 10
-147.285845
 20
-211.798564
 30
0.0
 11
-147.285306
 21
-211.81822
 31
0.0
  0
LINE
  8
OUTLINE
  6
CONTINUOUS
 62
     3
 10
-146.20493
 20
-216.102922
 30
0.0
 11
-146.173763
 21
-216.338198
 31
0.0
  0
LINE
  8
OUTLINE
  6
CONTINUOUS
 62
     3
 10
-146.173763
 20
-216.338198
 30
0.0
 11
-146.040398
 21
-217.000448
 31
0.0
  0
LINE
  8
OUTLINE
  6
CONTINUOUS
 62
     3
 10
-146.040398
 20
-217.000448
 30
0.0
 11
-145.852912
 21
-217.605309
 31
0.0
  0
LINE
  8
OUTLINE
  6
CONTINUOUS
 62
     3
 10
-145.852912
 20
-217.605309
 30
0.0
 11
-145.621824
 21
-218.153633
 31
0.0
  0
LINE
  8
OUTLINE
  6
CONTINUOUS
 62
     3
 10
-145.621824
 20
-218.153633
 30
0.0
 11
-145.356216
 21
-218.646095
 31
0.0
  0
LINE
  8
OUTLINE
  6
CONTINUOUS
 62
     3
 10
-145.356216
 20
-218.646095
 30
0.0
 11
-145.062618
 21
-219.085885
 31
0.0
  0
LINE
  8
OUTLINE
  6
CONTINUOUS
 62
     3
 10
-145.062618
 20
-219.085885
 30
0.0
 11
-144.746301
 21
-219.477537
 31
0.0
  0
LINE
  8
OUTLINE
  6
CONTINUOUS
 62
     3
 10
-144.746301
 20
-219.477537
 30
0.0
 11
-144.411446
 21
-219.825395
 31
0.0
  0
LINE
  8
OUTLINE
  6
CONTINUOUS
 62
     3
 10
-144.411446
 20
-219.825395
 30
0.0
 11
-144.061518
 21
-220.132601
 31
0.0
  0
LINE
  8
OUTLINE
  6
CONTINUOUS
 62
     3
 10
-144.061518
 20
-220.132601
 30
0.0
 11
-143.699914
 21
-220.401231
 31
0.0
  0
LINE
  8
OUTLINE
  6
CONTINUOUS
 62
     3
 10
-143.699914
 20
-220.401231
 30
0.0
 11
-143.330335
 21
-220.633123
 31
0.0
  0
LINE
  8
OUTLINE
  6
CONTINUOUS
 62
     3
 10
-143.330335
 20
-220.633123
 30
0.0
 11
-142.957785
 21
-220.829752
 31
0.0
  0
LINE
  8
OUTLINE
  6
CONTINUOUS
 62
     3
 10
-142.957785
 20
-220.829752
 30
0.0
 11
-142.593726
 21
-220.990847
 31
0.0
  0
LINE
  8
OUTLINE
  6
CONTINUOUS
 62
     3
 10
-142.593726
 20
-220.990847
 30
0.0
 11
-142.250771
 21
-221.118186
 31
0.0
  0
LINE
  8
OUTLINE
  6
CONTINUOUS
 62
     3
 10
-142.250771
 20
-221.118186
 30
0.0
 11
-141.937213
 21
-221.216373
 31
0.0
  0
LINE
  8
OUTLINE
  6
CONTINUOUS
 62
     3
 10
-141.937213
 20
-221.216373
 30
0.0
 11
-141.639224
 21
-221.295379
 31
0.0
  0
LINE
  8
OUTLINE
  6
CONTINUOUS
 62
     3
 10
-141.639224
 20
-221.295379
 30
0.0
 11
-141.338703
 21
-221.362677
 31
0.0
  0
LINE
  8
OUTLINE
  6
CONTINUOUS
 62
     3
 10
-141.338703
 20
-221.362677
 30
0.0
 11
-141.023767
 21
-221.421973
 31
0.0
  0
LINE
  8
OUTLINE
  6
CONTINUOUS
 62
     3
 10
-141.023767
 20
-221.421973
 30
0.0
 11
-140.697549
 21
-221.473651
 31
0.0
  0
LINE
  8
OUTLINE
  6
CONTINUOUS
 62
     3
 10
-140.697549
 20
-221.473651
 30
0.0
 11
-140.355371
 21
-221.519356
 31
0.0
  0
LINE
  8
OUTLINE
  6
CONTINUOUS
 62
     3
 10
-140.355371
 20
-221.519356
 30
0.0
 11
-139.994349
 21
-221.559923
 31
0.0
  0
LINE
  8
OUTLINE
  6
CONTINUOUS
 62
     3
 10
-139.994349
 20
-221.559923
 30
0.0
 11
-139.681002
 21
-221.58997
 31
0.0
  0
LINE
  8
OUTLINE
  6
CONTINUOUS
 62
     3
 10
-146.527532
 20
-212.945465
 30
0.0
 11
-146.251537
 21
-215.347108
 31
0.0
  0
LINE
  8
OUTLINE
  6
CONTINUOUS
 62
     3
 10
-146.570616
 20
-212.916562
 30
0.0
 11
-146.31603
 21
-215.128265
 31
0.0
  0
LINE
  8
OUTLINE
  6
CONTINUOUS
 62
     3
 10
-146.31603
 20
-215.128265
 30
0.0
 11
-146.20493
 21
-216.102922
 31
0.0
  0
LINE
  8
OUTLINE
  6
CONTINUOUS
 62
     3
 10
-147.285292
 20
-211.818505
 30
0.0
 11
-147.267601
 21
-211.977887
 31
0.0
  0
LINE
  8
OUTLINE
  6
CONTINUOUS
 62
     3
 10
-136.712003
 20
-221.716085
 30
0.0
 11
-136.61201
 21
-221.749179
 31
0.0
  0
LINE
  8
OUTLINE
  6
CONTINUOUS
 62
     3
 10
-136.61201
 20
-221.749179
 30
0.0
 11
-136.591126
 21
-221.750666
 31
0.0
  0
LINE
  8
OUTLINE
  6
CONTINUOUS
 62
     3
 10
-139.681349
 20
-221.589939
 30
0.0
 11
-138.949141
 21
-221.647046
 31
0.0
  0
LINE
  8
OUTLINE
  6
CONTINUOUS
 62
     3
 10
-138.949141
 20
-221.647046
 30
0.0
 11
-138.137361
 21
-221.693562
 31
0.0
  0
LINE
  8
OUTLINE
  6
CONTINUOUS
 62
     3
 10
-138.137361
 20
-221.693562
 30
0.0
 11
-137.309991
 21
-221.72796
 31
0.0
  0
LINE
  8
OUTLINE
  6
CONTINUOUS
 62
     3
 10
-137.309991
 20
-221.72796
 30
0.0
 11
-136.59095
 21
-221.750706
 31
0.0
  0
LINE
  8
OUTLINE
  6
CONTINUOUS
 62
     3
 10
-139.681349
 20
-221.589939
 30
0.0
 11
-139.681002
 21
-221.58997
 31
0.0
  0
LINE
  8
OUTLINE
  6
CONTINUOUS
 62
     3
 10
-136.591126
 20
-221.750666
 30
0.0
 11
-121.075205
 21
-222.170636
 31
0.0
  0
LINE
  8
OUTLINE
  6
CONTINUOUS
 62
     3
 10
-147.685275
 20
-204.459381
 30
0.0
 11
-147.635394
 21
-204.757165
 31
0.0
  0
LINE
  8
OUTLINE
  6
CONTINUOUS
 62
     3
 10
-147.655337
 20
-204.275758
 30
0.0
 11
-147.285305
 21
-211.81822
 31
0.0
  0
LINE
  8
OUTLINE
  6
CONTINUOUS
 62
     3
 10
-62.978287
 20
-223.460222
 30
0.0
 11
-49.596089
 21
-223.667524
 31
0.0
  0
LINE
  8
OUTLINE
  6
CONTINUOUS
 62
     3
 10
-76.813675
 20
-223.20142
 30
0.0
 11
-62.978287
 21
-223.460222
 31
0.0
  0
LINE
  8
OUTLINE
  6
CONTINUOUS
 62
     3
 10
-91.101397
 20
-222.89619
 30
0.0
 11
-76.813675
 21
-223.20142
 31
0.0
  0
LINE
  8
OUTLINE
  6
CONTINUOUS
 62
     3
 10
-105.857244
 20
-222.552215
 30
0.0
 11
-91.101397
 21
-222.89619
 31
0.0
  0
LINE
  8
OUTLINE
  6
CONTINUOUS
 62
     3
 10
-36.683443
 20
-223.821907
 30
0.0
 11
-24.265846
 21
-223.925721
 31
0.0
  0
LINE
  8
OUTLINE
  6
CONTINUOUS
 62
     3
 10
-24.265846
 20
-223.925721
 30
0.0
 11
-12.368213
 21
-223.983853
 31
0.0
  0
LINE
  8
OUTLINE
  6
CONTINUOUS
 62
     3
 10
-12.368213
 20
-223.983853
 30
0.0
 11
-1.130117
 21
-224.001805
 31
0.0
  0
LINE
  8
OUTLINE
  6
CONTINUOUS
 62
     3
 10
-49.596089
 20
-223.667524
 30
0.0
 11
-36.683443
 21
-223.821907
 31
0.0
  0
LINE
  8
OUTLINE
  6
CONTINUOUS
 62
     3
 10
-150.630103
 20
-2.0
 30
0.0
 11
-149.924331
 21
-2.0
 31
0.0
  0
LINE
  8
OUTLINE
  6
CONTINUOUS
 62
     3
 10
-150.741278
 20
-2.012515
 30
0.0
 11
-150.630103
 21
-2.0
 31
0.0
  0
LINE
  8
OUTLINE
  6
CONTINUOUS
 62
     3
 10
-150.847061
 20
-2.049518
 30
0.0
 11
-150.741278
 21
-2.012515
 31
0.0
  0
LINE
  8
OUTLINE
  6
CONTINUOUS
 62
     3
 10
-150.942586
 20
-2.109661
 30
0.0
 11
-150.847061
 21
-2.049518
 31
0.0
  0
LINE
  8
OUTLINE
  6
CONTINUOUS
 62
     3
 10
-151.023129
 20
-2.190892
 30
0.0
 11
-150.942586
 21
-2.109661
 31
0.0
  0
LINE
  8
OUTLINE
  6
CONTINUOUS
 62
     3
 10
-151.082409
 20
-2.286827
 30
0.0
 11
-151.023129
 21
-2.190892
 31
0.0
  0
LINE
  8
OUTLINE
  6
CONTINUOUS
 62
     3
 10
-151.118537
 20
-2.392941
 30
0.0
 11
-151.082409
 21
-2.286827
 31
0.0
  0
LINE
  8
OUTLINE
  6
CONTINUOUS
 62
     3
 10
-151.130117
 20
-2.504378
 30
0.0
 11
-151.118537
 21
-2.392941
 31
0.0
  0
LINE
  8
OUTLINE
  6
CONTINUOUS
 62
     3
 39
50.0
 10
102.0
 20
0.0
 30
0.0
 11
102.0
 21
-2.0
 31
0.0
  0
LINE
  8
OUTLINE
  6
CONTINUOUS
 62
     3
 10
148.869883
 20
-2.504378
 30
0.0
 11
147.35132
 21
-176.771241
 31
0.0
  0
LINE
  8
OUTLINE
  6
CONTINUOUS
 62
     3
 10
103.597009
 20
-222.552215
 30
0.0
 11
118.81497
 21
-222.170636
 31
0.0
  0
LINE
  8
OUTLINE
  6
CONTINUOUS
 62
     3
 10
47.335854
 20
-223.667524
 30
0.0
 11
60.718052
 21
-223.460222
 31
0.0
  0
LINE
  8
OUTLINE
  6
CONTINUOUS
 62
     3
 10
34.423208
 20
-223.821907
 30
0.0
 11
47.335854
 21
-223.667524
 31
0.0
  0
LINE
  8
OUTLINE
  6
CONTINUOUS
 62
     3
 10
22.005612
 20
-223.925721
 30
0.0
 11
34.423208
 21
-223.821907
 31
0.0
  0
LINE
  8
OUTLINE
  6
CONTINUOUS
 62
     3
 10
10.107979
 20
-223.983853
 30
0.0
 11
22.005612
 21
-223.925721
 31
0.0
  0
LINE
  8
OUTLINE
  6
CONTINUOUS
 62
     3
 10
88.841162
 20
-222.89619
 30
0.0
 11
103.597009
 21
-222.552215
 31
0.0
  0
LINE
  8
OUTLINE
  6
CONTINUOUS
 62
     3
 10
60.718052
 20
-223.460222
 30
0.0
 11
74.55344
 21
-223.20142
 31
0.0
  0
LINE
  8
OUTLINE
  6
CONTINUOUS
 62
     3
 10
74.55344
 20
-223.20142
 30
0.0
 11
88.841162
 21
-222.89619
 31
0.0
  0
LINE
  8
OUTLINE
  6
CONTINUOUS
 62
     3
 10
146.021239
 20
-202.53452
 30
0.0
 11
145.905997
 21
-203.038476
 31
0.0
  0
LINE
  8
OUTLINE
  6
CONTINUOUS
 62
     3
 10
145.821402
 20
-203.322731
 30
0.0
 11
145.988758
 21
-202.696845
 31
0.0
  0
LINE
  8
OUTLINE
  6
CONTINUOUS
 62
     3
 10
145.448904
 20
-204.321683
 30
0.0
 11
145.471993
 21
-204.191606
 31
0.0
  0
LINE
  8
OUTLINE
  6
CONTINUOUS
 62
     3
 10
145.598696
 20
-203.905419
 30
0.0
 11
145.821402
 21
-203.322731
 31
0.0
  0
LINE
  8
OUTLINE
  6
CONTINUOUS
 62
     3
 10
145.491557
 20
-204.133395
 30
0.0
 11
145.47836
 21
-204.156649
 31
0.0
  0
LINE
  8
OUTLINE
  6
CONTINUOUS
 62
     3
 10
145.482444
 20
-204.134225
 30
0.0
 11
145.598696
 21
-203.905419
 31
0.0
  0
LINE
  8
OUTLINE
  6
CONTINUOUS
 62
     3
 10
146.243655
 20
-189.110058
 30
0.0
 11
146.1371
 21
-201.320065
 31
0.0
  0
LINE
  8
OUTLINE
  6
CONTINUOUS
 62
     3
 10
146.1371
 20
-201.320065
 30
0.0
 11
146.125741
 21
-201.667693
 31
0.0
  0
LINE
  8
OUTLINE
  6
CONTINUOUS
 62
     3
 10
146.344661
 20
-187.504591
 30
0.0
 11
146.345764
 21
-187.475196
 31
0.0
  0
LINE
  8
OUTLINE
  6
CONTINUOUS
 62
     3
 10
146.222011
 20
-189.408739
 30
0.0
 11
146.346624
 21
-187.475254
 31
0.0
  0
LINE
  8
OUTLINE
  6
CONTINUOUS
 62
     3
 10
146.345764
 20
-187.475184
 30
0.0
 11
146.486995
 21
-185.41313
 31
0.0
  0
LINE
  8
OUTLINE
  6
CONTINUOUS
 62
     3
 10
146.467965
 20
-185.697343
 30
0.0
 11
146.605683
 21
-183.778696
 31
0.0
  0
LINE
  8
OUTLINE
  6
CONTINUOUS
 62
     3
 10
146.581189
 20
-184.123038
 30
0.0
 11
146.704592
 21
-182.488224
 31
0.0
  0
LINE
  8
OUTLINE
  6
CONTINUOUS
 62
     3
 10
146.684654
 20
-182.758558
 30
0.0
 11
146.79121
 21
-181.413504
 31
0.0
  0
LINE
  8
OUTLINE
  6
CONTINUOUS
 62
     3
 10
146.780197
 20
-181.563817
 30
0.0
 11
146.882694
 21
-180.33634
 31
0.0
  0
LINE
  8
OUTLINE
  6
CONTINUOUS
 62
     3
 10
146.125741
 20
-201.667693
 30
0.0
 11
146.090659
 21
-202.074803
 31
0.0
  0
LINE
  8
OUTLINE
  6
CONTINUOUS
 62
     3
 10
146.090659
 20
-202.074803
 30
0.0
 11
146.021239
 21
-202.53452
 31
0.0
  0
LINE
  8
OUTLINE
  6
CONTINUOUS
 62
     3
 10
146.867306
 20
-180.530943
 30
0.0
 11
146.945018
 21
-179.658505
 31
0.0
  0
LINE
  8
OUTLINE
  6
CONTINUOUS
 62
     3
 10
146.93306
 20
-179.770635
 30
0.0
 11
146.997487
 21
-179.101355
 31
0.0
  0
LINE
  8
OUTLINE
  6
CONTINUOUS
 62
     3
 10
146.987158
 20
-179.188815
 30
0.0
 11
147.045656
 21
-178.596493
 31
0.0
  0
LINE
  8
OUTLINE
  6
CONTINUOUS
 62
     3
 10
147.045952
 20
-178.615247
 30
0.0
 11
147.110458
 21
-177.996586
 31
0.0
  0
LINE
  8
OUTLINE
  6
CONTINUOUS
 62
     3
 10
147.110458
 20
-177.996586
 30
0.0
 11
147.183412
 21
-177.418124
 31
0.0
  0
LINE
  8
OUTLINE
  6
CONTINUOUS
 62
     3
 10
147.076477
 20
-178.325719
 30
0.0
 11
147.105677
 21
-178.062836
 31
0.0
  0
LINE
  8
OUTLINE
  6
CONTINUOUS
 62
     3
 10
147.351363
 20
-176.771348
 30
0.0
 11
147.338203
 21
-176.881026
 31
0.0
  0
LINE
  8
OUTLINE
  6
CONTINUOUS
 62
     3
 10
147.105677
 20
-178.062836
 30
0.0
 11
147.133555
 21
-177.826625
 31
0.0
  0
LINE
  8
OUTLINE
  6
CONTINUOUS
 62
     3
 10
147.160066
 20
-177.618074
 30
0.0
 11
147.172792
 21
-177.524443
 31
0.0
  0
LINE
  8
OUTLINE
  6
CONTINUOUS
 62
     3
 10
147.172792
 20
-177.524443
 30
0.0
 11
147.185149
 21
-177.43802
 31
0.0
  0
LINE
  8
OUTLINE
  6
CONTINUOUS
 62
     3
 10
147.185149
 20
-177.43802
 30
0.0
 11
147.197119
 21
-177.358872
 31
0.0
  0
LINE
  8
OUTLINE
  6
CONTINUOUS
 62
     3
 10
147.197119
 20
-177.358872
 30
0.0
 11
147.208671
 21
-177.287088
 31
0.0
  0
LINE
  8
OUTLINE
  6
CONTINUOUS
 62
     3
 10
147.183412
 20
-177.418124
 30
0.0
 11
147.263502
 21
-176.962652
 31
0.0
  0
LINE
  8
OUTLINE
  6
CONTINUOUS
 62
     3
 10
147.219755
 20
-177.222802
 30
0.0
 11
147.230292
 21
-177.166211
 31
0.0
  0
LINE
  8
OUTLINE
  6
CONTINUOUS
 62
     3
 10
147.230292
 20
-177.166211
 30
0.0
 11
147.240155
 21
-177.117623
 31
0.0
  0
LINE
  8
OUTLINE
  6
CONTINUOUS
 62
     3
 10
147.240155
 20
-177.117623
 30
0.0
 11
147.249132
 21
-177.07751
 31
0.0
  0
LINE
  8
OUTLINE
  6
CONTINUOUS
 62
     3
 10
147.249132
 20
-177.07751
 30
0.0
 11
147.256882
 21
-177.046532
 31
0.0
  0
LINE
  8
OUTLINE
  6
CONTINUOUS
 62
     3
 10
147.256882
 20
-177.046532
 30
0.0
 11
147.26284
 21
-177.025538
 31
0.0
  0
LINE
  8
OUTLINE
  6
CONTINUOUS
 62
     3
 10
147.26284
 20
-177.025538
 30
0.0
 11
147.263406
 21
-177.023705
 31
0.0
  0
LINE
  8
OUTLINE
  6
CONTINUOUS
 62
     3
 10
147.338203
 20
-176.881026
 30
0.0
 11
147.301131
 21
-176.985448
 31
0.0
  0
LINE
  8
OUTLINE
  6
CONTINUOUS
 62
     3
 10
147.263502
 20
-176.962652
 30
0.0
 11
147.351359
 21
-176.7718
 31
0.0
  0
LINE
  8
OUTLINE
  6
CONTINUOUS
 62
     3
 10
147.301131
 20
-176.985448
 30
0.0
 11
147.253225
 21
-177.06115
 31
0.0
  0
ARC
  8
OUTLINE
  6
CONTINUOUS
 62
     3
 10
146.851367
 20
-176.766985
 30
0.0
 40
0.500015
 50
323.80915
 51
324.889847
  0
LINE
  8
OUTLINE
  6
CONTINUOUS
 62
     3
 10
145.369889
 20
-204.789646
 30
0.0
 11
145.400458
 21
-204.604505
 31
0.0
  0
LINE
  8
OUTLINE
  6
CONTINUOUS
 62
     3
 10
145.02561
 20
-211.798564
 30
0.0
 11
145.025071
 21
-211.818218
 31
0.0
  0
LINE
  8
OUTLINE
  6
CONTINUOUS
 62
     3
 10
145.006737
 20
-211.98144
 30
0.0
 11
145.025058
 21
-211.818489
 31
0.0
  0
LINE
  8
OUTLINE
  6
CONTINUOUS
 62
     3
 10
144.955846
 20
-212.174481
 30
0.0
 11
145.006737
 21
-211.98144
 31
0.0
  0
LINE
  8
OUTLINE
  6
CONTINUOUS
 62
     3
 10
144.900425
 20
-212.306429
 30
0.0
 11
144.955846
 21
-212.174481
 31
0.0
  0
LINE
  8
OUTLINE
  6
CONTINUOUS
 62
     3
 10
144.900425
 20
-212.306429
 30
0.0
 11
144.900119
 21
-212.307051
 31
0.0
  0
LINE
  8
OUTLINE
  6
CONTINUOUS
 62
     3
 10
137.420767
 20
-221.58997
 30
0.0
 11
137.734114
 21
-221.559923
 31
0.0
  0
LINE
  8
OUTLINE
  6
CONTINUOUS
 62
     3
 10
137.734114
 20
-221.559923
 30
0.0
 11
138.095137
 21
-221.519356
 31
0.0
  0
LINE
  8
OUTLINE
  6
CONTINUOUS
 62
     3
 10
138.095137
 20
-221.519356
 30
0.0
 11
138.437314
 21
-221.473651
 31
0.0
  0
LINE
  8
OUTLINE
  6
CONTINUOUS
 62
     3
 10
138.437314
 20
-221.473651
 30
0.0
 11
138.763532
 21
-221.421973
 31
0.0
  0
LINE
  8
OUTLINE
  6
CONTINUOUS
 62
     3
 10
138.763532
 20
-221.421973
 30
0.0
 11
139.078468
 21
-221.362677
 31
0.0
  0
LINE
  8
OUTLINE
  6
CONTINUOUS
 62
     3
 10
139.078468
 20
-221.362677
 30
0.0
 11
139.37899
 21
-221.295379
 31
0.0
  0
LINE
  8
OUTLINE
  6
CONTINUOUS
 62
     3
 10
139.37899
 20
-221.295379
 30
0.0
 11
139.676979
 21
-221.216373
 31
0.0
  0
LINE
  8
OUTLINE
  6
CONTINUOUS
 62
     3
 10
139.676979
 20
-221.216373
 30
0.0
 11
139.990536
 21
-221.118186
 31
0.0
  0
LINE
  8
OUTLINE
  6
CONTINUOUS
 62
     3
 10
139.990536
 20
-221.118186
 30
0.0
 11
140.333492
 21
-220.990847
 31
0.0
  0
LINE
  8
OUTLINE
  6
CONTINUOUS
 62
     3
 10
140.333492
 20
-220.990847
 30
0.0
 11
140.697551
 21
-220.829752
 31
0.0
  0
LINE
  8
OUTLINE
  6
CONTINUOUS
 62
     3
 10
140.697551
 20
-220.829752
 30
0.0
 11
141.070101
 21
-220.633123
 31
0.0
  0
LINE
  8
OUTLINE
  6
CONTINUOUS
 62
     3
 10
141.070101
 20
-220.633123
 30
0.0
 11
141.439679
 21
-220.401231
 31
0.0
  0
LINE
  8
OUTLINE
  6
CONTINUOUS
 62
     3
 10
141.439679
 20
-220.401231
 30
0.0
 11
141.801284
 21
-220.132601
 31
0.0
  0
LINE
  8
OUTLINE
  6
CONTINUOUS
 62
     3
 10
141.801284
 20
-220.132601
 30
0.0
 11
142.151211
 21
-219.825395
 31
0.0
  0
LINE
  8
OUTLINE
  6
CONTINUOUS
 62
     3
 10
142.151211
 20
-219.825395
 30
0.0
 11
142.486066
 21
-219.477537
 31
0.0
  0
LINE
  8
OUTLINE
  6
CONTINUOUS
 62
     3
 10
142.486066
 20
-219.477537
 30
0.0
 11
142.802383
 21
-219.085885
 31
0.0
  0
LINE
  8
OUTLINE
  6
CONTINUOUS
 62
     3
 10
142.802383
 20
-219.085885
 30
0.0
 11
143.095981
 21
-218.646095
 31
0.0
  0
LINE
  8
OUTLINE
  6
CONTINUOUS
 62
     3
 10
143.095981
 20
-218.646095
 30
0.0
 11
143.361589
 21
-218.153633
 31
0.0
  0
LINE
  8
OUTLINE
  6
CONTINUOUS
 62
     3
 10
143.361589
 20
-218.153633
 30
0.0
 11
143.592677
 21
-217.605309
 31
0.0
  0
LINE
  8
OUTLINE
  6
CONTINUOUS
 62
     3
 10
143.592677
 20
-217.605309
 30
0.0
 11
143.780164
 21
-217.000448
 31
0.0
  0
LINE
  8
OUTLINE
  6
CONTINUOUS
 62
     3
 10
143.780164
 20
-217.000448
 30
0.0
 11
143.913529
 21
-216.338198
 31
0.0
  0
LINE
  8
OUTLINE
  6
CONTINUOUS
 62
     3
 10
143.913529
 20
-216.338198
 30
0.0
 11
143.944695
 21
-216.102922
 31
0.0
  0
LINE
  8
OUTLINE
  6
CONTINUOUS
 62
     3
 10
137.421114
 20
-221.589939
 30
0.0
 11
137.420767
 21
-221.58997
 31
0.0
  0
LINE
  8
OUTLINE
  6
CONTINUOUS
 62
     3
 10
135.877126
 20
-221.693562
 30
0.0
 11
136.688906
 21
-221.647046
 31
0.0
  0
LINE
  8
OUTLINE
  6
CONTINUOUS
 62
     3
 10
136.688906
 20
-221.647046
 30
0.0
 11
137.421114
 21
-221.589939
 31
0.0
  0
LINE
  8
OUTLINE
  6
CONTINUOUS
 62
     3
 10
144.20984
 20
-212.983592
 30
0.0
 11
144.5128
 21
-212.781215
 31
0.0
  0
LINE
  8
OUTLINE
  6
CONTINUOUS
 62
     3
 10
144.5128
 20
-212.781215
 30
0.0
 11
144.753389
 21
-212.539235
 31
0.0
  0
LINE
  8
OUTLINE
  6
CONTINUOUS
 62
     3
 10
143.946203
 20
-216.089747
 30
0.0
 11
143.954579
 21
-216.012086
 31
0.0
  0
LINE
  8
OUTLINE
  6
CONTINUOUS
 62
     3
 10
143.944695
 20
-216.102922
 30
0.0
 11
144.217139
 21
-213.720797
 31
0.0
  0
LINE
  8
OUTLINE
  6
CONTINUOUS
 62
     3
 10
144.217139
 20
-213.720797
 30
0.0
 11
144.310398
 21
-212.916419
 31
0.0
  0
LINE
  8
OUTLINE
  6
CONTINUOUS
 62
     3
 10
144.753389
 20
-212.539235
 30
0.0
 11
144.900124
 21
-212.307054
 31
0.0
  0
LINE
  8
OUTLINE
  6
CONTINUOUS
 62
     3
 10
118.81497
 20
-222.170636
 30
0.0
 11
134.330892
 21
-221.750666
 31
0.0
  0
LINE
  8
OUTLINE
  6
CONTINUOUS
 62
     3
 10
134.330715
 20
-221.750706
 30
0.0
 11
135.049757
 21
-221.72796
 31
0.0
  0
LINE
  8
OUTLINE
  6
CONTINUOUS
 62
     3
 10
134.351776
 20
-221.749179
 30
0.0
 11
134.330892
 21
-221.750666
 31
0.0
  0
LINE
  8
OUTLINE
  6
CONTINUOUS
 62
     3
 10
135.049757
 20
-221.72796
 30
0.0
 11
135.877126
 21
-221.693562
 31
0.0
  0
LINE
  8
OUTLINE
  6
CONTINUOUS
 62
     3
 10
145.400458
 20
-204.604505
 30
0.0
 11
145.448904
 21
-204.321683
 31
0.0
  0
LINE
  8
OUTLINE
  6
CONTINUOUS
 62
     3
 10
145.025058
 20
-211.818489
 30
0.0
 11
145.394992
 21
-204.277958
 31
0.0
  0
LINE
  8
OUTLINE
  6
CONTINUOUS
 62
     3
 10
148.858302
 20
-2.392941
 30
0.0
 11
148.869883
 21
-2.504378
 31
0.0
  0
LINE
  8
OUTLINE
  6
CONTINUOUS
 62
     3
 10
148.822175
 20
-2.286827
 30
0.0
 11
148.858302
 21
-2.392941
 31
0.0
  0
LINE
  8
OUTLINE
  6
CONTINUOUS
 62
     3
 10
148.762894
 20
-2.190892
 30
0.0
 11
148.822175
 21
-2.286827
 31
0.0
  0
LINE
  8
OUTLINE
  6
CONTINUOUS
 62
     3
 10
148.682351
 20
-2.109661
 30
0.0
 11
148.762894
 21
-2.190892
 31
0.0
  0
LINE
  8
OUTLINE
  6
CONTINUOUS
 62
     3
 10
148.586827
 20
-2.049518
 30
0.0
 11
148.682351
 21
-2.109661
 31
0.0
  0
TEXT
  8
ETC
  6
CONTINUOUS
 62
    61
 10
367.33893
 20
636.718335
 30
0.0
 40
40.0
  1
JT-SB216GSN-C_6
 41
0.9
  0
POINT
  8
ARRANGE
  6
CONTINUOUS
 62
     1
 10
0.0
 20
0.0
 30
0.0
 39
50.0
  0
TEXT
  8
ETC
  6
CONTINUOUS
 62
    61
 10
367.33893
 20
765.905385
 30
0.0
 40
40.0
  1
JT-SB116GN-C_6
 41
0.9
  0
TEXT
  8
ETC
  6
CONTINUOUS
 62
    61
 10
367.33893
 20
836.401736
 30
0.0
 40
40.0
  1
JT-SB116GN-W_6
 41
0.9
  0
LINE
  8
DETAIL
  6
CONTINUOUS
 62
     5
 39
50.0
 10
-135.5
 20
-2.0
 30
0.0
 11
135.5
 21
-2.0
 31
0.0
  0
LINE
  8
DETAIL
  6
CONTINUOUS
 62
     5
 39
50.0
 10
135.5
 20
-2.0
 30
0.0
 11
135.5
 21
-163.925169
 31
0.0
  0
LINE
  8
DETAIL
  6
CONTINUOUS
 62
     5
 39
50.0
 10
-135.5
 20
-2.0
 30
0.0
 11
-135.5
 21
-163.925169
 31
0.0
  0
LINE
  8
DETAIL
  6
CONTINUOUS
 62
     5
 39
50.0
 10
-135.5
 20
-163.925169
 30
0.0
 11
135.5
 21
-163.925169
 31
0.0
  0
LINE
  8
SIZE
  6
CONTINUOUS
 62
    30
 10
-135.5
 20
-184.51233
 30
0.0
 11
-135.5
 21
-390.361733
 31
0.0
  0
LINE
  8
SIZE
  6
CONTINUOUS
 62
    30
 10
135.5
 20
-183.925169
 30
0.0
 11
135.5
 21
-390.361733
 31
0.0
  0
LINE
  8
SIZE
  6
CONTINUOUS
 62
    30
 10
-123.5
 20
-370.361733
 30
0.0
 11
123.5
 21
-370.361733
 31
0.0
  0
CIRCLE
  8
SIZE
  6
CONTINUOUS
 62
    30
 10
-135.5
 20
-370.361733
 30
0.0
 40
6.0
  0
LINE
  8
SIZE
  6
CONTINUOUS
 62
    30
 10
-135.5
 20
-370.361733
 30
0.0
 11
-123.5
 21
-370.361733
 31
0.0
  0
CIRCLE
  8
SIZE
  6
CONTINUOUS
 62
    30
 10
135.5
 20
-370.361733
 30
0.0
 40
6.0
  0
LINE
  8
SIZE
  6
CONTINUOUS
 62
    30
 10
135.5
 20
-370.361733
 30
0.0
 11
123.5
 21
-370.361733
 31
0.0
  0
TEXT
  8
SIZE
  6
CONTINUOUS
 62
    30
 10
-74.592
 20
-345.361733
 30
0.0
 40
64.0
  1
271
 50
0.0
 41
0.9
 51
0.0
  7
STANDARD
 71
     0
 72
     1
 11
0.0
 21
-345.361733
 31
0.0
210
0.0
220
0.0
230
1.0
  0
POINT
  8
DEFPOINTS
  6
CONTINUOUS
 62
    30
 10
-135.5
 20
-164.51233
 30
0.0
  0
POINT
  8
DEFPOINTS
  6
CONTINUOUS
 62
    30
 10
135.5
 20
-163.925169
 30
0.0
  0
POINT
  8
DEFPOINTS
  6
CONTINUOUS
 62
    30
 10
135.5
 20
-370.361733
 30
0.0
  0
ENDSEC
  0
EOF
