  0
SECTION
  2
HEADER
  9
$ACADVER
  1
AC1009
  9
$INSBASE
 10
0
 20
0
 30
0
  9
$EXTMIN
 10
0
 20
0
  9
$EXTMAX
 10
5940
 20
4200
  9
$LIMMIN
 10
0
 20
0
  9
$LIMMAX
 10
5940
 20
4200
  9
$LTSCALE
 40
20
  0
ENDSEC
  0
SECTION
  2
TABLES
  0
TABLE
  2
LTYPE
 70
     9
  0
LTYPE
  2
CONTINUOUS
 70
    64
  3
実線
 72
    65
 73
     0
 40
0.0
  0
LTYPE
  2
DASHED1
 70
    64
  3
--  --  --  --  --  --  --  --  
 72
    65
 73
     2
 40
2.5
 49
1.25
 49
-1.25
  0
LTYPE
  2
DASHED2
 70
    64
  3
----    ----    ----    ----    
 72
    65
 73
     2
 40
5.0
 49
2.5
 49
-2.5
  0
LTYPE
  2
DASHED3
 70
    64
  3
------  ------  ------  ------  
 72
    65
 73
     2
 40
5.0
 49
3.75
 49
-1.25
  0
LTYPE
  2
CENTER1
 70
    64
  3
----- - ----- - ----- - ----- - 
 72
    65
 73
     4
 40
10.0
 49
6.25
 49
-1.25
 49
1.25
 49
-1.25
  0
LTYPE
  2
CENTER2
 70
    64
  3
----------  --  ----------  --  
 72
    65
 73
     4
 40
20.0
 49
12.5
 49
-2.5
 49
2.5
 49
-2.5
  0
LTYPE
  2
PHANTOM1
 70
    64
  3
--- - - --- - - --- - - --- - - 
 72
    65
 73
     6
 40
10.0
 49
3.25
 49
-1.25
 49
1.25
 49
-1.25
 49
1.25
 49
-1.25
  0
LTYPE
  2
PHANTOM2
 70
    64
  3
--------  -  -  --------  -  -  
 72
    65
 73
     6
 40
20.0
 49
10.0
 49
-2.5
 49
1.25
 49
-2.5
 49
1.25
 49
-2.5
  0
LTYPE
  2
DOT
 70
    64
  3
-   -   -   -   -   -   -   -   
 72
    65
 73
     2
 40
2.5
 49
0.625
 49
-1.875
  0
LTYPE
  2
DUMMY
 70
    64
  3
ダミー
 72
    65
 73
     0
 40
0.0
  0
LTYPE
  2
RAND1
 70
    64
  3
ランダム線1
 72
    65
 73
     4
 40
10.0
 49
1.0
 49
-2.0
 49
3.0
 49
-4.0
  0
LTYPE
  2
RAND2
 70
    64
  3
ランダム線2
 72
    65
 73
     4
 40
14.0
 49
2.0
 49
-3.0
 49
4.0
 49
-5.0
  0
LTYPE
  2
RAND3
 70
    64
  3
ランダム線3
 72
    65
 73
     4
 40
18.0
 49
3.0
 49
-4.0
 49
5.0
 49
-6.0
  0
LTYPE
  2
RAND4
 70
    64
  3
ランダム線4
 72
    65
 73
     4
 40
22.0
 49
4.0
 49
-5.0
 49
6.0
 49
-7.0
  0
LTYPE
  2
RAND5
 70
    64
  3
ランダム線5
 72
    65
 73
     4
 40
26.0
 49
5.0
 49
-6.0
 49
7.0
 49
-8.0
  0
LTYPE
  2
LONG1
 70
    64
  3
----------  --  ----------  --  
 72
    65
 73
     4
 40
40.0
 49
32.5
 49
-2.5
 49
2.5
 49
-2.5
  0
LTYPE
  2
LONG2
 70
    64
  3
--------  -  -  --------  -  -  
 72
    65
 73
     6
 40
40.0
 49
30.0
 49
-2.5
 49
1.25
 49
-2.5
 49
1.25
 49
-2.5
  0
LTYPE
  2
LONG3
 70
    64
  3
+++++++++++++++..+++++++++++++++
 72
    65
 73
     2
 40
40.0
 49
37.5
 49
-2.5
  0
LTYPE
  2
LONG4
 70
    64
  3
+++++++++++++++..+++++++++++++++
 72
    65
 73
     2
 40
80.0
 49
75.0
 49
-5.0
  0
LTYPE
  2
LONG5
 70
    64
  3
----------  --  ----------  --  
 72
    65
 73
     4
 40
60.0
 49
37.5
 49
-7.5
 49
7.5
 49
-7.5
  0
LTYPE
  2
dashed
 70
   64
  3
-------   -------------   ------
 72
   65
 73
    2
 40
7.5
 49
6
 49
-1.5
  0
LTYPE
  2
dashed_spaced
 70
   64
  3
----        --------        ----
 72
   65
 73
    2
 40
12
 49
6
 49
-6
  0
LTYPE
  2
long_dashed_dotted
 70
   64
  3
------------- --- --------------
 72
   65
 73
    4
 40
15.25
 49
12
 49
-1.5
 49
0.25
 49
-1.5
  0
LTYPE
  2
long_dashed_double-dotted
 70
   64
  3
----------- --- --- ------------
 72
   65
 73
    6
 40
17
 49
12
 49
-1.5
 49
0.25
 49
-1.5
 49
0.25
 49
-1.5
  0
LTYPE
  2
long_dashed_triplicate-dotted
 70
   64
  3
--------- --- --- --- ----------
 72
   65
 73
    8
 40
18.75
 49
12
 49
-1.5
 49
0.25
 49
-1.5
 49
0.25
 49
-1.5
 49
0.25
 49
-1.5
  0
LTYPE
  2
dotted
 70
   64
  3
   -       -       -       -    
 72
   65
 73
    2
 40
1.75
 49
0.25
 49
-1.5
  0
LTYPE
  2
chain
 70
   64
  3
-------------- -- --------------
 72
   65
 73
    4
 40
18.5
 49
12
 49
-1.5
 49
3.5
 49
-1.5
  0
LTYPE
  2
chain_double_dash
 70
   64
  3
------------ -- -- -------------
 72
   65
 73
    6
 40
23.5
 49
12
 49
-1.5
 49
3.5
 49
-1.5
 49
3.5
 49
-1.5
  0
LTYPE
  2
dashed_dotted
 70
   64
  3
-----------     -     ----------
 72
   65
 73
    4
 40
9.25
 49
6
 49
-1.5
 49
0.25
 49
-1.5
  0
LTYPE
  2
double-dashed_dotted
 70
   64
  3
------   -----------   -   -----
 72
   65
 73
    6
 40
16.75
 49
6
 49
-1.5
 49
6
 49
-1.5
 49
0.25
 49
-1.5
  0
LTYPE
  2
dashed_double-dotted
 70
   64
  3
---------    -    -    ---------
 72
   65
 73
    6
 40
11
 49
6
 49
-1.5
 49
0.25
 49
-1.5
 49
0.25
 49
-1.5
  0
LTYPE
  2
double-dashed_double-dotted
 70
   64
  3
-----   ---------   -   -   ----
 72
   65
 73
    8
 40
18.5
 49
6
 49
-1.5
 49
6
 49
-1.5
 49
0.25
 49
-1.5
 49
0.25
 49
-1.5
  0
LTYPE
  2
dashed_triplicate-dotted
 70
   64
  3
-------    -    -    -    ------
 72
   65
 73
    8
 40
12.75
 49
6
 49
-1.5
 49
0.25
 49
-1.5
 49
0.25
 49
-1.5
 49
0.25
 49
-1.5
  0
LTYPE
  2
double-dashed_triplicate-dotted
 70
   64
  3
-----  ---------  -  -  -  -----
 72
   65
 73
   10
 40
20.25
 49
6
 49
-1.5
 49
6
 49
-1.5
 49
0.25
 49
-1.5
 49
0.25
 49
-1.5
 49
0.25
 49
-1.5
  0
LTYPE
  2
undefined
 70
   64
  3
--------------------------------
 72
   65
 73
    0
 40
0
  0
LTYPE
  2
DASHED
 70
   64
  3
------     -----------     -----
 72
   65
 73
    2
 40
0.75
 49
0.5
 49
-0.25
  0
LTYPE
  2
DASHDOT
 70
   64
  3
--------        -        -------
 72
   65
 73
    4
 40
1.01
 49
0.5
 49
-0.25
 49
0.01
 49
-0.25
  0
LTYPE
  2
DIVIDE
 70
   64
  3
------      -      -      ------
 72
   65
 73
    6
 40
1.27
 49
0.5
 49
-0.25
 49
0.01
 49
-0.25
 49
0.01
 49
-0.25
  0
ENDTAB
  0
TABLE
  2
STYLE
  5
3
100
AcDbSymbolTable
 70
     1
  0
STYLE
  5
10
100
AcDbSymbolTableRecord
100
AcDbTextStyleTableRecord
  2
STANDARD
 70
     0
 40
0.0
 41
1.0
 50
0.0
 71
     0
 42
0.2
  3
txt
  4
bigfont.shx
  0
STYLE
  5
26
100
AcDbSymbolTableRecord
100
AcDbTextStyleTableRecord
  2
TATEGAKI
 70
    68
 40
0.0
 41
1.0
 50
0.0
 71
     0
 42
1.0
  3
txt
  4
bigfont.shx
  0
ENDTAB
  0
TABLE
  2
LAYER
 70
    4
  0
LAYER
  2
_0-0_
 70
   64
 62
    7
  6
CONTINUOUS
  0
LAYER
  2
_0-1_
 70
   64
 62
    7
  6
CONTINUOUS
  0
LAYER
  2
_0-2_
 70
   64
 62
    7
  6
CONTINUOUS
  0
LAYER
  2
ADD_LINE
 70
   64
 62
    7
  6
CONTINUOUS
  0
ENDTAB
  0
ENDSEC
  0
SECTION
  2
BLOCKS
  0
ENDSEC
  0
SECTION
  2
ENTITIES
  0
LINE
  8
_0-0_
  6
CONTINUOUS
 62
    3
 10
2230.4260382190951
 20
1957.4108200211863
 11
2238.4260382190955
 21
1957.4108200211863
  0
LINE
  8
_0-0_
  6
CONTINUOUS
 62
    3
 10
2190.4260382190951
 20
1957.4108200211863
 11
2198.4260382190955
 21
1957.4108200211863
  0
LINE
  8
_0-0_
  6
CONTINUOUS
 62
    3
 10
2190.4260382190951
 20
2647.4108200211867
 11
2198.4260382190955
 21
2647.4108200211867
  0
LINE
  8
_0-0_
  6
CONTINUOUS
 62
    3
 10
2230.4260382190951
 20
2647.4108200211867
 11
2238.4260382190955
 21
2647.4108200211867
  0
LINE
  8
_0-0_
  6
CONTINUOUS
 62
    3
 10
2198.4260382190955
 20
2068.4108200211863
 11
2198.4260382190955
 21
1957.4108200211863
  0
LINE
  8
_0-0_
  6
CONTINUOUS
 62
    3
 10
2190.4260382190951
 20
2068.4108200211863
 11
2190.4260382190951
 21
1957.4108200211863
  0
LINE
  8
_0-0_
  6
CONTINUOUS
 62
    3
 10
2228.9260382190951
 20
2047.4108200211863
 11
2228.9260382190951
 21
2017.4108200211863
  0
LINE
  8
_0-0_
  6
CONTINUOUS
 62
    3
 10
2228.9260382190951
 20
2047.4108200211863
 11
2239.9260382190951
 21
2047.4108200211863
  0
LINE
  8
_0-0_
  6
CONTINUOUS
 62
    3
 10
2228.9260382190951
 20
2017.4108200211863
 11
2239.9260382190951
 21
2017.4108200211863
  0
LINE
  8
_0-0_
  6
CONTINUOUS
 62
    3
 10
2244.4260382190951
 20
2037.4108200211863
 11
2244.4260382190951
 21
2027.4108200211863
  0
LINE
  8
_0-0_
  6
CONTINUOUS
 62
    3
 10
2239.9260382190951
 20
2037.4108200211863
 11
2244.4260382190951
 21
2037.4108200211863
  0
LINE
  8
_0-0_
  6
CONTINUOUS
 62
    3
 10
2239.9260382190951
 20
2027.4108200211863
 11
2244.4260382190951
 21
2027.4108200211863
  0
LINE
  8
_0-0_
  6
CONTINUOUS
 62
    3
 10
2244.4260382190951
 20
2028.9108200211863
 11
2269.1792136921499
 21
2028.9108200211863
  0
LINE
  8
_0-0_
  6
CONTINUOUS
 62
    3
 10
2244.4260382190951
 20
2035.9108200211863
 11
2269.1792136921499
 21
2035.9108200211863
  0
LINE
  8
_0-0_
  6
CONTINUOUS
 62
    3
 10
2239.9260382190951
 20
2047.4108200211863
 11
2239.9260382190951
 21
2037.4108200211863
  0
LINE
  8
_0-0_
  6
CONTINUOUS
 62
    3
 10
2239.9260382190951
 20
2027.4108200211863
 11
2239.9260382190951
 21
2017.4108200211863
  0
LINE
  8
_0-0_
  6
CONTINUOUS
 62
    3
 10
2238.4260382190955
 20
2068.4108200211863
 11
2238.4260382190955
 21
2047.4108200211863
  0
LINE
  8
_0-0_
  6
CONTINUOUS
 62
    3
 10
2238.4260382190955
 20
2017.4108200211863
 11
2238.4260382190955
 21
1957.4108200211863
  0
LINE
  8
_0-0_
  6
CONTINUOUS
 62
    3
 10
2230.4260382190951
 20
2068.4108200211863
 11
2230.4260382190951
 21
2047.4108200211863
  0
LINE
  8
_0-0_
  6
CONTINUOUS
 62
    3
 10
2230.4260382190951
 20
2017.4108200211863
 11
2230.4260382190951
 21
1957.4108200211863
  0
LINE
  8
_0-0_
  6
CONTINUOUS
 62
    3
 10
2230.4260382190951
 20
2587.4108200211867
 11
2230.4260382190951
 21
2647.4108200211867
  0
LINE
  8
_0-0_
  6
CONTINUOUS
 62
    3
 10
2230.4260382190951
 20
2536.4108200211863
 11
2230.4260382190951
 21
2557.4108200211863
  0
LINE
  8
_0-0_
  6
CONTINUOUS
 62
    3
 10
2238.4260382190955
 20
2587.4108200211867
 11
2238.4260382190955
 21
2647.4108200211867
  0
LINE
  8
_0-0_
  6
CONTINUOUS
 62
    3
 10
2238.4260382190955
 20
2536.4108200211863
 11
2238.4260382190955
 21
2557.4108200211863
  0
LINE
  8
_0-0_
  6
CONTINUOUS
 62
    3
 10
2239.9260382190951
 20
2577.4108200211867
 11
2239.9260382190951
 21
2587.4108200211867
  0
LINE
  8
_0-0_
  6
CONTINUOUS
 62
    3
 10
2239.9260382190951
 20
2557.4108200211863
 11
2239.9260382190951
 21
2567.4108200211867
  0
LINE
  8
_0-0_
  6
CONTINUOUS
 62
    3
 10
2244.4260382190951
 20
2568.9108200211867
 11
2269.1792136921499
 21
2568.9108200211867
  0
LINE
  8
_0-0_
  6
CONTINUOUS
 62
    3
 10
2244.4260382190951
 20
2575.9108200211863
 11
2269.1792136921499
 21
2575.9108200211863
  0
LINE
  8
_0-0_
  6
CONTINUOUS
 62
    3
 10
2239.9260382190951
 20
2577.4108200211867
 11
2244.4260382190951
 21
2577.4108200211867
  0
LINE
  8
_0-0_
  6
CONTINUOUS
 62
    3
 10
2239.9260382190951
 20
2567.4108200211867
 11
2244.4260382190951
 21
2567.4108200211867
  0
LINE
  8
_0-0_
  6
CONTINUOUS
 62
    3
 10
2244.4260382190951
 20
2567.4108200211867
 11
2244.4260382190951
 21
2577.4108200211867
  0
LINE
  8
_0-0_
  6
CONTINUOUS
 62
    3
 10
2228.9260382190951
 20
2587.4108200211867
 11
2239.9260382190951
 21
2587.4108200211867
  0
LINE
  8
_0-0_
  6
CONTINUOUS
 62
    3
 10
2228.9260382190951
 20
2557.4108200211863
 11
2239.9260382190951
 21
2557.4108200211863
  0
LINE
  8
_0-0_
  6
CONTINUOUS
 62
    3
 10
2228.9260382190951
 20
2557.4108200211863
 11
2228.9260382190951
 21
2587.4108200211867
  0
LINE
  8
_0-0_
  6
CONTINUOUS
 62
    3
 10
2190.4260382190951
 20
2536.4108200211863
 11
2190.4260382190951
 21
2647.4108200211867
  0
LINE
  8
_0-0_
  6
CONTINUOUS
 62
    3
 10
2198.4260382190955
 20
2536.4108200211863
 11
2198.4260382190955
 21
2647.4108200211867
  0
LINE
  8
_0-1_
  6
DASHDOT
 62
    4
 10
2194.4260382190951
 20
2068.4108200211863
 11
2194.4260382190951
 21
1952.1331264634473
  0
LINE
  8
_0-1_
  6
DASHDOT
 62
    4
 10
2234.4260382190951
 20
2068.4108200211863
 11
2234.4260382190951
 21
1952.1331264634473
  0
LINE
  8
_0-1_
  6
DASHDOT
 62
    4
 10
2270.4260382190951
 20
2032.4108200211863
 11
2228.9260382190951
 21
2032.4108200211863
  0
LINE
  8
_0-1_
  6
DASHDOT
 62
    4
 10
2270.4260382190951
 20
2572.4108200211867
 11
2228.9260382190951
 21
2572.4108200211867
  0
LINE
  8
_0-1_
  6
DASHDOT
 62
    4
 10
2234.4260382190951
 20
2536.4108200211863
 11
2234.4260382190951
 21
2652.26763764814
  0
LINE
  8
_0-1_
  6
DASHDOT
 62
    4
 10
2194.4260382190951
 20
2536.4108200211863
 11
2194.4260382190951
 21
2652.26763764814
  0
LINE
  8
_0-0_
  6
CONTINUOUS
 62
    3
 10
2270.4260382190951
 20
2677.4108200211867
 11
3659.4260382190951
 21
2677.4108200211867
  0
CIRCLE
  8
_0-0_
  6
CONTINUOUS
 62
    3
 10
3641.9260382190951
 20
2089.9108200211863
 40
2.24999999999994
  0
CIRCLE
  8
_0-0_
  6
CONTINUOUS
 62
    3
 10
3641.9260382190951
 20
2464.9108200211863
 40
2.24999999999994
  0
LINE
  8
_0-0_
  6
CONTINUOUS
 62
    3
 10
3659.4260382190951
 20
1927.4108200211863
 11
3659.4260382190951
 21
2677.4108200211867
  0
CIRCLE
  8
_0-0_
  6
CONTINUOUS
 62
    3
 10
3284.4260382190951
 20
2302.4108200211863
 40
2.24999999999994
  0
CIRCLE
  8
_0-0_
  6
CONTINUOUS
 62
    3
 10
2909.4260382190951
 20
2302.4108200211863
 40
2.2500000000002198
  0
CIRCLE
  8
_0-0_
  6
CONTINUOUS
 62
    3
 10
2534.4260382190951
 20
2302.4108200211863
 40
2.2500000000002198
  0
CIRCLE
  8
_0-0_
  6
CONTINUOUS
 62
    3
 10
3496.9260382190951
 20
2659.9108200211867
 40
2.24999999999994
  0
CIRCLE
  8
_0-0_
  6
CONTINUOUS
 62
    3
 10
3121.9260382190951
 20
2659.9108200211867
 40
2.2500000000002198
  0
CIRCLE
  8
_0-0_
  6
CONTINUOUS
 62
    3
 10
2746.9260382190951
 20
2659.9108200211867
 40
2.2500000000002198
  0
CIRCLE
  8
_0-0_
  6
CONTINUOUS
 62
    3
 10
2371.9260382190951
 20
2659.9108200211867
 40
2.2500000000002198
  0
CIRCLE
  8
_0-0_
  6
CONTINUOUS
 62
    3
 10
2176.9260382190951
 20
2514.9108200211863
 40
2.2500000000002198
  0
CIRCLE
  8
_0-0_
  6
CONTINUOUS
 62
    3
 10
2176.9260382190951
 20
2139.9108200211863
 40
2.2500000000002198
  0
CIRCLE
  8
_0-0_
  6
CONTINUOUS
 62
    3
 10
2321.9260382190951
 20
1944.9108200211863
 40
2.2500000000002198
  0
CIRCLE
  8
_0-0_
  6
CONTINUOUS
 62
    3
 10
2696.9260382190951
 20
1944.9108200211863
 40
2.2500000000002198
  0
CIRCLE
  8
_0-0_
  6
CONTINUOUS
 62
    3
 10
3071.9260382190951
 20
1944.9108200211863
 40
2.2500000000002198
  0
CIRCLE
  8
_0-0_
  6
CONTINUOUS
 62
    3
 10
3446.9260382190951
 20
1944.9108200211863
 40
2.24999999999994
  0
LINE
  8
_0-0_
  6
CONTINUOUS
 62
    3
 10
2270.4260382190951
 20
2068.4108200211863
 11
2270.4260382190951
 21
1927.4108200211863
  0
LINE
  8
_0-0_
  6
CONTINUOUS
 62
    3
 10
2159.4260382190951
 20
2068.4108200211863
 11
2270.4260382190951
 21
2068.4108200211863
  0
LINE
  8
_0-0_
  6
CONTINUOUS
 62
    3
 10
2159.4260382190951
 20
2536.4108200211863
 11
2270.4260382190951
 21
2536.4108200211863
  0
LINE
  8
_0-0_
  6
CONTINUOUS
 62
    3
 10
2270.4260382190951
 20
1927.4108200211863
 11
3659.4260382190951
 21
1927.4108200211863
  0
LINE
  8
_0-0_
  6
CONTINUOUS
 62
    3
 10
2270.4260382190951
 20
2677.4108200211867
 11
2270.4260382190951
 21
2536.4108200211863
  0
LINE
  8
_0-0_
  6
CONTINUOUS
 62
    3
 10
2159.4260382190951
 20
2068.4108200211863
 11
2159.4260382190951
 21
2536.4108200211863
  0
LINE
  8
_0-1_
  6
DASHDOT
 62
    4
 10
2359.6760382190955
 20
2659.9108200211867
 11
2384.1760382190951
 21
2659.9108200211867
  0
LINE
  8
_0-1_
  6
DASHDOT
 62
    4
 10
2371.9260382190951
 20
2672.1608200211863
 11
2371.9260382190951
 21
2647.6608200211867
  0
LINE
  8
_0-1_
  6
DASHDOT
 62
    4
 10
3629.6760382190951
 20
2089.9108200211863
 11
3654.1760382190955
 21
2089.9108200211863
  0
LINE
  8
_0-1_
  6
DASHDOT
 62
    4
 10
3641.9260382190951
 20
2102.1608200211863
 11
3641.9260382190951
 21
2077.6608200211863
  0
LINE
  8
_0-1_
  6
DASHDOT
 62
    4
 10
3629.6760382190951
 20
2464.9108200211863
 11
3654.1760382190955
 21
2464.9108200211863
  0
LINE
  8
_0-1_
  6
DASHDOT
 62
    4
 10
3641.9260382190951
 20
2477.1608200211863
 11
3641.9260382190951
 21
2452.6608200211863
  0
LINE
  8
_0-1_
  6
DASHDOT
 62
    4
 10
3272.1760382190955
 20
2302.4108200211863
 11
3296.6760382190955
 21
2302.4108200211863
  0
LINE
  8
_0-1_
  6
DASHDOT
 62
    4
 10
3284.4260382190951
 20
2314.6608200211863
 11
3284.4260382190951
 21
2290.1608200211863
  0
LINE
  8
_0-1_
  6
DASHDOT
 62
    4
 10
2897.1760382190955
 20
2302.4108200211863
 11
2921.6760382190955
 21
2302.4108200211863
  0
LINE
  8
_0-1_
  6
DASHDOT
 62
    4
 10
2909.4260382190951
 20
2314.6608200211863
 11
2909.4260382190951
 21
2290.1608200211863
  0
LINE
  8
_0-1_
  6
DASHDOT
 62
    4
 10
2522.1760382190955
 20
2302.4108200211863
 11
2546.6760382190951
 21
2302.4108200211863
  0
LINE
  8
_0-1_
  6
DASHDOT
 62
    4
 10
2534.4260382190951
 20
2314.6608200211863
 11
2534.4260382190951
 21
2290.1608200211863
  0
LINE
  8
_0-1_
  6
DASHDOT
 62
    4
 10
2164.6760382190955
 20
2514.9108200211863
 11
2189.1760382190951
 21
2514.9108200211863
  0
LINE
  8
_0-1_
  6
DASHDOT
 62
    4
 10
2176.9260382190951
 20
2527.1608200211863
 11
2176.9260382190951
 21
2502.6608200211863
  0
LINE
  8
_0-1_
  6
DASHDOT
 62
    4
 10
2164.6760382190955
 20
2139.9108200211863
 11
2189.1760382190951
 21
2139.9108200211863
  0
LINE
  8
_0-1_
  6
DASHDOT
 62
    4
 10
2176.9260382190951
 20
2152.1608200211863
 11
2176.9260382190951
 21
2127.6608200211863
  0
LINE
  8
_0-1_
  6
DASHDOT
 62
    4
 10
2309.6760382190955
 20
1944.9108200211863
 11
2334.1760382190951
 21
1944.9108200211863
  0
LINE
  8
_0-1_
  6
DASHDOT
 62
    4
 10
2321.9260382190951
 20
1957.1608200211863
 11
2321.9260382190951
 21
1932.6608200211863
  0
LINE
  8
_0-1_
  6
DASHDOT
 62
    4
 10
2734.6760382190955
 20
2659.9108200211867
 11
2759.1760382190955
 21
2659.9108200211867
  0
LINE
  8
_0-1_
  6
DASHDOT
 62
    4
 10
2746.9260382190951
 20
2672.1608200211863
 11
2746.9260382190951
 21
2647.6608200211867
  0
LINE
  8
_0-1_
  6
DASHDOT
 62
    4
 10
3109.6760382190955
 20
2659.9108200211867
 11
3134.1760382190955
 21
2659.9108200211867
  0
LINE
  8
_0-1_
  6
DASHDOT
 62
    4
 10
3121.9260382190951
 20
2672.1608200211863
 11
3121.9260382190951
 21
2647.6608200211867
  0
LINE
  8
_0-1_
  6
DASHDOT
 62
    4
 10
2684.6760382190955
 20
1944.9108200211863
 11
2709.1760382190955
 21
1944.9108200211863
  0
LINE
  8
_0-1_
  6
DASHDOT
 62
    4
 10
2696.9260382190951
 20
1957.1608200211863
 11
2696.9260382190951
 21
1932.6608200211863
  0
LINE
  8
_0-1_
  6
DASHDOT
 62
    4
 10
3059.6760382190955
 20
1944.9108200211863
 11
3084.1760382190955
 21
1944.9108200211863
  0
LINE
  8
_0-1_
  6
DASHDOT
 62
    4
 10
3071.9260382190951
 20
1957.1608200211863
 11
3071.9260382190951
 21
1932.6608200211863
  0
LINE
  8
_0-1_
  6
DASHDOT
 62
    4
 10
3434.6760382190955
 20
1944.9108200211863
 11
3459.1760382190955
 21
1944.9108200211863
  0
LINE
  8
_0-1_
  6
DASHDOT
 62
    4
 10
3446.9260382190951
 20
1957.1608200211863
 11
3446.9260382190951
 21
1932.6608200211863
  0
LINE
  8
_0-1_
  6
DASHDOT
 62
    4
 10
3484.6760382190955
 20
2659.9108200211867
 11
3509.1760382190955
 21
2659.9108200211867
  0
LINE
  8
_0-1_
  6
DASHDOT
 62
    4
 10
3496.9260382190951
 20
2672.1608200211863
 11
3496.9260382190951
 21
2647.6608200211867
  0
CIRCLE
  8
_0-1_
  6
DASHDOT
 62
    4
 10
3071.9260382190951
 20
1944.9108200211863
 40
2.2500000000002198
  0
ARC
  8
_0-0_
  6
CONTINUOUS
 62
    3
 10
3561.9260382190951
 20
2552.4108200211863
 40
47.5
 50
270
 51
0
  0
ARC
  8
_0-0_
  6
CONTINUOUS
 62
    3
 10
3561.9260382190951
 20
2552.4108200211863
 40
77.5
 50
270
 51
0
  0
ARC
  8
_0-0_
  6
CONTINUOUS
 62
    3
 10
3561.9260382190951
 20
2552.4108200211863
 40
47.5
 50
0
 51
90
  0
ARC
  8
_0-0_
  6
CONTINUOUS
 62
    3
 10
3561.9260382190951
 20
2552.4108200211863
 40
77.5
 50
0
 51
90
  0
ARC
  8
_0-0_
  6
CONTINUOUS
 62
    3
 10
2298.9260382190951
 20
2634.9108200211867
 40
47.5
 50
270
 51
299.99999999999989
  0
LINE
  8
_0-0_
  6
CONTINUOUS
 62
    3
 10
2322.6760382190951
 20
2593.7746133414253
 11
2367.281846594663
 21
2619.5277888144801
  0
ARC
  8
_0-0_
  6
CONTINUOUS
 62
    3
 10
2406.031846594663
 20
2552.4108200211863
 40
77.5
 50
90
 51
120.00000000000011
  0
LINE
  8
_0-0_
  6
CONTINUOUS
 62
    3
 10
2406.031846594663
 20
2629.9108200211867
 11
3561.9260382190951
 21
2629.9108200211867
  0
ARC
  8
_0-0_
  6
CONTINUOUS
 62
    3
 10
2298.9260382190951
 20
2634.9108200211867
 40
77.5
 50
270
 51
299.99999999999989
  0
LINE
  8
_0-0_
  6
CONTINUOUS
 62
    3
 10
2337.6760382190951
 20
2567.7938512278924
 11
2382.281846594663
 21
2593.5470267009478
  0
ARC
  8
_0-0_
  6
CONTINUOUS
 62
    3
 10
2406.031846594663
 20
2552.4108200211863
 40
47.5
 50
90
 51
120.00000000000004
  0
LINE
  8
_0-0_
  6
CONTINUOUS
 62
    3
 10
2406.031846594663
 20
2599.9108200211867
 11
3561.9260382190951
 21
2599.9108200211867
  0
LINE
  8
_0-0_
  6
CONTINUOUS
 62
    3
 10
3561.9260382190951
 20
2474.9108200211863
 11
2334.4260382190951
 21
2474.9108200211863
  0
ARC
  8
_0-0_
  6
CONTINUOUS
 62
    3
 10
2334.4260382190951
 20
2427.4108200211863
 40
47.500000000000284
 50
90
 51
270
  0
LINE
  8
_0-0_
  6
CONTINUOUS
 62
    3
 10
2334.4260382190951
 20
2379.9108200211863
 11
3561.9260382190951
 21
2379.9108200211863
  0
ARC
  8
_0-0_
  6
CONTINUOUS
 62
    3
 10
3561.9260382190951
 20
2302.4108200211863
 40
77.5
 50
0
 51
90
  0
LINE
  8
_0-0_
  6
CONTINUOUS
 62
    3
 10
3561.9260382190951
 20
2504.9108200211863
 11
2334.4260382190951
 21
2504.9108200211863
  0
ARC
  8
_0-0_
  6
CONTINUOUS
 62
    3
 10
2334.4260382190951
 20
2427.4108200211863
 40
77.500000000000284
 50
90
 51
270
  0
LINE
  8
_0-0_
  6
CONTINUOUS
 62
    3
 10
2334.4260382190951
 20
2349.9108200211863
 11
3561.9260382190951
 21
2349.9108200211863
  0
ARC
  8
_0-0_
  6
CONTINUOUS
 62
    3
 10
3561.9260382190951
 20
2302.4108200211863
 40
47.5
 50
0
 51
90
  0
LINE
  8
_0-0_
  6
CONTINUOUS
 62
    3
 10
2249.4260382190951
 20
2083.4108200211863
 11
2249.4260382190951
 21
2212.0224337968257
  0
LINE
  8
_0-0_
  6
CONTINUOUS
 62
    3
 10
2249.4260382190951
 20
2212.0224337968257
 11
2229.7763890398865
 21
2302.4108200211863
  0
LINE
  8
_0-0_
  6
CONTINUOUS
 62
    3
 10
2209.4260382190951
 20
2396.0224337968257
 11
2209.4260382190951
 21
2521.4108200211863
  0
LINE
  8
_0-0_
  6
CONTINUOUS
 62
    3
 10
2219.4260382190951
 20
2083.4108200211863
 11
2219.4260382190951
 21
2208.7992062455478
  0
LINE
  8
_0-0_
  6
CONTINUOUS
 62
    3
 10
2219.4260382190951
 20
2208.7992062455478
 11
2214.4260382190951
 21
2231.7992062455464
  0
LINE
  8
_0-0_
  6
CONTINUOUS
 62
    3
 10
2179.4260382190951
 20
2392.7992062455473
 11
2179.4260382190951
 21
2521.4108200211863
  0
LINE
  8
_0-0_
  6
CONTINUOUS
 62
    3
 10
2179.4260382190951
 20
2083.4108200211863
 11
2179.4260382190951
 21
2212.0224337968261
  0
LINE
  8
_0-0_
  6
CONTINUOUS
 62
    3
 10
2179.4260382190951
 20
2212.0224337968261
 11
2199.0756873983041
 21
2302.4108200211863
  0
LINE
  8
_0-0_
  6
CONTINUOUS
 62
    3
 10
2219.4260382190951
 20
2396.0224337968266
 11
2219.4260382190951
 21
2521.4108200211863
  0
LINE
  8
_0-0_
  6
CONTINUOUS
 62
    3
 10
2209.4260382190951
 20
2083.4108200211863
 11
2209.4260382190951
 21
2208.799206245546
  0
LINE
  8
_0-0_
  6
CONTINUOUS
 62
    3
 10
2209.4260382190951
 20
2208.799206245546
 11
2214.4260382190951
 21
2231.7992062455455
  0
LINE
  8
_0-0_
  6
CONTINUOUS
 62
    3
 10
2249.4260382190951
 20
2392.7992062455478
 11
2249.4260382190951
 21
2521.4108200211863
  0
LINE
  8
_0-0_
  6
CONTINUOUS
 62
    3
 10
2179.4260382190951
 20
2083.4108200211863
 11
2209.4260382190951
 21
2083.4108200211863
  0
LINE
  8
_0-0_
  6
CONTINUOUS
 62
    3
 10
2179.4260382190951
 20
2521.4108200211863
 11
2209.4260382190951
 21
2521.4108200211863
  0
LINE
  8
_0-0_
  6
CONTINUOUS
 62
    3
 10
2219.4260382190951
 20
2521.4108200211863
 11
2249.4260382190951
 21
2521.4108200211863
  0
LINE
  8
_0-0_
  6
CONTINUOUS
 62
    3
 10
2219.4260382190951
 20
2083.4108200211863
 11
2249.4260382190951
 21
2083.4108200211863
  0
LINE
  8
_0-0_
  6
CONTINUOUS
 62
    3
 10
2214.4260382190951
 20
2373.0224337968257
 11
2209.4260382190951
 21
2396.0224337968257
  0
LINE
  8
_0-0_
  6
CONTINUOUS
 62
    3
 10
2214.4260382190951
 20
2373.0224337968257
 11
2219.4260382190951
 21
2396.0224337968266
  0
LINE
  8
_0-0_
  6
CONTINUOUS
 62
    3
 10
2199.0756873983041
 20
2302.4108200211867
 11
2179.4260382190951
 21
2392.7992062455473
  0
LINE
  8
_0-0_
  6
CONTINUOUS
 62
    3
 10
2229.7763890398865
 20
2302.4108200211863
 11
2249.4260382190951
 21
2392.7992062455478
  0
LINE
  8
_0-0_
  6
CONTINUOUS
 62
    3
 10
2406.031846594663
 20
1974.9108200211863
 11
3561.9260382190951
 21
1974.9108200211863
  0
LINE
  8
_0-0_
  6
CONTINUOUS
 62
    3
 10
2406.031846594663
 20
2004.9108200211863
 11
3561.9260382190951
 21
2004.9108200211863
  0
LINE
  8
_0-0_
  6
CONTINUOUS
 62
    3
 10
3561.9260382190951
 20
2129.9108200211863
 11
2334.4260382190951
 21
2129.9108200211863
  0
LINE
  8
_0-0_
  6
CONTINUOUS
 62
    3
 10
2334.4260382190951
 20
2224.9108200211863
 11
3561.9260382190951
 21
2224.9108200211863
  0
LINE
  8
_0-0_
  6
CONTINUOUS
 62
    3
 10
3561.9260382190951
 20
2099.9108200211863
 11
2334.4260382190951
 21
2099.9108200211863
  0
LINE
  8
_0-0_
  6
CONTINUOUS
 62
    3
 10
2334.4260382190951
 20
2254.9108200211863
 11
3561.9260382190951
 21
2254.9108200211863
  0
ARC
  8
_0-0_
  6
CONTINUOUS
 62
    3
 10
2334.4260382190951
 20
2177.4108200211863
 40
47.5
 50
90
 51
270
  0
ARC
  8
_0-0_
  6
CONTINUOUS
 62
    3
 10
2334.4260382190951
 20
2177.4108200211863
 40
77.5
 50
90
 51
270
  0
ARC
  8
_0-0_
  6
CONTINUOUS
 62
    3
 10
3561.9260382190951
 20
2302.4108200211863
 40
77.5
 50
270
 51
0
  0
ARC
  8
_0-0_
  6
CONTINUOUS
 62
    3
 10
3561.9260382190951
 20
2302.4108200211863
 40
47.5
 50
270
 51
0
  0
LINE
  8
_0-0_
  6
CONTINUOUS
 62
    3
 10
2322.6760382190951
 20
2011.0470267009473
 11
2367.281846594663
 21
1985.2938512278924
  0
ARC
  8
_0-0_
  6
CONTINUOUS
 62
    3
 10
2406.031846594663
 20
2052.4108200211863
 40
77.499999999999716
 50
239.99999999999989
 51
270
  0
LINE
  8
_0-0_
  6
CONTINUOUS
 62
    3
 10
2337.6760382190951
 20
2037.0277888144801
 11
2382.281846594663
 21
2011.2746133414257
  0
ARC
  8
_0-0_
  6
CONTINUOUS
 62
    3
 10
2406.031846594663
 20
2052.4108200211863
 40
47.499999999999716
 50
239.99999999999983
 51
270
  0
ARC
  8
_0-0_
  6
CONTINUOUS
 62
    3
 10
2298.9260382190951
 20
1969.9108200211863
 40
47.500000000000206
 50
60.000000000000149
 51
90
  0
ARC
  8
_0-0_
  6
CONTINUOUS
 62
    3
 10
2298.9260382190951
 20
1969.9108200211863
 40
77.499999999999957
 50
59.999999999999986
 51
90
  0
ARC
  8
_0-0_
  6
CONTINUOUS
 62
    3
 10
3561.9260382190951
 20
2052.4108200211863
 40
47.5
 50
0
 51
90
  0
ARC
  8
_0-0_
  6
CONTINUOUS
 62
    3
 10
3561.9260382190951
 20
2052.4108200211863
 40
47.5
 50
270
 51
0
  0
ARC
  8
_0-0_
  6
CONTINUOUS
 62
    3
 10
3561.9260382190951
 20
2052.4108200211863
 40
77.5
 50
0
 51
90
  0
ARC
  8
_0-0_
  6
CONTINUOUS
 62
    3
 10
3561.9260382190951
 20
2052.4108200211863
 40
77.5
 50
270
 51
0
  0
LINE
  8
_0-0_
  6
CONTINUOUS
 62
    3
 10
2285.4260382190951
 20
2587.4108200211867
 11
2285.4260382190951
 21
2557.4108200211863
  0
LINE
  8
_0-0_
  6
CONTINUOUS
 62
    3
 10
2285.4260382190951
 20
2047.4108200211863
 11
2298.9260382190951
 21
2047.4108200211863
  0
LINE
  8
_0-0_
  6
CONTINUOUS
 62
    3
 10
2285.4260382190951
 20
2017.4108200211863
 11
2298.9260382190951
 21
2017.4108200211863
  0
LINE
  8
_0-0_
  6
CONTINUOUS
 62
    3
 10
2285.4260382190951
 20
2017.4108200211863
 11
2285.4260382190951
 21
2047.4108200211863
  0
LINE
  8
_0-0_
  6
CONTINUOUS
 62
    3
 10
2285.4260382190951
 20
2557.4108200211863
 11
2298.9260382190951
 21
2557.4108200211863
  0
LINE
  8
_0-0_
  6
CONTINUOUS
 62
    3
 10
2285.4260382190951
 20
2587.4108200211867
 11
2298.9260382190951
 21
2587.4108200211867
  0
LINE
  8
_0-1_
  6
DASHDOT
 62
    4
 10
3659.4260382190951
 20
2552.4108200211863
 11
3515.8692698017371
 21
2552.4108200211863
  0
ARC
  8
_0-1_
  6
DASHDOT
 62
    4
 10
3561.9260382190951
 20
2552.4108200211863
 40
62.499999999999716
 50
270
 51
0
  0
LINE
  8
_0-1_
  6
DASHDOT
 62
    4
 10
3561.9260382190951
 20
2458.1498268266059
 11
3561.9260382190951
 21
2647.1786102433543
  0
LINE
  8
_0-1_
  6
DASHDOT
 62
    4
 10
3561.9260382190951
 20
2646.6718132157666
 11
3561.9260382190951
 21
2441.21179200605
  0
ARC
  8
_0-1_
  6
DASHDOT
 62
    4
 10
3561.9260382190951
 20
2552.4108200211863
 40
62.5
 50
0
 51
90
  0
ARC
  8
_0-1_
  6
DASHDOT
 62
    4
 10
2406.031846594663
 20
2552.4108200211863
 40
62.5
 50
90
 51
120.00000000000014
  0
LINE
  8
_0-1_
  6
DASHDOT
 62
    4
 10
2330.1760382190951
 20
2580.7842322846591
 11
2374.781846594663
 21
2606.5374077577135
  0
LINE
  8
_0-1_
  6
DASHDOT
 62
    4
 10
2406.031846594663
 20
2614.9108200211867
 11
3561.9260382190951
 21
2614.9108200211867
  0
ARC
  8
_0-1_
  6
DASHDOT
 62
    4
 10
2298.9260382190951
 20
2634.9108200211867
 40
62.5
 50
270
 51
299.99999999999989
  0
LINE
  8
_0-1_
  6
DASHDOT
 62
    4
 10
2270.4260382190951
 20
2572.4108200211867
 11
2298.9260382190951
 21
2572.4108200211867
  0
ARC
  8
_0-1_
  6
DASHDOT
 62
    4
 10
2334.4260382190951
 20
2427.4108200211863
 40
62.499999999999716
 50
90
 51
270
  0
LINE
  8
_0-1_
  6
DASHDOT
 62
    4
 10
2334.4260382190951
 20
2516.4027488847119
 11
2334.4260382190951
 21
2257.9108200211863
  0
LINE
  8
_0-1_
  6
DASHDOT
 62
    4
 10
2334.4260382190951
 20
2489.9108200211863
 11
3561.9260382190951
 21
2489.9108200211863
  0
LINE
  8
_0-1_
  6
DASHDOT
 62
    4
 10
2334.4260382190951
 20
2364.9108200211863
 11
3561.9260382190951
 21
2364.9108200211863
  0
LINE
  8
_0-1_
  6
DASHDOT
 62
    4
 10
2383.1674292103062
 20
2427.4108200211863
 11
2251.3616194263709
 21
2427.4108200211863
  0
LINE
  8
_0-1_
  6
DASHDOT
 62
    4
 10
3659.4260382190951
 20
2302.4108200211863
 11
3515.8692698017371
 21
2302.4108200211863
  0
LINE
  8
_0-1_
  6
DASHDOT
 62
    4
 10
3561.9260382190951
 20
2396.6718132157666
 11
3561.9260382190951
 21
1946.1309642930373
  0
ARC
  8
_0-1_
  6
DASHDOT
 62
    4
 10
3561.9260382190951
 20
2302.4108200211863
 40
62.5
 50
0
 51
90
  0
LINE
  8
_0-1_
  6
DASHDOT
 62
    4
 10
2234.4260382190951
 20
2394.4108200211863
 11
2234.4260382190951
 21
2536.4108200211863
  0
LINE
  8
_0-1_
  6
DASHDOT
 62
    4
 10
2194.4260382190951
 20
2394.4108200211863
 11
2194.4260382190951
 21
2536.4108200211863
  0
LINE
  8
_0-1_
  6
DASHDOT
 62
    4
 10
2234.4260382190951
 20
2394.4108200211863
 11
2194.4260382190951
 21
2210.4108200211863
  0
LINE
  8
_0-1_
  6
DASHDOT
 62
    4
 10
2234.4260382190951
 20
2210.4108200211863
 11
2194.4260382190951
 21
2394.4108200211863
  0
LINE
  8
_0-1_
  6
DASHDOT
 62
    4
 10
2234.4260382190951
 20
2053.4108200211863
 11
2234.4260382190951
 21
2210.4108200211863
  0
LINE
  8
_0-1_
  6
DASHDOT
 62
    4
 10
2194.4260382190951
 20
2053.4108200211863
 11
2194.4260382190951
 21
2210.4108200211863
  0
LINE
  8
_0-1_
  6
DASHDOT
 62
    4
 10
2334.4260382190951
 20
2239.9108200211863
 11
3561.9260382190951
 21
2239.9108200211863
  0
LINE
  8
_0-1_
  6
DASHDOT
 62
    4
 10
2334.4260382190951
 20
2114.9108200211863
 11
3561.9260382190951
 21
2114.9108200211863
  0
LINE
  8
_0-1_
  6
DASHDOT
 62
    4
 10
2406.031846594663
 20
1989.9108200211863
 11
3561.9260382190951
 21
1989.9108200211863
  0
LINE
  8
_0-1_
  6
DASHDOT
 62
    4
 10
2383.1674292103062
 20
2177.4108200211863
 11
2251.3616194263709
 21
2177.4108200211863
  0
LINE
  8
_0-1_
  6
DASHDOT
 62
    4
 10
2334.4260382190951
 20
2088.4188911576607
 11
2334.4260382190951
 21
2346.9108200211863
  0
ARC
  8
_0-1_
  6
DASHDOT
 62
    4
 10
2334.4260382190951
 20
2177.4108200211863
 40
62.499999999999716
 50
90
 51
270
  0
ARC
  8
_0-1_
  6
DASHDOT
 62
    4
 10
3561.9260382190951
 20
2302.4108200211863
 40
62.499999999999439
 50
270
 51
0
  0
LINE
  8
_0-1_
  6
DASHDOT
 62
    4
 10
3561.9260382190951
 20
2208.1498268266059
 11
3561.9260382190951
 21
2471.9108200211863
  0
LINE
  8
_0-1_
  6
DASHDOT
 62
    4
 10
2270.4260382190951
 20
2032.4108200211863
 11
2298.9260382190951
 21
2032.4108200211863
  0
ARC
  8
_0-1_
  6
DASHDOT
 62
    4
 10
2298.9260382190951
 20
1969.9108200211863
 40
62.500000000000206
 50
60.000000000000107
 51
90
  0
LINE
  8
_0-1_
  6
DASHDOT
 62
    4
 10
2330.1760382190951
 20
2024.0374077577139
 11
2374.781846594663
 21
1998.2842322846591
  0
ARC
  8
_0-1_
  6
DASHDOT
 62
    4
 10
2406.031846594663
 20
2052.4108200211863
 40
62.499999999999716
 50
239.99999999999983
 51
270
  0
ARC
  8
_0-1_
  6
DASHDOT
 62
    4
 10
3561.9260382190951
 20
2052.4108200211863
 40
62.5
 50
270
 51
0
  0
ARC
  8
_0-1_
  6
DASHDOT
 62
    4
 10
3561.9260382190951
 20
2052.4108200211863
 40
62.5
 50
0
 51
90
  0
LINE
  8
_0-1_
  6
DASHDOT
 62
    4
 10
3523.5028109089149
 20
2052.4108200211863
 11
3652.419711257578
 21
2052.4108200211863
  0
LINE
  8
_0-0_
  6
CONTINUOUS
 62
    3
 10
3655.4260382190955
 20
1929.4108200211863
 11
2272.4260382190951
 21
1929.4108200211863
  0
LINE
  8
_0-0_
  6
CONTINUOUS
 62
    3
 10
2911.426038219096
 20
1931.4108200211863
 11
2913.4260382190955
 21
1929.4108200211863
  0
LINE
  8
_0-0_
  6
CONTINUOUS
 62
    3
 10
2907.4260382190955
 20
1931.4108200211863
 11
2905.4260382190955
 21
1929.4108200211863
  0
LINE
  8
_0-0_
  6
CONTINUOUS
 62
    3
 10
3286.4260382190951
 20
1931.4108200211863
 11
3288.4260382190955
 21
1929.4108200211863
  0
LINE
  8
_0-0_
  6
CONTINUOUS
 62
    3
 10
2913.4260382190955
 20
1929.4108200211863
 11
3280.4260382190955
 21
1929.4108200211863
  0
LINE
  8
_0-0_
  6
CONTINUOUS
 62
    3
 10
3280.4260382190955
 20
1929.4108200211863
 11
3282.4260382190955
 21
1931.4108200211863
  0
LINE
  8
_0-0_
  6
CONTINUOUS
 62
    3
 10
2538.4260382190955
 20
1929.4108200211863
 11
2905.4260382190955
 21
1929.4108200211863
  0
LINE
  8
_0-0_
  6
CONTINUOUS
 62
    3
 10
2536.4260382190951
 20
1931.4108200211863
 11
2538.4260382190955
 21
1929.4108200211863
  0
LINE
  8
_0-0_
  6
CONTINUOUS
 62
    3
 10
2530.4260382190951
 20
1929.4108200211863
 11
2532.4260382190951
 21
1931.4108200211863
  0
LINE
  8
_0-0_
  6
CONTINUOUS
 62
    3
 10
2272.4260382190951
 20
2070.4108200211863
 11
2272.4260382190951
 21
1931.4108200211863
  0
LINE
  8
_0-0_
  6
CONTINUOUS
 62
    3
 10
2274.4260382190951
 20
1929.4108200211863
 11
2530.4260382190951
 21
1929.4108200211863
  0
LINE
  8
_0-0_
  6
CONTINUOUS
 62
    3
 10
2274.4260382190951
 20
1929.4108200211863
 11
2272.4260382190951
 21
1931.4108200211863
  0
LINE
  8
_0-0_
  6
CONTINUOUS
 62
    3
 10
2163.4260382190955
 20
2070.4108200211863
 11
2272.4260382190951
 21
2070.4108200211863
  0
LINE
  8
_0-0_
  6
CONTINUOUS
 62
    3
 10
2163.4260382190955
 20
2070.4108200211863
 11
2161.4260382190951
 21
2072.4108200211863
  0
LINE
  8
_0-0_
  6
CONTINUOUS
 62
    3
 10
3288.4260382190955
 20
1929.4108200211863
 11
3544.4260382190951
 21
1929.4108200211863
  0
LINE
  8
_0-0_
  6
CONTINUOUS
 62
    3
 10
2161.4260382190951
 20
2298.4108200211863
 11
2161.4260382190951
 21
2072.4108200211863
  0
LINE
  8
_0-0_
  6
CONTINUOUS
 62
    3
 10
2161.4260382190951
 20
2298.4108200211863
 11
2163.4260382190955
 21
2300.4108200211863
  0
LINE
  8
_0-0_
  6
CONTINUOUS
 62
    3
 10
2530.4260382190951
 20
2300.4108200211863
 11
2163.4260382190955
 21
2300.4108200211863
  0
LINE
  8
_0-0_
  6
CONTINUOUS
 62
    3
 10
2532.4260382190951
 20
2298.4108200211863
 11
2532.4260382190951
 21
1931.4108200211863
  0
LINE
  8
_0-0_
  6
CONTINUOUS
 62
    3
 10
2532.4260382190951
 20
2298.4108200211863
 11
2530.4260382190951
 21
2300.4108200211863
  0
LINE
  8
_0-0_
  6
CONTINUOUS
 62
    3
 10
2536.4260382190951
 20
2298.4108200211863
 11
2536.4260382190951
 21
1931.4108200211863
  0
LINE
  8
_0-0_
  6
CONTINUOUS
 62
    3
 10
2536.4260382190951
 20
2298.4108200211863
 11
2538.4260382190955
 21
2300.4108200211863
  0
LINE
  8
_0-0_
  6
CONTINUOUS
 62
    3
 10
2911.426038219096
 20
2298.4108200211863
 11
2911.426038219096
 21
1931.4108200211863
  0
LINE
  8
_0-0_
  6
CONTINUOUS
 62
    3
 10
2911.426038219096
 20
2298.4108200211863
 11
2913.4260382190955
 21
2300.4108200211863
  0
LINE
  8
_0-0_
  6
CONTINUOUS
 62
    3
 10
2905.4260382190955
 20
2300.4108200211863
 11
2538.4260382190955
 21
2300.4108200211863
  0
LINE
  8
_0-0_
  6
CONTINUOUS
 62
    3
 10
2907.4260382190955
 20
2298.4108200211863
 11
2907.4260382190955
 21
1931.4108200211863
  0
LINE
  8
_0-0_
  6
CONTINUOUS
 62
    3
 10
2907.4260382190955
 20
2298.4108200211863
 11
2905.4260382190955
 21
2300.4108200211863
  0
LINE
  8
_0-0_
  6
CONTINUOUS
 62
    3
 10
3286.4260382190951
 20
2298.4108200211863
 11
3286.4260382190951
 21
1931.4108200211863
  0
LINE
  8
_0-0_
  6
CONTINUOUS
 62
    3
 10
3286.4260382190951
 20
2298.4108200211863
 11
3288.4260382190955
 21
2300.4108200211863
  0
LINE
  8
_0-0_
  6
CONTINUOUS
 62
    3
 10
3280.4260382190955
 20
2300.4108200211863
 11
2913.4260382190955
 21
2300.4108200211863
  0
LINE
  8
_0-0_
  6
CONTINUOUS
 62
    3
 10
3282.4260382190955
 20
2298.4108200211863
 11
3282.4260382190955
 21
1931.4108200211863
  0
LINE
  8
_0-0_
  6
CONTINUOUS
 62
    3
 10
3282.4260382190955
 20
2298.4108200211863
 11
3280.4260382190955
 21
2300.4108200211863
  0
LINE
  8
_0-0_
  6
CONTINUOUS
 62
    3
 10
3655.4260382190955
 20
2300.4108200211863
 11
3288.4260382190955
 21
2300.4108200211863
  0
LINE
  8
_0-0_
  6
CONTINUOUS
 62
    3
 10
3655.4260382190955
 20
2304.4108200211863
 11
3288.4260382190955
 21
2304.4108200211863
  0
LINE
  8
_0-0_
  6
CONTINUOUS
 62
    3
 10
3282.4260382190955
 20
2306.4108200211863
 11
3280.4260382190955
 21
2304.4108200211863
  0
LINE
  8
_0-0_
  6
CONTINUOUS
 62
    3
 10
3282.4260382190955
 20
2306.4108200211863
 11
3282.4260382190955
 21
2673.4108200211863
  0
LINE
  8
_0-0_
  6
CONTINUOUS
 62
    3
 10
3280.4260382190955
 20
2304.4108200211863
 11
2913.4260382190955
 21
2304.4108200211863
  0
LINE
  8
_0-0_
  6
CONTINUOUS
 62
    3
 10
3286.4260382190951
 20
2306.4108200211863
 11
3288.4260382190955
 21
2304.4108200211863
  0
LINE
  8
_0-0_
  6
CONTINUOUS
 62
    3
 10
3286.4260382190951
 20
2306.4108200211863
 11
3286.4260382190951
 21
2673.4108200211863
  0
LINE
  8
_0-0_
  6
CONTINUOUS
 62
    3
 10
2907.4260382190955
 20
2306.4108200211863
 11
2905.4260382190955
 21
2304.4108200211863
  0
LINE
  8
_0-0_
  6
CONTINUOUS
 62
    3
 10
2907.4260382190955
 20
2306.4108200211863
 11
2907.4260382190955
 21
2673.4108200211863
  0
LINE
  8
_0-0_
  6
CONTINUOUS
 62
    3
 10
2905.4260382190955
 20
2304.4108200211863
 11
2538.4260382190955
 21
2304.4108200211863
  0
LINE
  8
_0-0_
  6
CONTINUOUS
 62
    3
 10
2911.426038219096
 20
2306.4108200211863
 11
2913.4260382190955
 21
2304.4108200211863
  0
LINE
  8
_0-0_
  6
CONTINUOUS
 62
    3
 10
2911.426038219096
 20
2306.4108200211863
 11
2911.426038219096
 21
2673.4108200211863
  0
LINE
  8
_0-0_
  6
CONTINUOUS
 62
    3
 10
2536.4260382190951
 20
2306.4108200211863
 11
2538.4260382190955
 21
2304.4108200211863
  0
LINE
  8
_0-0_
  6
CONTINUOUS
 62
    3
 10
2536.4260382190951
 20
2306.4108200211863
 11
2536.4260382190951
 21
2673.4108200211863
  0
LINE
  8
_0-0_
  6
CONTINUOUS
 62
    3
 10
2532.4260382190951
 20
2306.4108200211863
 11
2530.4260382190951
 21
2304.4108200211863
  0
LINE
  8
_0-0_
  6
CONTINUOUS
 62
    3
 10
2532.4260382190951
 20
2306.4108200211863
 11
2532.4260382190951
 21
2673.4108200211863
  0
LINE
  8
_0-0_
  6
CONTINUOUS
 62
    3
 10
2530.4260382190951
 20
2304.4108200211863
 11
2163.4260382190955
 21
2304.4108200211863
  0
LINE
  8
_0-0_
  6
CONTINUOUS
 62
    3
 10
2161.4260382190951
 20
2306.4108200211863
 11
2163.4260382190955
 21
2304.4108200211863
  0
LINE
  8
_0-0_
  6
CONTINUOUS
 62
    3
 10
2161.4260382190951
 20
2306.4108200211863
 11
2161.4260382190951
 21
2532.4108200211863
  0
LINE
  8
_0-0_
  6
CONTINUOUS
 62
    3
 10
3288.4260382190955
 20
2675.4108200211863
 11
3655.4260382190955
 21
2675.4108200211863
  0
LINE
  8
_0-0_
  6
CONTINUOUS
 62
    3
 10
2163.4260382190955
 20
2534.4108200211863
 11
2161.4260382190951
 21
2532.4108200211863
  0
LINE
  8
_0-0_
  6
CONTINUOUS
 62
    3
 10
2163.4260382190955
 20
2534.4108200211863
 11
2272.4260382190951
 21
2534.4108200211863
  0
LINE
  8
_0-0_
  6
CONTINUOUS
 62
    3
 10
2274.4260382190951
 20
2675.4108200211863
 11
2272.4260382190951
 21
2673.4108200211863
  0
LINE
  8
_0-0_
  6
CONTINUOUS
 62
    3
 10
2274.4260382190951
 20
2675.4108200211863
 11
2530.4260382190951
 21
2675.4108200211863
  0
LINE
  8
_0-0_
  6
CONTINUOUS
 62
    3
 10
2272.4260382190951
 20
2534.4108200211863
 11
2272.4260382190951
 21
2673.4108200211863
  0
LINE
  8
_0-0_
  6
CONTINUOUS
 62
    3
 10
2530.4260382190951
 20
2675.4108200211863
 11
2532.4260382190951
 21
2673.4108200211863
  0
LINE
  8
_0-0_
  6
CONTINUOUS
 62
    3
 10
2536.4260382190951
 20
2673.4108200211863
 11
2538.4260382190955
 21
2675.4108200211863
  0
LINE
  8
_0-0_
  6
CONTINUOUS
 62
    3
 10
2538.4260382190955
 20
2675.4108200211863
 11
2905.4260382190955
 21
2675.4108200211863
  0
LINE
  8
_0-0_
  6
CONTINUOUS
 62
    3
 10
3280.4260382190955
 20
2675.4108200211863
 11
3282.4260382190955
 21
2673.4108200211863
  0
LINE
  8
_0-0_
  6
CONTINUOUS
 62
    3
 10
2913.4260382190955
 20
2675.4108200211863
 11
3280.4260382190955
 21
2675.4108200211863
  0
LINE
  8
_0-0_
  6
CONTINUOUS
 62
    3
 10
3286.4260382190951
 20
2673.4108200211863
 11
3288.4260382190955
 21
2675.4108200211863
  0
LINE
  8
_0-0_
  6
CONTINUOUS
 62
    3
 10
2907.4260382190955
 20
2673.4108200211863
 11
2905.4260382190955
 21
2675.4108200211863
  0
LINE
  8
_0-0_
  6
CONTINUOUS
 62
    3
 10
2911.426038219096
 20
2673.4108200211863
 11
2913.4260382190955
 21
2675.4108200211863
  0
LINE
  8
_0-0_
  6
CONTINUOUS
 62
    3
 10
2272.4260382190951
 20
2070.4108200211863
 11
2161.4260382190951
 21
2070.4108200211863
  0
LINE
  8
_0-0_
  6
CONTINUOUS
 62
    3
 10
2272.4260382190951
 20
1929.4108200211863
 11
2272.4260382190951
 21
2070.4108200211863
  0
LINE
  8
_0-0_
  6
CONTINUOUS
 62
    3
 10
3655.4260382190955
 20
1929.4108200211863
 11
3657.4260382190951
 21
1931.4108200211863
  0
LINE
  8
_0-0_
  6
CONTINUOUS
 62
    3
 10
3657.4260382190951
 20
2298.4108200211863
 11
3657.4260382190951
 21
1931.4108200211863
  0
LINE
  8
_0-0_
  6
CONTINUOUS
 62
    3
 10
3655.4260382190955
 20
2300.4108200211863
 11
3657.4260382190951
 21
2298.4108200211863
  0
LINE
  8
_0-0_
  6
CONTINUOUS
 62
    3
 10
3655.4260382190955
 20
2304.4108200211863
 11
3657.4260382190951
 21
2306.4108200211863
  0
LINE
  8
_0-0_
  6
CONTINUOUS
 62
    3
 10
3657.4260382190951
 20
2306.4108200211863
 11
3657.4260382190951
 21
2673.4108200211863
  0
LINE
  8
_0-0_
  6
CONTINUOUS
 62
    3
 10
3655.4260382190955
 20
2675.4108200211863
 11
3657.4260382190951
 21
2673.4108200211863
  0
TEXT
  8
_0-2_
 62
    7
 10
3414.3508168529665
 20
1676.0791057609629
 40
104
 41
0.6153846153846154
 50
0
  1
VPH-10Mﾀｲﾌﾟ
  0
ENDSEC
  0
EOF
