  0
SECTION
  2
HEADER
  9
$ACADVER
  1
AC1009
  9
$INSBASE
 10
0.0
 20
0.0
 30
0.0
  9
$EXTMIN
 10
-1231.883
 20
-363.50297399999999
 30
0.0
  9
$EXTMAX
 10
1648.1466335963721
 20
1290.693
 30
0.0
  9
$LIMMIN
 10
-1531.3337877068841
 20
-718.35179030291135
  9
$LIMMAX
 10
1995.920120443257
 20
1498.2280470865801
  9
$ORTHOMODE
 70
     1
  9
$REGENMODE
 70
     1
  9
$FILLMODE
 70
     1
  9
$QTEXTMODE
 70
     0
  9
$MIRRTEXT
 70
     0
  9
$DRAGMODE
 70
     2
  9
$LTSCALE
 40
20.0
  9
$OSMODE
 70
   119
  9
$ATTMODE
 70
     1
  9
$TEXTSIZE
 40
64.0
  9
$TRACEWID
 40
0.05
  9
$TEXTSTYLE
  7
STANDARD
  9
$CLAYER
  8
DETAIL
  9
$CELTYPE
  6
CONTINUOUS
  9
$CECOLOR
 62
   256
  9
$DIMSCALE
 40
1.0
  9
$DIMASZ
 40
2.0
  9
$DIMEXO
 40
20.0
  9
$DIMDLI
 40
200.0
  9
$DIMRND
 40
0.0
  9
$DIMDLE
 40
0.0
  9
$DIMEXE
 40
30.0
  9
$DIMTP
 40
0.0
  9
$DIMTM
 40
0.0
  9
$DIMTXT
 40
64.0
  9
$DIMCEN
 40
0.09
  9
$DIMTSZ
 40
0.0
  9
$DIMTOL
 70
     0
  9
$DIMLIM
 70
     0
  9
$DIMTIH
 70
     0
  9
$DIMTOH
 70
     0
  9
$DIMSE1
 70
     0
  9
$DIMSE2
 70
     0
  9
$DIMTAD
 70
     1
  9
$DIMZIN
 70
     8
  9
$DIMBLK
  1

  9
$DIMASO
 70
     1
  9
$DIMSHO
 70
     0
  9
$DIMPOST
  1

  9
$DIMAPOST
  1

  9
$DIMALT
 70
     0
  9
$DIMALTD
 70
     2
  9
$DIMALTF
 40
25.399999999999999
  9
$DIMLFAC
 40
1.0
  9
$DIMTOFL
 70
     1
  9
$DIMTVP
 40
0.0
  9
$DIMTIX
 70
     1
  9
$DIMSOXD
 70
     0
  9
$DIMSAH
 70
     0
  9
$DIMBLK1
  1

  9
$DIMBLK2
  1

  9
$DIMSTYLE
  2
STANDARD
  9
$DIMCLRD
 70
     0
  9
$DIMCLRE
 70
     0
  9
$DIMCLRT
 70
     0
  9
$DIMTFAC
 40
1.0
  9
$DIMGAP
 40
0.09
  9
$LUNITS
 70
     2
  9
$LUPREC
 70
     4
  9
$SKETCHINC
 40
0.1
  9
$FILLETRAD
 40
20.0
  9
$AUNITS
 70
     1
  9
$AUPREC
 70
     3
  9
$MENU
  1
ACAD
  9
$ELEVATION
 40
0.0
  9
$PELEVATION
 40
0.0
  9
$THICKNESS
 40
0.0
  9
$LIMCHECK
 70
     0
  9
$BLIPMODE
 70
     0
  9
$CHAMFERA
 40
0.0
  9
$CHAMFERB
 40
0.0
  9
$SKPOLY
 70
     0
  9
$TDCREATE
 40
2450332.7760190042
  9
$TDUPDATE
 40
2453687.6267876499
  9
$TDINDWG
 40
0.1354838657
  9
$TDUSRTIMER
 40
0.1354836806
  9
$USRTIMER
 70
     1
  9
$ANGBASE
 50
0.0
  9
$ANGDIR
 70
     0
  9
$PDMODE
 70
     3
  9
$PDSIZE
 40
-2.0
  9
$PLINEWID
 40
0.0
  9
$COORDS
 70
     0
  9
$SPLFRAME
 70
     0
  9
$SPLINETYPE
 70
     6
  9
$SPLINESEGS
 70
     8
  9
$ATTDIA
 70
     0
  9
$ATTREQ
 70
     1
  9
$HANDLING
 70
-16383
  9
$HANDSEED
  5
2DC
  9
$SURFTAB1
 70
     6
  9
$SURFTAB2
 70
     6
  9
$SURFTYPE
 70
     6
  9
$SURFU
 70
     6
  9
$SURFV
 70
     6
  9
$UCSNAME
  2

  9
$UCSORG
 10
0.0
 20
0.0
 30
0.0
  9
$UCSXDIR
 10
1.0
 20
0.0
 30
0.0
  9
$UCSYDIR
 10
0.0
 20
1.0
 30
0.0
  9
$PUCSNAME
  2

  9
$PUCSORG
 10
0.0
 20
0.0
 30
0.0
  9
$PUCSXDIR
 10
1.0
 20
0.0
 30
0.0
  9
$PUCSYDIR
 10
0.0
 20
1.0
 30
0.0
  9
$USERI1
 70
     0
  9
$USERI2
 70
     0
  9
$USERI3
 70
     0
  9
$USERI4
 70
     0
  9
$USERI5
 70
     0
  9
$USERR1
 40
20.0
  9
$USERR2
 40
0.0
  9
$USERR3
 40
0.0
  9
$USERR4
 40
0.0
  9
$USERR5
 40
0.0
  9
$WORLDVIEW
 70
     1
  9
$SHADEDGE
 70
     3
  9
$SHADEDIF
 70
    70
  9
$TILEMODE
 70
     1
  9
$MAXACTVP
 70
    64
  9
$PLIMCHECK
 70
     0
  9
$PEXTMIN
 10
1.0000000000000000E+020
 20
1.0000000000000000E+020
 30
1.0000000000000000E+020
  9
$PEXTMAX
 10
-1.0000000000000000E+020
 20
-1.0000000000000000E+020
 30
-1.0000000000000000E+020
  9
$PLIMMIN
 10
0.0
 20
0.0
  9
$PLIMMAX
 10
12.0
 20
9.0
  9
$UNITMODE
 70
     0
  9
$VISRETAIN
 70
     1
  9
$PLINEGEN
 70
     0
  9
$PSLTSCALE
 70
     1
  0
ENDSEC
  0
SECTION
  2
TABLES
  0
TABLE
  2
VPORT
 70
     2
  0
VPORT
  2
*ACTIVE
 70
     0
 10
0.0
 20
0.0
 11
1.0
 21
1.0
 12
168.1210411314205
 22
281.54250875326511
 13
0.0
 23
0.0
 14
400.0
 24
400.0
 15
200.0
 25
200.0
 16
0.0
 26
0.0
 36
1.0
 17
0.0
 27
0.0
 37
0.0
 40
3464.2355466859922
 41
1.314578005115089
 42
50.0
 43
0.0
 44
0.0
 50
0.0
 51
0.0
 71
     0
 72
   500
 73
     1
 74
     0
 75
     0
 76
     0
 77
     0
 78
     1
  0
ENDTAB
  0
TABLE
  2
LTYPE
 70
     7
  0
LTYPE
  2
CONTINUOUS
 70
     0
  3
実線
 72
    65
 73
     0
 40
0.0
  0
LTYPE
  2
DOT
 70
     0
  3
...............................................
 72
    65
 73
     2
 40
0.8
 49
0.5
 49
-0.3
  0
LTYPE
  2
DASHED
 70
     0
  3
_ _ _ _ _ _ _ _ _ _ _ _ _ _ _ _ _ _ _ _ _ _ _
 72
    65
 73
     2
 40
2.0
 49
1.1999999999999991
 49
-0.8
  0
LTYPE
  2
DASHDOT
 70
     0
  3
____ _ ____ _ ____ _ ____ _ ____ _ ____ _ ____
 72
    65
 73
     4
 40
5.5
 49
4.0
 49
-0.6
 49
0.3
 49
-0.6
  0
LTYPE
  2
DASHDOT1
 70
     0
  3
____ _ ____ _ ____ _ ____ _ ____ _ ____ _ ____
 72
    65
 73
     4
 40
2.0
 49
1.5
 49
-0.2
 49
0.1
 49
-0.2
  0
LTYPE
  2
DIVIDE
 70
     0
  3
_____ _ _ _____ _ _ _____ _ _ _____ _ _ ____
 72
    65
 73
     6
 40
6.4000000000000004
 49
4.0
 49
-0.6
 49
0.3
 49
-0.6
 49
0.3
 49
-0.6
  0
LTYPE
  2
DIVIDE1
 70
     0
  3
_____ _ _ _____ _ _ _____ _ _ _____ _ _ ____
 72
    65
 73
     6
 40
3.2000000000000002
 49
2.0
 49
-0.3
 49
0.15
 49
-0.3
 49
0.15
 49
-0.3
  0
ENDTAB
  0
TABLE
  2
LAYER
 70
    14
  0
LAYER
  2
0
 70
     0
 62
     7
  6
CONTINUOUS
  0
LAYER
  2
OUTLINE
 70
     0
 62
     3
  6
CONTINUOUS
  0
LAYER
  2
DETAIL
 70
     0
 62
     5
  6
CONTINUOUS
  0
LAYER
  2
BASIS
 70
     0
 62
     6
  6
CONTINUOUS
  0
LAYER
  2
SIZE
 70
     0
 62
    32
  6
CONTINUOUS
  0
LAYER
  2
NOTE
 70
     0
 62
     4
  6
CONTINUOUS
  0
LAYER
  2
ARRANGE
 70
     0
 62
     1
  6
CONTINUOUS
  0
LAYER
  2
DEFPOINTS
 70
     0
 62
     7
  6
CONTINUOUS
  0
LAYER
  2
FIX
 70
     0
 62
   241
  6
CONTINUOUS
  0
LAYER
  2
ETC
 70
     0
 62
    83
  6
CONTINUOUS
  0
LAYER
  2
SERVICESPACE
 70
     0
 62
     2
  6
CONTINUOUS
  0
LAYER
  2
SYMBOLLINE
 70
     0
 62
    38
  6
CONTINUOUS
  0
LAYER
  2
SERVICE_SPACE
 70
     0
 62
     2
  6
CONTINUOUS
  0
LAYER
  2
SYMBOL_LINE
 70
     0
 62
    38
  6
CONTINUOUS
  0
ENDTAB
  0
TABLE
  2
STYLE
 70
     1
  0
STYLE
  2
STANDARD
 70
     0
 40
0.0
 41
0.9
 50
0.0
 71
     0
 42
64.0
  3
SIMPLEX
  4
BIGFONT
  0
ENDTAB
  0
TABLE
  2
VIEW
 70
     1
  0
VIEW
  2
ALL
 70
     0
 40
4282.6199999999999
 10
0.0
 20
41.309903999999989
 41
5940.0
 11
0.0
 21
0.0
 31
1.0
 12
0.0
 22
0.0
 32
0.0
 42
50.0
 43
0.0
 44
0.0
 50
0.0
 71
     0
  0
ENDTAB
  0
TABLE
  2
UCS
 70
     0
  0
ENDTAB
  0
TABLE
  2
APPID
 70
     1
  0
APPID
  2
ACAD
 70
     0
  0
ENDTAB
  0
TABLE
  2
DIMSTYLE
 70
     1
  0
DIMSTYLE
  2
STANDARD
 70
     0
  3

  4

  5

  6

  7

 40
1.0
 41
0.18
 42
0.0625
 43
0.38
 44
0.18
 45
0.0
 46
0.0
 47
0.0
 48
0.0
140
0.18
141
0.09
142
0.0
143
25.399999999999999
144
1.0
145
0.0
146
1.0
147
0.09
 71
     0
 72
     0
 73
     1
 74
     1
 75
     0
 76
     0
 77
     0
 78
     0
170
     0
171
     2
172
     0
173
     0
174
     0
175
     0
176
     0
177
     0
178
     0
  0
ENDTAB
  0
ENDSEC
  0
SECTION
  2
BLOCKS
  0
BLOCK
  8
0
  2
$MODEL_SPACE
 70
     0
 10
0.0
 20
0.0
 30
0.0
  3
$MODEL_SPACE
  1

  0
ENDBLK
  5
171
  8
0
  0
BLOCK
 67
     1
  8
0
  2
$PAPER_SPACE
 70
     0
 10
0.0
 20
0.0
 30
0.0
  3
$PAPER_SPACE
  1

  0
ENDBLK
  5
16D
 67
     1
  8
0
  0
ENDSEC
  0
SECTION
  2
ENTITIES
  0
LINE
  5
191
  8
DETAIL
  6
CONTINUOUS
 10
-175.0
 20
204.9999999999998
 30
0.0
 11
-175.0
 21
105.0
 31
0.0
  0
LINE
  5
192
  8
DETAIL
  6
CONTINUOUS
 10
175.0
 20
204.9999999999998
 30
0.0
 11
175.0
 21
105.0
 31
0.0
  0
LINE
  5
193
  8
DETAIL
  6
CONTINUOUS
 10
-175.0
 20
204.9999999999998
 30
0.0
 11
175.0
 21
204.9999999999998
 31
0.0
  0
LINE
  5
194
  8
DETAIL
  6
CONTINUOUS
 10
-175.0
 20
105.0
 30
0.0
 11
175.0
 21
105.0
 31
0.0
  0
LINE
  5
195
  8
BASIS
  6
DASHDOT
 10
-474.40616799999992
 20
154.9999999999998
 30
0.0
 11
546.02320499999996
 21
154.9999999999998
 31
0.0
  0
LINE
  5
196
  8
DETAIL
  6
CONTINUOUS
 10
-475.0
 20
0.0
 30
0.0
 11
-475.0
 21
-35.0
 31
0.0
  0
LINE
  5
197
  8
DETAIL
  6
CONTINUOUS
 10
475.0
 20
0.0
 30
0.0
 11
475.0
 21
-35.0
 31
0.0
  0
LINE
  5
199
  8
DETAIL
  6
CONTINUOUS
 10
-475.0
 20
0.0
 30
0.0
 11
475.0
 21
0.0
 31
0.0
  0
LINE
  5
19B
  8
DETAIL
  6
CONTINUOUS
 10
-419.99999999999989
 20
297.99999999999972
 30
0.0
 11
-420.0
 21
0.0
 31
0.0
  0
LINE
  5
19C
  8
DETAIL
  6
CONTINUOUS
 10
419.99999999999989
 20
297.99999999999972
 30
0.0
 11
420.0
 21
0.0
 31
0.0
  0
LINE
  5
19D
  8
BASIS
  6
DASHDOT
 10
0.0
 20
321.9647579999999
 30
0.0
 11
0.0
 21
-130.49599599999991
 31
0.0
  0
LINE
  5
19E
  8
DETAIL
  6
CONTINUOUS
 10
-420.0
 20
17.0
 30
0.0
 11
420.0
 21
17.0
 31
0.0
  0
LINE
  5
1A2
  8
DETAIL
  6
CONTINUOUS
 10
330.0
 20
174.75999999999999
 30
0.0
 11
415.0
 21
174.7600000000001
 31
0.0
  0
LINE
  5
1A3
  8
DETAIL
  6
CONTINUOUS
 10
330.0
 20
165.24000000000009
 30
0.0
 11
415.0
 21
165.24000000000001
 31
0.0
  0
LINE
  5
1A4
  8
DETAIL
  6
CONTINUOUS
 10
330.0
 20
147.93999999999991
 30
0.0
 11
407.0
 21
147.93999999999991
 31
0.0
  0
LINE
  5
1A5
  8
DETAIL
  6
CONTINUOUS
 10
330.0
 20
132.05999999999989
 30
0.0
 11
407.0
 21
132.05999999999989
 31
0.0
  0
TEXT
  5
1A8
  8
ETC
  6
CONTINUOUS
 10
1226.919919310659
 20
509.7008974300727
 30
0.0
 40
64.0
  1
PAC
 41
0.9
  0
TEXT
  5
1A9
  8
ETC
  6
CONTINUOUS
 10
1220.260919310658
 20
349.88922843007288
 30
0.0
 40
64.0
  1
SMPL3345
 41
0.9
  0
CIRCLE
  5
1AA
  8
DETAIL
  6
CONTINUOUS
 10
-190.0
 20
219.99999999999969
 30
0.0
 40
1.399999999999999
  0
CIRCLE
  5
1AB
  8
DETAIL
  6
CONTINUOUS
 10
-100.0
 20
219.99999999999969
 30
0.0
 40
1.399999999999999
  0
CIRCLE
  5
1AC
  8
DETAIL
  6
CONTINUOUS
 10
0.0
 20
219.99999999999969
 30
0.0
 40
1.399999999999999
  0
CIRCLE
  5
1AD
  8
DETAIL
  6
CONTINUOUS
 10
100.0
 20
219.99999999999969
 30
0.0
 40
1.399999999999999
  0
CIRCLE
  5
1AE
  8
DETAIL
  6
CONTINUOUS
 10
190.0
 20
219.99999999999969
 30
0.0
 40
1.399999999999999
  0
CIRCLE
  5
1AF
  8
DETAIL
  6
CONTINUOUS
 10
190.0
 20
90.0
 30
0.0
 40
1.399999999999999
  0
CIRCLE
  5
1B0
  8
DETAIL
  6
CONTINUOUS
 10
100.0
 20
90.0
 30
0.0
 40
1.399999999999999
  0
CIRCLE
  5
1B1
  8
DETAIL
  6
CONTINUOUS
 10
0.0
 20
90.0
 30
0.0
 40
1.399999999999999
  0
CIRCLE
  5
1B2
  8
DETAIL
  6
CONTINUOUS
 10
-100.0
 20
90.0
 30
0.0
 40
1.399999999999999
  0
CIRCLE
  5
1B3
  8
DETAIL
  6
CONTINUOUS
 10
-190.0
 20
90.0
 30
0.0
 40
1.399999999999999
  0
LINE
  5
1B4
  8
NOTE
  6
CONTINUOUS
 10
406.99999999999989
 20
139.99999999999989
 30
0.0
 11
691.61242610032673
 21
-116.9840492611838
 31
0.0
  0
LINE
  5
1B5
  8
NOTE
  6
CONTINUOUS
 10
1187.869594922166
 20
-116.9840492611838
 30
0.0
 11
691.61242610032673
 21
-116.9840492611838
 31
0.0
  0
LINE
  5
1B6
  8
NOTE
  6
CONTINUOUS
 10
415.0
 20
170.00000000000011
 30
0.0
 11
627.32699199999945
 21
258.88646599999998
 31
0.0
  0
LINE
  5
1B7
  8
NOTE
  6
CONTINUOUS
 10
622.32699199999945
 20
258.88646599999998
 30
0.0
 11
968.0793400112733
 21
258.88646599999998
 31
0.0
  0
TEXT
  5
1B8
  8
NOTE
  6
CONTINUOUS
 10
766.91319967912875
 20
-85.630710261183822
 30
0.0
 40
64.0
  1
RG%%C15.88
 41
0.9
  0
TEXT
  5
1B9
  8
NOTE
  6
CONTINUOUS
 10
630.81072792614975
 20
274.63750140480897
 30
0.0
 40
64.0
  1
RL%%C9.52
 41
0.9
  0
LINE
  5
1BA
  8
NOTE
  6
CONTINUOUS
 10
-309.99999999999977
 20
105.0
 30
0.0
 11
-560.14398700000004
 21
29.649772999999978
 31
0.0
  0
LINE
  5
1BB
  8
NOTE
  6
CONTINUOUS
 10
-560.14398700000004
 20
29.649772999999978
 30
0.0
 11
-708.37720400000001
 21
29.649772999999978
 31
0.0
  0
LINE
  5
1BC
  8
NOTE
  6
CONTINUOUS
 10
668.52038200000015
 20
-194.03670699999981
 30
0.0
 11
512.93967199999986
 21
-194.03670699999981
 31
0.0
  0
TEXT
  5
1BD
  8
NOTE
  6
CONTINUOUS
 10
-682.01300500000002
 20
38.711506999999983
 30
0.0
 40
64.0
  1
AH
 41
0.9
  0
TEXT
  5
1BE
  8
NOTE
  6
CONTINUOUS
 10
533.76291200000026
 20
-172.47873300000001
 30
0.0
 40
64.0
  1
AH
 41
0.9
  0
CIRCLE
  5
1BF
  8
ARRANGE
  6
CONTINUOUS
 10
0.0
 20
0.0
 30
0.0
 40
40.0
  0
LINE
  5
1C0
  8
NOTE
  6
CONTINUOUS
 10
395.0
 20
170.00000000000011
 30
0.0
 11
435.0
 21
170.00000000000011
 31
0.0
  0
LINE
  5
1C1
  8
NOTE
  6
CONTINUOUS
 10
415.0
 20
150.00000000000011
 30
0.0
 11
415.0
 21
190.00000000000011
 31
0.0
  0
LINE
  5
1C2
  8
NOTE
  6
CONTINUOUS
 10
387.0
 20
139.99999999999989
 30
0.0
 11
427.0
 21
139.99999999999989
 31
0.0
  0
LINE
  5
1C3
  8
NOTE
  6
CONTINUOUS
 10
407.0
 20
120.0000000000001
 30
0.0
 11
407.0
 21
159.99999999999989
 31
0.0
  0
LINE
  5
1C4
  8
NOTE
  6
CONTINUOUS
 10
310.0
 20
85.0
 30
0.0
 11
310.0
 21
125.0
 31
0.0
  0
LINE
  5
1C5
  8
NOTE
  6
CONTINUOUS
 10
-330.0
 20
105.0
 30
0.0
 11
-290.0
 21
105.0
 31
0.0
  0
LINE
  5
1C6
  8
NOTE
  6
CONTINUOUS
 10
-309.99999999999977
 20
85.0
 30
0.0
 11
-309.99999999999977
 21
125.0
 31
0.0
  0
LINE
  5
1C7
  8
NOTE
  6
CONTINUOUS
 10
210.0
 20
219.99999999999969
 30
0.0
 11
170.0
 21
219.99999999999969
 31
0.0
  0
LINE
  5
1C8
  8
NOTE
  6
CONTINUOUS
 10
190.0
 20
239.99999999999989
 30
0.0
 11
190.0
 21
199.9999999999998
 31
0.0
  0
LINE
  5
1C9
  8
NOTE
  6
CONTINUOUS
 10
120.0
 20
219.99999999999969
 30
0.0
 11
80.0
 21
219.99999999999969
 31
0.0
  0
LINE
  5
1CA
  8
NOTE
  6
CONTINUOUS
 10
100.0
 20
239.99999999999989
 30
0.0
 11
100.0
 21
199.9999999999998
 31
0.0
  0
LINE
  5
1CB
  8
NOTE
  6
CONTINUOUS
 10
20.0
 20
219.99999999999969
 30
0.0
 11
-20.0
 21
219.99999999999969
 31
0.0
  0
LINE
  5
1CC
  8
NOTE
  6
CONTINUOUS
 10
0.0
 20
239.99999999999989
 30
0.0
 11
0.0
 21
199.9999999999998
 31
0.0
  0
LINE
  5
1CD
  8
NOTE
  6
CONTINUOUS
 10
-80.0
 20
219.99999999999969
 30
0.0
 11
-120.0
 21
219.99999999999969
 31
0.0
  0
LINE
  5
1CE
  8
NOTE
  6
CONTINUOUS
 10
-100.0
 20
239.99999999999989
 30
0.0
 11
-100.0
 21
199.9999999999998
 31
0.0
  0
LINE
  5
1CF
  8
NOTE
  6
CONTINUOUS
 10
-170.0
 20
219.99999999999969
 30
0.0
 11
-210.0
 21
219.99999999999969
 31
0.0
  0
LINE
  5
1D0
  8
NOTE
  6
CONTINUOUS
 10
-190.0
 20
239.99999999999989
 30
0.0
 11
-190.0
 21
199.9999999999998
 31
0.0
  0
LINE
  5
1D1
  8
NOTE
  6
CONTINUOUS
 10
-170.0
 20
90.0
 30
0.0
 11
-210.0
 21
90.0
 31
0.0
  0
LINE
  5
1D2
  8
NOTE
  6
CONTINUOUS
 10
-190.0
 20
110.0
 30
0.0
 11
-190.0
 21
70.0
 31
0.0
  0
LINE
  5
1D3
  8
NOTE
  6
CONTINUOUS
 10
-80.0
 20
90.0
 30
0.0
 11
-120.0
 21
90.0
 31
0.0
  0
LINE
  5
1D4
  8
NOTE
  6
CONTINUOUS
 10
-100.0
 20
110.0
 30
0.0
 11
-100.0
 21
70.0
 31
0.0
  0
LINE
  5
1D5
  8
NOTE
  6
CONTINUOUS
 10
20.0
 20
90.0
 30
0.0
 11
-20.0
 21
90.0
 31
0.0
  0
LINE
  5
1D6
  8
NOTE
  6
CONTINUOUS
 10
0.0
 20
110.0
 30
0.0
 11
0.0
 21
70.0
 31
0.0
  0
LINE
  5
1D7
  8
NOTE
  6
CONTINUOUS
 10
120.0
 20
90.0
 30
0.0
 11
80.0
 21
90.0
 31
0.0
  0
LINE
  5
1D8
  8
NOTE
  6
CONTINUOUS
 10
100.0
 20
110.0
 30
0.0
 11
100.0
 21
70.0
 31
0.0
  0
LINE
  5
1D9
  8
NOTE
  6
CONTINUOUS
 10
210.0
 20
90.0
 30
0.0
 11
170.0
 21
90.0
 31
0.0
  0
LINE
  5
1DA
  8
NOTE
  6
CONTINUOUS
 10
190.0
 20
110.0
 30
0.0
 11
190.0
 21
70.0
 31
0.0
  0
CIRCLE
  5
1DB
  8
FIX
  6
CONTINUOUS
 10
-309.99999999999977
 20
105.0
 30
0.0
 40
40.0
  0
CIRCLE
  5
1DC
  8
FIX
  6
CONTINUOUS
 10
310.0
 20
105.0
 30
0.0
 40
40.0
  0
POINT
  5
1DD
  8
ARRANGE
  6
CONTINUOUS
 10
0.0
 20
0.0
 30
0.0
  0
LINE
  5
1DE
  8
OUTLINE
  6
CONTINUOUS
 10
419.99999999999989
 20
297.9999999999996
 30
0.0
 11
419.99999999999989
 21
0.0
 31
0.0
  0
LINE
  5
1DF
  8
OUTLINE
  6
CONTINUOUS
 10
-420.00000000000011
 20
297.9999999999996
 30
0.0
 11
-420.00000000000011
 21
0.0
 31
0.0
  0
LINE
  5
1E1
  8
OUTLINE
  6
CONTINUOUS
 10
-475.0
 20
0.0
 30
0.0
 11
-420.00000000000011
 21
0.0
 31
0.0
  0
LINE
  5
1E3
  8
OUTLINE
  6
CONTINUOUS
 10
474.99999999999989
 20
0.0
 30
0.0
 11
474.99999999999989
 21
-35.0
 31
0.0
  0
LINE
  5
1E4
  8
OUTLINE
  6
CONTINUOUS
 10
-475.0
 20
0.0
 30
0.0
 11
-475.00000000000023
 21
-35.0
 31
0.0
  0
LINE
  5
1E5
  8
OUTLINE
  6
CONTINUOUS
 10
419.99999999999989
 20
0.0
 30
0.0
 11
474.99999999999989
 21
0.0
 31
0.0
  0
LINE
  5
1E6
  8
SIZE
  6
BYBLOCK
 10
330.0
 20
289.99999999999972
 30
0.0
 11
330.0
 21
1224.693
 31
0.0
  0
LINE
  5
1E7
  8
SIZE
  6
BYBLOCK
 10
420.0
 20
307.45030951082572
 30
0.0
 11
420.0
 21
1224.693
 31
0.0
  0
LINE
  5
1E8
  8
SIZE
  6
BYBLOCK
 10
332.8367774391881
 20
1194.693
 30
0.0
 11
418.0
 21
1194.693
 31
0.0
  0
TEXT
  5
1E9
  8
SIZE
  6
BYBLOCK
 10
324.37142899999992
 20
1226.693
 30
0.0
 40
64.0
  1
90
 41
0.9
  0
LINE
  5
1EA
  8
SIZE
  6
BYBLOCK
 10
330.0
 20
289.99999999999972
 30
0.0
 11
330.0
 21
1089.4000000000001
 31
0.0
  0
LINE
  5
1EB
  8
SIZE
  6
BYBLOCK
 10
415.0
 20
190.00000000000011
 30
0.0
 11
415.0
 21
1089.4000000000001
 31
0.0
  0
LINE
  5
1EC
  8
SIZE
  6
BYBLOCK
 10
412.3574723782458
 20
1059.4000000000001
 30
0.0
 11
332.4733124706454
 21
1059.4000000000001
 31
0.0
  0
TEXT
  5
1ED
  8
SIZE
  6
BYBLOCK
 10
317.2428569999999
 20
1091.4000000000001
 30
0.0
 40
64.0
  1
85
 41
0.9
  0
LINE
  5
1EE
  8
SIZE
  6
BYBLOCK
 10
330.0
 20
289.99999999999972
 30
0.0
 11
330.0
 21
944.88213999999994
 31
0.0
  0
LINE
  5
1EF
  8
SIZE
  6
BYBLOCK
 10
407.0
 20
147.94
 30
0.0
 11
407.0
 21
944.88214000000005
 31
0.0
  0
LINE
  5
1F0
  8
SIZE
  6
BYBLOCK
 10
400.0
 20
914.88214000000005
 30
0.0
 11
402.0
 21
914.88214000000005
 31
0.0
  0
LINE
  5
1F2
  8
SIZE
  6
BYBLOCK
 10
403.81073910636132
 20
914.88214000000005
 30
0.0
 11
333.04404180178972
 21
914.88214000000005
 31
0.0
  0
TEXT
  5
1F3
  8
SIZE
  6
BYBLOCK
 10
316.24285699999979
 20
946.88214000000005
 30
0.0
 40
64.0
  1
77
 41
0.9
  0
LINE
  5
1F4
  8
SIZE
  6
BYBLOCK
 10
-475.0
 20
-70.0
 30
0.0
 11
-475.0
 21
-363.50297399999999
 31
0.0
  0
LINE
  5
1F5
  8
SIZE
  6
BYBLOCK
 10
475.0
 20
-50.0
 30
0.0
 11
475.0
 21
-343.50297399999999
 31
0.0
  0
LINE
  5
1F6
  8
SIZE
  6
BYBLOCK
 10
-473.0
 20
-313.50297399999999
 30
0.0
 11
473.0
 21
-313.50297399999999
 31
0.0
  0
TEXT
  5
1F7
  8
SIZE
  6
BYBLOCK
 10
-74.057142999999982
 20
-281.50297399999988
 30
0.0
 40
64.0
  1
950
 41
0.9
  0
LINE
  5
1F8
  8
SIZE
  6
BYBLOCK
 10
-420.0
 20
329.99999999999972
 30
0.0
 11
-420.0
 21
815.7659299999998
 31
0.0
  0
LINE
  5
1F9
  8
SIZE
  6
BYBLOCK
 10
420.0
 20
310.58266263834861
 30
0.0
 11
420.0
 21
775.7659299999998
 31
0.0
  0
LINE
  5
1FA
  8
SIZE
  6
BYBLOCK
 10
-418.0
 20
785.7659299999998
 30
0.0
 11
418.0
 21
785.7659299999998
 31
0.0
  0
TEXT
  5
1FB
  8
SIZE
  6
BYBLOCK
 10
-74.057142999999996
 20
817.7659299999998
 30
0.0
 40
64.0
  1
840
 41
0.9
  0
LINE
  5
1FC
  8
SIZE
  6
BYBLOCK
 10
100.0
 20
239.99999999999989
 30
0.0
 11
100.0
 21
470.95547299999993
 31
0.0
  0
LINE
  5
1FD
  8
SIZE
  6
BYBLOCK
 10
190.0
 20
239.99999999999989
 30
0.0
 11
190.0
 21
397.82582644513599
 31
0.0
  0
LINE
  5
200
  8
SIZE
  6
BYBLOCK
 10
190.0
 20
373.21025674316201
 30
0.0
 11
100.0
 21
373.21025674316201
 31
0.0
  0
TEXT
  5
201
  8
SIZE
  6
BYBLOCK
 10
98.371429000000035
 20
405.21025674316218
 30
0.0
 40
64.0
  1
90
 41
0.9
  0
LINE
  5
202
  8
SIZE
  6
BYBLOCK
 10
0.0
 20
239.99999999999989
 30
0.0
 11
0.0
 21
523.25090786522651
 31
0.0
  0
LINE
  5
203
  8
SIZE
  6
BYBLOCK
 10
100.0
 20
239.99999999999989
 30
0.0
 11
100.0
 21
521.38783330647311
 31
0.0
  0
LINE
  5
206
  8
SIZE
  6
BYBLOCK
 10
100.0
 20
496.203864743162
 30
0.0
 11
0.0
 21
496.203864743162
 31
0.0
  0
TEXT
  5
207
  8
SIZE
  6
BYBLOCK
 10
-18.571428999999959
 20
528.20386474316217
 30
0.0
 40
64.0
  1
100
 41
0.9
  0
LINE
  5
208
  8
SIZE
  6
BYBLOCK
 10
-100.0
 20
239.99999999999989
 30
0.0
 11
-100.0
 21
477.10515400000003
 31
0.0
  0
LINE
  5
209
  8
SIZE
  6
BYBLOCK
 10
0.0
 20
239.99999999999989
 30
0.0
 11
0.0
 21
477.10515400000003
 31
0.0
  0
LINE
  5
20C
  8
SIZE
  6
BYBLOCK
 10
0.0
 20
379.35993774316199
 30
0.0
 11
-100.0
 21
379.35993774316199
 31
0.0
  0
TEXT
  5
20D
  8
SIZE
  6
BYBLOCK
 10
-118.5714289999999
 20
411.35993774316188
 30
0.0
 40
64.0
  1
100
 41
0.9
  0
LINE
  5
20E
  8
SIZE
  6
BYBLOCK
 10
-190.0
 20
239.99999999999989
 30
0.0
 11
-190.0
 21
520.38248415712405
 31
0.0
  0
LINE
  5
20F
  8
SIZE
  6
BYBLOCK
 10
-100.0
 20
239.99999999999989
 30
0.0
 11
-100.0
 21
520.38248415712405
 31
0.0
  0
LINE
  5
212
  8
SIZE
  6
BYBLOCK
 10
-100.0
 20
493.12902374316189
 30
0.0
 11
-190.0
 21
493.12902374316189
 31
0.0
  0
TEXT
  5
213
  8
SIZE
  6
BYBLOCK
 10
-191.62857099999991
 20
525.12902374316195
 30
0.0
 40
64.0
  1
90
 41
0.9
  0
LINE
  5
214
  8
SIZE
  6
BYBLOCK
 10
495.0
 20
0.0
 30
0.0
 11
623.8813110000001
 21
0.0
 31
0.0
  0
LINE
  5
215
  8
SIZE
  6
BYBLOCK
 10
339.94151287964172
 20
105.0
 30
0.0
 11
712.11695524811057
 21
105.0
 31
0.0
  0
LINE
  5
216
  8
SIZE
  6
BYBLOCK
 10
682.11695524811034
 20
2.0
 30
0.0
 11
682.11695524811034
 21
105.0
 31
0.0
  0
TEXT
  5
217
  8
SIZE
  6
BYBLOCK
 10
651.26820024811047
 20
-21.793942000000001
 30
0.0
 40
64.0
  1
105
 50
90.0
 41
0.9
  0
LINE
  5
218
  8
SIZE
  6
BYBLOCK
 10
-1195.2702545574391
 20
0.0
 30
0.0
 11
-447.6902545574394
 21
0.0
 31
0.0
  0
LINE
  5
219
  8
SIZE
  6
BYBLOCK
 10
451.0
 20
169.99999999999969
 30
0.0
 11
1242.5799999999999
 21
169.99999999999969
 31
0.0
  0
LINE
  5
21A
  8
SIZE
  6
BYBLOCK
 10
1213.8399999999999
 20
2.0
 30
0.0
 11
1213.8399999999999
 21
169.99999999999969
 31
0.0
  0
TEXT
  5
21B
  8
SIZE
  6
BYBLOCK
 10
1181.8399999999999
 20
16.42857100000003
 30
0.0
 40
64.0
  1
170
 50
90.0
 41
0.9
  0
LINE
  5
21C
  8
SIZE
  6
BYBLOCK
 10
495.0
 20
0.0
 30
0.0
 11
1248.512397834244
 21
0.0
 31
0.0
  0
LINE
  5
21D
  8
SIZE
  6
BYBLOCK
 10
441.0
 20
139.9999999999998
 30
0.0
 11
934.45368800000006
 21
139.9999999999998
 31
0.0
  0
LINE
  5
21E
  8
SIZE
  6
BYBLOCK
 10
904.45368800000006
 20
2.0
 30
0.0
 11
904.45368800000006
 21
137.9999999999998
 31
0.0
  0
TEXT
  5
21F
  8
SIZE
  6
BYBLOCK
 10
872.45368800000006
 20
1.428571000000032
 30
0.0
 40
64.0
  1
140
 50
90.0
 41
0.9
  0
LINE
  5
220
  8
SIZE
  6
BYBLOCK
 10
-495.0
 20
0.0
 30
0.0
 11
-1108.905
 21
0.0
 31
0.0
  0
LINE
  5
221
  8
SIZE
  6
BYBLOCK
 10
-440.0
 20
297.99999999999972
 30
0.0
 11
-1166.528
 21
297.99999999999972
 31
0.0
  0
LINE
  5
222
  8
SIZE
  6
BYBLOCK
 10
-1135.883
 20
2.0
 30
0.0
 11
-1135.883
 21
297.99999999999972
 31
0.0
  0
TEXT
  5
223
  8
SIZE
  6
BYBLOCK
 10
-1167.883
 20
70.942857000000004
 30
0.0
 40
64.0
  1
298
 50
90.0
 41
0.9
  0
LINE
  5
224
  8
SIZE
  6
BYBLOCK
 10
-495.0
 20
-35.0
 30
0.0
 11
-1166.528
 21
-35.0
 31
0.0
  0
LINE
  5
225
  8
SIZE
  6
BYBLOCK
 10
-495.0
 20
0.0
 30
0.0
 11
-1166.528
 21
0.0
 31
0.0
  0
LINE
  5
226
  8
SIZE
  6
BYBLOCK
 10
-1135.883
 20
2.0
 30
0.0
 11
-1135.883
 21
4.0
 31
0.0
  0
LINE
  5
227
  8
SIZE
  6
BYBLOCK
 10
-1135.883
 20
-32.0
 30
0.0
 11
-1135.883
 21
-34.0
 31
0.0
  0
LINE
  5
228
  8
SIZE
  6
BYBLOCK
 10
-1135.883
 20
0.0
 30
0.0
 11
-1135.883
 21
-30.0
 31
0.0
  0
TEXT
  5
229
  8
SIZE
  6
BYBLOCK
 10
-1167.883
 20
-61.628570999999958
 30
0.0
 40
64.0
  1
35
 50
90.0
 41
0.9
  0
LINE
  5
22A
  8
SIZE
  6
BYBLOCK
 10
-495.0
 20
0.0
 30
0.0
 11
-921.331143
 21
0.0
 31
0.0
  0
LINE
  5
22B
  8
SIZE
  6
BYBLOCK
 10
-494.40616799999992
 20
154.9999999999998
 30
0.0
 11
-921.331143
 21
154.9999999999998
 31
0.0
  0
LINE
  5
22C
  8
SIZE
  6
BYBLOCK
 10
-891.331143
 20
2.0
 30
0.0
 11
-891.331143
 21
154.9999999999998
 31
0.0
  0
TEXT
  5
22D
  8
SIZE
  6
BYBLOCK
 10
-923.331143
 20
21.42857100000003
 30
0.0
 40
64.0
  1
155
 50
90.0
 41
0.9
  0
LINE
  5
22E
  8
SIZE
  6
BYBLOCK
 10
-230.0
 20
219.99999999999969
 30
0.0
 11
-745.30955800000004
 21
219.99999999999969
 31
0.0
  0
LINE
  5
22F
  8
SIZE
  6
BYBLOCK
 10
-230.0
 20
90.0
 30
0.0
 11
-745.30955800000004
 21
90.0
 31
0.0
  0
LINE
  5
230
  8
SIZE
  6
BYBLOCK
 10
-715.30955800000004
 20
88.0
 30
0.0
 11
-715.30955800000004
 21
86.0
 31
0.0
  0
LINE
  5
231
  8
SIZE
  6
BYBLOCK
 10
-715.30955800000004
 20
221.99999999999969
 30
0.0
 11
-715.30955800000004
 21
223.99999999999969
 31
0.0
  0
LINE
  5
232
  8
SIZE
  6
BYBLOCK
 10
-715.30955800000004
 20
90.0
 30
0.0
 11
-715.30955800000004
 21
219.99999999999969
 31
0.0
  0
TEXT
  5
233
  8
SIZE
  6
BYBLOCK
 10
-747.30955800000004
 20
86.428571000000034
 30
0.0
 40
64.0
  1
130
 50
90.0
 41
0.9
  0
LINE
  5
234
  8
SIZE
  6
BYBLOCK
 10
-195.0
 20
204.9999999999998
 30
0.0
 11
-526.62811999999985
 21
204.9999999999998
 31
0.0
  0
LINE
  5
235
  8
SIZE
  6
BYBLOCK
 10
-195.0
 20
105.0
 30
0.0
 11
-526.62811999999985
 21
105.0
 31
0.0
  0
LINE
  5
236
  8
SIZE
  6
BYBLOCK
 10
-496.62812000000002
 20
103.0
 30
0.0
 11
-496.62812000000002
 21
101.0
 31
0.0
  0
LINE
  5
237
  8
SIZE
  6
BYBLOCK
 10
-496.62812000000002
 20
206.9999999999998
 30
0.0
 11
-496.62812000000002
 21
208.9999999999998
 31
0.0
  0
LINE
  5
238
  8
SIZE
  6
BYBLOCK
 10
-496.62812000000002
 20
105.0
 30
0.0
 11
-496.62812000000002
 21
204.9999999999998
 31
0.0
  0
TEXT
  5
239
  8
SIZE
  6
BYBLOCK
 10
-528.62811999999985
 20
86.428571000000034
 30
0.0
 40
64.0
  1
100
 50
90.0
 41
0.9
  0
CIRCLE
  5
23A
  8
SIZE
  6
CONTINUOUS
 10
-496.62812000000002
 20
204.9999999999998
 30
0.0
 40
6.0
  0
CIRCLE
  5
23B
  8
SIZE
  6
CONTINUOUS
 10
-496.62812000000002
 20
105.0
 30
0.0
 40
6.0
  0
CIRCLE
  5
23C
  8
SIZE
  6
CONTINUOUS
 10
-715.30955800000004
 20
219.99999999999969
 30
0.0
 40
6.0
  0
CIRCLE
  5
23D
  8
SIZE
  6
CONTINUOUS
 10
-715.30955800000004
 20
90.0
 30
0.0
 40
6.0
  0
CIRCLE
  5
23E
  8
SIZE
  6
CONTINUOUS
 10
-891.331143
 20
154.9999999999998
 30
0.0
 40
6.0
  0
CIRCLE
  5
23F
  8
SIZE
  6
CONTINUOUS
 10
-891.331143
 20
0.0
 30
0.0
 40
6.0
  0
CIRCLE
  5
240
  8
SIZE
  6
CONTINUOUS
 10
-1135.883
 20
-35.0
 30
0.0
 40
6.0
  0
CIRCLE
  5
241
  8
SIZE
  6
CONTINUOUS
 10
-1135.883
 20
0.0
 30
0.0
 40
6.0
  0
CIRCLE
  5
242
  8
SIZE
  6
CONTINUOUS
 10
-1135.883
 20
297.99999999999972
 30
0.0
 40
6.0
  0
CIRCLE
  5
243
  8
SIZE
  6
CONTINUOUS
 10
-1135.883
 20
0.0
 30
0.0
 40
6.0
  0
CIRCLE
  5
244
  8
SIZE
  6
CONTINUOUS
 10
904.45368800000006
 20
139.9999999999998
 30
0.0
 40
6.0
  0
CIRCLE
  5
245
  8
SIZE
  6
CONTINUOUS
 10
904.45368800000006
 20
0.0
 30
0.0
 40
6.0
  0
CIRCLE
  5
246
  8
SIZE
  6
CONTINUOUS
 10
1213.8399999999999
 20
169.99999999999969
 30
0.0
 40
6.0
  0
CIRCLE
  5
247
  8
SIZE
  6
CONTINUOUS
 10
1213.8399999999999
 20
0.0
 30
0.0
 40
6.0
  0
CIRCLE
  5
248
  8
SIZE
  6
CONTINUOUS
 10
682.11695524811034
 20
105.0
 30
0.0
 40
6.0
  0
CIRCLE
  5
249
  8
SIZE
  6
CONTINUOUS
 10
682.11695524811034
 20
0.0
 30
0.0
 40
6.0
  0
CIRCLE
  5
24A
  8
SIZE
  6
CONTINUOUS
 10
-190.0
 20
493.12902374316189
 30
0.0
 40
6.0
  0
CIRCLE
  5
24B
  8
SIZE
  6
CONTINUOUS
 10
-100.0
 20
493.12902374316189
 30
0.0
 40
6.0
  0
CIRCLE
  5
24C
  8
SIZE
  6
CONTINUOUS
 10
-100.0
 20
379.35993774316199
 30
0.0
 40
6.0
  0
CIRCLE
  5
24D
  8
SIZE
  6
CONTINUOUS
 10
0.0
 20
379.35993774316199
 30
0.0
 40
6.0
  0
CIRCLE
  5
24E
  8
SIZE
  6
CONTINUOUS
 10
0.0
 20
496.203864743162
 30
0.0
 40
6.0
  0
CIRCLE
  5
24F
  8
SIZE
  6
CONTINUOUS
 10
100.0
 20
496.203864743162
 30
0.0
 40
6.0
  0
CIRCLE
  5
250
  8
SIZE
  6
CONTINUOUS
 10
100.0
 20
373.21025674316201
 30
0.0
 40
6.0
  0
CIRCLE
  5
251
  8
SIZE
  6
CONTINUOUS
 10
190.0
 20
373.21025674316201
 30
0.0
 40
6.0
  0
CIRCLE
  5
252
  8
SIZE
  6
CONTINUOUS
 10
420.0
 20
785.7659299999998
 30
0.0
 40
6.0
  0
CIRCLE
  5
253
  8
SIZE
  6
CONTINUOUS
 10
-420.0
 20
785.7659299999998
 30
0.0
 40
6.0
  0
CIRCLE
  5
254
  8
SIZE
  6
CONTINUOUS
 10
475.0
 20
-313.50297399999999
 30
0.0
 40
6.0
  0
CIRCLE
  5
255
  8
SIZE
  6
CONTINUOUS
 10
-475.0
 20
-313.50297399999999
 30
0.0
 40
6.0
  0
CIRCLE
  5
256
  8
SIZE
  6
CONTINUOUS
 10
330.0
 20
914.88214000000005
 30
0.0
 40
6.0
  0
CIRCLE
  5
257
  8
SIZE
  6
CONTINUOUS
 10
407.0
 20
914.88214000000005
 30
0.0
 40
6.0
  0
CIRCLE
  5
258
  8
SIZE
  6
CONTINUOUS
 10
330.0
 20
1059.4000000000001
 30
0.0
 40
6.0
  0
CIRCLE
  5
259
  8
SIZE
  6
CONTINUOUS
 10
415.0
 20
1059.4000000000001
 30
0.0
 40
6.0
  0
CIRCLE
  5
25A
  8
SIZE
  6
CONTINUOUS
 10
420.0
 20
1194.693
 30
0.0
 40
6.0
  0
CIRCLE
  5
25B
  8
SIZE
  6
CONTINUOUS
 10
330.0
 20
1194.693
 30
0.0
 40
6.0
  0
POLYLINE
  5
25C
  8
NOTE
  6
CONTINUOUS
 66
     1
 10
0.0
 20
0.0
 30
0.0
  0
VERTEX
  5
2C8
  8
NOTE
  6
CONTINUOUS
 10
-344.22259699999989
 20
84.292179000000019
 30
0.0
  0
VERTEX
  5
2C9
  8
NOTE
  6
CONTINUOUS
 10
-309.99999999999977
 20
105.0
 30
0.0
  0
VERTEX
  5
2CA
  8
NOTE
  6
CONTINUOUS
 10
-349.99154900000002
 20
104.1778
 30
0.0
  0
SEQEND
  5
2CB
  8
NOTE
  6
CONTINUOUS
  0
POLYLINE
  5
261
  8
NOTE
  6
CONTINUOUS
 66
     1
 10
0.0
 20
0.0
 30
0.0
  0
VERTEX
  5
2CC
  8
NOTE
  6
CONTINUOUS
 10
446.64901999999989
 20
194.46097900000029
 30
0.0
  0
VERTEX
  5
2CD
  8
NOTE
  6
CONTINUOUS
 10
415.0
 20
170.00000000000011
 30
0.0
  0
VERTEX
  5
2CE
  8
NOTE
  6
CONTINUOUS
 10
454.63934499999988
 20
175.35931900000031
 30
0.0
  0
SEQEND
  5
2CF
  8
NOTE
  6
CONTINUOUS
  0
POLYLINE
  5
266
  8
NOTE
  6
CONTINUOUS
 66
     1
 10
0.0
 20
0.0
 30
0.0
  0
VERTEX
  5
2D0
  8
NOTE
  6
CONTINUOUS
 10
442.98520888590502
 20
122.5338983488418
 30
0.0
  0
VERTEX
  5
2D1
  8
NOTE
  6
CONTINUOUS
 10
406.99999999999989
 20
139.99999999999989
 30
0.0
  0
VERTEX
  5
2D2
  8
NOTE
  6
CONTINUOUS
 10
429.43105382864519
 20
106.8813069054149
 30
0.0
  0
SEQEND
  5
2D3
  8
NOTE
  6
CONTINUOUS
  0
LINE
  5
26B
  8
NOTE
  6
CONTINUOUS
 10
290.00000000000011
 20
105.0
 30
0.0
 11
330.00000000000011
 21
105.0
 31
0.0
  0
TEXT
  5
26C
  8
SIZE
  6
BYBLOCK
 10
-1044.326
 20
21.42857100000003
 30
0.0
 40
64.0
  1
158
 50
90.0
 41
0.9
  0
LINE
  5
26D
  8
SIZE
  6
BYBLOCK
 10
-1012.326
 20
2.0
 30
0.0
 11
-1012.326
 21
154.9999999999998
 31
0.0
  0
CIRCLE
  5
26E
  8
SIZE
  6
CONTINUOUS
 10
-1012.326
 20
0.0
 30
0.0
 40
6.0
  0
CIRCLE
  5
26F
  8
SIZE
  6
CONTINUOUS
 10
-1012.326
 20
154.9999999999998
 30
0.0
 40
6.0
  0
LINE
  5
270
  8
NOTE
  6
CONTINUOUS
 10
-320.0
 20
157.99999999999989
 30
0.0
 11
-360.0
 21
157.99999999999989
 31
0.0
  0
LINE
  5
271
  8
NOTE
  6
CONTINUOUS
 10
-340.0
 20
177.9999999999998
 30
0.0
 11
-340.0
 21
137.9999999999998
 31
0.0
  0
CIRCLE
  5
272
  8
DETAIL
  6
CONTINUOUS
 10
-340.0
 20
157.99999999999989
 30
0.0
 40
1.399999999999999
  0
LINE
  5
273
  8
SIZE
  6
BYBLOCK
 10
-379.10000000000002
 20
157.9999999999998
 30
0.0
 11
-1036.4259999999999
 21
157.9999999999998
 31
0.0
  0
LINE
  5
274
  8
BASIS
  6
DASHDOT
 10
-118.7860949999999
 20
166.9999999999998
 30
0.0
 11
118.7860949999999
 21
166.9999999999998
 31
0.0
  0
LINE
  5
275
  8
DETAIL
  6
CONTINUOUS
 10
-41.127219999999973
 20
229.7180339999997
 30
0.0
 11
41.127219999999973
 21
229.7180339999997
 31
0.0
  0
ARC
  5
276
  8
DETAIL
  6
CONTINUOUS
 10
0.0
 20
166.9999999999998
 30
0.0
 40
75.0
 50
123.2547749999999
 51
56.745224999999991
  0
LINE
  5
277
  8
NOTE
  6
CONTINUOUS
 10
31.39975500000002
 20
98.883717000000033
 30
0.0
 11
262.86467299999993
 21
-242.18565699999999
 31
0.0
  0
POLYLINE
  5
278
  8
NOTE
  6
CONTINUOUS
 66
     1
 10
0.0
 20
0.0
 30
0.0
  0
VERTEX
  5
2D4
  8
NOTE
  6
CONTINUOUS
 10
62.806643000000008
 20
74.112617
 30
0.0
  0
VERTEX
  5
2D5
  8
NOTE
  6
CONTINUOUS
 10
31.399754999999999
 20
98.883717000000033
 30
0.0
  0
VERTEX
  5
2D6
  8
NOTE
  6
CONTINUOUS
 10
46.213366999999991
 20
61.727870999999929
 30
0.0
  0
SEQEND
  5
2D7
  8
NOTE
  6
CONTINUOUS
  0
TEXT
  5
27D
  8
NOTE
  6
CONTINUOUS
 10
252.342533
 20
-227.2928439999998
 30
0.0
 40
64.0
  1
φ150
 41
0.9
  0
LINE
  5
27E
  8
NOTE
  6
CONTINUOUS
 10
262.86467299999993
 20
-242.18565699999999
 30
0.0
 11
443.48853500000001
 21
-242.18565699999999
 31
0.0
  0
LINE
  5
27F
  8
NOTE
  6
CONTINUOUS
 10
310.0
 20
105.0
 30
0.0
 11
512.93967199999986
 21
-194.03670699999981
 31
0.0
  0
POLYLINE
  5
280
  8
NOTE
  6
CONTINUOUS
 66
     1
 10
0.0
 20
0.0
 30
0.0
  0
VERTEX
  5
2D8
  8
NOTE
  6
CONTINUOUS
 10
341.40688799999998
 20
80.228899999999939
 30
0.0
  0
VERTEX
  5
2D9
  8
NOTE
  6
CONTINUOUS
 10
310.0
 20
105.0
 30
0.0
  0
VERTEX
  5
2DA
  8
NOTE
  6
CONTINUOUS
 10
324.81361200000009
 20
67.844154000000003
 30
0.0
  0
SEQEND
  5
2DB
  8
NOTE
  6
CONTINUOUS
  0
TEXT
  5
285
  8
SIZE
  6
BYBLOCK
 10
1040.5419999999999
 20
16.42857100000003
 30
0.0
 40
64.0
  1
167
 50
90.0
 41
0.9
  0
LINE
  5
286
  8
SIZE
  6
BYBLOCK
 10
1072.5419999999999
 20
2.0
 30
0.0
 11
1072.5419999999999
 21
166.9999999999998
 31
0.0
  0
CIRCLE
  5
287
  8
SIZE
  6
CONTINUOUS
 10
1072.5419999999999
 20
0.0
 30
0.0
 40
6.0
  0
CIRCLE
  5
288
  8
SIZE
  6
CONTINUOUS
 10
1072.5419999999999
 20
166.9999999999998
 30
0.0
 40
6.0
  0
LINE
  5
289
  8
SIZE
  6
BYBLOCK
 10
142.7860949999999
 20
166.9999999999998
 30
0.0
 11
1103.3710000000001
 21
166.9999999999998
 31
0.0
  0
LINE
  5
28B
  8
DETAIL
  6
CONTINUOUS
 10
-475.0
 20
-35.0
 30
0.0
 11
475.0
 21
-35.0
 31
0.0
  0
LINE
  5
28E
  8
DETAIL
  6
CONTINUOUS
 10
-260.0
 20
297.99999999999972
 30
0.0
 11
-260.0
 21
0.0
 31
0.0
  0
LINE
  5
290
  8
DETAIL
  6
CONTINUOUS
 10
270.0
 20
297.99999999999972
 30
0.0
 11
270.0
 21
0.0
 31
0.0
  0
LINE
  5
291
  8
DETAIL
  6
CONTINUOUS
 10
330.0
 20
297.99999999999972
 30
0.0
 11
330.0
 21
0.0
 31
0.0
  0
CIRCLE
  5
298
  8
SIZE
  6
CONTINUOUS
 10
310.0
 20
639.97832492775001
 30
0.0
 40
6.0
  0
LINE
  5
299
  8
SIZE
  6
BYBLOCK
 10
310.0
 20
125.0
 30
0.0
 11
310.0
 21
664.9243924990941
 31
0.0
  0
CIRCLE
  5
29A
  8
SIZE
  6
CONTINUOUS
 10
-309.99999999999977
 20
639.97832492775001
 30
0.0
 40
6.0
  0
LINE
  5
29B
  8
SIZE
  6
BYBLOCK
 10
-309.99999999999977
 20
125.0
 30
0.0
 11
-309.99999999999977
 21
666.88401291886294
 31
0.0
  0
LINE
  5
29C
  8
SIZE
  6
BYBLOCK
 10
-307.3418411480925
 20
639.97832492775001
 30
0.0
 11
307.48639420724248
 21
639.97832492775001
 31
0.0
  0
TEXT
  5
29D
  8
SIZE
  6
BYBLOCK
 10
-74.057142999999996
 20
653.11518125006762
 30
0.0
 40
64.0
  1
620
 41
0.9
  0
LINE
  5
2A0
  8
DETAIL
  6
CONTINUOUS
 10
407.0
 20
147.93999999999991
 30
0.0
 11
407.0
 21
132.05999999999989
 31
0.0
  0
LINE
  5
2A3
  8
OUTLINE
  6
CONTINUOUS
 10
-475.00000000000023
 20
-35.0
 30
0.0
 11
474.99999999999989
 21
-35.0
 31
0.0
  0
LINE
  5
2A8
  8
DETAIL
  6
CONTINUOUS
 10
415.0
 20
174.7600000000001
 30
0.0
 11
415.0
 21
165.24000000000009
 31
0.0
  0
LINE
  5
2B7
  8
DETAIL
  6
CONTINUOUS
 10
-419.99999999999989
 20
297.99999999999972
 30
0.0
 11
419.99999999999989
 21
297.99999999999972
 31
0.0
  0
LINE
  5
2B9
  8
OUTLINE
  6
CONTINUOUS
 10
-420.00000000000011
 20
297.9999999999996
 30
0.0
 11
419.99999999999989
 21
297.9999999999996
 31
0.0
  0
ENDSEC
  0
EOF
