  0
SECTION
  2
HEADER
  9
$ACADVER
  1
AC1009
  9
$INSBASE
 10
0.0
 20
0.0
 30
0.0
  9
$EXTMIN
 10
-1103.609479033234
 20
-573.01396200505167
 30
0.0
  9
$EXTMAX
 10
1629.086288259093
 20
1481.7578436287481
 30
1.0049964175586230E+099
  9
$LIMMIN
 10
-1385.156637306163
 20
-1026.9671250737499
  9
$LIMMAX
 10
1977.3107289634149
 20
1739.4825138215581
  9
$ORTHOMODE
 70
     1
  9
$REGENMODE
 70
     1
  9
$FILLMODE
 70
     1
  9
$QTEXTMODE
 70
     0
  9
$MIRRTEXT
 70
     0
  9
$DRAGMODE
 70
     2
  9
$LTSCALE
 40
20.0
  9
$OSMODE
 70
   119
  9
$ATTMODE
 70
     1
  9
$TEXTSIZE
 40
64.0
  9
$TRACEWID
 40
0.05
  9
$TEXTSTYLE
  7
STANDARD
  9
$CLAYER
  8
SIZE
  9
$CELTYPE
  6
CONTINUOUS
  9
$CECOLOR
 62
   256
  9
$DIMSCALE
 40
1.0
  9
$DIMASZ
 40
10.0
  9
$DIMEXO
 40
20.0
  9
$DIMDLI
 40
200.0
  9
$DIMRND
 40
0.0
  9
$DIMDLE
 40
0.0
  9
$DIMEXE
 40
20.0
  9
$DIMTP
 40
0.0
  9
$DIMTM
 40
0.0
  9
$DIMTXT
 40
64.0
  9
$DIMCEN
 40
0.09
  9
$DIMTSZ
 40
0.0
  9
$DIMTOL
 70
     0
  9
$DIMLIM
 70
     0
  9
$DIMTIH
 70
     0
  9
$DIMTOH
 70
     0
  9
$DIMSE1
 70
     0
  9
$DIMSE2
 70
     0
  9
$DIMTAD
 70
     1
  9
$DIMZIN
 70
     8
  9
$DIMBLK
  1
ORIGIN
  9
$DIMASO
 70
     1
  9
$DIMSHO
 70
     0
  9
$DIMPOST
  1

  9
$DIMAPOST
  1

  9
$DIMALT
 70
     0
  9
$DIMALTD
 70
     2
  9
$DIMALTF
 40
25.399999999999999
  9
$DIMLFAC
 40
1.0
  9
$DIMTOFL
 70
     1
  9
$DIMTVP
 40
0.0
  9
$DIMTIX
 70
     0
  9
$DIMSOXD
 70
     0
  9
$DIMSAH
 70
     0
  9
$DIMBLK1
  1

  9
$DIMBLK2
  1

  9
$DIMSTYLE
  2
STANDARD
  9
$DIMCLRD
 70
     0
  9
$DIMCLRE
 70
     0
  9
$DIMCLRT
 70
     0
  9
$DIMTFAC
 40
1.0
  9
$DIMGAP
 40
20.0
  9
$LUNITS
 70
     2
  9
$LUPREC
 70
     4
  9
$SKETCHINC
 40
0.1
  9
$FILLETRAD
 40
6.0
  9
$AUNITS
 70
     1
  9
$AUPREC
 70
     3
  9
$MENU
  1
ACAD
  9
$ELEVATION
 40
0.0
  9
$PELEVATION
 40
0.0
  9
$THICKNESS
 40
0.0
  9
$LIMCHECK
 70
     0
  9
$BLIPMODE
 70
     0
  9
$CHAMFERA
 40
0.0
  9
$CHAMFERB
 40
0.0
  9
$SKPOLY
 70
     0
  9
$TDCREATE
 40
2450330.3932059952
  9
$TDUPDATE
 40
2453687.6361288312
  9
$TDINDWG
 40
0.1925665972
  9
$TDUSRTIMER
 40
0.1925663657
  9
$USRTIMER
 70
     1
  9
$ANGBASE
 50
0.0
  9
$ANGDIR
 70
     0
  9
$PDMODE
 70
     3
  9
$PDSIZE
 40
-2.0
  9
$PLINEWID
 40
0.0
  9
$COORDS
 70
     0
  9
$SPLFRAME
 70
     0
  9
$SPLINETYPE
 70
     6
  9
$SPLINESEGS
 70
     8
  9
$ATTDIA
 70
     0
  9
$ATTREQ
 70
     1
  9
$HANDLING
 70
-16383
  9
$HANDSEED
  5
1608
  9
$SURFTAB1
 70
     6
  9
$SURFTAB2
 70
     6
  9
$SURFTYPE
 70
     6
  9
$SURFU
 70
     6
  9
$SURFV
 70
     6
  9
$UCSNAME
  2

  9
$UCSORG
 10
0.0
 20
0.0
 30
0.0
  9
$UCSXDIR
 10
1.0
 20
0.0
 30
0.0
  9
$UCSYDIR
 10
0.0
 20
1.0
 30
0.0
  9
$PUCSNAME
  2

  9
$PUCSORG
 10
0.0
 20
0.0
 30
0.0
  9
$PUCSXDIR
 10
1.0
 20
0.0
 30
0.0
  9
$PUCSYDIR
 10
0.0
 20
1.0
 30
0.0
  9
$USERI1
 70
     0
  9
$USERI2
 70
     0
  9
$USERI3
 70
     0
  9
$USERI4
 70
     0
  9
$USERI5
 70
     0
  9
$USERR1
 40
20.0
  9
$USERR2
 40
0.0
  9
$USERR3
 40
0.0
  9
$USERR4
 40
0.0
  9
$USERR5
 40
0.0
  9
$WORLDVIEW
 70
     1
  9
$SHADEDGE
 70
     3
  9
$SHADEDIF
 70
    70
  9
$TILEMODE
 70
     1
  9
$MAXACTVP
 70
    64
  9
$PLIMCHECK
 70
     0
  9
$PEXTMIN
 10
1.0000000000000000E+020
 20
1.0000000000000000E+020
 30
1.0000000000000000E+020
  9
$PEXTMAX
 10
-1.0000000000000000E+020
 20
-1.0000000000000000E+020
 30
-1.0000000000000000E+020
  9
$PLIMMIN
 10
0.0
 20
0.0
  9
$PLIMMAX
 10
12.0
 20
9.0
  9
$UNITMODE
 70
     0
  9
$VISRETAIN
 70
     1
  9
$PLINEGEN
 70
     0
  9
$PSLTSCALE
 70
     1
  0
ENDSEC
  0
SECTION
  2
TABLES
  0
TABLE
  2
VPORT
 70
     2
  0
VPORT
  2
*ACTIVE
 70
     0
 10
0.0
 20
0.0
 11
1.0
 21
1.0
 12
939.57495792866484
 22
600.35619219612272
 13
0.0
 23
0.0
 14
50.0
 24
50.0
 15
100.0
 25
100.0
 16
0.0
 26
0.0
 36
1.0
 17
0.0
 27
0.0
 37
0.0
 40
3981.8567369598982
 41
1.314578005115089
 42
50.0
 43
0.0
 44
0.0
 50
0.0
 51
0.0
 71
     0
 72
   500
 73
     1
 74
     0
 75
     0
 76
     0
 77
     0
 78
     0
  0
ENDTAB
  0
TABLE
  2
LTYPE
 70
     8
  0
LTYPE
  2
CONTINUOUS
 70
     0
  3
実線
 72
    65
 73
     0
 40
0.0
  0
LTYPE
  2
DASHDOT
 70
     0
  3
____ _ ____ _ ____ _ ____ _ ____ _ ____ _ ____
 72
    65
 73
     4
 40
5.5
 49
4.0
 49
-0.6
 49
0.3
 49
-0.6
  0
LTYPE
  2
CONTINOUS
 70
     0
  3
Solid line
 72
    65
 73
     0
 40
0.0
  0
LTYPE
  2
DASHED
 70
     0
  3
_ _ _ _ _ _ _ _ _ _ _ _ _ _ _ _ _ _ _ _ _ _ _
 72
    65
 73
     2
 40
2.0
 49
1.1999999999999991
 49
-0.8
  0
LTYPE
  2
DOT
 70
     0
  3
...............................................
 72
    65
 73
     2
 40
0.8
 49
0.5
 49
-0.3
  0
LTYPE
  2
DASHDOT1
 70
     0
  3
____ _ ____ _ ____ _ ____ _ ____ _ ____ _ ____
 72
    65
 73
     4
 40
2.0
 49
1.5
 49
-0.2
 49
0.1
 49
-0.2
  0
LTYPE
  2
DIVIDE
 70
     0
  3
_____ _ _ _____ _ _ _____ _ _ _____ _ _ ____
 72
    65
 73
     6
 40
6.4000000000000004
 49
4.0
 49
-0.6
 49
0.3
 49
-0.6
 49
0.3
 49
-0.6
  0
LTYPE
  2
DIVIDE1
 70
     0
  3
_____ _ _ _____ _ _ _____ _ _ _____ _ _ ____
 72
    65
 73
     6
 40
3.2000000000000002
 49
2.0
 49
-0.3
 49
0.15
 49
-0.3
 49
0.15
 49
-0.3
  0
ENDTAB
  0
TABLE
  2
LAYER
 70
    12
  0
LAYER
  2
0
 70
     0
 62
     7
  6
CONTINUOUS
  0
LAYER
  2
SIZE
 70
     0
 62
    32
  6
CONTINUOUS
  0
LAYER
  2
DETAIL
 70
     0
 62
     5
  6
CONTINUOUS
  0
LAYER
  2
OUTLINE
 70
     0
 62
     3
  6
CONTINUOUS
  0
LAYER
  2
BASIS
 70
     0
 62
     6
  6
CONTINUOUS
  0
LAYER
  2
NOTE
 70
     0
 62
     4
  6
CONTINUOUS
  0
LAYER
  2
ARRANGE
 70
     0
 62
     1
  6
CONTINUOUS
  0
LAYER
  2
FIX
 70
     0
 62
   241
  6
CONTINUOUS
  0
LAYER
  2
ETC
 70
     0
 62
    83
  6
CONTINUOUS
  0
LAYER
  2
SERVICESPACE
 70
     0
 62
     2
  6
CONTINUOUS
  0
LAYER
  2
SYMBOLLINE
 70
     0
 62
    38
  6
CONTINUOUS
  0
LAYER
  2
DEFPOINTS
 70
     0
 62
     7
  6
CONTINUOUS
  0
ENDTAB
  0
TABLE
  2
STYLE
 70
     2
  0
STYLE
  2
STANDARD
 70
     0
 40
0.0
 41
0.9
 50
0.0
 71
     0
 42
64.0
  3
SIMPLEX
  4
BIGFONT
  0
STYLE
  2
STANDARD1
 70
     0
 40
0.0
 41
1.0
 50
0.0
 71
     0
 42
3.2000000000000002
  3
MONOTXT
  4
BIGFONT
  0
ENDTAB
  0
TABLE
  2
VIEW
 70
     1
  0
VIEW
  2
ALL
 70
     0
 40
4282.6199999999999
 10
0.0
 20
41.309903999999989
 41
5940.0
 11
0.0
 21
0.0
 31
1.0
 12
0.0
 22
0.0
 32
0.0
 42
50.0
 43
0.0
 44
0.0
 50
0.0
 71
     0
  0
ENDTAB
  0
TABLE
  2
UCS
 70
     0
  0
ENDTAB
  0
TABLE
  2
APPID
 70
     1
  0
APPID
  2
ACAD
 70
     0
  0
ENDTAB
  0
TABLE
  2
DIMSTYLE
 70
     1
  0
DIMSTYLE
  2
STANDARD
 70
     0
  3

  4

  5

  6

  7

 40
1.0
 41
0.18
 42
0.0625
 43
0.38
 44
0.18
 45
0.0
 46
0.0
 47
0.0
 48
0.0
140
0.18
141
0.09
142
0.0
143
25.399999999999999
144
1.0
145
0.0
146
1.0
147
0.09
 71
     0
 72
     0
 73
     1
 74
     1
 75
     0
 76
     0
 77
     0
 78
     0
170
     0
171
     2
172
     0
173
     0
174
     0
175
     0
176
     0
177
     0
178
     0
  0
ENDTAB
  0
ENDSEC
  0
SECTION
  2
BLOCKS
  0
BLOCK
  8
0
  2
$MODEL_SPACE
 70
     0
 10
0.0
 20
0.0
 30
0.0
  3
$MODEL_SPACE
  1

  0
ENDBLK
  5
105C
  8
0
  0
BLOCK
 67
     1
  8
0
  2
$PAPER_SPACE
 70
     0
 10
0.0
 20
0.0
 30
0.0
  3
$PAPER_SPACE
  1

  0
ENDBLK
  5
1058
 67
     1
  8
0
  0
BLOCK
  8
0
  2
A$C5F2C697A
 70
     0
 10
0.0
 20
0.0
 30
0.0
  3
A$C5F2C697A
  1

  0
TEXT
  5
107F
  8
SIZE
  6
BYBLOCK
 10
910.8147643978815
 20
127.36127978650261
 30
0.0
 40
64.0
  1
370
 41
0.9
  0
LINE
  5
1080
  8
SIZE
  6
BYBLOCK
 10
801.8719073978815
 20
95.361279786502593
 30
0.0
 11
1167.87190739788
 21
95.361279786502593
 31
0.0
  0
TEXT
  5
1081
  8
SIZE
  6
BYBLOCK
 10
915.81476439788139
 20
1424.5027517865019
 30
0.0
 40
64.0
  1
330
 41
0.9
  0
LINE
  5
1082
  8
SIZE
  6
BYBLOCK
 10
826.8719073978815
 20
1392.5027517865019
 30
0.0
 11
1152.87190739788
 21
1392.5027517865019
 31
0.0
  0
LINE
  5
1083
  8
OUTLINE
  6
CONTINUOUS
 10
771.8719063978815
 20
290.07775178650252
 30
0.0
 11
1183.871906397881
 21
290.07775178650252
 31
0.0
  0
LINE
  5
1084
  8
OUTLINE
  6
CONTINUOUS
 10
771.8719063978815
 20
323.07775178650252
 30
0.0
 11
1183.871906397881
 21
323.07775178650252
 31
0.0
  0
LINE
  5
1085
  8
OUTLINE
  6
CONTINUOUS
 10
824.87190639788139
 20
1145.0777517865019
 30
0.0
 11
1154.8719063978799
 21
1145.0777517865019
 31
0.0
  0
CIRCLE
  5
1086
  8
ARRANGE
  6
CONTINUOUS
 10
989.87190639788139
 20
290.07775178650252
 30
0.0
 40
40.0
  0
LINE
  5
1087
  8
DETAIL
  6
CONTINOUS
 10
771.8719063978815
 20
290.07775178650252
 30
0.0
 11
1183.871906397881
 21
290.07775178650252
 31
0.0
  0
LINE
  5
1088
  8
DETAIL
  6
CONTINOUS
 10
824.87190639788139
 20
1145.0777517865019
 30
0.0
 11
1154.8719063978799
 21
1145.0777517865019
 31
0.0
  0
TEXT
  5
1089
  8
NOTE
  6
CONTINUOUS
 10
973.98087039788129
 20
913.84623078650259
 30
0.0
 40
64.0
  1
EL,CL
 41
0.9
  0
LINE
  5
108A
  8
NOTE
  6
CONTINUOUS
 10
879.8719063978815
 20
686.07775178650252
 30
0.0
 11
1040.77148939788
 21
625.20405378650253
 31
0.0
  0
LINE
  5
108B
  8
NOTE
  6
CONTINUOUS
 10
1205.83098439788
 20
895.38895978650271
 30
0.0
 11
918.87085639788165
 21
895.38895978650271
 31
0.0
  0
POINT
  5
108C
  8
ARRANGE
  6
CONTINUOUS
 10
989.87190639788139
 20
290.07775178650252
 30
0.0
  0
LINE
  5
108D
  8
DETAIL
  6
CONTINOUS
 10
771.8719063978815
 20
323.07775178650252
 30
0.0
 11
1183.871906397881
 21
323.07775178650252
 31
0.0
  0
LINE
  5
108E
  8
NOTE
  6
CONTINUOUS
 10
882.87190639788139
 20
724.07775178650252
 30
0.0
 11
1040.77148939788
 21
812.30385178650226
 31
0.0
  0
CIRCLE
  5
108F
  8
SIZE
  6
CONTINUOUS
 10
220.7875803978813
 20
290.07775178650252
 30
0.0
 40
6.0
  0
CIRCLE
  5
1090
  8
SIZE
  6
CONTINUOUS
 10
503.55668139788139
 20
290.07775178650252
 30
0.0
 40
6.0
  0
CIRCLE
  5
1091
  8
SIZE
  6
CONTINUOUS
 10
649.74425839788148
 20
290.07775178650252
 30
0.0
 40
6.0
  0
CIRCLE
  5
1092
  8
SIZE
  6
CONTINUOUS
 10
350.83505539788138
 20
290.07775178650252
 30
0.0
 40
6.0
  0
LINE
  5
1093
  8
OUTLINE
  6
CONTINUOUS
 10
771.8719063978815
 20
290.07775178650252
 30
0.0
 11
771.8719063978815
 21
323.07775178650252
 31
0.0
  0
CIRCLE
  5
1094
  8
FIX
  6
CONTINUOUS
 10
799.8719063978815
 20
290.07775178650252
 30
0.0
 40
40.0
  0
LINE
  5
1095
  8
DETAIL
  6
CONTINOUS
 10
771.8719063978815
 20
290.07775178650252
 30
0.0
 11
771.8719063978815
 21
323.07775178650252
 31
0.0
  0
LINE
  5
1096
  8
BASIS
  6
DASHDOT
 10
989.87190639788139
 20
239.4419287865025
 30
0.0
 11
989.87190639788139
 21
1184.2961157865011
 31
0.0
  0
LINE
  5
1097
  8
NOTE
  6
CONTINOUS
 10
799.8719063978815
 20
270.0777517865024
 30
0.0
 11
799.8719063978815
 21
310.07775178650252
 31
0.0
  0
LINE
  5
1098
  8
NOTE
  6
CONTINUOUS
 10
0.0000023978816444
 20
-0.000002213497396
 30
0.0
 11
579.80680439788148
 21
-0.000002213497396
 31
0.0
  0
TEXT
  5
1099
  8
NOTE
  6
CONTINUOUS
 10
14.78030739788152
 20
15.10229878650267
 30
0.0
 40
64.0
  1
AH 2-12×36
 41
0.9
  0
LINE
  5
109A
  8
SIZE
  6
BYBLOCK
 10
715.70171039788136
 20
290.07775178650252
 30
0.0
 11
320.83505539788149
 21
290.07775178650252
 31
0.0
  0
LINE
  5
109B
  8
SIZE
  6
BYBLOCK
 10
735.70171039788136
 20
290.07775178650252
 30
0.0
 11
473.55668139788111
 21
290.07775178650252
 31
0.0
  0
LINE
  5
109C
  8
SIZE
  6
BYBLOCK
 10
735.70171039788136
 20
290.07775178650252
 30
0.0
 11
190.7875803978813
 21
290.07775178650252
 31
0.0
  0
LINE
  5
109D
  8
NOTE
  6
CONTINUOUS
 10
579.80680439788148
 20
-0.000002213497396
 30
0.0
 11
799.8719063978815
 21
290.07775178650252
 31
0.0
  0
TEXT
  5
109E
  8
SIZE
  6
BYBLOCK
 10
739.24333539788142
 20
127.36127978650261
 30
0.0
 40
64.0
  1
28
 41
0.9
  0
LINE
  5
109F
  8
SIZE
  6
BYBLOCK
 10
735.70171039788136
 20
290.07775178650252
 30
0.0
 11
619.74425839788148
 21
290.07775178650252
 31
0.0
  0
LINE
  5
10A0
  8
SIZE
  6
BYBLOCK
 10
799.8719073978815
 20
250.0777517865026
 30
0.0
 11
799.8719073978815
 21
65.361279786502621
 31
0.0
  0
LINE
  5
10A1
  8
SIZE
  6
BYBLOCK
 10
799.8719073978815
 20
250.0777517865026
 30
0.0
 11
799.8719073978815
 21
65.361279786502621
 31
0.0
  0
LINE
  5
10A2
  8
SIZE
  6
BYBLOCK
 10
771.8719073978815
 20
270.0777517865024
 30
0.0
 11
771.8719073978815
 21
65.361279786502621
 31
0.0
  0
CIRCLE
  5
10A3
  8
SIZE
  6
CONTINUOUS
 10
799.8719073978815
 20
95.361279786502593
 30
0.0
 40
6.0
  0
CIRCLE
  5
10A4
  8
SIZE
  6
CONTINUOUS
 10
771.8719073978815
 20
95.361279786502593
 30
0.0
 40
6.0
  0
CIRCLE
  5
10A5
  8
SIZE
  6
CONTINUOUS
 10
799.8719073978815
 20
95.361279786502593
 30
0.0
 40
6.0
  0
LINE
  5
10A6
  8
SIZE
  6
BYBLOCK
 10
799.8719073978815
 20
95.361279786502593
 30
0.0
 11
771.8719073978815
 21
95.361279786502593
 31
0.0
  0
LINE
  5
10A7
  8
SIZE
  6
BYBLOCK
 10
769.8719073978815
 20
95.361279786502593
 30
0.0
 11
767.8719073978815
 21
95.361279786502593
 31
0.0
  0
LINE
  5
10A8
  8
SIZE
  6
BYBLOCK
 10
801.8719073978815
 20
95.361279786502593
 30
0.0
 11
803.87190739788139
 21
95.361279786502593
 31
0.0
  0
LINE
  5
10A9
  8
NOTE
  6
CONTINOUS
 10
779.8719063978815
 20
290.07775178650252
 30
0.0
 11
819.8719063978815
 21
290.07775178650252
 31
0.0
  0
LINE
  5
10AA
  8
NOTE
  6
CONTINUOUS
 10
799.8719063978815
 20
290.07775178650252
 30
0.0
 11
784.76766639788127
 21
253.0390967865026
 31
0.0
  0
LINE
  5
10AB
  8
NOTE
  6
CONTINUOUS
 10
799.8719063978815
 20
290.07775178650252
 30
0.0
 11
768.27192339788144
 21
265.55345678650241
 31
0.0
  0
LINE
  5
10AC
  8
SIZE
  6
BYBLOCK
 10
771.8719073978815
 20
343.07775178650252
 30
0.0
 11
771.8719073978815
 21
1422.5027517865019
 31
0.0
  0
LINE
  5
10AD
  8
OUTLINE
  6
CONTINUOUS
 10
824.87190639788139
 20
323.07775178650252
 30
0.0
 11
824.87190639788139
 21
1145.0777517865019
 31
0.0
  0
LINE
  5
10AE
  8
DETAIL
  6
CONTINOUS
 10
824.87190639788139
 20
323.07775178650252
 30
0.0
 11
824.87190639788139
 21
1145.0777517865019
 31
0.0
  0
LINE
  5
10AF
  8
DETAIL
  6
CONTINOUS
 10
804.8719063978815
 20
462.0777517865024
 30
0.0
 11
804.8719063978815
 21
1002.0777517865019
 31
0.0
  0
LINE
  5
10B0
  8
SIZE
  6
BYBLOCK
 10
714.44271139788157
 20
732.07775178650252
 30
0.0
 11
320.83505539788149
 21
732.07775178650252
 31
0.0
  0
LINE
  5
10B1
  8
SIZE
  6
BYBLOCK
 10
856.8719073978815
 20
724.07775178650252
 30
0.0
 11
473.55668139788111
 21
724.07775178650252
 31
0.0
  0
LINE
  5
10B2
  8
SIZE
  6
BYBLOCK
 10
777.27455739788161
 20
810.08015378650225
 30
0.0
 11
190.4274553978812
 21
810.08015378650225
 31
0.0
  0
LINE
  5
10B3
  8
SIZE
  6
BYBLOCK
 10
350.83505539788138
 20
292.07775178650252
 30
0.0
 11
350.83505539788138
 21
730.07775178650252
 31
0.0
  0
LINE
  5
10B4
  8
SIZE
  6
BYBLOCK
 10
503.55668139788139
 20
292.07775178650252
 30
0.0
 11
503.55668139788139
 21
724.07775178650252
 31
0.0
  0
TEXT
  5
10B5
  8
SIZE
  6
BYBLOCK
 10
188.7875803978813
 20
529.52060878650241
 30
0.0
 40
64.0
  1
520
 50
90.0
 41
0.9
  0
LINE
  5
10B6
  8
SIZE
  6
BYBLOCK
 10
220.7875803978813
 20
810.08015378650225
 30
0.0
 11
220.7875803978813
 21
603.57775178650252
 31
0.0
  0
TEXT
  5
10B7
  8
SIZE
  6
BYBLOCK
 10
318.83505539788149
 20
437.02060878650252
 30
0.0
 40
64.0
  1
442
 50
90.0
 41
0.9
  0
LINE
  5
10B8
  8
SIZE
  6
BYBLOCK
 10
220.7875803978813
 20
292.07775178650252
 30
0.0
 11
220.7875803978813
 21
603.57775178650252
 31
0.0
  0
TEXT
  5
10B9
  8
SIZE
  6
BYBLOCK
 10
471.55668139788139
 20
427.13489478650251
 30
0.0
 40
64.0
  1
434
 50
90.0
 41
0.9
  0
CIRCLE
  5
10BA
  8
SIZE
  6
CONTINUOUS
 10
220.4274553978814
 20
810.08015378650225
 30
0.0
 40
6.0
  0
CIRCLE
  5
10BB
  8
SIZE
  6
CONTINUOUS
 10
350.83505539788138
 20
732.07775178650252
 30
0.0
 40
6.0
  0
CIRCLE
  5
10BC
  8
SIZE
  6
CONTINUOUS
 10
503.55668139788139
 20
724.07775178650252
 30
0.0
 40
6.0
  0
LINE
  5
10BD
  8
SIZE
  6
BYBLOCK
 10
649.74425839788148
 20
292.07775178650252
 30
0.0
 11
649.74425839788148
 21
684.07775178650252
 31
0.0
  0
TEXT
  5
10BE
  8
SIZE
  6
BYBLOCK
 10
617.74425839788125
 20
415.3920377865025
 30
0.0
 40
64.0
  1
396
 50
90.0
 41
0.9
  0
LINE
  5
10BF
  8
DETAIL
  6
CONTINOUS
 10
824.87190639788139
 20
462.0777517865024
 30
0.0
 11
804.8719063978815
 21
462.0777517865024
 31
0.0
  0
LINE
  5
10C0
  8
SIZE
  6
BYBLOCK
 10
836.26393739788148
 20
686.07775178650252
 30
0.0
 11
619.74425839788148
 21
686.07775178650252
 31
0.0
  0
LINE
  5
10C1
  8
BASIS
  6
DASHDOT
 10
734.44271139788145
 20
732.07775178650252
 30
0.0
 11
884.14564339788137
 21
732.07775178650252
 31
0.0
  0
CIRCLE
  5
10C2
  8
SIZE
  6
CONTINUOUS
 10
649.74425839788148
 20
686.07775178650252
 30
0.0
 40
6.0
  0
LINE
  5
10C3
  8
NOTE
  6
CONTINOUS
 10
862.8719063978815
 20
724.07775178650252
 30
0.0
 11
902.8719063978815
 21
724.07775178650252
 31
0.0
  0
LINE
  5
10C4
  8
NOTE
  6
CONTINOUS
 10
859.87190639788162
 20
686.07775178650252
 30
0.0
 11
899.87190639788139
 21
686.07775178650252
 31
0.0
  0
LINE
  5
10C5
  8
NOTE
  6
CONTINOUS
 10
879.8719063978815
 20
666.07775178650252
 30
0.0
 11
879.8719063978815
 21
706.07775178650252
 31
0.0
  0
POLYLINE
  5
10C6
  8
NOTE
  6
CONTINUOUS
 66
     1
 10
0.0
 20
0.0
 30
0.0
  0
VERTEX
  5
15E8
  8
NOTE
  6
CONTINUOUS
 10
919.40695039788125
 20
679.99661178650251
 30
0.0
  0
VERTEX
  5
15E9
  8
NOTE
  6
CONTINUOUS
 10
879.8719063978815
 20
686.07775178650252
 30
0.0
  0
VERTEX
  5
15EA
  8
NOTE
  6
CONTINUOUS
 10
911.06968939788146
 20
661.04380778650238
 30
0.0
  0
SEQEND
  5
15EB
  8
NOTE
  6
CONTINUOUS
  0
POLYLINE
  5
10CB
  8
NOTE
  6
CONTINUOUS
 66
     1
 10
0.0
 20
0.0
 30
0.0
  0
VERTEX
  5
15EC
  8
NOTE
  6
CONTINUOUS
 10
911.55116939788149
 20
751.96143678650253
 30
0.0
  0
VERTEX
  5
15ED
  8
NOTE
  6
CONTINUOUS
 10
882.87190639788139
 20
724.07775178650252
 30
0.0
  0
VERTEX
  5
15EE
  8
NOTE
  6
CONTINUOUS
 10
921.65071939788174
 20
733.88609978650254
 30
0.0
  0
SEQEND
  5
15EF
  8
NOTE
  6
CONTINUOUS
  0
LINE
  5
10D0
  8
NOTE
  6
CONTINOUS
 10
882.87190639788139
 20
704.0777517865024
 30
0.0
 11
882.87190639788139
 21
744.07775178650252
 31
0.0
  0
LINE
  5
10D1
  8
NOTE
  6
CONTINUOUS
 10
824.51178139788146
 20
810.08015378650225
 30
0.0
 11
918.87085639788165
 21
895.38895978650271
 31
0.0
  0
LINE
  5
10D2
  8
NOTE
  6
CONTINOUS
 10
804.51178139788135
 20
810.08015378650225
 30
0.0
 11
844.51178139788135
 21
810.08015378650225
 31
0.0
  0
POLYLINE
  5
10D3
  8
NOTE
  6
CONTINUOUS
 66
     1
 10
0.0
 20
0.0
 30
0.0
  0
VERTEX
  5
15F0
  8
NOTE
  6
CONTINUOUS
 10
846.64476439788132
 20
843.39878378650269
 30
0.0
  0
VERTEX
  5
15F1
  8
NOTE
  6
CONTINUOUS
 10
824.51178139788146
 20
810.08015378650225
 30
0.0
  0
VERTEX
  5
15F2
  8
NOTE
  6
CONTINUOUS
 10
860.33882139788147
 20
827.86844278650256
 30
0.0
  0
SEQEND
  5
15F3
  8
NOTE
  6
CONTINUOUS
  0
LINE
  5
10D8
  8
NOTE
  6
CONTINOUS
 10
824.51178139788146
 20
790.08015378650225
 30
0.0
 11
824.51178139788146
 21
830.08015378650225
 31
0.0
  0
LINE
  5
10D9
  8
NOTE
  6
CONTINUOUS
 10
872.35755039788137
 20
933.93013678650243
 30
0.0
 11
872.35755039788137
 21
933.93013678650243
 31
0.0
  0
LINE
  5
10DA
  8
SIZE
  6
BYBLOCK
 10
824.8719073978815
 20
1185.0777517865019
 30
0.0
 11
824.8719073978815
 21
1422.5027517865019
 31
0.0
  0
LINE
  5
10DB
  8
SIZE
  6
BYBLOCK
 10
824.8719073978815
 20
1165.0777517865019
 30
0.0
 11
824.8719073978815
 21
1422.5027517865019
 31
0.0
  0
LINE
  5
10DC
  8
SIZE
  6
BYBLOCK
 10
824.8719073978815
 20
1165.0777517865019
 30
0.0
 11
824.8719073978815
 21
1293.248751786502
 31
0.0
  0
LINE
  5
10DD
  8
SIZE
  6
BYBLOCK
 10
804.87190739788139
 20
1022.0777517865019
 30
0.0
 11
804.87190739788139
 21
1293.248751786502
 31
0.0
  0
LINE
  5
10DE
  8
DETAIL
  6
CONTINOUS
 10
824.87190639788139
 20
1002.0777517865019
 30
0.0
 11
804.8719063978815
 21
1002.0777517865019
 31
0.0
  0
LINE
  5
10DF
  8
SIZE
  6
CONTINUOUS
 10
814.87190639788139
 20
1263.2491457865019
 30
0.0
 11
945.94025839788139
 21
1263.2491457865019
 31
0.0
  0
LINE
  5
10E0
  8
SIZE
  6
BYBLOCK
 10
822.8719073978815
 20
1263.2491457865019
 30
0.0
 11
814.8719073978815
 21
1263.2491457865019
 31
0.0
  0
CIRCLE
  5
10E1
  8
SIZE
  6
CONTINUOUS
 10
804.87190739788139
 20
1263.2491457865019
 30
0.0
 40
6.0
  0
LINE
  5
10E2
  8
SIZE
  6
BYBLOCK
 10
806.8719073978815
 20
1263.2491457865019
 30
0.0
 11
814.8719073978815
 21
1263.2491457865019
 31
0.0
  0
CIRCLE
  5
10E3
  8
SIZE
  6
CONTINUOUS
 10
824.8719073978815
 20
1263.2491457865019
 30
0.0
 40
6.0
  0
TEXT
  5
10E4
  8
SIZE
  6
BYBLOCK
 10
751.74333539788142
 20
1424.5027517865019
 30
0.0
 40
64.0
  1
53
 41
0.9
  0
TEXT
  5
10E5
  8
SIZE
  6
BYBLOCK
 10
843.21570539788104
 20
1295.248751786502
 30
0.0
 40
64.0
  1
20
 41
0.9
  0
LINE
  5
10E6
  8
SIZE
  6
BYBLOCK
 10
824.8719073978815
 20
1392.5027517865019
 30
0.0
 11
771.8719073978815
 21
1392.5027517865019
 31
0.0
  0
CIRCLE
  5
10E7
  8
SIZE
  6
CONTINUOUS
 10
771.8719073978815
 20
1392.5027517865019
 30
0.0
 40
6.0
  0
LINE
  5
10E8
  8
SIZE
  6
BYBLOCK
 10
769.8719073978815
 20
1392.5027517865019
 30
0.0
 11
767.8719073978815
 21
1392.5027517865019
 31
0.0
  0
CIRCLE
  5
10E9
  8
SIZE
  6
CONTINUOUS
 10
824.8719073978815
 20
1392.5027517865019
 30
0.0
 40
6.0
  0
CIRCLE
  5
10EA
  8
SIZE
  6
CONTINUOUS
 10
824.8719073978815
 20
1392.5027517865019
 30
0.0
 40
6.0
  0
LINE
  5
10EB
  8
SIZE
  6
BYBLOCK
 10
826.8719073978815
 20
1392.5027517865019
 30
0.0
 11
828.87190739788139
 21
1392.5027517865019
 31
0.0
  0
CIRCLE
  5
10EC
  8
SIZE
  6
CONTINUOUS
 10
1420.44446039788
 20
290.07775178650252
 30
0.0
 40
6.0
  0
CIRCLE
  5
10ED
  8
FIX
  6
CONTINUOUS
 10
1169.871906397881
 20
290.07775178650252
 30
0.0
 40
40.0
  0
LINE
  5
10EE
  8
OUTLINE
  6
CONTINUOUS
 10
1183.871906397881
 20
323.07775178650252
 30
0.0
 11
1183.871906397881
 21
290.07775178650252
 31
0.0
  0
TEXT
  5
10EF
  8
ETC
  6
CONTINUOUS
 10
1573.1112623978811
 20
288.6366377865026
 30
0.0
 40
64.0
  1
室外機
 41
0.9
  0
LINE
  5
10F0
  8
DETAIL
  6
CONTINOUS
 10
1183.871906397881
 20
290.07775178650252
 30
0.0
 11
1183.871906397881
 21
323.07775178650252
 31
0.0
  0
LINE
  5
10F1
  8
NOTE
  6
CONTINOUS
 10
1169.871906397881
 20
270.0777517865024
 30
0.0
 11
1169.871906397881
 21
310.07775178650252
 31
0.0
  0
LINE
  5
10F2
  8
NOTE
  6
CONTINUOUS
 10
1969.74381039788
 20
-0.000002213497396
 30
0.0
 11
1389.9370083978811
 21
-0.000002213497396
 31
0.0
  0
TEXT
  5
10F3
  8
NOTE
  6
CONTINUOUS
 10
1415.1692193978811
 20
15.10229878650267
 30
0.0
 40
64.0
  1
AH 2-U cut
 41
0.9
  0
LINE
  5
10F4
  8
NOTE
  6
CONTINUOUS
 10
1389.9370083978811
 20
-0.000002213497396
 30
0.0
 11
1169.871906397881
 21
290.07775178650252
 31
0.0
  0
LINE
  5
10F5
  8
SIZE
  6
BYBLOCK
 10
1214.7137463978811
 20
290.07775178650252
 30
0.0
 11
1450.44446039788
 21
290.07775178650252
 31
0.0
  0
LINE
  5
10F6
  8
SIZE
  6
BYBLOCK
 10
1183.87190739788
 20
270.0777517865024
 30
0.0
 11
1183.87190739788
 21
65.361279786502621
 31
0.0
  0
LINE
  5
10F7
  8
SIZE
  6
BYBLOCK
 10
1169.87190739788
 20
250.0777517865026
 30
0.0
 11
1169.87190739788
 21
65.361279786502621
 31
0.0
  0
LINE
  5
10F8
  8
SIZE
  6
BYBLOCK
 10
1169.87190739788
 20
250.0777517865026
 30
0.0
 11
1169.87190739788
 21
65.361279786502621
 31
0.0
  0
CIRCLE
  5
10F9
  8
SIZE
  6
CONTINUOUS
 10
1169.87190739788
 20
95.361279786502593
 30
0.0
 40
6.0
  0
CIRCLE
  5
10FA
  8
SIZE
  6
CONTINUOUS
 10
1169.87190739788
 20
95.361279786502593
 30
0.0
 40
6.0
  0
CIRCLE
  5
10FB
  8
SIZE
  6
CONTINUOUS
 10
1183.87190739788
 20
95.361279786502593
 30
0.0
 40
6.0
  0
LINE
  5
10FC
  8
SIZE
  6
BYBLOCK
 10
1183.87190739788
 20
95.361279786502593
 30
0.0
 11
1169.87190739788
 21
95.361279786502593
 31
0.0
  0
LINE
  5
10FD
  8
SIZE
  6
BYBLOCK
 10
1167.87190739788
 20
95.361279786502593
 30
0.0
 11
1165.87190739788
 21
95.361279786502593
 31
0.0
  0
LINE
  5
10FE
  8
SIZE
  6
BYBLOCK
 10
1185.87190739788
 20
95.361279786502593
 30
0.0
 11
1187.87190739788
 21
95.361279786502593
 31
0.0
  0
TEXT
  5
10FF
  8
SIZE
  6
BYBLOCK
 10
1134.3576213978811
 20
127.36127978650261
 30
0.0
 40
64.0
  1
14
 41
0.9
  0
LINE
  5
1100
  8
NOTE
  6
CONTINOUS
 10
1149.871906397881
 20
290.07775178650252
 30
0.0
 11
1189.871906397881
 21
290.07775178650252
 31
0.0
  0
LINE
  5
1101
  8
NOTE
  6
CONTINUOUS
 10
1169.871906397881
 20
290.07775178650252
 30
0.0
 11
1184.97614639788
 21
253.0390967865026
 31
0.0
  0
LINE
  5
1102
  8
NOTE
  6
CONTINUOUS
 10
1169.871906397881
 20
290.07775178650252
 30
0.0
 11
1201.47188939788
 21
265.55345678650241
 31
0.0
  0
TEXT
  5
1103
  8
ETC
  6
CONTINUOUS
 10
1561.288518397879
 20
407.8032387865025
 30
0.0
 40
64.0
  1
SPUZ0824
 41
0.9
  0
LINE
  5
1104
  8
SIZE
  6
BYBLOCK
 10
1420.44446039788
 20
1143.0777517865019
 30
0.0
 11
1420.44446039788
 21
717.57775178650252
 31
0.0
  0
LINE
  5
1105
  8
OUTLINE
  6
CONTINUOUS
 10
1154.8719063978799
 20
1145.0777517865019
 30
0.0
 11
1154.8719063978799
 21
323.07775178650252
 31
0.0
  0
LINE
  5
1106
  8
DETAIL
  6
CONTINOUS
 10
1154.8719063978799
 20
323.07775178650252
 30
0.0
 11
1154.8719063978799
 21
1145.0777517865019
 31
0.0
  0
LINE
  5
1107
  8
SIZE
  6
BYBLOCK
 10
1420.44446039788
 20
292.07775178650252
 30
0.0
 11
1420.44446039788
 21
717.57775178650252
 31
0.0
  0
LINE
  5
1108
  8
NOTE
  6
CONTINUOUS
 10
1124.871906397881
 20
323.07775178650252
 30
0.0
 11
1231.96219639788
 21
428.57361078650251
 31
0.0
  0
LINE
  5
1109
  8
NOTE
  6
CONTINOUS
 10
1104.871906397881
 20
323.07775178650252
 30
0.0
 11
1144.871906397881
 21
323.07775178650252
 31
0.0
  0
POLYLINE
  5
110A
  8
NOTE
  6
CONTINUOUS
 66
     1
 10
0.0
 20
0.0
 30
0.0
  0
VERTEX
  5
15F4
  8
NOTE
  6
CONTINUOUS
 10
1145.1311663978811
 20
357.56778478650261
 30
0.0
  0
VERTEX
  5
15F5
  8
NOTE
  6
CONTINUOUS
 10
1124.871906397881
 20
323.07775178650252
 30
0.0
  0
VERTEX
  5
15F6
  8
NOTE
  6
CONTINUOUS
 10
1159.661957397881
 20
342.81736678650259
 30
0.0
  0
SEQEND
  5
15F7
  8
NOTE
  6
CONTINUOUS
  0
LINE
  5
110F
  8
NOTE
  6
CONTINOUS
 10
1124.871906397881
 20
303.07775178650257
 30
0.0
 11
1124.871906397881
 21
343.07775178650252
 31
0.0
  0
TEXT
  5
1110
  8
NOTE
  6
CONTINUOUS
 10
1251.9401213978811
 20
438.44475178650248
 30
0.0
 40
64.0
  1
D
 41
0.9
  0
LINE
  5
1111
  8
NOTE
  6
CONTINUOUS
 10
1231.96219639788
 20
428.57361078650251
 30
0.0
 11
1302.198482397881
 21
428.57361078650251
 31
0.0
  0
TEXT
  5
1112
  8
NOTE
  6
CONTINUOUS
 10
1060.708654397878
 20
635.63939678650252
 30
0.0
 40
64.0
  1
RG
 41
0.9
  0
LINE
  5
1113
  8
NOTE
  6
CONTINUOUS
 10
1040.77148939788
 20
625.20405378650253
 30
0.0
 11
1180.455218397881
 21
625.20405378650253
 31
0.0
  0
TEXT
  5
1114
  8
NOTE
  6
CONTINUOUS
 10
1060.92620539788
 20
822.17499278650257
 30
0.0
 40
64.0
  1
RL
 41
0.9
  0
LINE
  5
1115
  8
NOTE
  6
CONTINUOUS
 10
1040.77148939788
 20
812.30385178650226
 30
0.0
 11
1170.35759939788
 21
812.30385178650226
 31
0.0
  0
TEXT
  5
1116
  8
SIZE
  6
BYBLOCK
 10
1388.44446039788
 20
643.52060878650252
 30
0.0
 40
64.0
  1
855
 50
90.0
 41
0.9
  0
LINE
  5
1117
  8
SIZE
  6
BYBLOCK
 10
1154.87190739788
 20
1165.0777517865019
 30
0.0
 11
1154.87190739788
 21
1422.5027517865019
 31
0.0
  0
LINE
  5
1118
  8
SIZE
  6
BYBLOCK
 10
1203.87190739788
 20
1145.0777517865019
 30
0.0
 11
1450.44446039788
 21
1145.0777517865019
 31
0.0
  0
CIRCLE
  5
1119
  8
SIZE
  6
CONTINUOUS
 10
1420.44446039788
 20
1145.0777517865019
 30
0.0
 40
6.0
  0
CIRCLE
  5
111A
  8
SIZE
  6
CONTINUOUS
 10
1154.87190739788
 20
1392.5027517865019
 30
0.0
 40
6.0
  0
ENDBLK
  5
111B
  8
0
  0
BLOCK
  8
0
  2
_ORIGIN
 70
     0
 10
0.0
 20
0.0
 30
0.0
  3
_ORIGIN
  1

  0
CIRCLE
  5
111E
  8
0
  6
BYBLOCK
 62
     0
 10
0.0
 20
0.0
 30
0.0
 40
0.5
  0
LINE
  5
111F
  8
0
  6
BYBLOCK
 62
     0
 10
0.0
 20
0.0
 30
0.0
 11
-1.0
 21
0.0
 31
0.0
  0
ENDBLK
  5
1120
  8
0
  0
BLOCK
  8
0
  2
_ORIGIN2
 70
     0
 10
0.0
 20
0.0
 30
0.0
  3
_ORIGIN2
  1

  0
CIRCLE
  5
1123
  8
0
  6
BYBLOCK
 62
     0
 10
0.0
 20
0.0
 30
0.0
 40
0.5
  0
CIRCLE
  5
1124
  8
0
  6
BYBLOCK
 62
     0
 10
0.0
 20
0.0
 30
0.0
 40
0.25
  0
LINE
  5
1125
  8
0
  6
BYBLOCK
 62
     0
 10
-0.5
 20
0.0
 30
0.0
 11
-1.0
 21
0.0
 31
0.0
  0
ENDBLK
  5
1126
  8
0
  0
BLOCK
  8
0
  2
_DOTBLANK
 70
     0
 10
0.0
 20
0.0
 30
0.0
  3
_DOTBLANK
  1

  0
CIRCLE
  5
1129
  8
0
  6
BYBLOCK
 62
     0
 10
0.0
 20
0.0
 30
0.0
 40
0.5
  0
LINE
  5
112A
  8
0
  6
BYBLOCK
 62
     0
 10
-0.5
 20
0.0
 30
0.0
 11
-1.0
 21
0.0
 31
0.0
  0
ENDBLK
  5
112B
  8
0
  0
ENDSEC
  0
SECTION
  2
ENTITIES
  0
TEXT
  5
11E2
  8
NOTE
  6
CONTINUOUS
 10
-1088.8291740332361
 20
-259.13038127694142
 30
0.0
 40
64.0
  1
AH 2-12×36
 41
0.9
  0
LINE
  5
11E3
  8
NOTE
  6
CONTINUOUS
 10
-1103.609479033234
 20
-274.23268227694132
 30
0.0
 11
-530.5400718084968
 21
-274.23268227694132
 31
0.0
  0
CIRCLE
  5
11E4
  8
ARRANGE
  6
CONTINUOUS
 10
0.0
 20
0.0
 30
0.0
 40
40.0
  0
POINT
  5
11E6
  8
ARRANGE
  6
CONTINUOUS
 10
0.0
 20
0.0
 30
0.0
  0
CIRCLE
  5
11E7
  8
FIX
  6
CONTINUOUS
 10
-300.0
 20
0.0
 30
0.0
 40
40.0
  0
LINE
  5
11E8
  8
DETAIL
  6
CONTINOUS
 10
-316.0
 20
22.999999999999542
 30
0.0
 11
-316.0
 21
0.0
 31
0.0
  0
LINE
  5
11E9
  8
DETAIL
  6
CONTINOUS
 10
-284.0
 20
22.999999999999542
 30
0.0
 11
-284.0
 21
0.0
 31
0.0
  0
LINE
  5
11EA
  8
BASIS
  6
DASHDOT
 10
0.0
 20
985.82556143500028
 30
0.0
 11
0.0
 21
-80.029089744999965
 31
0.0
  0
LINE
  5
11EB
  8
NOTE
  6
CONTINOUS
 10
-300.0
 20
20.0
 30
0.0
 11
-300.0
 21
-20.0
 31
0.0
  0
LINE
  5
11EC
  8
NOTE
  6
CONTINOUS
 10
-320.0
 20
0.0
 30
0.0
 11
-280.0
 21
0.0
 31
0.0
  0
LINE
  5
11ED
  8
DETAIL
  6
CONTINOUS
 10
-316.0
 20
0.0
 30
0.0
 11
-284.0
 21
0.0
 31
0.0
  0
LINE
  5
11EE
  8
DETAIL
  6
CONTINOUS
 10
-474.99999999999989
 20
23.0
 30
0.0
 11
-474.99999999999989
 21
943.0
 31
0.0
  0
CIRCLE
  5
11EF
  8
FIX
  6
CONTINUOUS
 10
300.0
 20
0.0
 30
0.0
 40
40.0
  0
LINE
  5
11F0
  8
DETAIL
  6
CONTINOUS
 10
284.0
 20
22.999999999999542
 30
0.0
 11
284.0
 21
0.0
 31
0.0
  0
LINE
  5
11F1
  8
DETAIL
  6
CONTINOUS
 10
316.0
 20
22.999999999999542
 30
0.0
 11
316.0
 21
0.0
 31
0.0
  0
LINE
  5
11F2
  8
NOTE
  6
CONTINOUS
 10
300.0
 20
20.0
 30
0.0
 11
300.0
 21
-20.0
 31
0.0
  0
TEXT
  5
11F3
  8
ETC
  6
CONTINUOUS
 10
1198.457716830522
 20
1417.757843628747
 30
0.0
 40
64.0
  1
SMPU3312
 41
0.9
  0
LINE
  5
11F4
  8
NOTE
  6
CONTINOUS
 10
280.0
 20
0.0
 30
0.0
 11
320.0
 21
0.0
 31
0.0
  0
LINE
  5
11F5
  8
DETAIL
  6
CONTINOUS
 10
284.0
 20
0.0
 30
0.0
 11
316.0
 21
0.0
 31
0.0
  0
TEXT
  5
11F6
  8
ETC
  6
CONTINUOUS
 10
1210.280460830523
 20
1298.5912426287471
 30
0.0
 40
64.0
  1
室外機
 41
0.9
  0
LINE
  5
11F7
  8
DETAIL
  6
CONTINOUS
 10
475.0
 20
23.0
 30
0.0
 11
475.0
 21
943.0
 31
0.0
  0
POLYLINE
  5
11F8
  8
NOTE
  6
CONTINUOUS
 66
     1
 10
0.0
 20
0.0
 30
0.0
  0
VERTEX
  5
15F8
  8
NOTE
  6
CONTINUOUS
 10
-317.21532719432111
 20
-36.105851700936903
 30
0.0
  0
VERTEX
  5
15F9
  8
NOTE
  6
CONTINUOUS
 10
-300.0
 20
0.0
 30
0.0
  0
VERTEX
  5
15FA
  8
NOTE
  6
CONTINUOUS
 10
-332.96183612112861
 20
-22.660921497029889
 30
0.0
  0
SEQEND
  5
15FB
  8
NOTE
  6
CONTINUOUS
  0
LINE
  5
11FD
  8
NOTE
  6
CONTINUOUS
 10
-300.0
 20
0.0
 30
0.0
 11
-530.5400718084968
 21
-274.23268227694132
 31
0.0
  0
ARC
  5
11FE
  8
DETAIL
 10
-153.61937628180149
 20
473.26828366823793
 30
1.0049964175586230E+099
 40
278.11950567951942
 50
324.25620727272252
 51
35.03548794368136
  0
ARC
  5
11FF
  8
DETAIL
 10
228.79236219197659
 20
175.1538229939745
 30
1.0049964175586230E+099
 40
207.24088905766081
 50
139.11513446632151
 51
177.55355879231041
  0
ARC
  5
1200
  8
DETAIL
 10
228.7923621978529
 20
770.84617699802686
 30
1.0049964175586230E+099
 40
207.24088905766081
 50
182.44644120522111
 51
221.71892069730279
  0
ARC
  5
1201
  8
DETAIL
 10
-152.38062371549429
 20
473.26828366823167
 30
1.0049964175586230E+099
 40
278.11950567951942
 50
144.96451205575141
 51
215.74379272671311
  0
ARC
  5
1202
  8
DETAIL
 10
-534.79236219221366
 20
770.84617700179308
 30
1.0049964175586230E+099
 40
207.24088905766081
 50
318.28107930213451
 51
357.3820146766501
  0
ARC
  5
1203
  8
DETAIL
 10
-534.79236219221366
 20
175.15382299774089
 30
1.0049964175586230E+099
 40
207.24088905766081
 50
2.6179853233495911
 51
40.884865533106122
  0
LINE
  5
1204
  8
DETAIL
 10
136.00000000015271
 20
752.50144689647504
 30
0.0
 11
136.00000000015271
 21
193.49855310399059
 31
0.0
  0
LINE
  5
1205
  8
DETAIL
 10
-441.99999999984738
 20
193.4985531030579
 30
0.0
 11
-441.99999999984738
 21
752.50144689647573
 31
0.0
  0
LINE
  5
1206
  8
DETAIL
 10
126.5014468961671
 20
184.00000000046049
 30
0.0
 11
-432.50144689631708
 21
184.00000000046049
 31
0.0
  0
ARC
  5
1207
  8
DETAIL
 10
-432.49999999984738
 20
193.5000000004606
 30
0.0
 40
9.5000001101846365
 50
180.0087264246668
 51
269.99127357533303
  0
ARC
  5
1208
  8
DETAIL
 10
126.5000000001526
 20
193.5000000004606
 30
0.0
 40
9.5000001101846365
 50
270.0087264246668
 51
359.99127357533303
  0
LINE
  5
1209
  8
DETAIL
 10
-432.5014468906154
 20
762.00000000046225
 30
0.0
 11
126.5014468961671
 21
762.00000000046111
 31
0.0
  0
ARC
  5
120A
  8
DETAIL
 10
-432.49999999984692
 20
752.500000000461
 30
0.0
 40
9.5000001101848621
 50
90.008726424666946
 51
179.991273575333
  0
ARC
  5
120B
  8
DETAIL
 10
126.5014468961671
 20
752.50144689647504
 30
0.0
 40
9.4985531039857793
 50
0.0
 51
90.0
  0
LINE
  5
120C
  8
BASIS
  6
DASHDOT
 10
-152.99999999984701
 20
786.79784525000014
 30
0.0
 11
-152.99999999984701
 21
159.20215474999981
 31
0.0
  0
LINE
  5
120D
  8
DETAIL
 10
-157.99999999984701
 20
762.00000000046145
 30
0.0
 11
-157.99999999984701
 21
184.00000000046049
 31
0.0
  0
LINE
  5
120E
  8
DETAIL
 10
-147.99999999984701
 20
762.00000000046145
 30
0.0
 11
-147.99999999984701
 21
184.00000000046049
 31
0.0
  0
LINE
  5
120F
  8
DETAIL
 10
-137.99999999984701
 20
762.00000000046145
 30
0.0
 11
-137.99999999984701
 21
184.00000000046049
 31
0.0
  0
LINE
  5
1210
  8
DETAIL
 10
-127.99999999984711
 20
762.00000000046145
 30
0.0
 11
-127.99999999984711
 21
184.00000000046049
 31
0.0
  0
LINE
  5
1211
  8
DETAIL
 10
-117.99999999984711
 20
762.00000000046145
 30
0.0
 11
-117.99999999984711
 21
184.00000000046049
 31
0.0
  0
LINE
  5
1212
  8
DETAIL
 10
-107.99999999984711
 20
762.00000000046145
 30
0.0
 11
-107.99999999984711
 21
184.00000000046049
 31
0.0
  0
LINE
  5
1213
  8
DETAIL
 10
-97.999999999847205
 20
762.00000000046145
 30
0.0
 11
-97.999999999847205
 21
184.00000000046049
 31
0.0
  0
LINE
  5
1214
  8
DETAIL
 10
-87.999999999847091
 20
762.00000000046145
 30
0.0
 11
-87.999999999847091
 21
184.00000000046049
 31
0.0
  0
LINE
  5
1215
  8
DETAIL
 10
-77.999999999847176
 20
762.00000000046145
 30
0.0
 11
-77.999999999847176
 21
184.00000000046049
 31
0.0
  0
LINE
  5
1216
  8
DETAIL
 10
-67.999999999847176
 20
762.00000000046145
 30
0.0
 11
-67.999999999847176
 21
184.00000000046049
 31
0.0
  0
LINE
  5
1217
  8
DETAIL
 10
-57.999999999847169
 20
762.00000000046145
 30
0.0
 11
-57.999999999847169
 21
184.00000000046049
 31
0.0
  0
LINE
  5
1218
  8
DETAIL
 10
-47.999999999847169
 20
762.00000000046145
 30
0.0
 11
-47.999999999847169
 21
184.00000000046049
 31
0.0
  0
LINE
  5
1219
  8
DETAIL
 10
-37.999999999847169
 20
762.00000000046145
 30
0.0
 11
-37.999999999847169
 21
184.00000000046049
 31
0.0
  0
LINE
  5
121A
  8
DETAIL
 10
-27.999999999847169
 20
762.00000000046145
 30
0.0
 11
-27.999999999847169
 21
184.00000000046049
 31
0.0
  0
LINE
  5
121B
  8
DETAIL
 10
-17.999999999847169
 20
762.00000000046145
 30
0.0
 11
-17.999999999847169
 21
184.00000000046049
 31
0.0
  0
LINE
  5
121C
  8
DETAIL
 10
-7.9999999998471756
 20
762.00000000046145
 30
0.0
 11
-7.9999999998471756
 21
184.00000000046049
 31
0.0
  0
LINE
  5
121D
  8
DETAIL
 10
2.0000000001528231
 20
762.00000000046145
 30
0.0
 11
2.0000000001528231
 21
184.00000000046049
 31
0.0
  0
LINE
  5
121E
  8
DETAIL
 10
12.00000000015282
 20
762.00000000046145
 30
0.0
 11
12.00000000015282
 21
184.00000000046049
 31
0.0
  0
LINE
  5
121F
  8
DETAIL
 10
22.00000000015276
 20
757.2188135661363
 30
0.0
 11
22.00000000015282
 21
188.7811865150359
 31
0.0
  0
LINE
  5
1220
  8
DETAIL
 10
32.000000000152824
 20
705.87270334870732
 30
0.0
 11
32.000000000152824
 21
240.1272966610922
 31
0.0
  0
LINE
  5
1221
  8
DETAIL
 10
42.000000000152824
 20
681.08315832099674
 30
0.0
 11
42.000000000152824
 21
264.91684168323269
 31
0.0
  0
LINE
  5
1222
  8
DETAIL
 10
52.00000000015288
 20
662.7108600753545
 30
0.0
 11
52.00000000015288
 21
283.28913992625462
 31
0.0
  0
LINE
  5
1223
  8
DETAIL
 10
62.00000000015288
 20
647.84579484447056
 30
0.0
 11
62.00000000015288
 21
298.1542051554992
 31
0.0
  0
LINE
  5
1224
  8
DETAIL
 10
72.000000000152852
 20
635.32886720376166
 30
0.0
 11
72.000000000152852
 21
310.67113279503872
 31
0.0
  0
LINE
  5
1225
  8
DETAIL
 10
82.000000000152838
 20
621.03150290740734
 30
0.0
 11
82.000000000152838
 21
325.50506442906777
 31
0.0
  0
LINE
  5
1226
  8
DETAIL
 10
92.000000000152738
 20
603.73506654527489
 30
0.0
 11
92.000000000152738
 21
342.80150079120102
 31
0.0
  0
LINE
  5
1227
  8
DETAIL
 10
102.0000000001526
 20
582.85475139416087
 30
0.0
 11
102.0000000001526
 21
363.6818159423147
 31
0.0
  0
LINE
  5
1228
  8
DETAIL
 10
112.0000000001526
 20
555.71102975912038
 30
0.0
 11
112.0000000001526
 21
390.82553757735531
 31
0.0
  0
LINE
  5
1229
  8
DETAIL
 10
122.0000000001528
 20
510.47606319573322
 30
0.0
 11
122.0000000001526
 21
436.06050414074269
 31
0.0
  0
LINE
  5
122A
  8
DETAIL
 10
-427.99999999984698
 20
510.47606319573219
 30
0.0
 11
-427.99999999984698
 21
436.06050414074372
 31
0.0
  0
LINE
  5
122B
  8
DETAIL
 10
-327.99999999984692
 20
757.2188135661363
 30
0.0
 11
-327.99999999984692
 21
188.7811865150359
 31
0.0
  0
LINE
  5
122C
  8
DETAIL
 10
-417.9999999998472
 20
555.71102975912038
 30
0.0
 11
-417.9999999998472
 21
390.82553757735531
 31
0.0
  0
LINE
  5
122D
  8
DETAIL
 10
-407.99999999984681
 20
582.85475139416087
 30
0.0
 11
-407.99999999984681
 21
363.6818159423147
 31
0.0
  0
LINE
  5
122E
  8
DETAIL
 10
-397.99999999984692
 20
603.73506654527489
 30
0.0
 11
-397.99999999984692
 21
342.80150079120102
 31
0.0
  0
LINE
  5
122F
  8
DETAIL
 10
-387.99999999984692
 20
621.03150290740734
 30
0.0
 11
-387.99999999984692
 21
325.50506442906777
 31
0.0
  0
LINE
  5
1230
  8
DETAIL
 10
-377.99999999984692
 20
635.32886720376166
 30
0.0
 11
-377.99999999984692
 21
310.67113279503872
 31
0.0
  0
LINE
  5
1231
  8
DETAIL
 10
-367.99999999984692
 20
647.84579484447056
 30
0.0
 11
-367.99999999984692
 21
298.1542051554992
 31
0.0
  0
LINE
  5
1232
  8
DETAIL
 10
-357.99999999984692
 20
662.7108600753545
 30
0.0
 11
-357.99999999984692
 21
283.28913992625462
 31
0.0
  0
LINE
  5
1233
  8
DETAIL
 10
-347.99999999984692
 20
681.08315832099674
 30
0.0
 11
-347.99999999984692
 21
264.91684168323269
 31
0.0
  0
LINE
  5
1234
  8
DETAIL
 10
-337.9999999998472
 20
705.87270334870732
 30
0.0
 11
-337.9999999998472
 21
240.1272966610922
 31
0.0
  0
LINE
  5
1235
  8
DETAIL
 10
-317.99999999984692
 20
762.00000000046145
 30
0.0
 11
-317.99999999984692
 21
184.00000000046049
 31
0.0
  0
LINE
  5
1236
  8
DETAIL
 10
-307.99999999984681
 20
762.00000000046145
 30
0.0
 11
-307.99999999984681
 21
184.00000000046049
 31
0.0
  0
LINE
  5
1237
  8
DETAIL
 10
-237.9999999998472
 20
762.00000000046145
 30
0.0
 11
-237.9999999998472
 21
184.00000000046049
 31
0.0
  0
LINE
  5
1238
  8
DETAIL
 10
-227.99999999984701
 20
762.00000000046145
 30
0.0
 11
-227.99999999984701
 21
184.00000000046049
 31
0.0
  0
LINE
  5
1239
  8
DETAIL
 10
-217.99999999984701
 20
762.00000000046145
 30
0.0
 11
-217.99999999984701
 21
184.00000000046049
 31
0.0
  0
LINE
  5
123A
  8
DETAIL
 10
-207.99999999984681
 20
762.00000000046145
 30
0.0
 11
-207.99999999984681
 21
184.00000000046049
 31
0.0
  0
LINE
  5
123B
  8
DETAIL
 10
-197.99999999984701
 20
762.00000000046145
 30
0.0
 11
-197.99999999984701
 21
184.00000000046049
 31
0.0
  0
LINE
  5
123C
  8
DETAIL
 10
-187.99999999984681
 20
762.00000000046145
 30
0.0
 11
-187.99999999984681
 21
184.00000000046049
 31
0.0
  0
LINE
  5
123D
  8
DETAIL
 10
-177.99999999984701
 20
762.00000000046145
 30
0.0
 11
-177.99999999984701
 21
184.00000000046049
 31
0.0
  0
LINE
  5
123E
  8
DETAIL
 10
-167.99999999984701
 20
762.00000000046145
 30
0.0
 11
-167.99999999984701
 21
184.00000000046049
 31
0.0
  0
LINE
  5
123F
  8
DETAIL
 10
-297.99999999984692
 20
762.00000000046145
 30
0.0
 11
-297.99999999984692
 21
184.00000000046049
 31
0.0
  0
LINE
  5
1240
  8
DETAIL
 10
-287.99999999984692
 20
762.00000000046145
 30
0.0
 11
-287.99999999984692
 21
184.00000000046049
 31
0.0
  0
LINE
  5
1241
  8
DETAIL
 10
-277.99999999984692
 20
762.00000000046145
 30
0.0
 11
-277.99999999984692
 21
184.00000000046049
 31
0.0
  0
LINE
  5
1242
  8
DETAIL
 10
-267.99999999984692
 20
762.00000000046145
 30
0.0
 11
-267.99999999984692
 21
184.00000000046049
 31
0.0
  0
LINE
  5
1243
  8
DETAIL
 10
-257.99999999984681
 20
762.00000000046145
 30
0.0
 11
-257.99999999984681
 21
184.00000000046049
 31
0.0
  0
LINE
  5
1244
  8
DETAIL
 10
-247.99999999984701
 20
762.00000000046145
 30
0.0
 11
-247.99999999984701
 21
184.00000000046049
 31
0.0
  0
LINE
  5
1245
  8
DETAIL
 10
-157.99999999984701
 20
762.00000000046145
 30
0.0
 11
-157.99999999984701
 21
184.00000000046049
 31
0.0
  0
LINE
  5
1247
  8
NOTE
  6
CONTINOUS
 10
275.0
 20
643.0
 30
0.0
 11
275.0
 21
683.0
 31
0.0
  0
LINE
  5
1249
  8
NOTE
  6
CONTINOUS
 10
377.0
 20
427.0
 30
0.0
 11
377.0
 21
467.0
 31
0.0
  0
LINE
  5
124B
  8
NOTE
  6
CONTINOUS
 10
432.0
 20
421.0
 30
0.0
 11
432.0
 21
461.0
 31
0.0
  0
LINE
  5
124C
  8
DETAIL
  6
CONTINUOUS
 10
475.0
 20
23.0
 30
0.0
 11
-474.99999999999989
 21
23.0
 31
0.0
  0
TEXT
  5
124E
  8
NOTE
  6
CONTINUOUS
 10
697.74983536164655
 20
859.03326903581365
 30
0.0
 40
64.0
  1
RL%%C9.52
 41
0.9
  0
LINE
  5
124F
  8
NOTE
  6
CONTINUOUS
 10
1043.977380921704
 20
839.31662178698502
 30
0.0
 11
670.26981727950238
 21
839.31662178698446
 31
0.0
  0
LINE
  5
1250
  8
NOTE
  6
CONTINUOUS
 10
641.77094667509925
 20
721.61745293822526
 30
0.0
 11
1078.591221793368
 21
721.61745293822548
 31
0.0
  0
TEXT
  5
1251
  8
NOTE
  6
CONTINUOUS
 10
680.07714041584563
 20
741.89880893822556
 30
0.0
 40
64.0
  1
RG%%C15.88
 41
0.9
  0
LINE
  5
1252
  8
NOTE
  6
CONTINUOUS
 10
568.26981727950226
 20
1055.3166217869821
 30
0.0
 11
816.69015457722492
 21
1055.3166217869821
 31
0.0
  0
TEXT
  5
1253
  8
NOTE
  6
CONTINUOUS
 10
583.05012227950215
 20
1070.4189227869831
 30
0.0
 40
64.0
  1
EL,CL
 41
0.9
  0
LINE
  5
1254
  8
NOTE
  6
CONTINUOUS
 10
275.0
 20
663.0
 30
0.0
 11
568.26981727950226
 21
1055.3166217869821
 31
0.0
  0
POLYLINE
  5
1255
  8
NOTE
  6
CONTINUOUS
 66
     1
 10
0.0
 20
0.0
 30
0.0
  0
VERTEX
  5
15FC
  8
NOTE
  6
CONTINUOUS
 10
290.12549742409982
 20
700.02997900527521
 30
0.0
  0
VERTEX
  5
15FD
  8
NOTE
  6
CONTINUOUS
 10
275.0
 20
663.0
 30
0.0
  0
VERTEX
  5
15FE
  8
NOTE
  6
CONTINUOUS
 10
306.61405408647988
 20
687.50615407990063
 30
0.0
  0
SEQEND
  5
15FF
  8
NOTE
  6
CONTINUOUS
  0
LINE
  5
125A
  8
NOTE
  6
CONTINUOUS
 10
377.0
 20
447.0
 30
0.0
 11
670.26981727950238
 21
839.31662178698446
 31
0.0
  0
POLYLINE
  5
125B
  8
NOTE
  6
CONTINUOUS
 66
     1
 10
0.0
 20
0.0
 30
0.0
  0
VERTEX
  5
1600
  8
NOTE
  6
CONTINUOUS
 10
392.12549742409988
 20
484.0299790052751
 30
0.0
  0
VERTEX
  5
1601
  8
NOTE
  6
CONTINUOUS
 10
377.0
 20
447.0
 30
0.0
  0
VERTEX
  5
1602
  8
NOTE
  6
CONTINUOUS
 10
408.61405408647983
 20
471.50615407990051
 30
0.0
  0
SEQEND
  5
1603
  8
NOTE
  6
CONTINUOUS
  0
LINE
  5
1260
  8
NOTE
  6
CONTINUOUS
 10
432.0
 20
441.0
 30
0.0
 11
641.77094667509925
 21
721.61745293822526
 31
0.0
  0
POLYLINE
  5
1261
  8
NOTE
  6
CONTINUOUS
 66
     1
 10
0.0
 20
0.0
 30
0.0
  0
VERTEX
  5
1604
  8
NOTE
  6
CONTINUOUS
 10
447.12549742409988
 20
478.02997900527498
 30
0.0
  0
VERTEX
  5
1605
  8
NOTE
  6
CONTINUOUS
 10
432.0
 20
441.0
 30
0.0
  0
VERTEX
  5
1606
  8
NOTE
  6
CONTINUOUS
 10
463.61405408647988
 20
465.50615407990051
 30
0.0
  0
SEQEND
  5
1607
  8
NOTE
  6
CONTINUOUS
  0
LINE
  5
1415
  8
DETAIL
  6
CONTINOUS
 10
-474.99999999999989
 20
943.0
 30
0.0
 11
475.0
 21
943.0
 31
0.0
  0
LINE
  5
1467
  8
BASIS
  6
DASHDOT
 10
-466.797845249847
 20
473.0
 30
0.0
 11
160.79784525015279
 21
473.0
 31
0.0
  0
LINE
  5
1471
  8
NOTE
  6
CONTINOUS
 10
295.0
 20
663.0
 30
0.0
 11
255.0
 21
663.0
 31
0.0
  0
LINE
  5
1484
  8
NOTE
  6
CONTINOUS
 10
397.0
 20
447.0
 30
0.0
 11
357.0
 21
447.0
 31
0.0
  0
LINE
  5
148E
  8
NOTE
  6
CONTINOUS
 10
452.0
 20
441.0
 30
0.0
 11
412.0
 21
441.0
 31
0.0
  0
LINE
  5
14DF
  8
SIZE
  6
CONTINUOUS
 10
-474.99999999999989
 20
963.0
 30
0.0
 11
-474.99999999999989
 21
1231.2306165117491
 31
0.0
  0
LINE
  5
14E0
  8
SIZE
  6
CONTINUOUS
 10
475.0
 20
963.0
 30
0.0
 11
475.0
 21
1231.2306165117491
 31
0.0
  0
LINE
  5
14E1
  8
SIZE
  6
CONTINUOUS
 10
-464.99999999999977
 20
1211.2306165117479
 30
0.0
 11
465.0
 21
1211.2306165117479
 31
0.0
  0
LINE
  5
14E5
  8
SIZE
  6
CONTINUOUS
 10
475.0
 20
3.0
 30
0.0
 11
474.99999999999989
 21
-573.01396200505167
 31
0.0
  0
LINE
  5
14E6
  8
SIZE
  6
CONTINUOUS
 10
-474.99999999999989
 20
3.0
 30
0.0
 11
-475.0
 21
-573.01396200505167
 31
0.0
  0
LINE
  5
14E7
  8
SIZE
  6
CONTINUOUS
 10
464.99999999999989
 20
-543.01396200505178
 30
0.0
 11
-465.0
 21
-543.01396200505178
 31
0.0
  0
LINE
  5
14EB
  8
SIZE
  6
CONTINUOUS
 10
-300.0
 20
-40.0
 30
0.0
 11
-300.0
 21
-436.34640411009718
 31
0.0
  0
LINE
  5
14EC
  8
SIZE
  6
CONTINUOUS
 10
300.0
 20
-40.0
 30
0.0
 11
300.0
 21
-436.34640411009718
 31
0.0
  0
LINE
  5
14ED
  8
SIZE
  6
CONTINUOUS
 10
-290.0
 20
-406.3464041100973
 30
0.0
 11
290.0
 21
-406.3464041100973
 31
0.0
  0
LINE
  5
14F1
  8
SIZE
  6
CONTINUOUS
 10
-486.797845249847
 20
473.0
 30
0.0
 11
-769.28036717604823
 21
473.0
 31
0.0
  0
LINE
  5
14F2
  8
SIZE
  6
CONTINUOUS
 10
-340.0
 20
0.0000000000000057
 30
0.0
 11
-769.28036717604834
 21
0.0000000000001273
 31
0.0
  0
LINE
  5
14F3
  8
SIZE
  6
CONTINUOUS
 10
-749.28036717604823
 20
463.0
 30
0.0
 11
-749.28036717604834
 21
10.000000000000121
 31
0.0
  0
LINE
  5
14F7
  8
SIZE
  6
CONTINUOUS
 10
-494.99999999999989
 20
943.0
 30
0.0
 11
-874.17443600071761
 21
943.00000000000011
 31
0.0
  0
LINE
  5
14F8
  8
SIZE
  6
CONTINUOUS
 10
-340.0
 20
0.0000000000000057
 30
0.0
 11
-874.17443600071783
 21
0.000000000000157
 31
0.0
  0
LINE
  5
14F9
  8
SIZE
  6
CONTINUOUS
 10
-854.17443600071749
 20
933.00000000000011
 30
0.0
 11
-854.17443600071795
 21
10.000000000000149
 31
0.0
  0
LINE
  5
14FD
  8
SIZE
  6
CONTINUOUS
 10
-474.99999999999989
 20
963.0
 30
0.0
 11
-474.99999999999989
 21
1083.2750633921351
 31
0.0
  0
LINE
  5
14FE
  8
SIZE
  6
CONTINUOUS
 10
-152.99999999984689
 20
704.79784525000014
 30
0.0
 11
-152.99999999984681
 21
1083.2750633921351
 31
0.0
  0
LINE
  5
14FF
  8
SIZE
  6
CONTINUOUS
 10
-464.99999999999977
 20
1063.2750633921351
 30
0.0
 11
-162.99999999984681
 21
1063.2750633921351
 31
0.0
  0
LINE
  5
1503
  8
SIZE
  6
CONTINUOUS
 10
-300.0
 20
-40.0
 30
0.0
 11
-300.0
 21
-436.34640411009718
 31
0.0
  0
LINE
  5
1504
  8
SIZE
  6
CONTINUOUS
 10
-474.99999999999989
 20
3.0
 30
0.0
 11
-474.99999999999989
 21
-436.34640411009718
 31
0.0
  0
LINE
  5
1505
  8
SIZE
  6
CONTINUOUS
 10
-310.0
 20
-406.3464041100973
 30
0.0
 11
-464.99999999999989
 21
-406.3464041100973
 31
0.0
  0
LINE
  5
1509
  8
SIZE
  6
CONTINUOUS
 10
-494.99999999999989
 20
23.0
 30
0.0
 11
-617.48247724767032
 21
23.000000000000028
 31
0.0
  0
LINE
  5
150A
  8
SIZE
  6
CONTINUOUS
 10
-340.0
 20
0.0000000000000057
 30
0.0
 11
-617.48247724767032
 21
0.0000000000000843
 31
0.0
  0
LINE
  5
150B
  8
SIZE
  6
CONTINUOUS
 10
-587.48247724767032
 20
13.00000000000003
 30
0.0
 11
-587.48247724767032
 21
10.000000000000069
 31
0.0
  0
LINE
  5
150F
  8
SIZE
  6
CONTINUOUS
 10
336.0
 20
-0.0000000000000057
 30
0.0
 11
1178.445400266369
 21
-0.0000000000002443
 31
0.0
  0
LINE
  5
1510
  8
SIZE
  6
CONTINUOUS
 10
315.0
 20
663.0
 30
0.0
 11
1178.4454002663699
 21
662.99999999999989
 31
0.0
  0
LINE
  5
1511
  8
SIZE
  6
CONTINUOUS
 10
1158.445400266369
 20
9.9999999999997602
 30
0.0
 11
1158.445400266369
 21
652.99999999999989
 31
0.0
  0
LINE
  5
1515
  8
SIZE
  6
CONTINUOUS
 10
275.0
 20
703.0
 30
0.0
 11
275.0
 21
1094.957002324971
 31
0.0
  0
LINE
  5
1516
  8
SIZE
  6
CONTINUOUS
 10
475.0
 20
963.0
 30
0.0
 11
475.0
 21
1094.957002324971
 31
0.0
  0
LINE
  5
1517
  8
SIZE
  6
CONTINUOUS
 10
285.0
 20
1074.957002324971
 30
0.0
 11
465.0
 21
1074.957002324971
 31
0.0
  0
LINE
  5
151B
  8
SIZE
  6
CONTINUOUS
 10
340.0
 20
-0.0000000000000057
 30
0.0
 11
867.0980740941759
 21
-0.000000000000155
 31
0.0
  0
LINE
  5
151C
  8
SIZE
  6
CONTINUOUS
 10
417.0
 20
447.0
 30
0.0
 11
867.0980740941759
 21
446.99999999999977
 31
0.0
  0
LINE
  5
151D
  8
SIZE
  6
CONTINUOUS
 10
847.09807409417579
 20
9.9999999999998508
 30
0.0
 11
847.09807409417601
 21
436.99999999999989
 31
0.0
  0
LINE
  5
1521
  8
SIZE
  6
CONTINUOUS
 10
475.0
 20
43.0
 30
0.0
 11
475.0
 21
207.07523950625179
 31
0.0
  0
LINE
  5
1522
  8
SIZE
  6
CONTINUOUS
 10
432.0
 20
401.0
 30
0.0
 11
432.0
 21
167.07523950625179
 31
0.0
  0
LINE
  5
1523
  8
SIZE
  6
CONTINUOUS
 10
485.0
 20
187.07523950625179
 30
0.0
 11
495.0
 21
187.07523950625179
 31
0.0
  0
LINE
  5
1524
  8
SIZE
  6
CONTINUOUS
 10
422.0
 20
187.07523950625179
 30
0.0
 11
278.74285714285708
 21
187.07523950625179
 31
0.0
  0
LINE
  5
1525
  8
SIZE
  6
CONTINUOUS
 10
475.0
 20
187.07523950625179
 30
0.0
 11
432.0
 21
187.07523950625179
 31
0.0
  0
LINE
  5
1529
  8
SIZE
  6
CONTINUOUS
 10
340.0
 20
-0.0000000000000057
 30
0.0
 11
656.19302116487052
 21
-0.0000000000000952
 31
0.0
  0
LINE
  5
152A
  8
SIZE
  6
CONTINUOUS
 10
472.0
 20
441.0
 30
0.0
 11
656.19302116487063
 21
440.99999999999989
 31
0.0
  0
LINE
  5
152B
  8
SIZE
  6
CONTINUOUS
 10
636.1930211648704
 20
9.9999999999999094
 30
0.0
 11
636.19302116487063
 21
431.0
 31
0.0
  0
LINE
  5
152F
  8
SIZE
  6
CONTINUOUS
 10
300.0
 20
-40.0
 30
0.0
 11
300.0
 21
-436.34640411009718
 31
0.0
  0
LINE
  5
1530
  8
SIZE
  6
CONTINUOUS
 10
475.0
 20
3.0
 30
0.0
 11
475.0
 21
-436.34640411009718
 31
0.0
  0
LINE
  5
1531
  8
SIZE
  6
CONTINUOUS
 10
310.0
 20
-406.3464041100973
 30
0.0
 11
465.0
 21
-406.3464041100973
 31
0.0
  0
LINE
  5
1535
  8
SIZE
  6
CONTINUOUS
 10
432.0
 20
401.0
 30
0.0
 11
432.0
 21
289.87304321252122
 31
0.0
  0
LINE
  5
1536
  8
SIZE
  6
CONTINUOUS
 10
377.0
 20
407.0
 30
0.0
 11
377.0
 21
289.87304321252122
 31
0.0
  0
LINE
  5
1537
  8
SIZE
  6
CONTINUOUS
 10
442.0
 20
309.87304321252122
 30
0.0
 11
452.0
 21
309.87304321252122
 31
0.0
  0
LINE
  5
1538
  8
SIZE
  6
CONTINUOUS
 10
367.0
 20
309.87304321252122
 30
0.0
 11
223.7428571428571
 21
309.87304321252122
 31
0.0
  0
LINE
  5
1539
  8
SIZE
  6
CONTINUOUS
 10
432.0
 20
309.87304321252122
 30
0.0
 11
377.0
 21
309.87304321252122
 31
0.0
  0
CIRCLE
  5
153D
  8
SIZE
  6
BYBLOCK
 10
-854.17443600071795
 20
0.0000000000001513
 30
0.0
 40
5.0
  0
LINE
  5
153E
  8
SIZE
  6
BYBLOCK
 10
-854.17443600071795
 20
0.0000000000001513
 30
0.0
 11
-854.17443600071795
 21
10.000000000000149
 31
0.0
  0
CIRCLE
  5
153F
  8
SIZE
  6
BYBLOCK
 10
-749.28036717604834
 20
0.0000000000001216
 30
0.0
 40
5.0
  0
LINE
  5
1540
  8
SIZE
  6
BYBLOCK
 10
-749.28036717604834
 20
0.0000000000001216
 30
0.0
 11
-749.28036717604834
 21
10.000000000000121
 31
0.0
  0
TEXT
  5
1541
  8
SIZE
  6
CONTINUOUS
 10
-874.17443600071783
 20
397.44285714285712
 30
0.0
 40
64.0
  1
943
 50
90.0
 41
0.9
  0
TEXT
  5
1542
  8
SIZE
  6
CONTINUOUS
 10
-769.28036717604834
 20
162.44285714285709
 30
0.0
 40
64.0
  1
473
 50
90.0
 41
0.9
  0
CIRCLE
  5
1543
  8
SIZE
  6
BYBLOCK
 10
-749.28036717604823
 20
473.0
 30
0.0
 40
5.0
  0
LINE
  5
1544
  8
SIZE
  6
BYBLOCK
 10
-749.28036717604823
 20
473.0
 30
0.0
 11
-749.28036717604823
 21
463.0
 31
0.0
  0
CIRCLE
  5
1545
  8
SIZE
  6
BYBLOCK
 10
-854.17443600071749
 20
943.00000000000011
 30
0.0
 40
5.0
  0
LINE
  5
1546
  8
SIZE
  6
BYBLOCK
 10
-854.17443600071749
 20
943.00000000000011
 30
0.0
 11
-854.17443600071749
 21
933.00000000000011
 31
0.0
  0
CIRCLE
  5
1547
  8
SIZE
  6
BYBLOCK
 10
-474.99999999999989
 20
-406.3464041100973
 30
0.0
 40
5.0
  0
LINE
  5
1548
  8
SIZE
  6
BYBLOCK
 10
-469.99999999999989
 20
-406.3464041100973
 30
0.0
 11
-464.99999999999989
 21
-406.3464041100973
 31
0.0
  0
CIRCLE
  5
1549
  8
SIZE
  6
BYBLOCK
 10
-475.0
 20
-543.01396200505178
 30
0.0
 40
5.0
  0
LINE
  5
154A
  8
SIZE
  6
BYBLOCK
 10
-470.0
 20
-543.01396200505178
 30
0.0
 11
-465.0
 21
-543.01396200505178
 31
0.0
  0
TEXT
  5
154B
  8
SIZE
  6
CONTINUOUS
 10
-617.61747724766997
 20
-116.481810180856
 30
0.0
 40
64.0
  1
23
 50
90.0
 41
0.9
  0
CIRCLE
  5
154C
  8
SIZE
  6
BYBLOCK
 10
-587.48247724767032
 20
0.0000000000000758
 30
0.0
 40
5.0
  0
LINE
  5
154D
  8
SIZE
  6
BYBLOCK
 10
-587.48247724767032
 20
5.0000000000000746
 30
0.0
 11
-587.48247724767032
 21
10.000000000000069
 31
0.0
  0
CIRCLE
  5
154E
  8
SIZE
  6
BYBLOCK
 10
-587.48247724767032
 20
23.000000000000028
 30
0.0
 40
5.0
  0
LINE
  5
154F
  8
SIZE
  6
BYBLOCK
 10
-587.48247724767032
 20
18.000000000000028
 30
0.0
 11
-587.48247724767032
 21
13.00000000000003
 31
0.0
  0
TEXT
  5
1550
  8
SIZE
  6
CONTINUOUS
 10
-456.0714285714285
 20
-380.16780317588012
 30
0.0
 40
64.0
  1
175
 41
0.9
  0
CIRCLE
  5
1551
  8
SIZE
  6
BYBLOCK
 10
-300.0
 20
-406.3464041100973
 30
0.0
 40
5.0
  0
LINE
  5
1552
  8
SIZE
  6
BYBLOCK
 10
-295.0
 20
-406.3464041100973
 30
0.0
 11
-290.0
 21
-406.3464041100973
 31
0.0
  0
CIRCLE
  5
1553
  8
SIZE
  6
BYBLOCK
 10
-300.0
 20
-406.3464041100973
 30
0.0
 40
5.0
  0
LINE
  5
1554
  8
SIZE
  6
BYBLOCK
 10
-305.0
 20
-406.3464041100973
 30
0.0
 11
-310.0
 21
-406.3464041100973
 31
0.0
  0
TEXT
  5
1555
  8
SIZE
  6
CONTINUOUS
 10
-74.05714285714285
 20
-384.014098177694
 30
0.0
 40
64.0
  1
600
 41
0.9
  0
TEXT
  5
1556
  8
SIZE
  6
CONTINUOUS
 10
-74.057142857142892
 20
-522.48065671133099
 30
0.0
 40
64.0
  1
950
 41
0.9
  0
CIRCLE
  5
1557
  8
SIZE
  6
BYBLOCK
 10
-474.99999999999989
 20
1063.2750633921351
 30
0.0
 40
5.0
  0
LINE
  5
1558
  8
SIZE
  6
BYBLOCK
 10
-474.99999999999989
 20
1063.2750633921351
 30
0.0
 11
-464.99999999999977
 21
1063.2750633921351
 31
0.0
  0
CIRCLE
  5
1559
  8
SIZE
  6
BYBLOCK
 10
-474.99999999999989
 20
1211.2306165117479
 30
0.0
 40
5.0
  0
LINE
  5
155A
  8
SIZE
  6
BYBLOCK
 10
-474.99999999999989
 20
1211.2306165117479
 30
0.0
 11
-464.99999999999977
 21
1211.2306165117479
 31
0.0
  0
TEXT
  5
155B
  8
SIZE
  6
CONTINUOUS
 10
-388.05714285706608
 20
1083.2750633921351
 30
0.0
 40
64.0
  1
322
 41
0.9
  0
TEXT
  5
155C
  8
SIZE
  6
CONTINUOUS
 10
-74.057142857142807
 20
1231.2306165117491
 30
0.0
 40
64.0
  1
950
 41
0.9
  0
CIRCLE
  5
155D
  8
SIZE
  6
BYBLOCK
 10
-152.99999999984681
 20
1063.2750633921351
 30
0.0
 40
5.0
  0
LINE
  5
155E
  8
SIZE
  6
BYBLOCK
 10
-152.99999999984681
 20
1063.2750633921351
 30
0.0
 11
-162.99999999984681
 21
1063.2750633921351
 31
0.0
  0
TEXT
  5
155F
  8
SIZE
  6
CONTINUOUS
 10
1138.445400266369
 20
257.44285714285712
 30
0.0
 40
64.0
  1
663
 50
90.0
 41
0.9
  0
TEXT
  5
1560
  8
SIZE
  6
CONTINUOUS
 10
318.92857142857139
 20
-372.4670171547977
 30
0.0
 40
64.0
  1
175
 41
0.9
  0
CIRCLE
  5
1561
  8
SIZE
  6
BYBLOCK
 10
300.0
 20
-406.3464041100973
 30
0.0
 40
5.0
  0
LINE
  5
1562
  8
SIZE
  6
BYBLOCK
 10
305.0
 20
-406.3464041100973
 30
0.0
 11
310.0
 21
-406.3464041100973
 31
0.0
  0
CIRCLE
  5
1563
  8
SIZE
  6
BYBLOCK
 10
300.0
 20
-406.3464041100973
 30
0.0
 40
5.0
  0
LINE
  5
1564
  8
SIZE
  6
BYBLOCK
 10
295.0
 20
-406.3464041100973
 30
0.0
 11
290.0
 21
-406.3464041100973
 31
0.0
  0
CIRCLE
  5
1565
  8
SIZE
  6
BYBLOCK
 10
474.99999999999989
 20
-543.01396200505178
 30
0.0
 40
5.0
  0
LINE
  5
1566
  8
SIZE
  6
BYBLOCK
 10
469.99999999999989
 20
-543.01396200505178
 30
0.0
 11
464.99999999999989
 21
-543.01396200505178
 31
0.0
  0
CIRCLE
  5
1567
  8
SIZE
  6
BYBLOCK
 10
475.0
 20
-406.3464041100973
 30
0.0
 40
5.0
  0
LINE
  5
1568
  8
SIZE
  6
BYBLOCK
 10
470.0
 20
-406.3464041100973
 30
0.0
 11
465.0
 21
-406.3464041100973
 31
0.0
  0
CIRCLE
  5
1569
  8
SIZE
  6
BYBLOCK
 10
636.1930211648704
 20
-0.0000000000000896
 30
0.0
 40
5.0
  0
LINE
  5
156A
  8
SIZE
  6
BYBLOCK
 10
636.1930211648704
 20
-0.0000000000000896
 30
0.0
 11
636.1930211648704
 21
9.9999999999999112
 31
0.0
  0
TEXT
  5
156B
  8
SIZE
  6
CONTINUOUS
 10
243.7428571428571
 20
329.87304321252122
 30
0.0
 40
64.0
  1
55
 41
0.9
  0
TEXT
  5
156C
  8
SIZE
  6
CONTINUOUS
 10
298.74285714285708
 20
207.07523950625179
 30
0.0
 40
64.0
  1
43
 41
0.9
  0
CIRCLE
  5
156D
  8
SIZE
  6
BYBLOCK
 10
432.0
 20
187.07523950625179
 30
0.0
 40
5.0
  0
LINE
  5
156E
  8
SIZE
  6
BYBLOCK
 10
432.0
 20
187.07523950625179
 30
0.0
 11
422.0
 21
187.07523950625179
 31
0.0
  0
CIRCLE
  5
156F
  8
SIZE
  6
BYBLOCK
 10
377.0
 20
309.87304321252122
 30
0.0
 40
5.0
  0
LINE
  5
1570
  8
SIZE
  6
BYBLOCK
 10
377.0
 20
309.87304321252122
 30
0.0
 11
367.0
 21
309.87304321252122
 31
0.0
  0
CIRCLE
  5
1571
  8
SIZE
  6
BYBLOCK
 10
432.0
 20
309.87304321252122
 30
0.0
 40
5.0
  0
LINE
  5
1572
  8
SIZE
  6
BYBLOCK
 10
432.0
 20
309.87304321252122
 30
0.0
 11
442.0
 21
309.87304321252122
 31
0.0
  0
TEXT
  5
1573
  8
SIZE
  6
CONTINUOUS
 10
616.19302116487052
 20
158.78571428571431
 30
0.0
 40
64.0
  1
441
 50
90.0
 41
0.9
  0
CIRCLE
  5
1574
  8
SIZE
  6
BYBLOCK
 10
475.0
 20
187.07523950625179
 30
0.0
 40
5.0
  0
LINE
  5
1575
  8
SIZE
  6
BYBLOCK
 10
475.0
 20
187.07523950625179
 30
0.0
 11
485.0
 21
187.07523950625179
 31
0.0
  0
CIRCLE
  5
1576
  8
SIZE
  6
BYBLOCK
 10
636.19302116487063
 20
441.0
 30
0.0
 40
5.0
  0
LINE
  5
1577
  8
SIZE
  6
BYBLOCK
 10
636.19302116487063
 20
441.0
 30
0.0
 11
636.19302116487063
 21
431.0
 31
0.0
  0
CIRCLE
  5
1578
  8
SIZE
  6
BYBLOCK
 10
847.09807409417579
 20
-0.0000000000001493
 30
0.0
 40
5.0
  0
LINE
  5
1579
  8
SIZE
  6
BYBLOCK
 10
847.09807409417579
 20
-0.0000000000001493
 30
0.0
 11
847.09807409417579
 21
9.9999999999998508
 31
0.0
  0
TEXT
  5
157A
  8
SIZE
  6
CONTINUOUS
 10
827.0980740941759
 20
149.44285714285709
 30
0.0
 40
64.0
  1
447
 50
90.0
 41
0.9
  0
CIRCLE
  5
157B
  8
SIZE
  6
BYBLOCK
 10
847.09807409417601
 20
446.99999999999989
 30
0.0
 40
5.0
  0
LINE
  5
157C
  8
SIZE
  6
BYBLOCK
 10
847.09807409417601
 20
446.99999999999989
 30
0.0
 11
847.09807409417601
 21
436.99999999999989
 31
0.0
  0
TEXT
  5
157D
  8
SIZE
  6
CONTINUOUS
 10
300.94285714285712
 20
1094.957002324971
 30
0.0
 40
64.0
  1
200
 41
0.9
  0
CIRCLE
  5
157E
  8
SIZE
  6
BYBLOCK
 10
275.0
 20
1074.957002324971
 30
0.0
 40
5.0
  0
LINE
  5
157F
  8
SIZE
  6
BYBLOCK
 10
275.0
 20
1074.957002324971
 30
0.0
 11
285.0
 21
1074.957002324971
 31
0.0
  0
CIRCLE
  5
1580
  8
SIZE
  6
BYBLOCK
 10
475.0
 20
1074.957002324971
 30
0.0
 40
5.0
  0
LINE
  5
1581
  8
SIZE
  6
BYBLOCK
 10
475.0
 20
1074.957002324971
 30
0.0
 11
465.0
 21
1074.957002324971
 31
0.0
  0
CIRCLE
  5
1582
  8
SIZE
  6
BYBLOCK
 10
475.0
 20
1211.2306165117479
 30
0.0
 40
5.0
  0
LINE
  5
1583
  8
SIZE
  6
BYBLOCK
 10
475.0
 20
1211.2306165117479
 30
0.0
 11
465.0
 21
1211.2306165117479
 31
0.0
  0
CIRCLE
  5
1584
  8
SIZE
  6
BYBLOCK
 10
1158.445400266369
 20
-0.0000000000002386
 30
0.0
 40
5.0
  0
LINE
  5
1585
  8
SIZE
  6
BYBLOCK
 10
1158.445400266369
 20
-0.0000000000002386
 30
0.0
 11
1158.445400266369
 21
9.9999999999997602
 31
0.0
  0
CIRCLE
  5
1586
  8
SIZE
  6
BYBLOCK
 10
1158.445400266369
 20
662.99999999999989
 30
0.0
 40
5.0
  0
LINE
  5
1587
  8
SIZE
  6
BYBLOCK
 10
1158.445400266369
 20
662.99999999999989
 30
0.0
 11
1158.445400266369
 21
652.99999999999989
 31
0.0
  0
LINE
  5
158E
  8
OUTLINE
  6
CONTINOUS
 10
-475.0
 20
943.0
 30
0.0
 11
475.0
 21
943.0
 31
0.0
  0
LINE
  5
158F
  8
OUTLINE
  6
CONTINUOUS
 10
475.0
 20
23.0
 30
0.0
 11
-475.0
 21
23.0
 31
0.0
  0
LINE
  5
15B7
  8
OUTLINE
  6
CONTINOUS
 10
-475.0
 20
23.0
 30
0.0
 11
-475.0
 21
943.0
 31
0.0
  0
LINE
  5
15B9
  8
OUTLINE
  6
CONTINOUS
 10
-316.0
 20
0.0
 30
0.0
 11
-284.0
 21
0.0
 31
0.0
  0
LINE
  5
15BA
  8
OUTLINE
  6
CONTINOUS
 10
-316.0
 20
22.999999999999542
 30
0.0
 11
-316.0
 21
0.0
 31
0.0
  0
LINE
  5
15BB
  8
OUTLINE
  6
CONTINOUS
 10
-284.0
 20
22.999999999999542
 30
0.0
 11
-284.0
 21
0.0
 31
0.0
  0
LINE
  5
15D5
  8
OUTLINE
  6
CONTINOUS
 10
475.0
 20
23.0
 30
0.0
 11
475.0
 21
943.0
 31
0.0
  0
LINE
  5
15D6
  8
OUTLINE
  6
CONTINOUS
 10
284.0
 20
0.0
 30
0.0
 11
316.0
 21
0.0
 31
0.0
  0
LINE
  5
15D7
  8
OUTLINE
  6
CONTINOUS
 10
284.0
 20
22.999999999999542
 30
0.0
 11
284.0
 21
0.0
 31
0.0
  0
LINE
  5
15D8
  8
OUTLINE
  6
CONTINOUS
 10
316.0
 20
22.999999999999542
 30
0.0
 11
316.0
 21
0.0
 31
0.0
  0
ENDSEC
  0
EOF
