  0
SECTION
  2
HEADER
  9
$ACADVER
  1
AC1009
  9
$INSBASE
 10
0.0
 20
0.0
 30
0.0
  9
$EXTMIN
 10
-1146.761119453289
 20
-613.06791136589527
 30
0.0
  9
$EXTMAX
 10
2822.0756974842238
 20
658.75245517260396
 30
0.0
  9
$LIMMIN
 10
-1524.7764778799769
 20
-1242.021624843399
  9
$LIMMAX
 10
2212.6014781402591
 20
943.11018576598497
  9
$ORTHOMODE
 70
     1
  9
$REGENMODE
 70
     1
  9
$FILLMODE
 70
     1
  9
$QTEXTMODE
 70
     0
  9
$MIRRTEXT
 70
     0
  9
$DRAGMODE
 70
     2
  9
$LTSCALE
 40
20.0
  9
$OSMODE
 70
   119
  9
$ATTMODE
 70
     1
  9
$TEXTSIZE
 40
64.0
  9
$TRACEWID
 40
0.05
  9
$TEXTSTYLE
  7
STANDARD
  9
$CLAYER
  8
SIZE
  9
$CELTYPE
  6
CONTINUOUS
  9
$CECOLOR
 62
   256
  9
$DIMSCALE
 40
1.0
  9
$DIMASZ
 40
10.0
  9
$DIMEXO
 40
20.0
  9
$DIMDLI
 40
200.0
  9
$DIMRND
 40
0.0
  9
$DIMDLE
 40
0.0
  9
$DIMEXE
 40
30.0
  9
$DIMTP
 40
0.0
  9
$DIMTM
 40
0.0
  9
$DIMTXT
 40
64.0
  9
$DIMCEN
 40
0.09
  9
$DIMTSZ
 40
0.0
  9
$DIMTOL
 70
     0
  9
$DIMLIM
 70
     0
  9
$DIMTIH
 70
     0
  9
$DIMTOH
 70
     0
  9
$DIMSE1
 70
     0
  9
$DIMSE2
 70
     0
  9
$DIMTAD
 70
     1
  9
$DIMZIN
 70
     8
  9
$DIMBLK
  1

  9
$DIMASO
 70
     1
  9
$DIMSHO
 70
     0
  9
$DIMPOST
  1

  9
$DIMAPOST
  1

  9
$DIMALT
 70
     0
  9
$DIMALTD
 70
     2
  9
$DIMALTF
 40
25.399999999999999
  9
$DIMLFAC
 40
1.0
  9
$DIMTOFL
 70
     1
  9
$DIMTVP
 40
0.0
  9
$DIMTIX
 70
     0
  9
$DIMSOXD
 70
     0
  9
$DIMSAH
 70
     1
  9
$DIMBLK1
  1

  9
$DIMBLK2
  1

  9
$DIMSTYLE
  2
STANDARD
  9
$DIMCLRD
 70
     0
  9
$DIMCLRE
 70
     0
  9
$DIMCLRT
 70
     0
  9
$DIMTFAC
 40
1.0
  9
$DIMGAP
 40
0.09
  9
$LUNITS
 70
     2
  9
$LUPREC
 70
     4
  9
$SKETCHINC
 40
0.1
  9
$FILLETRAD
 40
6.0
  9
$AUNITS
 70
     1
  9
$AUPREC
 70
     3
  9
$MENU
  1
ACAD
  9
$ELEVATION
 40
0.0
  9
$PELEVATION
 40
0.0
  9
$THICKNESS
 40
0.0
  9
$LIMCHECK
 70
     0
  9
$BLIPMODE
 70
     0
  9
$CHAMFERA
 40
0.0
  9
$CHAMFERB
 40
0.0
  9
$SKPOLY
 70
     0
  9
$TDCREATE
 40
2450330.3932059952
  9
$TDUPDATE
 40
2453858.4885266549
  9
$TDINDWG
 40
0.3196590394
  9
$TDUSRTIMER
 40
0.3196588079
  9
$USRTIMER
 70
     1
  9
$ANGBASE
 50
0.0
  9
$ANGDIR
 70
     0
  9
$PDMODE
 70
     3
  9
$PDSIZE
 40
-2.0
  9
$PLINEWID
 40
0.0
  9
$COORDS
 70
     0
  9
$SPLFRAME
 70
     0
  9
$SPLINETYPE
 70
     6
  9
$SPLINESEGS
 70
     8
  9
$ATTDIA
 70
     0
  9
$ATTREQ
 70
     1
  9
$HANDLING
 70
-16383
  9
$HANDSEED
  5
11DA
  9
$SURFTAB1
 70
     6
  9
$SURFTAB2
 70
     6
  9
$SURFTYPE
 70
     6
  9
$SURFU
 70
     6
  9
$SURFV
 70
     6
  9
$UCSNAME
  2

  9
$UCSORG
 10
0.0
 20
0.0
 30
0.0
  9
$UCSXDIR
 10
1.0
 20
0.0
 30
0.0
  9
$UCSYDIR
 10
0.0
 20
1.0
 30
0.0
  9
$PUCSNAME
  2

  9
$PUCSORG
 10
0.0
 20
0.0
 30
0.0
  9
$PUCSXDIR
 10
1.0
 20
0.0
 30
0.0
  9
$PUCSYDIR
 10
0.0
 20
1.0
 30
0.0
  9
$USERI1
 70
     0
  9
$USERI2
 70
     0
  9
$USERI3
 70
     0
  9
$USERI4
 70
     0
  9
$USERI5
 70
     0
  9
$USERR1
 40
20.0
  9
$USERR2
 40
0.0
  9
$USERR3
 40
0.0
  9
$USERR4
 40
0.0
  9
$USERR5
 40
0.0
  9
$WORLDVIEW
 70
     1
  9
$SHADEDGE
 70
     3
  9
$SHADEDIF
 70
    70
  9
$TILEMODE
 70
     1
  9
$MAXACTVP
 70
    64
  9
$PLIMCHECK
 70
     0
  9
$PEXTMIN
 10
1.0000000000000000E+020
 20
1.0000000000000000E+020
 30
1.0000000000000000E+020
  9
$PEXTMAX
 10
-1.0000000000000000E+020
 20
-1.0000000000000000E+020
 30
-1.0000000000000000E+020
  9
$PLIMMIN
 10
0.0
 20
0.0
  9
$PLIMMAX
 10
12.0
 20
9.0
  9
$UNITMODE
 70
     0
  9
$VISRETAIN
 70
     1
  9
$PLINEGEN
 70
     0
  9
$PSLTSCALE
 70
     1
  0
ENDSEC
  0
SECTION
  2
TABLES
  0
TABLE
  2
VPORT
 70
     5
  0
VPORT
  2
*ACTIVE
 70
     0
 10
0.0
 20
0.0
 11
1.0
 21
1.0
 12
596.06746202810325
 22
-67.748361091631978
 13
0.0
 23
0.0
 14
50.0
 24
50.0
 15
100.0
 25
100.0
 16
0.0
 26
0.0
 36
1.0
 17
0.0
 27
0.0
 37
0.0
 40
3560.3753525706911
 41
1.314578005115089
 42
50.0
 43
0.0
 44
0.0
 50
0.0
 51
0.0
 71
     0
 72
   500
 73
     1
 74
     0
 75
     0
 76
     0
 77
     0
 78
     0
  0
ENDTAB
  0
TABLE
  2
LTYPE
 70
     8
  0
LTYPE
  2
CONTINUOUS
 70
     0
  3
実線
 72
    65
 73
     0
 40
0.0
  0
LTYPE
  2
DASHDOT
 70
     0
  3
____ _ ____ _ ____ _ ____ _ ____ _ ____ _ ____
 72
    65
 73
     4
 40
5.5
 49
4.0
 49
-0.6
 49
0.3
 49
-0.6
  0
LTYPE
  2
CONTINOUS
 70
     0
  3
Solid line
 72
    65
 73
     0
 40
0.0
  0
LTYPE
  2
DASHED
 70
     0
  3
_ _ _ _ _ _ _ _ _ _ _ _ _ _ _ _ _ _ _ _ _ _ _
 72
    65
 73
     2
 40
2.0
 49
1.1999999999999991
 49
-0.8
  0
LTYPE
  2
DOT
 70
     0
  3
...............................................
 72
    65
 73
     2
 40
0.8
 49
0.5
 49
-0.3
  0
LTYPE
  2
DASHDOT1
 70
     0
  3
____ _ ____ _ ____ _ ____ _ ____ _ ____ _ ____
 72
    65
 73
     4
 40
2.0
 49
1.5
 49
-0.2
 49
0.1
 49
-0.2
  0
LTYPE
  2
DIVIDE
 70
     0
  3
_____ _ _ _____ _ _ _____ _ _ _____ _ _ ____
 72
    65
 73
     6
 40
6.4000000000000004
 49
4.0
 49
-0.6
 49
0.3
 49
-0.6
 49
0.3
 49
-0.6
  0
LTYPE
  2
DIVIDE1
 70
     0
  3
_____ _ _ _____ _ _ _____ _ _ _____ _ _ ____
 72
    65
 73
     6
 40
3.2000000000000002
 49
2.0
 49
-0.3
 49
0.15
 49
-0.3
 49
0.15
 49
-0.3
  0
ENDTAB
  0
TABLE
  2
LAYER
 70
    12
  0
LAYER
  2
0
 70
     0
 62
     7
  6
CONTINUOUS
  0
LAYER
  2
SIZE
 70
     0
 62
    32
  6
CONTINUOUS
  0
LAYER
  2
DETAIL
 70
     0
 62
     5
  6
CONTINUOUS
  0
LAYER
  2
OUTLINE
 70
     0
 62
     3
  6
CONTINUOUS
  0
LAYER
  2
BASIS
 70
     0
 62
     6
  6
CONTINUOUS
  0
LAYER
  2
NOTE
 70
     0
 62
     4
  6
CONTINUOUS
  0
LAYER
  2
ARRANGE
 70
     0
 62
     1
  6
CONTINUOUS
  0
LAYER
  2
FIX
 70
     0
 62
   241
  6
CONTINUOUS
  0
LAYER
  2
ETC
 70
     0
 62
    83
  6
CONTINUOUS
  0
LAYER
  2
SERVICESPACE
 70
     0
 62
     2
  6
CONTINUOUS
  0
LAYER
  2
SYMBOLLINE
 70
     0
 62
    38
  6
CONTINUOUS
  0
LAYER
  2
DEFPOINTS
 70
     0
 62
     7
  6
CONTINUOUS
  0
ENDTAB
  0
TABLE
  2
STYLE
 70
     2
  0
STYLE
  2
STANDARD
 70
     0
 40
0.0
 41
0.9
 50
0.0
 71
     0
 42
64.0
  3
SIMPLEX
  4
BIGFONT
  0
STYLE
  2
STANDARD1
 70
     0
 40
0.0
 41
1.0
 50
0.0
 71
     0
 42
3.2000000000000002
  3
MONOTXT
  4
BIGFONT
  0
ENDTAB
  0
TABLE
  2
VIEW
 70
     1
  0
VIEW
  2
ALL
 70
     0
 40
4282.6199999999999
 10
0.0
 20
41.309903999999989
 41
5940.0
 11
0.0
 21
0.0
 31
1.0
 12
0.0
 22
0.0
 32
0.0
 42
50.0
 43
0.0
 44
0.0
 50
0.0
 71
     0
  0
ENDTAB
  0
TABLE
  2
UCS
 70
     0
  0
ENDTAB
  0
TABLE
  2
APPID
 70
     1
  0
APPID
  2
ACAD
 70
     0
  0
ENDTAB
  0
TABLE
  2
DIMSTYLE
 70
     1
  0
DIMSTYLE
  2
STANDARD
 70
     0
  3

  4

  5

  6

  7

 40
1.0
 41
0.18
 42
0.0625
 43
0.38
 44
0.18
 45
0.0
 46
0.0
 47
0.0
 48
0.0
140
0.18
141
0.09
142
0.0
143
25.399999999999999
144
1.0
145
0.0
146
1.0
147
0.09
 71
     0
 72
     0
 73
     1
 74
     1
 75
     0
 76
     0
 77
     0
 78
     0
170
     0
171
     2
172
     0
173
     0
174
     0
175
     0
176
     0
177
     0
178
     0
  0
ENDTAB
  0
ENDSEC
  0
SECTION
  2
BLOCKS
  0
BLOCK
  8
0
  2
$MODEL_SPACE
 70
     0
 10
0.0
 20
0.0
 30
0.0
  3
$MODEL_SPACE
  1

  0
ENDBLK
  5
73F
  8
0
  0
BLOCK
 67
     1
  8
0
  2
$PAPER_SPACE
 70
     0
 10
0.0
 20
0.0
 30
0.0
  3
$PAPER_SPACE
  1

  0
ENDBLK
  5
73B
 67
     1
  8
0
  0
BLOCK
  8
0
  2
A$C5F2C697A
 70
     0
 10
0.0
 20
0.0
 30
0.0
  3
A$C5F2C697A
  1

  0
TEXT
  5
762
  8
SIZE
  6
BYBLOCK
 10
910.8147643978815
 20
127.36127978650261
 30
0.0
 40
64.0
  1
370
 41
0.9
  0
LINE
  5
763
  8
SIZE
  6
BYBLOCK
 10
801.8719073978815
 20
95.361279786502593
 30
0.0
 11
1167.87190739788
 21
95.361279786502593
 31
0.0
  0
TEXT
  5
764
  8
SIZE
  6
BYBLOCK
 10
915.81476439788139
 20
1424.5027517865019
 30
0.0
 40
64.0
  1
330
 41
0.9
  0
LINE
  5
765
  8
SIZE
  6
BYBLOCK
 10
826.8719073978815
 20
1392.5027517865019
 30
0.0
 11
1152.87190739788
 21
1392.5027517865019
 31
0.0
  0
LINE
  5
766
  8
OUTLINE
  6
CONTINUOUS
 10
771.8719063978815
 20
290.07775178650252
 30
0.0
 11
1183.871906397881
 21
290.07775178650252
 31
0.0
  0
LINE
  5
767
  8
OUTLINE
  6
CONTINUOUS
 10
771.8719063978815
 20
323.07775178650252
 30
0.0
 11
1183.871906397881
 21
323.07775178650252
 31
0.0
  0
LINE
  5
768
  8
OUTLINE
  6
CONTINUOUS
 10
824.87190639788139
 20
1145.0777517865019
 30
0.0
 11
1154.8719063978799
 21
1145.0777517865019
 31
0.0
  0
CIRCLE
  5
769
  8
ARRANGE
  6
CONTINUOUS
 10
989.87190639788139
 20
290.07775178650252
 30
0.0
 40
40.0
  0
LINE
  5
76A
  8
DETAIL
  6
CONTINOUS
 10
771.8719063978815
 20
290.07775178650252
 30
0.0
 11
1183.871906397881
 21
290.07775178650252
 31
0.0
  0
LINE
  5
76B
  8
DETAIL
  6
CONTINOUS
 10
824.87190639788139
 20
1145.0777517865019
 30
0.0
 11
1154.8719063978799
 21
1145.0777517865019
 31
0.0
  0
TEXT
  5
76C
  8
NOTE
  6
CONTINUOUS
 10
973.9808703978814
 20
913.84623078650259
 30
0.0
 40
64.0
  1
EL,CL
 41
0.9
  0
LINE
  5
76D
  8
NOTE
  6
CONTINUOUS
 10
879.8719063978815
 20
686.07775178650252
 30
0.0
 11
1040.77148939788
 21
625.20405378650253
 31
0.0
  0
LINE
  5
76E
  8
NOTE
  6
CONTINUOUS
 10
1205.83098439788
 20
895.38895978650271
 30
0.0
 11
918.87085639788165
 21
895.38895978650271
 31
0.0
  0
POINT
  5
76F
  8
ARRANGE
  6
CONTINUOUS
 10
989.87190639788139
 20
290.07775178650252
 30
0.0
  0
LINE
  5
770
  8
DETAIL
  6
CONTINOUS
 10
771.8719063978815
 20
323.07775178650252
 30
0.0
 11
1183.871906397881
 21
323.07775178650252
 31
0.0
  0
LINE
  5
771
  8
NOTE
  6
CONTINUOUS
 10
882.87190639788139
 20
724.07775178650252
 30
0.0
 11
1040.77148939788
 21
812.30385178650226
 31
0.0
  0
CIRCLE
  5
772
  8
SIZE
  6
CONTINUOUS
 10
220.7875803978813
 20
290.07775178650252
 30
0.0
 40
6.0
  0
CIRCLE
  5
773
  8
SIZE
  6
CONTINUOUS
 10
503.55668139788139
 20
290.07775178650252
 30
0.0
 40
6.0
  0
CIRCLE
  5
774
  8
SIZE
  6
CONTINUOUS
 10
649.74425839788148
 20
290.07775178650252
 30
0.0
 40
6.0
  0
CIRCLE
  5
775
  8
SIZE
  6
CONTINUOUS
 10
350.83505539788138
 20
290.07775178650252
 30
0.0
 40
6.0
  0
LINE
  5
776
  8
OUTLINE
  6
CONTINUOUS
 10
771.8719063978815
 20
290.07775178650252
 30
0.0
 11
771.8719063978815
 21
323.07775178650252
 31
0.0
  0
CIRCLE
  5
777
  8
FIX
  6
CONTINUOUS
 10
799.8719063978815
 20
290.07775178650252
 30
0.0
 40
40.0
  0
LINE
  5
778
  8
DETAIL
  6
CONTINOUS
 10
771.8719063978815
 20
290.07775178650252
 30
0.0
 11
771.8719063978815
 21
323.07775178650252
 31
0.0
  0
LINE
  5
779
  8
BASIS
  6
DASHDOT
 10
989.87190639788139
 20
239.4419287865025
 30
0.0
 11
989.87190639788139
 21
1184.2961157865011
 31
0.0
  0
LINE
  5
77A
  8
NOTE
  6
CONTINOUS
 10
799.8719063978815
 20
270.0777517865024
 30
0.0
 11
799.8719063978815
 21
310.07775178650252
 31
0.0
  0
LINE
  5
77B
  8
NOTE
  6
CONTINUOUS
 10
0.0000023978816444
 20
-0.000002213497396
 30
0.0
 11
579.80680439788148
 21
-0.000002213497396
 31
0.0
  0
TEXT
  5
77C
  8
NOTE
  6
CONTINUOUS
 10
14.78030739788152
 20
15.10229878650267
 30
0.0
 40
64.0
  1
AH 2-12×36
 41
0.9
  0
LINE
  5
77D
  8
SIZE
  6
BYBLOCK
 10
715.70171039788136
 20
290.07775178650252
 30
0.0
 11
320.83505539788149
 21
290.07775178650252
 31
0.0
  0
LINE
  5
77E
  8
SIZE
  6
BYBLOCK
 10
735.70171039788136
 20
290.07775178650252
 30
0.0
 11
473.55668139788122
 21
290.07775178650252
 31
0.0
  0
LINE
  5
77F
  8
SIZE
  6
BYBLOCK
 10
735.70171039788136
 20
290.07775178650252
 30
0.0
 11
190.7875803978813
 21
290.07775178650252
 31
0.0
  0
LINE
  5
780
  8
NOTE
  6
CONTINUOUS
 10
579.80680439788148
 20
-0.000002213497396
 30
0.0
 11
799.8719063978815
 21
290.07775178650252
 31
0.0
  0
TEXT
  5
781
  8
SIZE
  6
BYBLOCK
 10
739.24333539788142
 20
127.36127978650261
 30
0.0
 40
64.0
  1
28
 41
0.9
  0
LINE
  5
782
  8
SIZE
  6
BYBLOCK
 10
735.70171039788136
 20
290.07775178650252
 30
0.0
 11
619.74425839788148
 21
290.07775178650252
 31
0.0
  0
LINE
  5
783
  8
SIZE
  6
BYBLOCK
 10
799.8719073978815
 20
250.0777517865026
 30
0.0
 11
799.8719073978815
 21
65.361279786502621
 31
0.0
  0
LINE
  5
784
  8
SIZE
  6
BYBLOCK
 10
799.8719073978815
 20
250.0777517865026
 30
0.0
 11
799.8719073978815
 21
65.361279786502621
 31
0.0
  0
LINE
  5
785
  8
SIZE
  6
BYBLOCK
 10
771.8719073978815
 20
270.0777517865024
 30
0.0
 11
771.8719073978815
 21
65.361279786502621
 31
0.0
  0
CIRCLE
  5
786
  8
SIZE
  6
CONTINUOUS
 10
799.8719073978815
 20
95.361279786502593
 30
0.0
 40
6.0
  0
CIRCLE
  5
787
  8
SIZE
  6
CONTINUOUS
 10
771.8719073978815
 20
95.361279786502593
 30
0.0
 40
6.0
  0
CIRCLE
  5
788
  8
SIZE
  6
CONTINUOUS
 10
799.8719073978815
 20
95.361279786502593
 30
0.0
 40
6.0
  0
LINE
  5
789
  8
SIZE
  6
BYBLOCK
 10
799.8719073978815
 20
95.361279786502593
 30
0.0
 11
771.8719073978815
 21
95.361279786502593
 31
0.0
  0
LINE
  5
78A
  8
SIZE
  6
BYBLOCK
 10
769.8719073978815
 20
95.361279786502593
 30
0.0
 11
767.8719073978815
 21
95.361279786502593
 31
0.0
  0
LINE
  5
78B
  8
SIZE
  6
BYBLOCK
 10
801.8719073978815
 20
95.361279786502593
 30
0.0
 11
803.87190739788139
 21
95.361279786502593
 31
0.0
  0
LINE
  5
78C
  8
NOTE
  6
CONTINOUS
 10
779.8719063978815
 20
290.07775178650252
 30
0.0
 11
819.8719063978815
 21
290.07775178650252
 31
0.0
  0
LINE
  5
78D
  8
NOTE
  6
CONTINUOUS
 10
799.8719063978815
 20
290.07775178650252
 30
0.0
 11
784.76766639788127
 21
253.0390967865026
 31
0.0
  0
LINE
  5
78E
  8
NOTE
  6
CONTINUOUS
 10
799.8719063978815
 20
290.07775178650252
 30
0.0
 11
768.27192339788144
 21
265.55345678650241
 31
0.0
  0
LINE
  5
78F
  8
SIZE
  6
BYBLOCK
 10
771.8719073978815
 20
343.07775178650252
 30
0.0
 11
771.8719073978815
 21
1422.5027517865019
 31
0.0
  0
LINE
  5
790
  8
OUTLINE
  6
CONTINUOUS
 10
824.87190639788139
 20
323.07775178650252
 30
0.0
 11
824.87190639788139
 21
1145.0777517865019
 31
0.0
  0
LINE
  5
791
  8
DETAIL
  6
CONTINOUS
 10
824.87190639788139
 20
323.07775178650252
 30
0.0
 11
824.87190639788139
 21
1145.0777517865019
 31
0.0
  0
LINE
  5
792
  8
DETAIL
  6
CONTINOUS
 10
804.8719063978815
 20
462.0777517865024
 30
0.0
 11
804.8719063978815
 21
1002.0777517865019
 31
0.0
  0
LINE
  5
793
  8
SIZE
  6
BYBLOCK
 10
714.44271139788157
 20
732.07775178650252
 30
0.0
 11
320.83505539788149
 21
732.07775178650252
 31
0.0
  0
LINE
  5
794
  8
SIZE
  6
BYBLOCK
 10
856.8719073978815
 20
724.07775178650252
 30
0.0
 11
473.55668139788122
 21
724.07775178650252
 31
0.0
  0
LINE
  5
795
  8
SIZE
  6
BYBLOCK
 10
777.27455739788161
 20
810.08015378650225
 30
0.0
 11
190.42745539788129
 21
810.08015378650225
 31
0.0
  0
LINE
  5
796
  8
SIZE
  6
BYBLOCK
 10
350.83505539788138
 20
292.07775178650252
 30
0.0
 11
350.83505539788138
 21
730.07775178650252
 31
0.0
  0
LINE
  5
797
  8
SIZE
  6
BYBLOCK
 10
503.55668139788139
 20
292.07775178650252
 30
0.0
 11
503.55668139788139
 21
724.07775178650252
 31
0.0
  0
TEXT
  5
798
  8
SIZE
  6
BYBLOCK
 10
188.7875803978813
 20
529.52060878650241
 30
0.0
 40
64.0
  1
520
 50
90.0
 41
0.9
  0
LINE
  5
799
  8
SIZE
  6
BYBLOCK
 10
220.7875803978813
 20
810.08015378650225
 30
0.0
 11
220.7875803978813
 21
603.57775178650252
 31
0.0
  0
TEXT
  5
79A
  8
SIZE
  6
BYBLOCK
 10
318.83505539788149
 20
437.02060878650252
 30
0.0
 40
64.0
  1
442
 50
90.0
 41
0.9
  0
LINE
  5
79B
  8
SIZE
  6
BYBLOCK
 10
220.7875803978813
 20
292.07775178650252
 30
0.0
 11
220.7875803978813
 21
603.57775178650252
 31
0.0
  0
TEXT
  5
79C
  8
SIZE
  6
BYBLOCK
 10
471.55668139788139
 20
427.13489478650251
 30
0.0
 40
64.0
  1
434
 50
90.0
 41
0.9
  0
CIRCLE
  5
79D
  8
SIZE
  6
CONTINUOUS
 10
220.4274553978814
 20
810.08015378650225
 30
0.0
 40
6.0
  0
CIRCLE
  5
79E
  8
SIZE
  6
CONTINUOUS
 10
350.83505539788138
 20
732.07775178650252
 30
0.0
 40
6.0
  0
CIRCLE
  5
79F
  8
SIZE
  6
CONTINUOUS
 10
503.55668139788139
 20
724.07775178650252
 30
0.0
 40
6.0
  0
LINE
  5
7A0
  8
SIZE
  6
BYBLOCK
 10
649.74425839788148
 20
292.07775178650252
 30
0.0
 11
649.74425839788148
 21
684.07775178650252
 31
0.0
  0
TEXT
  5
7A1
  8
SIZE
  6
BYBLOCK
 10
617.74425839788125
 20
415.3920377865025
 30
0.0
 40
64.0
  1
396
 50
90.0
 41
0.9
  0
LINE
  5
7A2
  8
DETAIL
  6
CONTINOUS
 10
824.87190639788139
 20
462.0777517865024
 30
0.0
 11
804.8719063978815
 21
462.0777517865024
 31
0.0
  0
LINE
  5
7A3
  8
SIZE
  6
BYBLOCK
 10
836.26393739788148
 20
686.07775178650252
 30
0.0
 11
619.74425839788148
 21
686.07775178650252
 31
0.0
  0
LINE
  5
7A4
  8
BASIS
  6
DASHDOT
 10
734.44271139788145
 20
732.07775178650252
 30
0.0
 11
884.14564339788137
 21
732.07775178650252
 31
0.0
  0
CIRCLE
  5
7A5
  8
SIZE
  6
CONTINUOUS
 10
649.74425839788148
 20
686.07775178650252
 30
0.0
 40
6.0
  0
LINE
  5
7A6
  8
NOTE
  6
CONTINOUS
 10
862.8719063978815
 20
724.07775178650252
 30
0.0
 11
902.8719063978815
 21
724.07775178650252
 31
0.0
  0
LINE
  5
7A7
  8
NOTE
  6
CONTINOUS
 10
859.87190639788162
 20
686.07775178650252
 30
0.0
 11
899.87190639788139
 21
686.07775178650252
 31
0.0
  0
LINE
  5
7A8
  8
NOTE
  6
CONTINOUS
 10
879.8719063978815
 20
666.07775178650252
 30
0.0
 11
879.8719063978815
 21
706.07775178650252
 31
0.0
  0
POLYLINE
  5
7A9
  8
NOTE
  6
CONTINUOUS
 66
     1
 10
0.0
 20
0.0
 30
0.0
  0
VERTEX
  5
11B6
  8
NOTE
  6
CONTINUOUS
 10
919.40695039788125
 20
679.99661178650251
 30
0.0
  0
VERTEX
  5
11B7
  8
NOTE
  6
CONTINUOUS
 10
879.8719063978815
 20
686.07775178650252
 30
0.0
  0
VERTEX
  5
11B8
  8
NOTE
  6
CONTINUOUS
 10
911.06968939788146
 20
661.04380778650238
 30
0.0
  0
SEQEND
  5
11B9
  8
NOTE
  6
CONTINUOUS
  0
POLYLINE
  5
7AE
  8
NOTE
  6
CONTINUOUS
 66
     1
 10
0.0
 20
0.0
 30
0.0
  0
VERTEX
  5
11BA
  8
NOTE
  6
CONTINUOUS
 10
911.55116939788149
 20
751.96143678650253
 30
0.0
  0
VERTEX
  5
11BB
  8
NOTE
  6
CONTINUOUS
 10
882.87190639788139
 20
724.07775178650252
 30
0.0
  0
VERTEX
  5
11BC
  8
NOTE
  6
CONTINUOUS
 10
921.65071939788174
 20
733.88609978650254
 30
0.0
  0
SEQEND
  5
11BD
  8
NOTE
  6
CONTINUOUS
  0
LINE
  5
7B3
  8
NOTE
  6
CONTINOUS
 10
882.87190639788139
 20
704.0777517865024
 30
0.0
 11
882.87190639788139
 21
744.07775178650252
 31
0.0
  0
LINE
  5
7B4
  8
NOTE
  6
CONTINUOUS
 10
824.51178139788146
 20
810.08015378650225
 30
0.0
 11
918.87085639788165
 21
895.38895978650271
 31
0.0
  0
LINE
  5
7B5
  8
NOTE
  6
CONTINOUS
 10
804.51178139788135
 20
810.08015378650225
 30
0.0
 11
844.51178139788135
 21
810.08015378650225
 31
0.0
  0
POLYLINE
  5
7B6
  8
NOTE
  6
CONTINUOUS
 66
     1
 10
0.0
 20
0.0
 30
0.0
  0
VERTEX
  5
11BE
  8
NOTE
  6
CONTINUOUS
 10
846.64476439788132
 20
843.39878378650269
 30
0.0
  0
VERTEX
  5
11BF
  8
NOTE
  6
CONTINUOUS
 10
824.51178139788146
 20
810.08015378650225
 30
0.0
  0
VERTEX
  5
11C0
  8
NOTE
  6
CONTINUOUS
 10
860.33882139788147
 20
827.86844278650256
 30
0.0
  0
SEQEND
  5
11C1
  8
NOTE
  6
CONTINUOUS
  0
LINE
  5
7BB
  8
NOTE
  6
CONTINOUS
 10
824.51178139788146
 20
790.08015378650225
 30
0.0
 11
824.51178139788146
 21
830.08015378650225
 31
0.0
  0
LINE
  5
7BC
  8
NOTE
  6
CONTINUOUS
 10
872.35755039788137
 20
933.93013678650243
 30
0.0
 11
872.35755039788137
 21
933.93013678650243
 31
0.0
  0
LINE
  5
7BD
  8
SIZE
  6
BYBLOCK
 10
824.8719073978815
 20
1185.0777517865019
 30
0.0
 11
824.8719073978815
 21
1422.5027517865019
 31
0.0
  0
LINE
  5
7BE
  8
SIZE
  6
BYBLOCK
 10
824.8719073978815
 20
1165.0777517865019
 30
0.0
 11
824.8719073978815
 21
1422.5027517865019
 31
0.0
  0
LINE
  5
7BF
  8
SIZE
  6
BYBLOCK
 10
824.8719073978815
 20
1165.0777517865019
 30
0.0
 11
824.8719073978815
 21
1293.248751786502
 31
0.0
  0
LINE
  5
7C0
  8
SIZE
  6
BYBLOCK
 10
804.87190739788139
 20
1022.0777517865019
 30
0.0
 11
804.87190739788139
 21
1293.248751786502
 31
0.0
  0
LINE
  5
7C1
  8
DETAIL
  6
CONTINOUS
 10
824.87190639788139
 20
1002.0777517865019
 30
0.0
 11
804.8719063978815
 21
1002.0777517865019
 31
0.0
  0
LINE
  5
7C2
  8
SIZE
  6
CONTINUOUS
 10
814.87190639788139
 20
1263.2491457865019
 30
0.0
 11
945.94025839788139
 21
1263.2491457865019
 31
0.0
  0
LINE
  5
7C3
  8
SIZE
  6
BYBLOCK
 10
822.8719073978815
 20
1263.2491457865019
 30
0.0
 11
814.8719073978815
 21
1263.2491457865019
 31
0.0
  0
CIRCLE
  5
7C4
  8
SIZE
  6
CONTINUOUS
 10
804.87190739788139
 20
1263.2491457865019
 30
0.0
 40
6.0
  0
LINE
  5
7C5
  8
SIZE
  6
BYBLOCK
 10
806.8719073978815
 20
1263.2491457865019
 30
0.0
 11
814.8719073978815
 21
1263.2491457865019
 31
0.0
  0
CIRCLE
  5
7C6
  8
SIZE
  6
CONTINUOUS
 10
824.8719073978815
 20
1263.2491457865019
 30
0.0
 40
6.0
  0
TEXT
  5
7C7
  8
SIZE
  6
BYBLOCK
 10
751.74333539788142
 20
1424.5027517865019
 30
0.0
 40
64.0
  1
53
 41
0.9
  0
TEXT
  5
7C8
  8
SIZE
  6
BYBLOCK
 10
843.21570539788104
 20
1295.248751786502
 30
0.0
 40
64.0
  1
20
 41
0.9
  0
LINE
  5
7C9
  8
SIZE
  6
BYBLOCK
 10
824.8719073978815
 20
1392.5027517865019
 30
0.0
 11
771.8719073978815
 21
1392.5027517865019
 31
0.0
  0
CIRCLE
  5
7CA
  8
SIZE
  6
CONTINUOUS
 10
771.8719073978815
 20
1392.5027517865019
 30
0.0
 40
6.0
  0
LINE
  5
7CB
  8
SIZE
  6
BYBLOCK
 10
769.8719073978815
 20
1392.5027517865019
 30
0.0
 11
767.8719073978815
 21
1392.5027517865019
 31
0.0
  0
CIRCLE
  5
7CC
  8
SIZE
  6
CONTINUOUS
 10
824.8719073978815
 20
1392.5027517865019
 30
0.0
 40
6.0
  0
CIRCLE
  5
7CD
  8
SIZE
  6
CONTINUOUS
 10
824.8719073978815
 20
1392.5027517865019
 30
0.0
 40
6.0
  0
LINE
  5
7CE
  8
SIZE
  6
BYBLOCK
 10
826.8719073978815
 20
1392.5027517865019
 30
0.0
 11
828.87190739788139
 21
1392.5027517865019
 31
0.0
  0
CIRCLE
  5
7CF
  8
SIZE
  6
CONTINUOUS
 10
1420.44446039788
 20
290.07775178650252
 30
0.0
 40
6.0
  0
CIRCLE
  5
7D0
  8
FIX
  6
CONTINUOUS
 10
1169.871906397881
 20
290.07775178650252
 30
0.0
 40
40.0
  0
LINE
  5
7D1
  8
OUTLINE
  6
CONTINUOUS
 10
1183.871906397881
 20
323.07775178650252
 30
0.0
 11
1183.871906397881
 21
290.07775178650252
 31
0.0
  0
TEXT
  5
7D2
  8
ETC
  6
CONTINUOUS
 10
1573.1112623978811
 20
288.6366377865026
 30
0.0
 40
64.0
  1
室外機
 41
0.9
  0
LINE
  5
7D3
  8
DETAIL
  6
CONTINOUS
 10
1183.871906397881
 20
290.07775178650252
 30
0.0
 11
1183.871906397881
 21
323.07775178650252
 31
0.0
  0
LINE
  5
7D4
  8
NOTE
  6
CONTINOUS
 10
1169.871906397881
 20
270.0777517865024
 30
0.0
 11
1169.871906397881
 21
310.07775178650252
 31
0.0
  0
LINE
  5
7D5
  8
NOTE
  6
CONTINUOUS
 10
1969.74381039788
 20
-0.000002213497396
 30
0.0
 11
1389.9370083978811
 21
-0.000002213497396
 31
0.0
  0
TEXT
  5
7D6
  8
NOTE
  6
CONTINUOUS
 10
1415.1692193978811
 20
15.10229878650267
 30
0.0
 40
64.0
  1
AH 2-U cut
 41
0.9
  0
LINE
  5
7D7
  8
NOTE
  6
CONTINUOUS
 10
1389.9370083978811
 20
-0.000002213497396
 30
0.0
 11
1169.871906397881
 21
290.07775178650252
 31
0.0
  0
LINE
  5
7D8
  8
SIZE
  6
BYBLOCK
 10
1214.7137463978811
 20
290.07775178650252
 30
0.0
 11
1450.44446039788
 21
290.07775178650252
 31
0.0
  0
LINE
  5
7D9
  8
SIZE
  6
BYBLOCK
 10
1183.87190739788
 20
270.0777517865024
 30
0.0
 11
1183.87190739788
 21
65.361279786502621
 31
0.0
  0
LINE
  5
7DA
  8
SIZE
  6
BYBLOCK
 10
1169.87190739788
 20
250.0777517865026
 30
0.0
 11
1169.87190739788
 21
65.361279786502621
 31
0.0
  0
LINE
  5
7DB
  8
SIZE
  6
BYBLOCK
 10
1169.87190739788
 20
250.0777517865026
 30
0.0
 11
1169.87190739788
 21
65.361279786502621
 31
0.0
  0
CIRCLE
  5
7DC
  8
SIZE
  6
CONTINUOUS
 10
1169.87190739788
 20
95.361279786502593
 30
0.0
 40
6.0
  0
CIRCLE
  5
7DD
  8
SIZE
  6
CONTINUOUS
 10
1169.87190739788
 20
95.361279786502593
 30
0.0
 40
6.0
  0
CIRCLE
  5
7DE
  8
SIZE
  6
CONTINUOUS
 10
1183.87190739788
 20
95.361279786502593
 30
0.0
 40
6.0
  0
LINE
  5
7DF
  8
SIZE
  6
BYBLOCK
 10
1183.87190739788
 20
95.361279786502593
 30
0.0
 11
1169.87190739788
 21
95.361279786502593
 31
0.0
  0
LINE
  5
7E0
  8
SIZE
  6
BYBLOCK
 10
1167.87190739788
 20
95.361279786502593
 30
0.0
 11
1165.87190739788
 21
95.361279786502593
 31
0.0
  0
LINE
  5
7E1
  8
SIZE
  6
BYBLOCK
 10
1185.87190739788
 20
95.361279786502593
 30
0.0
 11
1187.87190739788
 21
95.361279786502593
 31
0.0
  0
TEXT
  5
7E2
  8
SIZE
  6
BYBLOCK
 10
1134.3576213978811
 20
127.36127978650261
 30
0.0
 40
64.0
  1
14
 41
0.9
  0
LINE
  5
7E3
  8
NOTE
  6
CONTINOUS
 10
1149.871906397881
 20
290.07775178650252
 30
0.0
 11
1189.871906397881
 21
290.07775178650252
 31
0.0
  0
LINE
  5
7E4
  8
NOTE
  6
CONTINUOUS
 10
1169.871906397881
 20
290.07775178650252
 30
0.0
 11
1184.97614639788
 21
253.0390967865026
 31
0.0
  0
LINE
  5
7E5
  8
NOTE
  6
CONTINUOUS
 10
1169.871906397881
 20
290.07775178650252
 30
0.0
 11
1201.47188939788
 21
265.55345678650241
 31
0.0
  0
TEXT
  5
7E6
  8
ETC
  6
CONTINUOUS
 10
1561.288518397879
 20
407.8032387865025
 30
0.0
 40
64.0
  1
SPUZ0824
 41
0.9
  0
LINE
  5
7E7
  8
SIZE
  6
BYBLOCK
 10
1420.44446039788
 20
1143.0777517865019
 30
0.0
 11
1420.44446039788
 21
717.57775178650252
 31
0.0
  0
LINE
  5
7E8
  8
OUTLINE
  6
CONTINUOUS
 10
1154.8719063978799
 20
1145.0777517865019
 30
0.0
 11
1154.8719063978799
 21
323.07775178650252
 31
0.0
  0
LINE
  5
7E9
  8
DETAIL
  6
CONTINOUS
 10
1154.8719063978799
 20
323.07775178650252
 30
0.0
 11
1154.8719063978799
 21
1145.0777517865019
 31
0.0
  0
LINE
  5
7EA
  8
SIZE
  6
BYBLOCK
 10
1420.44446039788
 20
292.07775178650252
 30
0.0
 11
1420.44446039788
 21
717.57775178650252
 31
0.0
  0
LINE
  5
7EB
  8
NOTE
  6
CONTINUOUS
 10
1124.871906397881
 20
323.07775178650252
 30
0.0
 11
1231.96219639788
 21
428.57361078650251
 31
0.0
  0
LINE
  5
7EC
  8
NOTE
  6
CONTINOUS
 10
1104.871906397881
 20
323.07775178650252
 30
0.0
 11
1144.871906397881
 21
323.07775178650252
 31
0.0
  0
POLYLINE
  5
7ED
  8
NOTE
  6
CONTINUOUS
 66
     1
 10
0.0
 20
0.0
 30
0.0
  0
VERTEX
  5
11C2
  8
NOTE
  6
CONTINUOUS
 10
1145.1311663978811
 20
357.56778478650261
 30
0.0
  0
VERTEX
  5
11C3
  8
NOTE
  6
CONTINUOUS
 10
1124.871906397881
 20
323.07775178650252
 30
0.0
  0
VERTEX
  5
11C4
  8
NOTE
  6
CONTINUOUS
 10
1159.661957397881
 20
342.81736678650259
 30
0.0
  0
SEQEND
  5
11C5
  8
NOTE
  6
CONTINUOUS
  0
LINE
  5
7F2
  8
NOTE
  6
CONTINOUS
 10
1124.871906397881
 20
303.07775178650257
 30
0.0
 11
1124.871906397881
 21
343.07775178650252
 31
0.0
  0
TEXT
  5
7F3
  8
NOTE
  6
CONTINUOUS
 10
1251.9401213978811
 20
438.44475178650248
 30
0.0
 40
64.0
  1
D
 41
0.9
  0
LINE
  5
7F4
  8
NOTE
  6
CONTINUOUS
 10
1231.96219639788
 20
428.57361078650251
 30
0.0
 11
1302.198482397881
 21
428.57361078650251
 31
0.0
  0
TEXT
  5
7F5
  8
NOTE
  6
CONTINUOUS
 10
1060.7086543978789
 20
635.63939678650252
 30
0.0
 40
64.0
  1
RG
 41
0.9
  0
LINE
  5
7F6
  8
NOTE
  6
CONTINUOUS
 10
1040.77148939788
 20
625.20405378650253
 30
0.0
 11
1180.455218397881
 21
625.20405378650253
 31
0.0
  0
TEXT
  5
7F7
  8
NOTE
  6
CONTINUOUS
 10
1060.92620539788
 20
822.17499278650257
 30
0.0
 40
64.0
  1
RL
 41
0.9
  0
LINE
  5
7F8
  8
NOTE
  6
CONTINUOUS
 10
1040.77148939788
 20
812.30385178650226
 30
0.0
 11
1170.35759939788
 21
812.30385178650226
 31
0.0
  0
TEXT
  5
7F9
  8
SIZE
  6
BYBLOCK
 10
1388.44446039788
 20
643.52060878650252
 30
0.0
 40
64.0
  1
855
 50
90.0
 41
0.9
  0
LINE
  5
7FA
  8
SIZE
  6
BYBLOCK
 10
1154.87190739788
 20
1165.0777517865019
 30
0.0
 11
1154.87190739788
 21
1422.5027517865019
 31
0.0
  0
LINE
  5
7FB
  8
SIZE
  6
BYBLOCK
 10
1203.87190739788
 20
1145.0777517865019
 30
0.0
 11
1450.44446039788
 21
1145.0777517865019
 31
0.0
  0
CIRCLE
  5
7FC
  8
SIZE
  6
CONTINUOUS
 10
1420.44446039788
 20
1145.0777517865019
 30
0.0
 40
6.0
  0
CIRCLE
  5
7FD
  8
SIZE
  6
CONTINUOUS
 10
1154.87190739788
 20
1392.5027517865019
 30
0.0
 40
6.0
  0
ENDBLK
  5
7FE
  8
0
  0
BLOCK
  8
0
  2
_ORIGIN
 70
     0
 10
0.0
 20
0.0
 30
0.0
  3
_ORIGIN
  1

  0
CIRCLE
  5
801
  8
0
  6
BYBLOCK
 62
     0
 10
0.0
 20
0.0
 30
0.0
 40
0.5
  0
LINE
  5
802
  8
0
  6
BYBLOCK
 62
     0
 10
0.0
 20
0.0
 30
0.0
 11
-1.0
 21
0.0
 31
0.0
  0
ENDBLK
  5
803
  8
0
  0
BLOCK
  8
0
  2
_ORIGIN2
 70
     0
 10
0.0
 20
0.0
 30
0.0
  3
_ORIGIN2
  1

  0
CIRCLE
  5
806
  8
0
  6
BYBLOCK
 62
     0
 10
0.0
 20
0.0
 30
0.0
 40
0.5
  0
CIRCLE
  5
807
  8
0
  6
BYBLOCK
 62
     0
 10
0.0
 20
0.0
 30
0.0
 40
0.25
  0
LINE
  5
808
  8
0
  6
BYBLOCK
 62
     0
 10
-0.5
 20
0.0
 30
0.0
 11
-1.0
 21
0.0
 31
0.0
  0
ENDBLK
  5
809
  8
0
  0
BLOCK
  8
0
  2
_DOTBLANK
 70
     0
 10
0.0
 20
0.0
 30
0.0
  3
_DOTBLANK
  1

  0
CIRCLE
  5
80C
  8
0
  6
BYBLOCK
 62
     0
 10
0.0
 20
0.0
 30
0.0
 40
0.5
  0
LINE
  5
80D
  8
0
  6
BYBLOCK
 62
     0
 10
-0.5
 20
0.0
 30
0.0
 11
-1.0
 21
0.0
 31
0.0
  0
ENDBLK
  5
80E
  8
0
  0
BLOCK
  8
0
  2
*D6
 70
     1
 10
0.0
 20
0.0
 30
0.0
  3
*D6
  1

  0
LINE
  5
106D
  8
SIZE
  6
CONTINUOUS
 62
     0
 10
475.0
 20
-185.0
 30
0.0
 11
475.0
 21
-377.93030152009482
 31
0.0
  0
LINE
  5
106E
  8
SIZE
  6
CONTINUOUS
 62
     0
 10
438.0
 20
-149.0
 30
0.0
 11
438.0
 21
-377.93030152009482
 31
0.0
  0
LINE
  5
106F
  8
SIZE
  6
CONTINUOUS
 62
     0
 10
448.0
 20
-347.93030152009482
 30
0.0
 11
465.0
 21
-347.93030152009482
 31
0.0
  0
LINE
  5
1070
  8
SIZE
  6
CONTINUOUS
 62
     0
 10
475.0
 20
-347.93030152009482
 30
0.0
 11
587.90091981236753
 21
-347.93030152009482
 31
0.0
  0
INSERT
  5
1071
  8
SIZE
  6
CONTINUOUS
 62
     0
  2
_DOTBLANK
 10
438.0
 20
-347.93030152009482
 30
0.0
 41
10.0
 42
10.0
 43
10.0
 50
180.0
  0
INSERT
  5
1072
  8
SIZE
  6
CONTINUOUS
 62
     0
  2
_DOTBLANK
 10
475.0
 20
-347.93030152009482
 30
0.0
 41
10.0
 42
10.0
 43
10.0
  0
TEXT
  5
1073
  8
SIZE
  6
CONTINUOUS
 62
     0
 10
494.55377695522458
 20
-347.84030152009478
 30
0.0
 40
64.0
  1
37
 41
0.9
  0
POINT
  5
1074
  8
DEFPOINTS
  6
CONTINUOUS
 62
     0
 10
475.0
 20
-165.0
 30
0.0
  0
POINT
  5
1075
  8
DEFPOINTS
  6
CONTINUOUS
 62
     0
 10
438.0
 20
-129.0
 30
0.0
  0
POINT
  5
1076
  8
DEFPOINTS
  6
CONTINUOUS
 62
     0
 10
438.0
 20
-347.93030152009482
 30
0.0
  0
ENDBLK
  5
DAA
  8
0
  0
BLOCK
  8
0
  2
*D7
 70
     1
 10
0.0
 20
0.0
 30
0.0
  3
*D7
  1

  0
LINE
  5
1077
  8
SIZE
  6
CONTINUOUS
 62
     0
 10
438.0
 20
-149.0
 30
0.0
 11
438.0
 21
-377.93030152009482
 31
0.0
  0
LINE
  5
1078
  8
SIZE
  6
CONTINUOUS
 62
     0
 10
377.0
 20
-165.0
 30
0.0
 11
377.0
 21
-377.93030152009482
 31
0.0
  0
LINE
  5
1079
  8
SIZE
  6
CONTINUOUS
 62
     0
 10
428.0
 20
-347.93030152009482
 30
0.0
 11
387.0
 21
-347.93030152009482
 31
0.0
  0
LINE
  5
107A
  8
SIZE
  6
CONTINUOUS
 62
     0
 10
377.0
 20
-347.93030152009482
 30
0.0
 11
298.24857142857138
 21
-347.93030152009482
 31
0.0
  0
INSERT
  5
107B
  8
SIZE
  6
CONTINUOUS
 62
     0
  2
_DOTBLANK
 10
438.0
 20
-347.93030152009482
 30
0.0
 41
10.0
 42
10.0
 43
10.0
  0
INSERT
  5
107C
  8
SIZE
  6
CONTINUOUS
 62
     0
  2
_DOTBLANK
 10
377.0
 20
-347.93030152009482
 30
0.0
 41
10.0
 42
10.0
 43
10.0
 50
180.0
  0
TEXT
  5
107D
  8
SIZE
  6
CONTINUOUS
 62
     0
 10
298.33857142857141
 20
-347.84030152009478
 30
0.0
 40
64.0
  1
61
 41
0.9
  0
POINT
  5
107E
  8
DEFPOINTS
  6
CONTINUOUS
 62
     0
 10
438.0
 20
-129.0
 30
0.0
  0
POINT
  5
107F
  8
DEFPOINTS
  6
CONTINUOUS
 62
     0
 10
377.0
 20
-145.0
 30
0.0
  0
POINT
  5
1080
  8
DEFPOINTS
  6
CONTINUOUS
 62
     0
 10
377.0
 20
-347.93030152009482
 30
0.0
  0
ENDBLK
  5
DB8
  8
0
  0
BLOCK
  8
0
  2
*D8
 70
     1
 10
0.0
 20
0.0
 30
0.0
  3
*D8
  1

  0
LINE
  5
F24
  8
SIZE
  6
CONTINUOUS
 62
     0
 10
495.0
 20
-165.0
 30
0.0
 11
647.43493234678488
 21
-165.0
 31
0.0
  0
LINE
  5
F25
  8
SIZE
  6
CONTINUOUS
 62
     0
 10
417.0
 20
-125.0
 30
0.0
 11
647.43493234678488
 21
-125.0
 31
0.0
  0
LINE
  5
F26
  8
SIZE
  6
CONTINUOUS
 62
     0
 10
617.43493234678499
 20
-155.0
 30
0.0
 11
617.43493234678499
 21
-135.0
 31
0.0
  0
LINE
  5
F27
  8
SIZE
  6
CONTINUOUS
 62
     0
 10
617.43493234678499
 20
-125.0
 30
0.0
 11
617.43493234678499
 21
-3.9806525640835502
 31
0.0
  0
INSERT
  5
F28
  8
SIZE
  6
CONTINUOUS
 62
     0
  2
_DOTBLANK
 10
617.43493234678499
 20
-165.0
 30
0.0
 41
10.0
 42
10.0
 43
10.0
 50
270.0
  0
INSERT
  5
F29
  8
SIZE
  6
CONTINUOUS
 62
     0
  2
_DOTBLANK
 10
617.43493234678499
 20
-125.0
 30
0.0
 41
10.0
 42
10.0
 43
10.0
 50
90.0
  0
TEXT
  5
F2A
  8
SIZE
  6
CONTINUOUS
 62
     0
 10
617.34493234678484
 20
-97.327795421226313
 30
0.0
 40
64.0
  1
40
 50
90.0
 41
0.9
  0
POINT
  5
F2B
  8
DEFPOINTS
  6
CONTINUOUS
 62
     0
 10
475.0
 20
-165.0
 30
0.0
  0
POINT
  5
F2C
  8
DEFPOINTS
  6
CONTINUOUS
 62
     0
 10
397.0
 20
-125.0
 30
0.0
  0
POINT
  5
F2D
  8
DEFPOINTS
  6
CONTINUOUS
 62
     0
 10
617.43493234678499
 20
-125.0
 30
0.0
  0
ENDBLK
  5
DDA
  8
0
  0
BLOCK
  8
0
  2
*D9
 70
     1
 10
0.0
 20
0.0
 30
0.0
  3
*D9
  1

  0
LINE
  5
1081
  8
SIZE
  6
CONTINUOUS
 62
     0
 10
495.0
 20
-165.0
 30
0.0
 11
790.56591925233977
 21
-165.0
 31
0.0
  0
LINE
  5
1082
  8
SIZE
  6
CONTINUOUS
 62
     0
 10
478.0
 20
-109.0
 30
0.0
 11
790.56591925233977
 21
-109.0
 31
0.0
  0
LINE
  5
1083
  8
SIZE
  6
CONTINUOUS
 62
     0
 10
760.56591925233988
 20
-155.0
 30
0.0
 11
760.56591925233988
 21
-119.0
 31
0.0
  0
LINE
  5
1084
  8
SIZE
  6
CONTINUOUS
 62
     0
 10
760.56591925233988
 20
-109.0
 30
0.0
 11
760.56591925233988
 21
-5.3520811355121491
 31
0.0
  0
INSERT
  5
1085
  8
SIZE
  6
CONTINUOUS
 62
     0
  2
_DOTBLANK
 10
760.56591925233988
 20
-165.0
 30
0.0
 41
10.0
 42
10.0
 43
10.0
 50
270.0
  0
INSERT
  5
1086
  8
SIZE
  6
CONTINUOUS
 62
     0
  2
_DOTBLANK
 10
760.56591925233988
 20
-109.0
 30
0.0
 41
10.0
 42
10.0
 43
10.0
 50
90.0
  0
TEXT
  5
1087
  8
SIZE
  6
CONTINUOUS
 62
     0
 10
760.47591925233985
 20
-95.956366849797703
 30
0.0
 40
64.0
  1
56
 50
90.0
 41
0.9
  0
POINT
  5
1088
  8
DEFPOINTS
  6
CONTINUOUS
 62
     0
 10
475.0
 20
-165.0
 30
0.0
  0
POINT
  5
1089
  8
DEFPOINTS
  6
CONTINUOUS
 62
     0
 10
458.0
 20
-109.0
 30
0.0
  0
POINT
  5
108A
  8
DEFPOINTS
  6
CONTINUOUS
 62
     0
 10
760.56591925233988
 20
-109.0
 30
0.0
  0
ENDBLK
  5
DE8
  8
0
  0
BLOCK
  8
0
  2
*D10
 70
     1
 10
0.0
 20
0.0
 30
0.0
  3
*D10
  1

  0
LINE
  5
F8D
  8
SIZE
  6
CONTINUOUS
 62
     0
 10
-474.99999999999989
 20
185.0
 30
0.0
 11
-474.99999999999989
 21
607.67217662139205
 31
0.0
  0
LINE
  5
F8E
  8
SIZE
  6
CONTINUOUS
 62
     0
 10
475.0
 20
185.0
 30
0.0
 11
475.0
 21
607.67217662139205
 31
0.0
  0
LINE
  5
F8F
  8
SIZE
  6
CONTINUOUS
 62
     0
 10
-464.99999999999989
 20
577.67217662139205
 30
0.0
 11
465.0
 21
577.67217662139205
 31
0.0
  0
TEXT
  5
F90
  8
SIZE
  6
CONTINUOUS
 62
     0
 10
-69.64917043198777
 20
594.75245517260373
 30
0.0
 40
64.0
  1
950
 41
0.9
  0
INSERT
  5
F91
  8
SIZE
  6
CONTINUOUS
 62
     0
  2
_DOTBLANK
 10
-474.99999999999989
 20
577.67217662139205
 30
0.0
 41
10.0
 42
10.0
 43
10.0
 50
180.0
  0
INSERT
  5
F92
  8
SIZE
  6
CONTINUOUS
 62
     0
  2
_DOTBLANK
 10
475.0
 20
577.67217662139205
 30
0.0
 41
10.0
 42
10.0
 43
10.0
  0
POINT
  5
F93
  8
DEFPOINTS
  6
CONTINUOUS
 62
     0
 10
-474.99999999999989
 20
165.0
 30
0.0
  0
POINT
  5
F94
  8
DEFPOINTS
  6
CONTINUOUS
 62
     0
 10
475.0
 20
165.0
 30
0.0
  0
POINT
  5
F95
  8
DEFPOINTS
  6
CONTINUOUS
 62
     0
 10
475.0
 20
577.67217662139205
 30
0.0
  0
ENDBLK
  5
E2C
  8
0
  0
BLOCK
  8
0
  2
*D11
 70
     1
 10
0.0
 20
0.0
 30
0.0
  3
*D11
  1

  0
LINE
  5
FB4
  8
SIZE
  6
CONTINUOUS
 62
     0
 10
-300.0
 20
220.0
 30
0.0
 11
-300.0
 21
437.98130346314798
 31
0.0
  0
LINE
  5
FB5
  8
SIZE
  6
CONTINUOUS
 62
     0
 10
300.0
 20
220.0
 30
0.0
 11
300.0
 21
437.98130346314798
 31
0.0
  0
LINE
  5
FB6
  8
SIZE
  6
CONTINUOUS
 62
     0
 10
-290.0
 20
407.98130346314792
 30
0.0
 11
290.0
 21
407.98130346314792
 31
0.0
  0
TEXT
  5
FB7
  8
SIZE
  6
CONTINUOUS
 62
     0
 10
-76.693467179174064
 20
418.68955745085083
 30
0.0
 40
64.0
  1
600
 41
0.9
  0
INSERT
  5
FB8
  8
SIZE
  6
CONTINUOUS
 62
     0
  2
_DOTBLANK
 10
-300.0
 20
407.98130346314792
 30
0.0
 41
10.0
 42
10.0
 43
10.0
 50
180.0
  0
INSERT
  5
FB9
  8
SIZE
  6
CONTINUOUS
 62
     0
  2
_DOTBLANK
 10
300.0
 20
407.98130346314792
 30
0.0
 41
10.0
 42
10.0
 43
10.0
  0
POINT
  5
FBA
  8
DEFPOINTS
  6
CONTINUOUS
 62
     0
 10
-300.0
 20
200.0
 30
0.0
  0
POINT
  5
FBB
  8
DEFPOINTS
  6
CONTINUOUS
 62
     0
 10
300.0
 20
200.0
 30
0.0
  0
POINT
  5
FBC
  8
DEFPOINTS
  6
CONTINUOUS
 62
     0
 10
300.0
 20
407.98130346314792
 30
0.0
  0
ENDBLK
  5
E39
  8
0
  0
BLOCK
  8
0
  2
*D12
 70
     1
 10
0.0
 20
0.0
 30
0.0
  3
*D12
  1

  0
LINE
  5
FD9
  8
SIZE
  6
CONTINUOUS
 62
     0
 10
-494.99999999999989
 20
-165.0
 30
0.0
 11
-647.76083576584165
 21
-164.99999999999989
 31
0.0
  0
LINE
  5
FDA
  8
SIZE
  6
CONTINUOUS
 62
     0
 10
-494.99999999999989
 20
165.0
 30
0.0
 11
-647.76083576584165
 21
165.0
 31
0.0
  0
LINE
  5
FDB
  8
SIZE
  6
CONTINUOUS
 62
     0
 10
-617.76083576584165
 20
-154.99999999999989
 30
0.0
 11
-617.76083576584165
 21
155.0
 31
0.0
  0
TEXT
  5
FDC
  8
SIZE
  6
CONTINUOUS
 62
     0
 10
-636.32242428634709
 20
-60.003560381217461
 30
0.0
 40
64.0
  1
330
 50
90.0
 41
0.9
  0
INSERT
  5
FDD
  8
SIZE
  6
CONTINUOUS
 62
     0
  2
_DOTBLANK
 10
-617.76083576584165
 20
-164.99999999999989
 30
0.0
 41
10.0
 42
10.0
 43
10.0
 50
270.0
  0
INSERT
  5
FDE
  8
SIZE
  6
CONTINUOUS
 62
     0
  2
_DOTBLANK
 10
-617.76083576584165
 20
165.0
 30
0.0
 41
10.0
 42
10.0
 43
10.0
 50
90.0
  0
POINT
  5
FDF
  8
DEFPOINTS
  6
CONTINUOUS
 62
     0
 10
-474.99999999999989
 20
-165.0
 30
0.0
  0
POINT
  5
FE0
  8
DEFPOINTS
  6
CONTINUOUS
 62
     0
 10
-474.99999999999989
 20
165.0
 30
0.0
  0
POINT
  5
FE1
  8
DEFPOINTS
  6
CONTINUOUS
 62
     0
 10
-617.76083576584165
 20
165.0
 30
0.0
  0
ENDBLK
  5
E45
  8
0
  0
BLOCK
  8
0
  2
*D13
 70
     1
 10
0.0
 20
0.0
 30
0.0
  3
*D13
  1

  0
LINE
  5
FEB
  8
SIZE
  6
CONTINUOUS
 62
     0
 10
-474.99999999999989
 20
-185.0
 30
0.0
 11
-474.99999999999989
 21
-477.80597220889439
 31
0.0
  0
LINE
  5
FEC
  8
SIZE
  6
CONTINUOUS
 62
     0
 10
-152.9999999999998
 20
-272.86561949999981
 30
0.0
 11
-152.9999999999998
 21
-477.80597220889439
 31
0.0
  0
LINE
  5
FED
  8
SIZE
  6
CONTINUOUS
 62
     0
 10
-464.99999999999989
 20
-447.8059722088945
 30
0.0
 11
-162.9999999999998
 21
-447.8059722088945
 31
0.0
  0
TEXT
  5
FEE
  8
SIZE
  6
CONTINUOUS
 62
     0
 10
-369.03180424709791
 20
-422.89107257372137
 30
0.0
 40
64.0
  1
322
 41
0.9
  0
INSERT
  5
FEF
  8
SIZE
  6
CONTINUOUS
 62
     0
  2
_DOTBLANK
 10
-474.99999999999989
 20
-447.8059722088945
 30
0.0
 41
10.0
 42
10.0
 43
10.0
 50
180.0
  0
INSERT
  5
FF0
  8
SIZE
  6
CONTINUOUS
 62
     0
  2
_DOTBLANK
 10
-152.9999999999998
 20
-447.8059722088945
 30
0.0
 41
10.0
 42
10.0
 43
10.0
  0
POINT
  5
FF1
  8
DEFPOINTS
  6
CONTINUOUS
 62
     0
 10
-474.99999999999989
 20
-165.0
 30
0.0
  0
POINT
  5
FF2
  8
DEFPOINTS
  6
CONTINUOUS
 62
     0
 10
-152.9999999999998
 20
-252.86561949999981
 30
0.0
  0
POINT
  5
FF3
  8
DEFPOINTS
  6
CONTINUOUS
 62
     0
 10
-152.9999999999998
 20
-447.8059722088945
 30
0.0
  0
ENDBLK
  5
E51
  8
0
  0
BLOCK
  8
0
  2
*D14
 70
     1
 10
0.0
 20
0.0
 30
0.0
  3
*D14
  1

  0
LINE
  5
F07
  8
SIZE
  6
CONTINUOUS
 62
     0
 10
-494.99999999999989
 20
-165.0
 30
0.0
 11
-647.76083576584165
 21
-164.99999999999989
 31
0.0
  0
LINE
  5
F08
  8
SIZE
  6
CONTINUOUS
 62
     0
 10
-461.9999999998472
 20
-194.99999999999989
 30
0.0
 11
-647.76083576584165
 21
-194.99999999999989
 31
0.0
  0
LINE
  5
F09
  8
SIZE
  6
CONTINUOUS
 62
     0
 10
-617.76083576584165
 20
-174.99999999999989
 30
0.0
 11
-617.76083576584165
 21
-184.99999999999989
 31
0.0
  0
TEXT
  5
F0A
  8
SIZE
  6
CONTINUOUS
 62
     0
 10
-647.89583576584164
 20
-226.62857142857149
 30
0.0
 40
64.0
  1
30
 50
90.0
 41
0.9
  0
INSERT
  5
F0B
  8
SIZE
  6
CONTINUOUS
 62
     0
  2
_DOTBLANK
 10
-617.76083576584165
 20
-164.99999999999989
 30
0.0
 41
10.0
 42
10.0
 43
10.0
 50
90.0
  0
INSERT
  5
F0C
  8
SIZE
  6
CONTINUOUS
 62
     0
  2
_DOTBLANK
 10
-617.76083576584165
 20
-194.99999999999989
 30
0.0
 41
10.0
 42
10.0
 43
10.0
 50
270.0
  0
POINT
  5
F0D
  8
DEFPOINTS
  6
CONTINUOUS
 62
     0
 10
-474.99999999999989
 20
-165.0
 30
0.0
  0
POINT
  5
F0E
  8
DEFPOINTS
  6
CONTINUOUS
 62
     0
 10
-441.99999999984732
 20
-195.0
 30
0.0
  0
POINT
  5
F0F
  8
DEFPOINTS
  6
CONTINUOUS
 62
     0
 10
-617.76083576584165
 20
-194.99999999999989
 30
0.0
  0
ENDBLK
  5
E5D
  8
0
  0
BLOCK
  8
0
  2
*D15
 70
     1
 10
0.0
 20
0.0
 30
0.0
  3
*D15
  1

  0
LINE
  5
FC7
  8
SIZE
  6
CONTINUOUS
 62
     0
 10
-474.99999999999989
 20
185.0
 30
0.0
 11
-474.99999999999989
 21
437.98130346314798
 31
0.0
  0
LINE
  5
FC8
  8
SIZE
  6
CONTINUOUS
 62
     0
 10
-300.0
 20
220.0
 30
0.0
 11
-300.0
 21
437.98130346314798
 31
0.0
  0
LINE
  5
FC9
  8
SIZE
  6
CONTINUOUS
 62
     0
 10
-464.99999999999989
 20
407.98130346314792
 30
0.0
 11
-310.0
 21
407.98130346314792
 31
0.0
  0
TEXT
  5
FCA
  8
SIZE
  6
CONTINUOUS
 62
     0
 10
-462.1662532458696
 20
422.21081984431839
 30
0.0
 40
64.0
  1
175
 41
0.9
  0
INSERT
  5
FCB
  8
SIZE
  6
CONTINUOUS
 62
     0
  2
_DOTBLANK
 10
-474.99999999999989
 20
407.98130346314792
 30
0.0
 41
10.0
 42
10.0
 43
10.0
 50
180.0
  0
INSERT
  5
FCC
  8
SIZE
  6
CONTINUOUS
 62
     0
  2
_DOTBLANK
 10
-300.0
 20
407.98130346314792
 30
0.0
 41
10.0
 42
10.0
 43
10.0
  0
POINT
  5
FCD
  8
DEFPOINTS
  6
CONTINUOUS
 62
     0
 10
-474.99999999999989
 20
165.0
 30
0.0
  0
POINT
  5
FCE
  8
DEFPOINTS
  6
CONTINUOUS
 62
     0
 10
-300.0
 20
200.0
 30
0.0
  0
POINT
  5
FCF
  8
DEFPOINTS
  6
CONTINUOUS
 62
     0
 10
-300.0
 20
407.98130346314792
 30
0.0
  0
ENDBLK
  5
E6A
  8
0
  0
BLOCK
  8
0
  2
*D16
 70
     1
 10
0.0
 20
0.0
 30
0.0
  3
*D16
  1

  0
LINE
  5
1038
  8
SIZE
  6
CONTINUOUS
 62
     0
 10
336.0
 20
-213.0
 30
0.0
 11
1218.79926485939
 21
-213.00000000000031
 31
0.0
  0
LINE
  5
1039
  8
SIZE
  6
CONTINUOUS
 62
     0
 10
336.0
 20
203.99999999999989
 30
0.0
 11
1218.79926485939
 21
203.99999999999969
 31
0.0
  0
LINE
  5
103A
  8
SIZE
  6
CONTINUOUS
 62
     0
 10
1188.79926485939
 20
-203.0000000000002
 30
0.0
 11
1188.79926485939
 21
193.99999999999969
 31
0.0
  0
TEXT
  5
103B
  8
SIZE
  6
CONTINUOUS
 62
     0
 10
1163.4955313898461
 20
-54.517846095503153
 30
0.0
 40
64.0
  1
417
 50
90.0
 41
0.9
  0
INSERT
  5
103C
  8
SIZE
  6
CONTINUOUS
 62
     0
  2
_DOTBLANK
 10
1188.79926485939
 20
-213.0000000000002
 30
0.0
 41
10.0
 42
10.0
 43
10.0
 50
270.0
  0
INSERT
  5
103D
  8
SIZE
  6
CONTINUOUS
 62
     0
  2
_DOTBLANK
 10
1188.79926485939
 20
203.99999999999969
 30
0.0
 41
10.0
 42
10.0
 43
10.0
 50
90.0
  0
POINT
  5
103E
  8
DEFPOINTS
  6
CONTINUOUS
 62
     0
 10
316.0
 20
-213.0
 30
0.0
  0
POINT
  5
103F
  8
DEFPOINTS
  6
CONTINUOUS
 62
     0
 10
316.0
 20
204.0
 30
0.0
  0
POINT
  5
1040
  8
DEFPOINTS
  6
CONTINUOUS
 62
     0
 10
1188.79926485939
 20
203.99999999999969
 30
0.0
  0
ENDBLK
  5
E8B
  8
0
  0
BLOCK
  8
0
  2
*D17
 70
     1
 10
0.0
 20
0.0
 30
0.0
  3
*D17
  1

  0
LINE
  5
104B
  8
SIZE
  6
CONTINUOUS
 62
     0
 10
340.0
 20
-185.0
 30
0.0
 11
1004.9121006341491
 21
-185.0000000000002
 31
0.0
  0
LINE
  5
104C
  8
SIZE
  6
CONTINUOUS
 62
     0
 10
340.0
 20
184.99999999999989
 30
0.0
 11
1004.9121006341491
 21
184.9999999999998
 31
0.0
  0
LINE
  5
104D
  8
SIZE
  6
CONTINUOUS
 62
     0
 10
974.91210063414906
 20
-175.00000000000011
 30
0.0
 11
974.91210063414906
 21
174.9999999999998
 31
0.0
  0
TEXT
  5
104E
  8
SIZE
  6
CONTINUOUS
 62
     0
 10
955.68876411203928
 20
-70.567333689643334
 30
0.0
 40
64.0
  1
370
 50
90.0
 41
0.9
  0
INSERT
  5
104F
  8
SIZE
  6
CONTINUOUS
 62
     0
  2
_DOTBLANK
 10
974.91210063414906
 20
-185.0000000000002
 30
0.0
 41
10.0
 42
10.0
 43
10.0
 50
270.0
  0
INSERT
  5
1050
  8
SIZE
  6
CONTINUOUS
 62
     0
  2
_DOTBLANK
 10
974.91210063414906
 20
184.9999999999998
 30
0.0
 41
10.0
 42
10.0
 43
10.0
 50
90.0
  0
POINT
  5
1051
  8
DEFPOINTS
  6
CONTINUOUS
 62
     0
 10
320.0
 20
-185.0
 30
0.0
  0
POINT
  5
1052
  8
DEFPOINTS
  6
CONTINUOUS
 62
     0
 10
320.0
 20
185.0
 30
0.0
  0
POINT
  5
1053
  8
DEFPOINTS
  6
CONTINUOUS
 62
     0
 10
974.91210063414906
 20
184.9999999999998
 30
0.0
  0
ENDBLK
  5
E98
  8
0
  0
BLOCK
  8
0
  2
*D18
 70
     1
 10
0.0
 20
0.0
 30
0.0
  3
*D18
  1

  0
LINE
  5
1025
  8
SIZE
  6
CONTINUOUS
 62
     0
 10
340.0
 20
-185.0
 30
0.0
 11
1004.9121006341491
 21
-185.0000000000002
 31
0.0
  0
LINE
  5
1026
  8
SIZE
  6
CONTINUOUS
 62
     0
 10
336.0
 20
-213.0
 30
0.0
 11
1004.9121006341491
 21
-213.0000000000002
 31
0.0
  0
LINE
  5
1027
  8
SIZE
  6
CONTINUOUS
 62
     0
 10
974.91210063414906
 20
-195.00000000000011
 30
0.0
 11
974.91210063414906
 21
-203.0000000000002
 31
0.0
  0
TEXT
  5
1028
  8
SIZE
  6
CONTINUOUS
 62
     0
 10
962.73306085922377
 20
-335.40316637551132
 30
0.0
 40
64.0
  1
28
 50
90.0
 41
0.9
  0
INSERT
  5
1029
  8
SIZE
  6
CONTINUOUS
 62
     0
  2
_DOTBLANK
 10
974.91210063414906
 20
-185.0000000000002
 30
0.0
 41
10.0
 42
10.0
 43
10.0
 50
90.0
  0
INSERT
  5
102A
  8
SIZE
  6
CONTINUOUS
 62
     0
  2
_DOTBLANK
 10
974.91210063414906
 20
-213.0000000000002
 30
0.0
 41
10.0
 42
10.0
 43
10.0
 50
270.0
  0
POINT
  5
102B
  8
DEFPOINTS
  6
CONTINUOUS
 62
     0
 10
320.0
 20
-185.0
 30
0.0
  0
POINT
  5
102C
  8
DEFPOINTS
  6
CONTINUOUS
 62
     0
 10
316.0
 20
-213.0
 30
0.0
  0
POINT
  5
102D
  8
DEFPOINTS
  6
CONTINUOUS
 62
     0
 10
974.91210063414906
 20
-213.0000000000002
 30
0.0
  0
ENDBLK
  5
EA4
  8
0
  0
BLOCK
  8
0
  2
*D19
 70
     1
 10
0.0
 20
0.0
 30
0.0
  3
*D19
  1

  0
LINE
  5
FFD
  8
SIZE
  6
CONTINUOUS
 62
     0
 10
475.0
 20
-185.0
 30
0.0
 11
475.0
 21
-613.06791136589527
 31
0.0
  0
LINE
  5
FFE
  8
SIZE
  6
CONTINUOUS
 62
     0
 10
275.0
 20
-165.0
 30
0.0
 11
274.99999999999989
 21
-613.06791136589527
 31
0.0
  0
LINE
  5
FFF
  8
SIZE
  6
CONTINUOUS
 62
     0
 10
465.0
 20
-583.06791136589516
 30
0.0
 11
285.0
 21
-583.06791136589516
 31
0.0
  0
TEXT
  5
1000
  8
SIZE
  6
CONTINUOUS
 62
     0
 10
314.2650243493473
 20
-560.22013251924807
 30
0.0
 40
64.0
  1
200
 41
0.9
  0
INSERT
  5
1001
  8
SIZE
  6
CONTINUOUS
 62
     0
  2
_DOTBLANK
 10
475.0
 20
-583.06791136589516
 30
0.0
 41
10.0
 42
10.0
 43
10.0
  0
INSERT
  5
1002
  8
SIZE
  6
CONTINUOUS
 62
     0
  2
_DOTBLANK
 10
275.0
 20
-583.06791136589516
 30
0.0
 41
10.0
 42
10.0
 43
10.0
 50
180.0
  0
POINT
  5
1003
  8
DEFPOINTS
  6
CONTINUOUS
 62
     0
 10
475.0
 20
-165.0
 30
0.0
  0
POINT
  5
1004
  8
DEFPOINTS
  6
CONTINUOUS
 62
     0
 10
275.0
 20
-145.0
 30
0.0
  0
POINT
  5
1005
  8
DEFPOINTS
  6
CONTINUOUS
 62
     0
 10
275.0
 20
-583.06791136589516
 30
0.0
  0
ENDBLK
  5
EC4
  8
0
  0
BLOCK
  8
0
  2
*D20
 70
     1
 10
0.0
 20
0.0
 30
0.0
  3
*D20
  1

  0
LINE
  5
1011
  8
SIZE
  6
CONTINUOUS
 62
     0
 10
340.0
 20
184.99999999999989
 30
0.0
 11
1004.9121006341491
 21
184.9999999999998
 31
0.0
  0
LINE
  5
1012
  8
SIZE
  6
CONTINUOUS
 62
     0
 10
336.0
 20
203.99999999999989
 30
0.0
 11
1004.9121006341491
 21
203.9999999999998
 31
0.0
  0
LINE
  5
1013
  8
SIZE
  6
CONTINUOUS
 62
     0
 10
974.91210063414906
 20
174.9999999999998
 30
0.0
 11
974.91210063414906
 21
164.9999999999998
 31
0.0
  0
LINE
  5
1014
  8
SIZE
  6
CONTINUOUS
 62
     0
 10
974.91210063414906
 20
213.99999999999969
 30
0.0
 11
974.91210063414906
 21
223.99999999999969
 31
0.0
  0
TEXT
  5
1015
  8
SIZE
  6
CONTINUOUS
 62
     0
 10
955.68876411203928
 20
220.7702023917642
 30
0.0
 40
64.0
  1
19
 50
90.0
 41
0.9
  0
LINE
  5
1016
  8
SIZE
  6
CONTINUOUS
 62
     0
 10
974.91210063414906
 20
184.9999999999998
 30
0.0
 11
974.91210063414906
 21
203.9999999999998
 31
0.0
  0
INSERT
  5
1017
  8
SIZE
  6
CONTINUOUS
 62
     0
  2
_DOTBLANK
 10
974.91210063414906
 20
184.9999999999998
 30
0.0
 41
10.0
 42
10.0
 43
10.0
 50
90.0
  0
INSERT
  5
1018
  8
SIZE
  6
CONTINUOUS
 62
     0
  2
_DOTBLANK
 10
974.91210063414906
 20
203.9999999999998
 30
0.0
 41
10.0
 42
10.0
 43
10.0
 50
270.0
  0
POINT
  5
1019
  8
DEFPOINTS
  6
CONTINUOUS
 62
     0
 10
320.0
 20
185.0
 30
0.0
  0
POINT
  5
101A
  8
DEFPOINTS
  6
CONTINUOUS
 62
     0
 10
316.0
 20
204.0
 30
0.0
  0
POINT
  5
101B
  8
DEFPOINTS
  6
CONTINUOUS
 62
     0
 10
974.91210063414906
 20
203.9999999999998
 30
0.0
  0
ENDBLK
  5
ED2
  8
0
  0
BLOCK
  8
0
  2
*D21
 70
     1
 10
0.0
 20
0.0
 30
0.0
  3
*D21
  1

  0
LINE
  5
FA1
  8
SIZE
  6
CONTINUOUS
 62
     0
 10
300.0
 20
220.0
 30
0.0
 11
300.0
 21
437.98130346314798
 31
0.0
  0
LINE
  5
FA2
  8
SIZE
  6
CONTINUOUS
 62
     0
 10
475.0
 20
185.0
 30
0.0
 11
475.0
 21
437.98130346314798
 31
0.0
  0
LINE
  5
FA3
  8
SIZE
  6
CONTINUOUS
 62
     0
 10
310.0
 20
407.98130346314792
 30
0.0
 11
465.0
 21
407.98130346314792
 31
0.0
  0
TEXT
  5
FA4
  8
SIZE
  6
CONTINUOUS
 62
     0
 10
305.66214514069071
 20
422.21081984431839
 30
0.0
 40
64.0
  1
175
 41
0.9
  0
INSERT
  5
FA5
  8
SIZE
  6
CONTINUOUS
 62
     0
  2
_DOTBLANK
 10
300.0
 20
407.98130346314792
 30
0.0
 41
10.0
 42
10.0
 43
10.0
 50
180.0
  0
INSERT
  5
FA6
  8
SIZE
  6
CONTINUOUS
 62
     0
  2
_DOTBLANK
 10
475.0
 20
407.98130346314792
 30
0.0
 41
10.0
 42
10.0
 43
10.0
  0
POINT
  5
FA7
  8
DEFPOINTS
  6
CONTINUOUS
 62
     0
 10
300.0
 20
200.0
 30
0.0
  0
POINT
  5
FA8
  8
DEFPOINTS
  6
CONTINUOUS
 62
     0
 10
475.0
 20
165.0
 30
0.0
  0
POINT
  5
FA9
  8
DEFPOINTS
  6
CONTINUOUS
 62
     0
 10
475.0
 20
407.98130346314792
 30
0.0
  0
ENDBLK
  5
EE0
  8
0
  0
ENDSEC
  0
SECTION
  2
ENTITIES
  0
TEXT
  5
CFD
  8
ETC
  6
CONTINUOUS
 10
1422.932073001085
 20
-484.34520239119212
 30
0.0
 40
64.0
  1
SMPU3491
 41
0.9
  0
POINT
  5
CFE
  8
ARRANGE
  6
CONTINUOUS
 10
0.0
 20
0.0
 30
0.0
  0
LINE
  5
CFF
  8
NOTE
  6
CONTINUOUS
 10
697.23142604610916
 20
376.7048628631909
 30
0.0
 11
1135.0265888680319
 21
376.7048628631909
 31
0.0
  0
LINE
  5
D00
  8
NOTE
  6
CONTINUOUS
 10
1070.866298078312
 20
519.81354685584131
 30
0.0
 11
721.1680327342508
 21
519.81354685584131
 31
0.0
  0
TEXT
  5
D01
  8
NOTE
  6
CONTINUOUS
 10
736.51250749050973
 20
396.98621886319143
 30
0.0
 40
64.0
  1
RG%%C19.05
 41
0.9
  0
TEXT
  5
D02
  8
NOTE
  6
CONTINUOUS
 10
732.23637234062119
 20
539.53019410466914
 30
0.0
 40
64.0
  1
RL%%C12.7
 41
0.9
  0
LINE
  5
D03
  8
NOTE
  6
CONTINOUS
 10
-300.0
 20
205.0
 30
0.0
 11
-300.0
 21
165.0
 31
0.0
  0
LINE
  5
D04
  8
NOTE
  6
CONTINOUS
 10
-280.0
 20
185.0
 30
0.0
 11
-320.0
 21
185.0
 31
0.0
  0
LINE
  5
D05
  8
NOTE
  6
CONTINOUS
 10
320.0
 20
-185.0
 30
0.0
 11
280.0
 21
-185.0
 31
0.0
  0
LINE
  5
D06
  8
NOTE
  6
CONTINOUS
 10
300.0
 20
-165.0
 30
0.0
 11
300.0
 21
-205.0
 31
0.0
  0
LINE
  5
D07
  8
NOTE
  6
CONTINOUS
 10
-300.0
 20
-165.0
 30
0.0
 11
-300.0
 21
-205.0
 31
0.0
  0
LINE
  5
D08
  8
NOTE
  6
CONTINOUS
 10
-280.0
 20
-185.0
 30
0.0
 11
-320.0
 21
-185.0
 31
0.0
  0
LINE
  5
D09
  8
NOTE
  6
CONTINOUS
 10
397.0
 20
-125.0
 30
0.0
 11
357.0
 21
-125.0
 31
0.0
  0
LINE
  5
D0A
  8
NOTE
  6
CONTINOUS
 10
377.0
 20
-145.0
 30
0.0
 11
377.0
 21
-105.0
 31
0.0
  0
LINE
  5
D0B
  8
NOTE
  6
CONTINOUS
 10
438.0
 20
-129.0
 30
0.0
 11
438.0
 21
-89.0
 31
0.0
  0
LINE
  5
D0C
  8
NOTE
  6
CONTINOUS
 10
458.0
 20
-109.0
 30
0.0
 11
418.0
 21
-109.0
 31
0.0
  0
LINE
  5
D0D
  8
NOTE
  6
CONTINOUS
 10
295.0
 20
-165.0
 30
0.0
 11
255.0
 21
-165.0
 31
0.0
  0
LINE
  5
D0E
  8
NOTE
  6
CONTINOUS
 10
275.0
 20
-185.0
 30
0.0
 11
275.0
 21
-145.0
 31
0.0
  0
LINE
  5
D0F
  8
BASIS
  6
DASHDOT
 10
518.91887150000002
 20
0.0
 30
0.0
 11
-518.91887150000002
 21
0.0
 31
0.0
  0
LINE
  5
D10
  8
BASIS
  6
DASHDOT
 10
-153.0
 20
-252.86561950000009
 30
0.0
 11
-153.0
 21
-117.13438049999959
 31
0.0
  0
LINE
  5
D11
  8
DETAIL
  6
CONTINOUS
 10
475.0
 20
-165.0
 30
0.0
 11
475.0
 21
165.0
 31
0.0
  0
LINE
  5
D12
  8
DETAIL
  6
CONTINOUS
 10
-475.0
 20
165.0
 30
0.0
 11
-475.0
 21
-165.0
 31
0.0
  0
LINE
  5
D13
  8
DETAIL
  6
CONTINOUS
 10
-284.0
 20
204.0
 30
0.0
 11
-284.0
 21
165.0
 31
0.0
  0
LINE
  5
D14
  8
DETAIL
  6
CONTINOUS
 10
-316.0
 20
204.0
 30
0.0
 11
-316.0
 21
165.0
 31
0.0
  0
LINE
  5
D15
  8
DETAIL
  6
CONTINOUS
 10
316.0
 20
-165.0
 30
0.0
 11
316.0
 21
-213.0
 31
0.0
  0
LINE
  5
D16
  8
DETAIL
  6
CONTINOUS
 10
284.0
 20
-165.0
 30
0.0
 11
284.0
 21
-213.0
 31
0.0
  0
LINE
  5
D17
  8
DETAIL
  6
CONTINOUS
 10
-284.0
 20
-195.0
 30
0.0
 11
-284.0
 21
-213.0
 31
0.0
  0
LINE
  5
D18
  8
DETAIL
  6
CONTINOUS
 10
-316.0
 20
-195.0
 30
0.0
 11
-316.0
 21
-213.0
 31
0.0
  0
LINE
  5
D19
  8
DETAIL
  6
CONTINOUS
 10
316.0
 20
-213.0
 30
0.0
 11
284.0
 21
-213.0
 31
0.0
  0
LINE
  5
D1A
  8
DETAIL
  6
CONTINOUS
 10
475.0
 20
165.0
 30
0.0
 11
-475.0
 21
165.0
 31
0.0
  0
LINE
  5
D1B
  8
DETAIL
  6
CONTINOUS
 10
475.0
 20
-165.0
 30
0.0
 11
-475.0
 21
-165.0
 31
0.0
  0
LINE
  5
D1C
  8
DETAIL
  6
CONTINOUS
 10
-284.0
 20
204.0
 30
0.0
 11
-294.0
 21
204.0
 31
0.0
  0
LINE
  5
D1D
  8
DETAIL
  6
CONTINOUS
 10
-284.0
 20
-213.0
 30
0.0
 11
-316.0
 21
-213.0
 31
0.0
  0
TEXT
  5
D1E
  8
ETC
  6
CONTINUOUS
 10
1434.754817001083
 20
-603.51180339119264
 30
0.0
 40
64.0
  1
室外機
 41
0.9
  0
CIRCLE
  5
D1F
  8
ARRANGE
  6
CONTINUOUS
 10
0.0
 20
0.0
 30
0.0
 40
40.0
  0
CIRCLE
  5
D20
  8
FIX
  6
CONTINUOUS
 10
-300.0
 20
-185.0
 30
0.0
 40
40.0
  0
CIRCLE
  5
D21
  8
FIX
  6
CONTINUOUS
 10
300.0
 20
-185.0
 30
0.0
 40
40.0
  0
CIRCLE
  5
D22
  8
FIX
  6
CONTINUOUS
 10
-300.0
 20
185.0
 30
0.0
 40
40.0
  0
LINE
  5
D23
  8
NOTE
  6
CONTINOUS
 10
300.0
 20
-172.0
 30
0.0
 11
300.0
 21
-172.0
 31
0.0
  0
LINE
  5
D24
  8
DETAIL
  6
CONTINOUS
 62
     5
 10
306.0
 20
-173.0
 30
0.0
 11
306.0
 21
-197.0
 31
0.0
  0
LINE
  5
D25
  8
DETAIL
  6
CONTINOUS
 62
     5
 10
294.0
 20
-173.0
 30
0.0
 11
294.0
 21
-197.0
 31
0.0
  0
ARC
  5
D26
  8
DETAIL
  6
CONTINOUS
 62
     5
 10
300.0
 20
-173.0
 30
0.0
 40
6.0
 50
0.0
 51
90.0
  0
ARC
  5
D27
  8
DETAIL
  6
CONTINOUS
 62
     5
 10
300.0
 20
-197.0
 30
0.0
 40
6.0
 50
270.0
 51
0.0
  0
ARC
  5
D28
  8
DETAIL
  6
CONTINOUS
 62
     5
 10
300.0
 20
-197.0
 30
0.0
 40
6.0
 50
180.0
 51
270.0
  0
ARC
  5
D29
  8
DETAIL
  6
CONTINOUS
 62
     5
 10
300.0
 20
-173.0
 30
0.0
 40
6.0
 50
90.0
 51
180.0
  0
LINE
  5
D2A
  8
DETAIL
  6
CONTINOUS
 62
     5
 10
-294.0
 20
204.0
 30
0.0
 11
-294.0
 21
183.0
 31
0.0
  0
LINE
  5
D2B
  8
DETAIL
  6
CONTINOUS
 62
     5
 10
-306.0
 20
204.0
 30
0.0
 11
-306.0
 21
183.0
 31
0.0
  0
LINE
  5
D2C
  8
DETAIL
  6
CONTINOUS
 10
-306.0
 20
204.0
 30
0.0
 11
-316.0
 21
204.0
 31
0.0
  0
TEXT
  5
D2D
  8
NOTE
  6
CONTINUOUS
 10
-1119.055049453289
 20
506.88246761097253
 30
0.0
 40
64.0
  1
AH 2-U cut
 41
0.9
  0
LINE
  5
D2E
  8
NOTE
  6
CONTINUOUS
 10
-1146.761119453289
 20
496.29476961097203
 30
0.0
 11
-588.96394481796153
 21
496.29476961097203
 31
0.0
  0
LINE
  5
D31
  8
BASIS
  6
DASHDOT
 10
0.0
 20
224.90043118199981
 30
0.0
 11
0.0
 21
-224.90043118199981
 31
0.0
  0
LINE
  5
D32
  8
DETAIL
  6
CONTINOUS
 10
136.00000000015311
 20
-195.0
 30
0.0
 11
-441.9999999998472
 21
-195.0
 31
0.0
  0
LINE
  5
D33
  8
DETAIL
  6
CONTINOUS
 10
-441.9999999998472
 20
-165.0
 30
0.0
 11
-441.9999999998472
 21
-195.0
 31
0.0
  0
LINE
  5
D34
  8
DETAIL
  6
CONTINOUS
 10
136.00000000015311
 20
-165.0
 30
0.0
 11
136.00000000015311
 21
-195.0
 31
0.0
  0
ARC
  5
D3B
  8
DETAIL
  6
CONTINUOUS
 10
-300.0
 20
183.0
 30
0.0
 40
6.0
 50
180.0
 51
0.0
  0
CIRCLE
  5
D3C
  8
FIX
  6
CONTINUOUS
 10
300.0
 20
185.0
 30
0.0
 40
40.0
  0
LINE
  5
D3D
  8
NOTE
  6
CONTINOUS
 10
280.0
 20
185.0
 30
0.0
 11
320.0
 21
185.0
 31
0.0
  0
ARC
  5
D3E
  8
DETAIL
  6
CONTINUOUS
 10
300.0
 20
183.0
 30
0.0
 40
6.0
 50
180.0
 51
0.000000000000007
  0
LINE
  5
D3F
  8
DETAIL
  6
CONTINOUS
 62
     5
 10
306.0
 20
204.0
 30
0.0
 11
306.0
 21
183.0
 31
0.0
  0
LINE
  5
D40
  8
DETAIL
  6
CONTINOUS
 62
     5
 10
294.0
 20
204.0
 30
0.0
 11
294.0
 21
183.0
 31
0.0
  0
LINE
  5
D41
  8
NOTE
  6
CONTINOUS
 10
300.0
 20
205.0
 30
0.0
 11
300.0
 21
165.0
 31
0.0
  0
LINE
  5
D42
  8
DETAIL
  6
CONTINOUS
 10
306.0
 20
204.0
 30
0.0
 11
316.0
 21
204.0
 31
0.0
  0
LINE
  5
D43
  8
DETAIL
  6
CONTINOUS
 10
284.0
 20
204.0
 30
0.0
 11
294.0
 21
204.0
 31
0.0
  0
LINE
  5
D44
  8
DETAIL
  6
CONTINOUS
 10
316.0
 20
204.0
 30
0.0
 11
316.0
 21
165.0
 31
0.0
  0
LINE
  5
D45
  8
DETAIL
  6
CONTINOUS
 10
284.0
 20
204.0
 30
0.0
 11
284.0
 21
165.0
 31
0.0
  0
POLYLINE
  5
D4E
  8
NOTE
  6
CONTINUOUS
 66
     1
 10
0.0
 20
0.0
 30
0.0
  0
VERTEX
  5
11C6
  8
NOTE
  6
CONTINUOUS
 10
-333.7095452919433
 20
206.5329183732255
 30
0.0
  0
VERTEX
  5
11C7
  8
NOTE
  6
CONTINUOUS
 10
-300.0
 20
185.0
 30
0.0
  0
VERTEX
  5
11C8
  8
NOTE
  6
CONTINUOUS
 10
-318.4268637309043
 20
220.5028266003338
 30
0.0
  0
SEQEND
  5
11C9
  8
NOTE
  6
CONTINUOUS
  0
LINE
  5
D53
  8
NOTE
  6
CONTINUOUS
 10
-300.0
 20
185.0
 30
0.0
 11
-588.96394481796153
 21
496.29476961097203
 31
0.0
  0
POLYLINE
  5
D54
  8
NOTE
  6
CONTINUOUS
 66
     1
 10
0.0
 20
0.0
 30
0.0
  0
VERTEX
  5
11CA
  8
NOTE
  6
CONTINUOUS
 10
451.77429403176848
 20
-61.812630890462522
 30
0.0
  0
VERTEX
  5
11CB
  8
NOTE
  6
CONTINUOUS
 10
442.41611525898531
 20
-100.7025332754543
 30
0.0
  0
VERTEX
  5
11CC
  8
NOTE
  6
CONTINUOUS
 10
469.96548653544659
 20
-71.70197904208861
 30
0.0
  0
SEQEND
  5
11CD
  8
NOTE
  6
CONTINUOUS
  0
LINE
  5
D59
  8
NOTE
  6
CONTINUOUS
 10
442.41611525898543
 20
-100.7025332754545
 30
0.0
 11
697.23142604610916
 21
376.7048628631909
 31
0.0
  0
LINE
  5
D5A
  8
NOTE
  6
CONTINUOUS
 10
379.990044285968
 20
-119.3980239943438
 30
0.0
 11
721.16803273425103
 21
519.8135468558412
 31
0.0
  0
POLYLINE
  5
D5B
  8
NOTE
  6
CONTINUOUS
 66
     1
 10
0.0
 20
0.0
 30
0.0
  0
VERTEX
  5
11CE
  8
NOTE
  6
CONTINUOUS
 10
389.34822305875122
 20
-80.508121609351846
 30
0.0
  0
VERTEX
  5
11CF
  8
NOTE
  6
CONTINUOUS
 10
379.990044285968
 20
-119.3980239943438
 30
0.0
  0
VERTEX
  5
11D0
  8
NOTE
  6
CONTINUOUS
 10
407.53941556242938
 20
-90.397469760978183
 30
0.0
  0
SEQEND
  5
11D1
  8
NOTE
  6
CONTINUOUS
  0
LINE
  5
D62
  8
NOTE
  6
CONTINUOUS
 10
275.0
 20
-165.0
 30
0.0
 11
117.3246862707628
 21
-352.55838789164932
 31
0.0
  0
POLYLINE
  5
D63
  8
NOTE
  6
CONTINUOUS
 66
     1
 10
0.0
 20
0.0
 30
0.0
  0
VERTEX
  5
11D2
  8
NOTE
  6
CONTINUOUS
 10
257.78467280567878
 20
-201.1058517009366
 30
0.0
  0
VERTEX
  5
11D3
  8
NOTE
  6
CONTINUOUS
 10
275.0
 20
-165.0
 30
0.0
  0
VERTEX
  5
11D4
  8
NOTE
  6
CONTINUOUS
 10
242.03816387887119
 20
-187.6609214970299
 30
0.0
  0
SEQEND
  5
11D5
  8
NOTE
  6
CONTINUOUS
  0
TEXT
  5
D68
  8
NOTE
  6
CONTINUOUS
 10
-116.31534602696
 20
-337.4560868916505
 30
0.0
 40
64.0
  1
EL,CL
 41
0.9
  0
LINE
  5
D69
  8
NOTE
  6
CONTINUOUS
 10
-131.0956510269597
 20
-352.55838789164932
 30
0.0
 11
117.3246862707628
 21
-352.55838789164932
 31
0.0
  0
LINE
  5
D6A
  8
NOTE
  6
CONTINUOUS
 10
-1103.609479033234
 20
-459.23268227694081
 30
0.0
 11
-530.5400718084968
 21
-459.23268227694081
 31
0.0
  0
TEXT
  5
D6B
  8
NOTE
  6
CONTINUOUS
 10
-1088.8291740332361
 20
-444.13038127694199
 30
0.0
 40
64.0
  1
AH 2-12×36
 41
0.9
  0
LINE
  5
D6C
  8
NOTE
  6
CONTINUOUS
 10
-300.0
 20
-185.0
 30
0.0
 11
-530.5400718084968
 21
-459.23268227694081
 31
0.0
  0
POLYLINE
  5
D6D
  8
NOTE
  6
CONTINUOUS
 66
     1
 10
0.0
 20
0.0
 30
0.0
  0
VERTEX
  5
11D6
  8
NOTE
  6
CONTINUOUS
 10
-317.21532719432111
 20
-221.10585170093691
 30
0.0
  0
VERTEX
  5
11D7
  8
NOTE
  6
CONTINUOUS
 10
-300.0
 20
-185.0
 30
0.0
  0
VERTEX
  5
11D8
  8
NOTE
  6
CONTINUOUS
 10
-332.96183612112827
 20
-207.6609214970299
 30
0.0
  0
SEQEND
  5
11D9
  8
NOTE
  6
CONTINUOUS
  0
ARC
  5
D72
  8
DETAIL
  6
CONTINOUS
 62
     5
 10
-300.0
 20
-197.0
 30
0.0
 40
6.0
 50
270.0
 51
0.0
  0
LINE
  5
D73
  8
DETAIL
  6
CONTINOUS
 62
     5
 10
-294.0
 20
-195.0
 30
0.0
 11
-294.0
 21
-197.0
 31
0.0
  0
ARC
  5
D74
  8
DETAIL
  6
CONTINOUS
 62
     5
 10
-300.0
 20
-197.0
 30
0.0
 40
6.0
 50
180.0
 51
270.0
  0
LINE
  5
D75
  8
DETAIL
  6
CONTINOUS
 62
     5
 10
-306.0
 20
-195.0
 30
0.0
 11
-306.0
 21
-197.0
 31
0.0
  0
CIRCLE
  5
1069
  8
DETAIL
  6
CONTINUOUS
 10
438.0
 20
-109.0
 30
0.0
 40
9.5250000000000004
  0
CIRCLE
  5
1097
  8
DETAIL
  6
CONTINUOUS
 10
377.0
 20
-125.0
 30
0.0
 40
6.3499999999999988
  0
LINE
  5
10A4
  8
SIZE
 10
438.0
 20
-149.0
 30
0.0
 11
438.0
 21
-377.93030152009482
 31
0.0
  0
LINE
  5
10A5
  8
SIZE
 10
377.0
 20
-165.0
 30
0.0
 11
377.0
 21
-377.93030152009482
 31
0.0
  0
LINE
  5
10A6
  8
SIZE
 10
428.0
 20
-347.93030152009482
 30
0.0
 11
387.0
 21
-347.93030152009482
 31
0.0
  0
LINE
  5
10A7
  8
SIZE
 10
377.0
 20
-347.93030152009482
 30
0.0
 11
298.24857142857138
 21
-347.93030152009482
 31
0.0
  0
LINE
  5
10AB
  8
SIZE
 10
475.0
 20
-185.0
 30
0.0
 11
475.0
 21
-613.06791136589527
 31
0.0
  0
LINE
  5
10AC
  8
SIZE
 10
275.0
 20
-165.0
 30
0.0
 11
274.99999999999989
 21
-613.06791136589527
 31
0.0
  0
LINE
  5
10AD
  8
SIZE
 10
465.0
 20
-583.06791136589516
 30
0.0
 11
285.0
 21
-583.06791136589516
 31
0.0
  0
LINE
  5
10B1
  8
SIZE
 10
336.0
 20
-213.0
 30
0.0
 11
1218.79926485939
 21
-213.00000000000031
 31
0.0
  0
LINE
  5
10B2
  8
SIZE
 10
336.0
 20
203.99999999999989
 30
0.0
 11
1218.79926485939
 21
203.99999999999969
 31
0.0
  0
LINE
  5
10B3
  8
SIZE
 10
1188.79926485939
 20
-203.0000000000002
 30
0.0
 11
1188.79926485939
 21
193.99999999999969
 31
0.0
  0
LINE
  5
10B7
  8
SIZE
 10
340.0
 20
184.99999999999989
 30
0.0
 11
1004.9121006341491
 21
184.9999999999998
 31
0.0
  0
LINE
  5
10B8
  8
SIZE
 10
336.0
 20
203.99999999999989
 30
0.0
 11
1004.9121006341491
 21
203.9999999999998
 31
0.0
  0
LINE
  5
10B9
  8
SIZE
 10
974.91210063414906
 20
174.9999999999998
 30
0.0
 11
974.91210063414906
 21
164.9999999999998
 31
0.0
  0
LINE
  5
10BA
  8
SIZE
 10
974.91210063414906
 20
213.99999999999969
 30
0.0
 11
974.91210063414906
 21
223.99999999999969
 31
0.0
  0
LINE
  5
10BC
  8
SIZE
 10
974.91210063414906
 20
184.9999999999998
 30
0.0
 11
974.91210063414906
 21
203.9999999999998
 31
0.0
  0
LINE
  5
10BF
  8
SIZE
 10
340.0
 20
-185.0
 30
0.0
 11
1004.9121006341491
 21
-185.0000000000002
 31
0.0
  0
LINE
  5
10C0
  8
SIZE
 10
336.0
 20
-213.0
 30
0.0
 11
1004.9121006341491
 21
-213.0000000000002
 31
0.0
  0
LINE
  5
10C1
  8
SIZE
 10
974.91210063414906
 20
-195.00000000000011
 30
0.0
 11
974.91210063414906
 21
-203.0000000000002
 31
0.0
  0
LINE
  5
10C5
  8
SIZE
 10
340.0
 20
-185.0
 30
0.0
 11
1004.9121006341491
 21
-185.0000000000002
 31
0.0
  0
LINE
  5
10C6
  8
SIZE
 10
340.0
 20
184.99999999999989
 30
0.0
 11
1004.9121006341491
 21
184.9999999999998
 31
0.0
  0
LINE
  5
10C7
  8
SIZE
 10
974.91210063414906
 20
-175.00000000000011
 30
0.0
 11
974.91210063414906
 21
174.9999999999998
 31
0.0
  0
LINE
  5
10CB
  8
SIZE
 10
-474.99999999999989
 20
185.0
 30
0.0
 11
-474.99999999999989
 21
607.67217662139205
 31
0.0
  0
LINE
  5
10CC
  8
SIZE
 10
475.0
 20
185.0
 30
0.0
 11
475.0
 21
607.67217662139205
 31
0.0
  0
LINE
  5
10CD
  8
SIZE
 10
-464.99999999999989
 20
577.67217662139205
 30
0.0
 11
465.0
 21
577.67217662139205
 31
0.0
  0
LINE
  5
10D1
  8
SIZE
 10
300.0
 20
220.0
 30
0.0
 11
300.0
 21
437.98130346314798
 31
0.0
  0
LINE
  5
10D2
  8
SIZE
 10
475.0
 20
185.0
 30
0.0
 11
475.0
 21
437.98130346314798
 31
0.0
  0
LINE
  5
10D3
  8
SIZE
 10
310.0
 20
407.98130346314792
 30
0.0
 11
465.0
 21
407.98130346314792
 31
0.0
  0
LINE
  5
10D7
  8
SIZE
 10
-494.99999999999989
 20
-165.0
 30
0.0
 11
-647.76083576584165
 21
-164.99999999999989
 31
0.0
  0
LINE
  5
10D8
  8
SIZE
 10
-461.9999999998472
 20
-194.99999999999989
 30
0.0
 11
-647.76083576584165
 21
-194.99999999999989
 31
0.0
  0
LINE
  5
10D9
  8
SIZE
 10
-617.76083576584165
 20
-174.99999999999989
 30
0.0
 11
-617.76083576584165
 21
-184.99999999999989
 31
0.0
  0
LINE
  5
10DD
  8
SIZE
 10
-494.99999999999989
 20
-165.0
 30
0.0
 11
-647.76083576584165
 21
-164.99999999999989
 31
0.0
  0
LINE
  5
10DE
  8
SIZE
 10
-494.99999999999989
 20
165.0
 30
0.0
 11
-647.76083576584165
 21
165.0
 31
0.0
  0
LINE
  5
10DF
  8
SIZE
 10
-617.76083576584165
 20
-154.99999999999989
 30
0.0
 11
-617.76083576584165
 21
155.0
 31
0.0
  0
LINE
  5
10E3
  8
SIZE
 10
-474.99999999999989
 20
-185.0
 30
0.0
 11
-474.99999999999989
 21
-477.80597220889439
 31
0.0
  0
LINE
  5
10E4
  8
SIZE
 10
-152.9999999999998
 20
-272.86561949999981
 30
0.0
 11
-152.9999999999998
 21
-477.80597220889439
 31
0.0
  0
LINE
  5
10E5
  8
SIZE
 10
-464.99999999999989
 20
-447.8059722088945
 30
0.0
 11
-162.9999999999998
 21
-447.8059722088945
 31
0.0
  0
LINE
  5
10E9
  8
SIZE
 10
-300.0
 20
220.0
 30
0.0
 11
-300.0
 21
437.98130346314798
 31
0.0
  0
LINE
  5
10EA
  8
SIZE
 10
300.0
 20
220.0
 30
0.0
 11
300.0
 21
437.98130346314798
 31
0.0
  0
LINE
  5
10EB
  8
SIZE
 10
-290.0
 20
407.98130346314792
 30
0.0
 11
290.0
 21
407.98130346314792
 31
0.0
  0
LINE
  5
10EF
  8
SIZE
 10
-474.99999999999989
 20
185.0
 30
0.0
 11
-474.99999999999989
 21
437.98130346314798
 31
0.0
  0
LINE
  5
10F0
  8
SIZE
 10
-300.0
 20
220.0
 30
0.0
 11
-300.0
 21
437.98130346314798
 31
0.0
  0
LINE
  5
10F1
  8
SIZE
 10
-464.99999999999989
 20
407.98130346314792
 30
0.0
 11
-310.0
 21
407.98130346314792
 31
0.0
  0
LINE
  5
10F5
  8
SIZE
 10
495.0
 20
-165.0
 30
0.0
 11
790.56591925233977
 21
-165.0
 31
0.0
  0
LINE
  5
10F6
  8
SIZE
 10
478.0
 20
-109.0
 30
0.0
 11
790.56591925233977
 21
-109.0
 31
0.0
  0
LINE
  5
10F7
  8
SIZE
 10
760.56591925233988
 20
-155.0
 30
0.0
 11
760.56591925233988
 21
-119.0
 31
0.0
  0
LINE
  5
10F8
  8
SIZE
 10
760.56591925233988
 20
-109.0
 30
0.0
 11
760.56591925233988
 21
-5.3520811355121491
 31
0.0
  0
LINE
  5
10FC
  8
SIZE
 10
495.0
 20
-165.0
 30
0.0
 11
647.43493234678488
 21
-165.0
 31
0.0
  0
LINE
  5
10FD
  8
SIZE
 10
417.0
 20
-125.0
 30
0.0
 11
647.43493234678488
 21
-125.0
 31
0.0
  0
LINE
  5
10FE
  8
SIZE
 10
617.43493234678499
 20
-155.0
 30
0.0
 11
617.43493234678499
 21
-135.0
 31
0.0
  0
LINE
  5
10FF
  8
SIZE
 10
617.43493234678499
 20
-125.0
 30
0.0
 11
617.43493234678499
 21
-3.9806525640835502
 31
0.0
  0
LINE
  5
1103
  8
SIZE
 10
475.0
 20
-185.0
 30
0.0
 11
475.0
 21
-377.93030152009482
 31
0.0
  0
LINE
  5
1104
  8
SIZE
 10
438.0
 20
-149.0
 30
0.0
 11
438.0
 21
-377.93030152009482
 31
0.0
  0
LINE
  5
1105
  8
SIZE
 10
448.0
 20
-347.93030152009482
 30
0.0
 11
465.0
 21
-347.93030152009482
 31
0.0
  0
LINE
  5
1106
  8
SIZE
 10
475.0
 20
-347.93030152009482
 30
0.0
 11
587.90091981236753
 21
-347.93030152009482
 31
0.0
  0
TEXT
  5
110A
  8
SIZE
 10
305.66214514069071
 20
422.21081984431839
 30
0.0
 40
64.0
  1
175
 41
0.9
  0
TEXT
  5
110B
  8
SIZE
 10
314.2650243493473
 20
-560.22013251924807
 30
0.0
 40
64.0
  1
200
 41
0.9
  0
TEXT
  5
110C
  8
SIZE
 10
298.33857142857141
 20
-347.84030152009478
 30
0.0
 40
64.0
  1
61
 41
0.9
  0
TEXT
  5
110D
  8
SIZE
 10
-647.89583576584164
 20
-226.62857142857149
 30
0.0
 40
64.0
  1
30
 50
90.0
 41
0.9
  0
TEXT
  5
110E
  8
SIZE
 10
-369.03180424709791
 20
-422.89107257372137
 30
0.0
 40
64.0
  1
322
 41
0.9
  0
CIRCLE
  5
110F
  8
SIZE
 10
-617.76083576584165
 20
-194.99999999999989
 30
0.0
 40
5.0
  0
LINE
  5
1110
  8
SIZE
 10
-617.76083576584165
 20
-189.99999999999989
 30
0.0
 11
-617.76083576584165
 21
-184.99999999999989
 31
0.0
  0
CIRCLE
  5
1111
  8
SIZE
 10
-617.76083576584165
 20
-164.99999999999989
 30
0.0
 40
5.0
  0
LINE
  5
1112
  8
SIZE
 10
-617.76083576584165
 20
-159.99999999999989
 30
0.0
 11
-617.76083576584165
 21
-154.99999999999989
 31
0.0
  0
CIRCLE
  5
1113
  8
SIZE
 10
-617.76083576584165
 20
-164.99999999999989
 30
0.0
 40
5.0
  0
LINE
  5
1114
  8
SIZE
 10
-617.76083576584165
 20
-169.99999999999989
 30
0.0
 11
-617.76083576584165
 21
-174.99999999999989
 31
0.0
  0
CIRCLE
  5
1115
  8
SIZE
 10
-474.99999999999989
 20
-447.8059722088945
 30
0.0
 40
5.0
  0
LINE
  5
1116
  8
SIZE
 10
-469.99999999999989
 20
-447.8059722088945
 30
0.0
 11
-464.99999999999989
 21
-447.8059722088945
 31
0.0
  0
CIRCLE
  5
1117
  8
SIZE
 10
275.0
 20
-583.06791136589516
 30
0.0
 40
5.0
  0
LINE
  5
1118
  8
SIZE
 10
280.0
 20
-583.06791136589516
 30
0.0
 11
285.0
 21
-583.06791136589516
 31
0.0
  0
CIRCLE
  5
1119
  8
SIZE
 10
-152.9999999999998
 20
-447.8059722088945
 30
0.0
 40
5.0
  0
LINE
  5
111A
  8
SIZE
 10
-157.9999999999998
 20
-447.8059722088945
 30
0.0
 11
-162.9999999999998
 21
-447.8059722088945
 31
0.0
  0
TEXT
  5
111B
  8
SIZE
 10
-636.32242428634709
 20
-60.003560381217461
 30
0.0
 40
64.0
  1
330
 50
90.0
 41
0.9
  0
CIRCLE
  5
111C
  8
SIZE
 10
-617.76083576584165
 20
165.0
 30
0.0
 40
5.0
  0
LINE
  5
111D
  8
SIZE
 10
-617.76083576584165
 20
160.0
 30
0.0
 11
-617.76083576584165
 21
155.0
 31
0.0
  0
TEXT
  5
111E
  8
SIZE
 10
-462.1662532458696
 20
422.21081984431839
 30
0.0
 40
64.0
  1
175
 41
0.9
  0
CIRCLE
  5
111F
  8
SIZE
 10
-474.99999999999989
 20
407.98130346314792
 30
0.0
 40
5.0
  0
LINE
  5
1120
  8
SIZE
 10
-469.99999999999989
 20
407.98130346314792
 30
0.0
 11
-464.99999999999989
 21
407.98130346314792
 31
0.0
  0
CIRCLE
  5
1121
  8
SIZE
 10
-300.0
 20
407.98130346314792
 30
0.0
 40
5.0
  0
LINE
  5
1122
  8
SIZE
 10
-305.0
 20
407.98130346314792
 30
0.0
 11
-310.0
 21
407.98130346314792
 31
0.0
  0
CIRCLE
  5
1123
  8
SIZE
 10
-300.0
 20
407.98130346314792
 30
0.0
 40
5.0
  0
LINE
  5
1124
  8
SIZE
 10
-295.0
 20
407.98130346314792
 30
0.0
 11
-290.0
 21
407.98130346314792
 31
0.0
  0
TEXT
  5
1125
  8
SIZE
 10
-76.693467179174064
 20
418.68955745085083
 30
0.0
 40
64.0
  1
600
 41
0.9
  0
CIRCLE
  5
1126
  8
SIZE
 10
300.0
 20
407.98130346314792
 30
0.0
 40
5.0
  0
LINE
  5
1127
  8
SIZE
 10
295.0
 20
407.98130346314792
 30
0.0
 11
290.0
 21
407.98130346314792
 31
0.0
  0
CIRCLE
  5
1128
  8
SIZE
 10
300.0
 20
407.98130346314792
 30
0.0
 40
5.0
  0
LINE
  5
1129
  8
SIZE
 10
305.0
 20
407.98130346314792
 30
0.0
 11
310.0
 21
407.98130346314792
 31
0.0
  0
CIRCLE
  5
112A
  8
SIZE
 10
-474.99999999999989
 20
577.67217662139205
 30
0.0
 40
5.0
  0
LINE
  5
112B
  8
SIZE
 10
-469.99999999999989
 20
577.67217662139205
 30
0.0
 11
-464.99999999999989
 21
577.67217662139205
 31
0.0
  0
TEXT
  5
112C
  8
SIZE
 10
-69.64917043198777
 20
594.75245517260373
 30
0.0
 40
64.0
  1
950
 41
0.9
  0
TEXT
  5
112D
  8
SIZE
 10
962.73306085922377
 20
-335.40316637551132
 30
0.0
 40
64.0
  1
28
 50
90.0
 41
0.9
  0
CIRCLE
  5
112E
  8
SIZE
 10
475.0
 20
-583.06791136589516
 30
0.0
 40
5.0
  0
LINE
  5
112F
  8
SIZE
 10
470.0
 20
-583.06791136589516
 30
0.0
 11
465.0
 21
-583.06791136589516
 31
0.0
  0
TEXT
  5
1130
  8
SIZE
 10
494.55377695522458
 20
-347.84030152009478
 30
0.0
 40
64.0
  1
37
 41
0.9
  0
CIRCLE
  5
1131
  8
SIZE
 10
377.0
 20
-347.93030152009482
 30
0.0
 40
5.0
  0
LINE
  5
1132
  8
SIZE
 10
382.0
 20
-347.93030152009482
 30
0.0
 11
387.0
 21
-347.93030152009482
 31
0.0
  0
CIRCLE
  5
1133
  8
SIZE
 10
438.0
 20
-347.93030152009482
 30
0.0
 40
5.0
  0
LINE
  5
1134
  8
SIZE
 10
443.0
 20
-347.93030152009482
 30
0.0
 11
448.0
 21
-347.93030152009482
 31
0.0
  0
CIRCLE
  5
1135
  8
SIZE
 10
438.0
 20
-347.93030152009482
 30
0.0
 40
5.0
  0
LINE
  5
1136
  8
SIZE
 10
433.0
 20
-347.93030152009482
 30
0.0
 11
428.0
 21
-347.93030152009482
 31
0.0
  0
CIRCLE
  5
1137
  8
SIZE
 10
475.0
 20
-347.93030152009482
 30
0.0
 40
5.0
  0
LINE
  5
1138
  8
SIZE
 10
470.0
 20
-347.93030152009482
 30
0.0
 11
465.0
 21
-347.93030152009482
 31
0.0
  0
CIRCLE
  5
1139
  8
SIZE
 10
617.43493234678499
 20
-165.0
 30
0.0
 40
5.0
  0
LINE
  5
113A
  8
SIZE
 10
617.43493234678499
 20
-160.0
 30
0.0
 11
617.43493234678499
 21
-155.0
 31
0.0
  0
CIRCLE
  5
113B
  8
SIZE
 10
760.56591925233988
 20
-165.0
 30
0.0
 40
5.0
  0
LINE
  5
113C
  8
SIZE
 10
760.56591925233988
 20
-160.0
 30
0.0
 11
760.56591925233988
 21
-155.0
 31
0.0
  0
CIRCLE
  5
113D
  8
SIZE
 10
974.91210063414906
 20
-185.0000000000002
 30
0.0
 40
5.0
  0
LINE
  5
113E
  8
SIZE
 10
974.91210063414906
 20
-190.0000000000002
 30
0.0
 11
974.91210063414906
 21
-195.00000000000011
 31
0.0
  0
CIRCLE
  5
113F
  8
SIZE
 10
974.91210063414906
 20
-213.0000000000002
 30
0.0
 40
5.0
  0
LINE
  5
1140
  8
SIZE
 10
974.91210063414906
 20
-208.00000000000011
 30
0.0
 11
974.91210063414906
 21
-203.0000000000002
 31
0.0
  0
CIRCLE
  5
1141
  8
SIZE
 10
974.91210063414906
 20
-185.0000000000002
 30
0.0
 40
5.0
  0
LINE
  5
1142
  8
SIZE
 10
974.91210063414906
 20
-180.0000000000002
 30
0.0
 11
974.91210063414906
 21
-175.00000000000011
 31
0.0
  0
CIRCLE
  5
1143
  8
SIZE
 10
1188.79926485939
 20
-213.0000000000002
 30
0.0
 40
5.0
  0
LINE
  5
1144
  8
SIZE
 10
1188.79926485939
 20
-208.0000000000002
 30
0.0
 11
1188.79926485939
 21
-203.0000000000002
 31
0.0
  0
TEXT
  5
1145
  8
SIZE
 10
955.68876411203928
 20
-70.567333689643334
 30
0.0
 40
64.0
  1
370
 50
90.0
 41
0.9
  0
TEXT
  5
1146
  8
SIZE
 10
955.68876411203928
 20
220.7702023917642
 30
0.0
 40
64.0
  1
19
 50
90.0
 41
0.9
  0
TEXT
  5
1147
  8
SIZE
 10
617.34493234678484
 20
-97.327795421226313
 30
0.0
 40
64.0
  1
40
 50
90.0
 41
0.9
  0
CIRCLE
  5
1148
  8
SIZE
 10
617.43493234678499
 20
-125.0
 30
0.0
 40
5.0
  0
LINE
  5
1149
  8
SIZE
 10
617.43493234678499
 20
-130.0
 30
0.0
 11
617.43493234678499
 21
-135.0
 31
0.0
  0
TEXT
  5
114A
  8
SIZE
 10
760.47591925233985
 20
-95.956366849797703
 30
0.0
 40
64.0
  1
56
 50
90.0
 41
0.9
  0
CIRCLE
  5
114B
  8
SIZE
 10
760.56591925233988
 20
-109.0
 30
0.0
 40
5.0
  0
LINE
  5
114C
  8
SIZE
 10
760.56591925233988
 20
-114.0
 30
0.0
 11
760.56591925233988
 21
-119.0
 31
0.0
  0
CIRCLE
  5
114D
  8
SIZE
 10
475.0
 20
407.98130346314792
 30
0.0
 40
5.0
  0
LINE
  5
114E
  8
SIZE
 10
470.0
 20
407.98130346314792
 30
0.0
 11
465.0
 21
407.98130346314792
 31
0.0
  0
TEXT
  5
114F
  8
SIZE
 10
1163.4955313898461
 20
-54.517846095503153
 30
0.0
 40
64.0
  1
417
 50
90.0
 41
0.9
  0
CIRCLE
  5
1150
  8
SIZE
 10
974.91210063414906
 20
184.9999999999998
 30
0.0
 40
5.0
  0
LINE
  5
1151
  8
SIZE
 10
974.91210063414906
 20
179.9999999999998
 30
0.0
 11
974.91210063414906
 21
174.9999999999998
 31
0.0
  0
CIRCLE
  5
1152
  8
SIZE
 10
974.91210063414906
 20
184.9999999999998
 30
0.0
 40
5.0
  0
LINE
  5
1153
  8
SIZE
 10
974.91210063414906
 20
179.9999999999998
 30
0.0
 11
974.91210063414906
 21
174.9999999999998
 31
0.0
  0
CIRCLE
  5
1154
  8
SIZE
 10
974.91210063414906
 20
203.9999999999998
 30
0.0
 40
5.0
  0
LINE
  5
1155
  8
SIZE
 10
974.91210063414906
 20
208.9999999999998
 30
0.0
 11
974.91210063414906
 21
213.99999999999969
 31
0.0
  0
CIRCLE
  5
1156
  8
SIZE
 10
1188.79926485939
 20
203.99999999999969
 30
0.0
 40
5.0
  0
LINE
  5
1157
  8
SIZE
 10
1188.79926485939
 20
198.99999999999969
 30
0.0
 11
1188.79926485939
 21
193.99999999999969
 31
0.0
  0
CIRCLE
  5
1158
  8
SIZE
 10
475.0
 20
577.67217662139205
 30
0.0
 40
5.0
  0
LINE
  5
1159
  8
SIZE
 10
470.0
 20
577.67217662139205
 30
0.0
 11
465.0
 21
577.67217662139205
 31
0.0
  0
LINE
  5
115A
  8
OUTLINE
 10
475.0
 20
-165.0
 30
0.0
 11
315.99999999999949
 21
-165.0
 31
0.0
  0
LINE
  5
115B
  8
OUTLINE
 10
475.0
 20
165.0
 30
0.0
 11
315.99999999999949
 21
165.0
 31
0.0
  0
LINE
  5
115C
  8
OUTLINE
 10
-475.0
 20
165.0
 30
0.0
 11
-475.0
 21
-165.0
 31
0.0
  0
LINE
  5
115D
  8
OUTLINE
 10
136.00000000015319
 20
-195.0
 30
0.0
 11
-284.0
 21
-195.0
 31
0.0
  0
LINE
  5
115E
  8
OUTLINE
 10
-441.99999999984692
 20
-165.0
 30
0.0
 11
-441.9999999998472
 21
-195.0
 31
0.0
  0
LINE
  5
115F
  8
OUTLINE
 10
-284.0
 20
-213.0
 30
0.0
 11
-316.0
 21
-213.0
 31
0.0
  0
LINE
  5
1160
  8
OUTLINE
 10
-316.0
 20
-195.0
 30
0.0
 11
-316.0
 21
-213.0
 31
0.0
  0
LINE
  5
1165
  8
OUTLINE
 10
-284.0
 20
-195.0
 30
0.0
 11
-284.0
 21
-213.0
 31
0.0
  0
LINE
  5
1166
  8
OUTLINE
 10
136.00000000015319
 20
-165.0
 30
0.0
 11
136.00000000015319
 21
-195.0
 31
0.0
  0
LINE
  5
1169
  8
OUTLINE
 10
284.0
 20
-165.0
 30
0.0
 11
284.0
 21
-213.0
 31
0.0
  0
LINE
  5
116A
  8
OUTLINE
 10
316.0
 20
-165.0
 30
0.0
 11
316.0
 21
-213.0
 31
0.0
  0
LINE
  5
116B
  8
OUTLINE
 10
316.0
 20
-213.0
 30
0.0
 11
284.0
 21
-213.0
 31
0.0
  0
LINE
  5
1170
  8
OUTLINE
 10
-306.0
 20
204.0
 30
0.0
 11
-306.0
 21
183.0
 31
0.0
  0
LINE
  5
1171
  8
OUTLINE
 10
-294.0
 20
204.0
 30
0.0
 11
-294.0
 21
183.0
 31
0.0
  0
LINE
  5
1172
  8
OUTLINE
 10
-316.0
 20
204.0
 30
0.0
 11
-316.0
 21
165.0
 31
0.0
  0
LINE
  5
1173
  8
OUTLINE
 10
-284.0
 20
204.0
 30
0.0
 11
-284.0
 21
165.0
 31
0.0
  0
ARC
  5
1174
  8
OUTLINE
 10
-300.0
 20
183.0
 30
0.0
 40
6.0
 50
180.0
 51
0.0
  0
LINE
  5
1175
  8
OUTLINE
 10
-306.0
 20
204.0
 30
0.0
 11
-316.0
 21
204.0
 31
0.0
  0
LINE
  5
1176
  8
OUTLINE
 10
-284.0
 20
204.0
 30
0.0
 11
-294.0
 21
204.0
 31
0.0
  0
LINE
  5
1177
  8
OUTLINE
 10
284.0
 20
204.0
 30
0.0
 11
284.0000000000004
 21
165.0
 31
0.0
  0
LINE
  5
1178
  8
OUTLINE
 10
316.0
 20
204.0
 30
0.0
 11
316.0
 21
165.0
 31
0.0
  0
LINE
  5
1179
  8
OUTLINE
 10
294.0
 20
204.0
 30
0.0
 11
294.0
 21
183.0
 31
0.0
  0
LINE
  5
117A
  8
OUTLINE
 10
306.0
 20
204.0
 30
0.0
 11
306.0
 21
183.0
 31
0.0
  0
ARC
  5
117B
  8
OUTLINE
 10
300.0
 20
183.0
 30
0.0
 40
6.0
 50
180.0
 51
0.000000000000007
  0
LINE
  5
117C
  8
OUTLINE
 10
306.0
 20
204.0
 30
0.0
 11
316.0
 21
204.0
 31
0.0
  0
LINE
  5
117D
  8
OUTLINE
 10
284.0
 20
204.0
 30
0.0
 11
294.0
 21
204.0
 31
0.0
  0
LINE
  5
117E
  8
OUTLINE
 10
475.0
 20
-165.0
 30
0.0
 11
475.0
 21
165.0
 31
0.0
  0
LINE
  5
1181
  8
OUTLINE
 10
284.0000000000004
 20
165.0
 30
0.0
 11
-284.0
 21
165.0
 31
0.0
  0
LINE
  5
1182
  8
OUTLINE
 10
-316.0
 20
165.0
 30
0.0
 11
-475.0
 21
165.0
 31
0.0
  0
LINE
  5
1183
  8
OUTLINE
 10
284.0
 20
-165.0
 30
0.0
 11
136.00000000015319
 21
-165.0
 31
0.0
  0
LINE
  5
1184
  8
OUTLINE
 10
-441.99999999984692
 20
-165.0
 30
0.0
 11
-475.0
 21
-165.0
 31
0.0
  0
LINE
  5
1185
  8
OUTLINE
 10
-316.0
 20
-195.0
 30
0.0
 11
-441.9999999998472
 21
-195.0
 31
0.0
  0
ENDSEC
  0
EOF
