  0
SECTION
  2
HEADER
  9
$ACADVER
  1
AC1012
  9
$DWGCODEPAGE
  3
dos932
  9
$INSBASE
 10
0.0
 20
0.0
 30
0.0
  9
$EXTMIN
 10
-1405.144900217514
 20
-784.9651190943987
 30
-0.0015258207003583
  9
$EXTMAX
 10
1152.052306764795
 20
759.198986849049
 30
0.0000000349246037
  9
$LIMMIN
 10
-607.8397565879821
 20
-2894.570674133785
  9
$LIMMAX
 10
9610.9599706596
 20
4370.226469669364
  9
$ORTHOMODE
 70
     1
  9
$REGENMODE
 70
     1
  9
$FILLMODE
 70
     1
  9
$QTEXTMODE
 70
     0
  9
$MIRRTEXT
 70
     0
  9
$DRAGMODE
 70
     2
  9
$LTSCALE
 40
20.0
  9
$OSMODE
 70
    55
  9
$ATTMODE
 70
     1
  9
$TEXTSIZE
 40
64.0
  9
$TRACEWID
 40
0.05
  9
$TEXTSTYLE
  7
STANDARD
  9
$CLAYER
  8
OUTLINE
  9
$CELTYPE
  6
CONTINUOUS
  9
$CECOLOR
 62
   256
  9
$CELTSCALE
 40
1.0
  9
$DELOBJ
 70
     1
  9
$DISPSILH
 70
     0
  9
$DIMSCALE
 40
1.0
  9
$DIMASZ
 40
10.0
  9
$DIMEXO
 40
20.0
  9
$DIMDLI
 40
200.0
  9
$DIMRND
 40
0.0
  9
$DIMDLE
 40
0.0
  9
$DIMEXE
 40
20.0
  9
$DIMTP
 40
0.0
  9
$DIMTM
 40
0.0
  9
$DIMTXT
 40
64.0
  9
$DIMCEN
 40
0.082
  9
$DIMTSZ
 40
0.0
  9
$DIMTOL
 70
     0
  9
$DIMLIM
 70
     0
  9
$DIMTIH
 70
     0
  9
$DIMTOH
 70
     0
  9
$DIMSE1
 70
     0
  9
$DIMSE2
 70
     0
  9
$DIMTAD
 70
     1
  9
$DIMZIN
 70
     8
  9
$DIMBLK
  1
ORIGIN
  9
$DIMASO
 70
     1
  9
$DIMSHO
 70
     0
  9
$DIMPOST
  1

  9
$DIMAPOST
  1

  9
$DIMALT
 70
     0
  9
$DIMALTD
 70
     2
  9
$DIMALTF
 40
25.4
  9
$DIMLFAC
 40
1.0
  9
$DIMTOFL
 70
     1
  9
$DIMTVP
 40
0.0
  9
$DIMTIX
 70
     0
  9
$DIMSOXD
 70
     0
  9
$DIMSAH
 70
     0
  9
$DIMBLK1
  1

  9
$DIMBLK2
  1

  9
$DIMSTYLE
  2
STANDARD
  9
$DIMCLRD
 70
     0
  9
$DIMCLRE
 70
     0
  9
$DIMCLRT
 70
     0
  9
$DIMTFAC
 40
1.0
  9
$DIMGAP
 40
10.0
  9
$DIMJUST
 70
     0
  9
$DIMSD1
 70
     0
  9
$DIMSD2
 70
     0
  9
$DIMTOLJ
 70
     1
  9
$DIMTZIN
 70
     0
  9
$DIMALTZ
 70
     0
  9
$DIMALTTZ
 70
     0
  9
$DIMFIT
 70
     3
  9
$DIMUPT
 70
     0
  9
$DIMUNIT
 70
     2
  9
$DIMDEC
 70
     4
  9
$DIMTDEC
 70
     4
  9
$DIMALTU
 70
     2
  9
$DIMALTTD
 70
     2
  9
$DIMTXSTY
  7
STANDARD
  9
$DIMAUNIT
 70
     0
  9
$LUNITS
 70
     2
  9
$LUPREC
 70
     4
  9
$SKETCHINC
 40
0.1
  9
$FILLETRAD
 40
5.0
  9
$AUNITS
 70
     1
  9
$AUPREC
 70
     3
  9
$MENU
  1
ACAD
  9
$ELEVATION
 40
0.0
  9
$PELEVATION
 40
0.0
  9
$THICKNESS
 40
0.0
  9
$LIMCHECK
 70
     0
  9
$BLIPMODE
 70
     0
  9
$CHAMFERA
 40
0.0
  9
$CHAMFERB
 40
0.0
  9
$CHAMFERC
 40
0.0
  9
$CHAMFERD
 40
0.0
  9
$SKPOLY
 70
     0
  9
$TDCREATE
 40
2450330.393205995
  9
$TDUPDATE
 40
2453108.392998217
  9
$TDINDWG
 40
0.7452983796
  9
$TDUSRTIMER
 40
0.7452978356
  9
$USRTIMER
 70
     1
  9
$ANGBASE
 50
0.0
  9
$ANGDIR
 70
     0
  9
$PDMODE
 70
     3
  9
$PDSIZE
 40
-2.0
  9
$PLINEWID
 40
0.0
  9
$COORDS
 70
     0
  9
$SPLFRAME
 70
     0
  9
$SPLINETYPE
 70
     6
  9
$SPLINESEGS
 70
     8
  9
$ATTDIA
 70
     0
  9
$ATTREQ
 70
     1
  9
$HANDLING
 70
-16383
  9
$HANDSEED
  5
BA16
  9
$SURFTAB1
 70
     6
  9
$SURFTAB2
 70
     6
  9
$SURFTYPE
 70
     6
  9
$SURFU
 70
     6
  9
$SURFV
 70
     6
  9
$UCSNAME
  2

  9
$UCSORG
 10
0.0
 20
0.0
 30
0.0
  9
$UCSXDIR
 10
1.0
 20
0.0
 30
0.0
  9
$UCSYDIR
 10
0.0
 20
1.0
 30
0.0
  9
$PUCSNAME
  2

  9
$PUCSORG
 10
0.0
 20
0.0
 30
0.0
  9
$PUCSXDIR
 10
1.0
 20
0.0
 30
0.0
  9
$PUCSYDIR
 10
0.0
 20
1.0
 30
0.0
  9
$USERI1
 70
     0
  9
$USERI2
 70
     0
  9
$USERI3
 70
     0
  9
$USERI4
 70
     0
  9
$USERI5
 70
     0
  9
$USERR1
 40
20.0
  9
$USERR2
 40
0.0
  9
$USERR3
 40
0.0
  9
$USERR4
 40
0.0
  9
$USERR5
 40
0.0
  9
$WORLDVIEW
 70
     1
  9
$SHADEDGE
 70
     3
  9
$SHADEDIF
 70
    70
  9
$TILEMODE
 70
     1
  9
$MAXACTVP
 70
    64
  9
$PINSBASE
 10
0.0
 20
0.0
 30
0.0
  9
$PLIMCHECK
 70
     0
  9
$PEXTMIN
 10
1.000000000000000E+20
 20
1.000000000000000E+20
 30
1.000000000000000E+20
  9
$PEXTMAX
 10
-1.000000000000000E+20
 20
-1.000000000000000E+20
 30
-1.000000000000000E+20
  9
$PLIMMIN
 10
0.0
 20
0.0
  9
$PLIMMAX
 10
12.0
 20
9.0
  9
$UNITMODE
 70
     0
  9
$VISRETAIN
 70
     1
  9
$PLINEGEN
 70
     0
  9
$PSLTSCALE
 70
     1
  9
$TREEDEPTH
 70
  3020
  9
$PICKSTYLE
 70
     1
  9
$CMLSTYLE
  2
STANDARD
  9
$CMLJUST
 70
     0
  9
$CMLSCALE
 40
1.0
  9
$SAVEIMAGES
 70
     1
  0
ENDSEC
  0
SECTION
  2
CLASSES
  0
CLASS
  1
ACDBDICTIONARYWDFLT
  2
AcDbDictionaryWithDefault
  3
AutoCAD 2000
 90
    32768
280
     0
281
     0
  0
CLASS
  1
ACDBPLACEHOLDER
  2
AcDbPlaceHolder
  3
AutoCAD 2000
 90
    32768
280
     0
281
     0
  0
CLASS
  1
LAYOUT
  2
AcDbLayout
  3
AutoCAD 2000
 90
    32768
280
     0
281
     0
  0
CLASS
  1
LONG_TRANSACTION
  2
AcDbLongTransaction
  3
AutoCAD 2000
 90
    32768
280
     0
281
     0
  0
CLASS
  1
LWPOLYLINE
  2
AcDbPolyline
  3
AutoCAD 2000
 90
    32768
280
     0
281
     1
  0
CLASS
  1
HATCH
  2
AcDbHatch
  3
AutoCAD 2000
 90
    32768
280
     0
281
     1
  0
CLASS
  1
XRECORD
  2
AcDbXrecord
  3
AutoCAD 2000
 90
    32768
280
     0
281
     0
  0
ENDSEC
  0
SECTION
  2
TABLES
  0
TABLE
  2
VPORT
  5
73C9
330
0
100
AcDbSymbolTable
 70
     3
  0
VPORT
  5
B9FD
330
73C9
100
AcDbSymbolTableRecord
100
AcDbViewportTableRecord
  2
*ACTIVE
 70
     0
 10
0.0
 20
0.0
 11
1.0
 21
1.0
 12
43.79716639289108
 22
-10.86597879827377
 13
0.0
 23
0.0
 14
50.0
 24
50.0
 15
100.0
 25
100.0
 16
0.0
 26
0.0
 36
1.0
 17
0.0
 27
0.0
 37
0.0
 40
2589.420078284752
 41
1.130434782608695
 42
50.0
 43
0.0
 44
0.0
 50
0.0
 51
0.0
 71
     0
 72
   500
 73
     1
 74
     0
 75
     0
 76
     0
 77
     0
 78
     0
  0
ENDTAB
  0
TABLE
  2
LTYPE
  5
73C6
330
0
100
AcDbSymbolTable
 70
    15
  0
LTYPE
  5
73D4
330
73C6
100
AcDbSymbolTableRecord
100
AcDbLinetypeTableRecord
  2
BYBLOCK
 70
     0
  3

 72
    65
 73
     0
 40
0.0
  0
LTYPE
  5
73D5
330
73C6
100
AcDbSymbolTableRecord
100
AcDbLinetypeTableRecord
  2
BYLAYER
 70
     0
  3

 72
    65
 73
     0
 40
0.0
  0
LTYPE
  5
73D6
330
73C6
100
AcDbSymbolTableRecord
100
AcDbLinetypeTableRecord
  2
CONTINUOUS
 70
     0
  3
実線
 72
    65
 73
     0
 40
0.0
  0
LTYPE
  5
73E5
330
73C6
100
AcDbSymbolTableRecord
100
AcDbLinetypeTableRecord
  2
DASHDOT
 70
     0
  3
____ _ ____ _ ____ _ ____ _ ____ _ ____ _ ____
 72
    65
 73
     4
 40
5.5
 49
4.0
 74
     0
 49
-0.6
 74
     0
 49
0.3
 74
     0
 49
-0.6
 74
     0
  0
LTYPE
  5
73E6
330
73C6
100
AcDbSymbolTableRecord
100
AcDbLinetypeTableRecord
  2
CONTINOUS
 70
     0
  3
Solid line
 72
    65
 73
     0
 40
0.0
  0
LTYPE
  5
73E7
330
73C6
100
AcDbSymbolTableRecord
100
AcDbLinetypeTableRecord
  2
BORDER
 70
     0
  3
BORDER
 72
    65
 73
     6
 40
1.75
 49
0.5
 74
     0
 49
-0.25
 74
     0
 49
0.5
 74
     0
 49
-0.25
 74
     0
 49
0.0
 74
     0
 49
-0.25
 74
     0
  0
LTYPE
  5
73E8
330
73C6
100
AcDbSymbolTableRecord
100
AcDbLinetypeTableRecord
  2
CENTER
 70
     0
  3
CENTER
 72
    65
 73
     4
 40
2.0
 49
1.25
 74
     0
 49
-0.25
 74
     0
 49
0.25
 74
     0
 49
-0.25
 74
     0
  0
LTYPE
  5
73E9
330
73C6
100
AcDbSymbolTableRecord
100
AcDbLinetypeTableRecord
  2
DASHED
 70
     0
  3
DASHED
 72
    65
 73
     2
 40
0.75
 49
0.5
 74
     0
 49
-0.25
 74
     0
  0
LTYPE
  5
73EA
330
73C6
100
AcDbSymbolTableRecord
100
AcDbLinetypeTableRecord
  2
DIVIDE
 70
     0
  3
DIVIDE
 72
    65
 73
     6
 40
1.25
 49
0.5
 74
     0
 49
-0.25
 74
     0
 49
0.0
 74
     0
 49
-0.25
 74
     0
 49
0.0
 74
     0
 49
-0.25
 74
     0
  0
LTYPE
  5
73EB
330
73C6
100
AcDbSymbolTableRecord
100
AcDbLinetypeTableRecord
  2
DOT
 70
     0
  3
DOT
 72
    65
 73
     2
 40
0.25
 49
0.0
 74
     0
 49
-0.25
 74
     0
  0
LTYPE
  5
73EC
330
73C6
100
AcDbSymbolTableRecord
100
AcDbLinetypeTableRecord
  2
HIDDEN
 70
     0
  3
HIDDEN
 72
    65
 73
     2
 40
0.375
 49
0.25
 74
     0
 49
-0.125
 74
     0
  0
LTYPE
  5
73ED
330
73C6
100
AcDbSymbolTableRecord
100
AcDbLinetypeTableRecord
  2
PHANTOM
 70
     0
  3
PHANTOM
 72
    65
 73
     6
 40
2.5
 49
1.25
 74
     0
 49
-0.25
 74
     0
 49
0.25
 74
     0
 49
-0.25
 74
     0
 49
0.25
 74
     0
 49
-0.25
 74
     0
  0
LTYPE
  5
73EE
330
73C6
100
AcDbSymbolTableRecord
100
AcDbLinetypeTableRecord
  2
$INVISIBLE
 70
     0
  3
$INVISIBLE
 72
    65
 73
     2
 40
200.0
 49
-100.0
 74
     0
 49
-100.0
 74
     0
  0
LTYPE
  5
73EF
330
73C6
100
AcDbSymbolTableRecord
100
AcDbLinetypeTableRecord
  2
$MARGINS
 70
     0
  3
$MARGINS
 72
    65
 73
     2
 40
0.075
 49
0.05
 74
     0
 49
-0.025
 74
     0
  0
LTYPE
  5
73F0
330
73C6
100
AcDbSymbolTableRecord
100
AcDbLinetypeTableRecord
  2
JLSTYLE_0
 70
     0
  3
JLSTYLE_0
 72
    65
 73
     4
 40
1.0
 49
0.5
 74
     0
 49
-0.25
 74
     0
 49
0.0
 74
     0
 49
-0.25
 74
     0
  0
LTYPE
  5
73F1
330
73C6
100
AcDbSymbolTableRecord
100
AcDbLinetypeTableRecord
  2
JLSTYLE_1
 70
     0
  3
JLSTYLE_1
 72
    65
 73
     2
 40
0.75
 49
0.5
 74
     0
 49
-0.25
 74
     0
  0
LTYPE
  5
73F2
330
73C6
100
AcDbSymbolTableRecord
100
AcDbLinetypeTableRecord
  2
JLSTYLE_2
 70
     0
  3
JLSTYLE_2
 72
    65
 73
     6
 40
1.25
 49
0.5
 74
     0
 49
-0.25
 74
     0
 49
0.0
 74
     0
 49
-0.25
 74
     0
 49
0.0
 74
     0
 49
-0.25
 74
     0
  0
ENDTAB
  0
TABLE
  2
LAYER
  5
73C3
330
0
100
AcDbSymbolTable
 70
    14
  0
LAYER
  5
73D1
330
73C3
100
AcDbSymbolTableRecord
100
AcDbLayerTableRecord
  2
0
 70
     0
 62
     7
  6
CONTINUOUS
  0
LAYER
  5
73E3
330
73C3
100
AcDbSymbolTableRecord
100
AcDbLayerTableRecord
  2
OUTLINE
 70
     0
 62
     3
  6
CONTINUOUS
  0
LAYER
  5
73F3
330
73C3
100
AcDbSymbolTableRecord
100
AcDbLayerTableRecord
  2
SIZE
 70
     0
 62
    32
  6
CONTINUOUS
  0
LAYER
  5
73F4
330
73C3
100
AcDbSymbolTableRecord
100
AcDbLayerTableRecord
  2
DETAIL
 70
     0
 62
     5
  6
CONTINUOUS
  0
LAYER
  5
73F5
330
73C3
100
AcDbSymbolTableRecord
100
AcDbLayerTableRecord
  2
BASIS
 70
     0
 62
     6
  6
CONTINUOUS
  0
LAYER
  5
73F6
330
73C3
100
AcDbSymbolTableRecord
100
AcDbLayerTableRecord
  2
NOTE
 70
     0
 62
     4
  6
CONTINUOUS
  0
LAYER
  5
73F7
330
73C3
100
AcDbSymbolTableRecord
100
AcDbLayerTableRecord
  2
ARRANGE
 70
     0
 62
     1
  6
CONTINUOUS
  0
LAYER
  5
73F8
330
73C3
100
AcDbSymbolTableRecord
100
AcDbLayerTableRecord
  2
FIX
 70
     0
 62
   241
  6
CONTINUOUS
  0
LAYER
  5
73F9
330
73C3
100
AcDbSymbolTableRecord
100
AcDbLayerTableRecord
  2
ETC
 70
     0
 62
    83
  6
CONTINUOUS
  0
LAYER
  5
73FA
330
73C3
100
AcDbSymbolTableRecord
100
AcDbLayerTableRecord
  2
SERVICESPACE
 70
     0
 62
     2
  6
CONTINUOUS
  0
LAYER
  5
73FB
330
73C3
100
AcDbSymbolTableRecord
100
AcDbLayerTableRecord
  2
SYMBOLLINE
 70
     0
 62
    38
  6
CONTINUOUS
  0
LAYER
  5
73FC
330
73C3
100
AcDbSymbolTableRecord
100
AcDbLayerTableRecord
  2
DEFPOINTS
 70
     0
 62
     7
  6
CONTINUOUS
  0
LAYER
  5
73FD
330
73C3
100
AcDbSymbolTableRecord
100
AcDbLayerTableRecord
  2
SERVICE_SPACE
 70
     0
 62
     2
  6
CONTINUOUS
  0
LAYER
  5
73FE
330
73C3
100
AcDbSymbolTableRecord
100
AcDbLayerTableRecord
  2
16
 70
     0
 62
   150
  6
CONTINUOUS
  0
ENDTAB
  0
TABLE
  2
STYLE
  5
73C4
330
0
100
AcDbSymbolTable
 70
     2
  0
STYLE
  5
73D2
330
73C4
100
AcDbSymbolTableRecord
100
AcDbTextStyleTableRecord
  2
STANDARD
 70
     0
 40
0.0
 41
0.9
 50
0.0
 71
     0
 42
64.0
  3
SIMPLEX
  4
BIGFONT
  0
STYLE
  5
73FF
330
73C4
100
AcDbSymbolTableRecord
100
AcDbTextStyleTableRecord
  2
STANDARD1
 70
     0
 40
0.0
 41
1.0
 50
0.0
 71
     0
 42
3.5
  3
MONOTXT
  4
BIGFONT
  0
ENDTAB
  0
TABLE
  2
VIEW
  5
73C7
330
0
100
AcDbSymbolTable
 70
     1
  0
VIEW
  5
7400
330
73C7
100
AcDbSymbolTableRecord
100
AcDbViewTableRecord
  2
ALL
 70
     0
 40
4282.62
 10
0.0
 20
41.30990399999999
 41
5940.0
 11
0.0
 21
0.0
 31
1.0
 12
0.0
 22
0.0
 32
0.0
 42
50.0
 43
0.0
 44
0.0
 50
0.0
 71
     0
  0
ENDTAB
  0
TABLE
  2
UCS
  5
73C8
330
0
100
AcDbSymbolTable
 70
     0
  0
ENDTAB
  0
TABLE
  2
APPID
  5
73CA
330
0
100
AcDbSymbolTable
 70
     1
  0
APPID
  5
73D3
330
73CA
100
AcDbSymbolTableRecord
100
AcDbRegAppTableRecord
  2
ACAD
 70
     0
  0
ENDTAB
  0
TABLE
  2
DIMSTYLE
  5
73CB
330
0
100
AcDbSymbolTable
 70
     1
  0
DIMSTYLE
105
7401
330
73CB
100
AcDbSymbolTableRecord
100
AcDbDimStyleTableRecord
  2
STANDARD
 70
     0
  3

  4

  5

  6

  7

 40
1.0
 41
0.18
 42
0.0625
 43
0.38
 44
0.18
 45
0.0
 46
0.0
 47
0.0
 48
0.0
140
0.18
141
0.09
142
0.0
143
25.4
144
1.0
145
0.0
146
1.0
147
0.09
 71
     0
 72
     0
 73
     1
 74
     1
 75
     0
 76
     0
 77
     0
 78
     0
170
     0
171
     2
172
     0
173
     0
174
     0
175
     0
176
     0
177
     0
178
     0
270
     2
271
     4
272
     4
273
     2
274
     2
340
73D2
275
     1
280
     0
281
     0
282
     0
283
     1
284
     8
285
     8
286
     8
287
     5
288
     0
  0
ENDTAB
  0
TABLE
  2
BLOCK_RECORD
  5
73C2
330
0
100
AcDbSymbolTable
 70
     7
  0
BLOCK_RECORD
  5
73DF
102
{ACAD_XDICTIONARY
360
BA00
102
}
330
73C2
100
AcDbSymbolTableRecord
100
AcDbBlockTableRecord
  2
*MODEL_SPACE
  0
BLOCK_RECORD
  5
73DB
102
{ACAD_XDICTIONARY
360
B9FE
102
}
330
73C2
100
AcDbSymbolTableRecord
100
AcDbBlockTableRecord
  2
*PAPER_SPACE
  0
BLOCK_RECORD
  5
7405
330
73C2
100
AcDbSymbolTableRecord
100
AcDbBlockTableRecord
  2
$MODEL_SPACE
  0
BLOCK_RECORD
  5
7408
330
73C2
100
AcDbSymbolTableRecord
100
AcDbBlockTableRecord
  2
$PAPER_SPACE
  0
BLOCK_RECORD
  5
740B
330
73C2
100
AcDbSymbolTableRecord
100
AcDbBlockTableRecord
  2
_ORIGIN
  0
BLOCK_RECORD
  5
7410
330
73C2
100
AcDbSymbolTableRecord
100
AcDbBlockTableRecord
  2
_DOTBLANK
  0
BLOCK_RECORD
  5
7415
330
73C2
100
AcDbSymbolTableRecord
100
AcDbBlockTableRecord
  2
_NONE
  0
BLOCK_RECORD
  5
A409
330
73C2
100
AcDbSymbolTableRecord
100
AcDbBlockTableRecord
  2
*D5
  0
BLOCK_RECORD
  5
A416
330
73C2
100
AcDbSymbolTableRecord
100
AcDbBlockTableRecord
  2
*D6
  0
ENDTAB
  0
ENDSEC
  0
SECTION
  2
BLOCKS
  0
BLOCK
  5
73E0
330
73DF
100
AcDbEntity
  8
0
100
AcDbBlockBegin
  2
*MODEL_SPACE
 70
     0
 10
0.0
 20
0.0
 30
0.0
  3
*MODEL_SPACE
  1

  0
ENDBLK
  5
73E1
330
73DF
100
AcDbEntity
  8
0
100
AcDbBlockEnd
  0
BLOCK
  5
73DC
330
73DB
100
AcDbEntity
 67
     1
  8
0
100
AcDbBlockBegin
  2
*PAPER_SPACE
 70
     0
 10
0.0
 20
0.0
 30
0.0
  3
*PAPER_SPACE
  1

  0
ENDBLK
  5
73DD
330
73DB
100
AcDbEntity
 67
     1
  8
0
100
AcDbBlockEnd
  0
BLOCK
  5
7406
330
7405
100
AcDbEntity
  8
0
100
AcDbBlockBegin
  2
$MODEL_SPACE
 70
     0
 10
0.0
 20
0.0
 30
0.0
  3
$MODEL_SPACE
  1

  0
ENDBLK
  5
7407
330
7405
100
AcDbEntity
  8
0
100
AcDbBlockEnd
  0
BLOCK
  5
7409
330
7408
100
AcDbEntity
  8
0
100
AcDbBlockBegin
  2
$PAPER_SPACE
 70
     0
 10
0.0
 20
0.0
 30
0.0
  3
$PAPER_SPACE
  1

  0
ENDBLK
  5
740A
330
7408
100
AcDbEntity
  8
0
100
AcDbBlockEnd
  0
BLOCK
  5
740C
330
740B
100
AcDbEntity
  8
0
100
AcDbBlockBegin
  2
_ORIGIN
 70
     0
 10
0.0
 20
0.0
 30
0.0
  3
_ORIGIN
  1

  0
CIRCLE
  5
740D
330
740B
100
AcDbEntity
  8
0
  6
BYBLOCK
 62
     0
100
AcDbCircle
 10
0.0
 20
0.0
 30
0.0
 40
0.5
  0
LINE
  5
740E
330
740B
100
AcDbEntity
  8
0
  6
BYBLOCK
 62
     0
100
AcDbLine
 10
0.0
 20
0.0
 30
0.0
 11
-1.0
 21
0.0
 31
0.0
  0
ENDBLK
  5
740F
330
740B
100
AcDbEntity
  8
0
100
AcDbBlockEnd
  0
BLOCK
  5
7411
330
7410
100
AcDbEntity
  8
0
100
AcDbBlockBegin
  2
_DOTBLANK
 70
     0
 10
0.0
 20
0.0
 30
0.0
  3
_DOTBLANK
  1

  0
CIRCLE
  5
7412
330
7410
100
AcDbEntity
  8
0
  6
BYBLOCK
 62
     0
100
AcDbCircle
 10
0.0
 20
0.0
 30
0.0
 40
0.5
  0
LINE
  5
7413
330
7410
100
AcDbEntity
  8
0
  6
BYBLOCK
 62
     0
100
AcDbLine
 10
-0.5
 20
0.0
 30
0.0
 11
-1.0
 21
0.0
 31
0.0
  0
ENDBLK
  5
7414
330
7410
100
AcDbEntity
  8
0
100
AcDbBlockEnd
  0
BLOCK
  5
7416
330
7415
100
AcDbEntity
  8
0
100
AcDbBlockBegin
  2
_NONE
 70
     0
 10
0.0
 20
0.0
 30
0.0
  3
_NONE
  1

  0
ENDBLK
  5
7417
330
7415
100
AcDbEntity
  8
0
100
AcDbBlockEnd
  0
BLOCK
  5
A413
330
A409
100
AcDbEntity
  8
0
100
AcDbBlockBegin
  2
*D5
 70
     1
 10
0.0
 20
0.0
 30
0.0
  3
*D5
  1

  0
LINE
  5
A40A
330
A409
100
AcDbEntity
  8
SIZE
  6
CONTINUOUS
 62
     0
100
AcDbLine
 10
6990.985050340744
 20
-3122.433038559996
 30
0.0
 11
6356.335046547652
 21
-3122.433038559996
 31
0.0
  0
LINE
  5
A40B
330
A409
100
AcDbEntity
  8
SIZE
  6
CONTINUOUS
 62
     0
100
AcDbLine
 10
6690.985050340754
 20
-2758.433038559975
 30
0.0
 11
6356.335046547652
 21
-2758.433038559975
 31
0.0
  0
LINE
  5
A40C
330
A409
100
AcDbEntity
  8
SIZE
  6
CONTINUOUS
 62
     0
100
AcDbLine
 10
6376.335046547652
 20
-3112.433038559997
 30
0.0
 11
6376.335046547652
 21
-2768.433038559975
 31
0.0
  0
INSERT
  5
A40D
330
A409
100
AcDbEntity
  8
SIZE
  6
CONTINUOUS
 62
     0
100
AcDbBlockReference
  2
_ORIGIN
 10
6376.335046547652
 20
-3122.433038559996
 30
0.0
 41
10.0
 42
10.0
 43
10.0
 50
270.0
  0
INSERT
  5
A40E
330
A409
100
AcDbEntity
  8
SIZE
  6
CONTINUOUS
 62
     0
100
AcDbBlockReference
  2
_ORIGIN
 10
6376.335046547652
 20
-2758.433038559975
 30
0.0
 41
10.0
 42
10.0
 43
10.0
 50
90.0
  0
MTEXT
  5
A40F
330
A409
100
AcDbEntity
  8
SIZE
  6
CONTINUOUS
 62
     0
100
AcDbMText
 10
6334.335046547654
 20
-2940.433038559985
 30
0.0
 40
64.0
 41
0.0
 71
     5
 72
     1
  1
\A1;364
 11
0.0000000000000001
 21
1.0
 31
0.0
1001
ACAD
1000
MTEXTBEGIN
1070
    73
1070
     1
1070
    44
1040
1.0
1070
    74
1070
     0
1000
MTEXTEND
  0
POINT
  5
A410
330
A409
100
AcDbEntity
  8
DEFPOINTS
  6
CONTINUOUS
 62
     0
100
AcDbPoint
 10
7010.985050340742
 20
-3122.433038559996
 30
0.0
  0
POINT
  5
A411
330
A409
100
AcDbEntity
  8
DEFPOINTS
  6
CONTINUOUS
 62
     0
100
AcDbPoint
 10
6710.985050340754
 20
-2758.433038559975
 30
0.0
  0
POINT
  5
A412
330
A409
100
AcDbEntity
  8
DEFPOINTS
  6
CONTINUOUS
 62
     0
100
AcDbPoint
 10
6376.335046547652
 20
-2758.433038559975
 30
0.0
  0
ENDBLK
  5
A414
330
A409
100
AcDbEntity
  8
0
100
AcDbBlockEnd
  0
BLOCK
  5
A420
330
A416
100
AcDbEntity
  8
0
100
AcDbBlockBegin
  2
*D6
 70
     1
 10
0.0
 20
0.0
 30
0.0
  3
*D6
  1

  0
LINE
  5
A417
330
A416
100
AcDbEntity
  8
SIZE
  6
CONTINUOUS
 62
     0
100
AcDbLine
 10
6990.985050340744
 20
-3122.433038559998
 30
0.0
 11
6250.63165165045
 21
-3122.433038559998
 31
0.0
  0
LINE
  5
A418
330
A416
100
AcDbEntity
  8
SIZE
  6
CONTINUOUS
 62
     0
100
AcDbLine
 10
6760.985050340758
 20
-2687.433038559964
 30
0.0
 11
6250.63165165045
 21
-2687.433038559964
 31
0.0
  0
LINE
  5
A419
330
A416
100
AcDbEntity
  8
SIZE
  6
CONTINUOUS
 62
     0
100
AcDbLine
 10
6270.631651650449
 20
-3112.433038559998
 30
0.0
 11
6270.631651650449
 21
-2697.433038559964
 31
0.0
  0
INSERT
  5
A41A
330
A416
100
AcDbEntity
  8
SIZE
  6
CONTINUOUS
 62
     0
100
AcDbBlockReference
  2
_ORIGIN
 10
6270.631651650449
 20
-3122.433038559998
 30
0.0
 41
10.0
 42
10.0
 43
10.0
 50
270.0
  0
INSERT
  5
A41B
330
A416
100
AcDbEntity
  8
SIZE
  6
CONTINUOUS
 62
     0
100
AcDbBlockReference
  2
_ORIGIN
 10
6270.631651650449
 20
-2687.433038559964
 30
0.0
 41
10.0
 42
10.0
 43
10.0
 50
90.0
  0
MTEXT
  5
A41C
330
A416
100
AcDbEntity
  8
SIZE
  6
CONTINUOUS
 62
     0
100
AcDbMText
 10
6228.63165165045
 20
-2904.93303855998
 30
0.0
 40
64.0
 41
0.0
 71
     5
 72
     1
  1
\A1;435
 11
0.0000000000000001
 21
1.0
 31
0.0
1001
ACAD
1000
MTEXTBEGIN
1070
    73
1070
     1
1070
    44
1040
1.0
1070
    74
1070
     0
1000
MTEXTEND
  0
POINT
  5
A41D
330
A416
100
AcDbEntity
  8
DEFPOINTS
  6
CONTINUOUS
 62
     0
100
AcDbPoint
 10
7010.985050340742
 20
-3122.433038559998
 30
0.0
  0
POINT
  5
A41E
330
A416
100
AcDbEntity
  8
DEFPOINTS
  6
CONTINUOUS
 62
     0
100
AcDbPoint
 10
6780.985050340757
 20
-2687.433038559964
 30
0.0
  0
POINT
  5
A41F
330
A416
100
AcDbEntity
  8
DEFPOINTS
  6
CONTINUOUS
 62
     0
100
AcDbPoint
 10
6270.631651650449
 20
-2687.433038559964
 30
0.0
  0
ENDBLK
  5
A421
330
A416
100
AcDbEntity
  8
0
100
AcDbBlockEnd
  0
ENDSEC
  0
SECTION
  2
ENTITIES
  0
TEXT
  5
830D
330
73DF
100
AcDbEntity
  8
ETC
100
AcDbText
 10
651.757388675559
 20
694.8687644831188
 30
0.0
 40
64.0
  1
PAC
 41
0.9051724137931033
 72
     5
 11
811.7573886755589
 21
694.8687644831188
 31
0.0
100
AcDbText
  0
TEXT
  5
830E
330
73DF
100
AcDbEntity
  8
ETC
100
AcDbText
 10
649.2711728128265
 20
514.143389219209
 30
0.0
 40
64.0
  1
室外機
 41
0.9
100
AcDbText
  0
TEXT
  5
830F
330
73DF
100
AcDbEntity
  8
NOTE
100
AcDbText
 10
374.3429243663876
 20
-756.1138863747037
 30
0.0
 40
64.0
  1
RL %%c9.52
 41
0.9
100
AcDbText
  0
LINE
  5
8310
330
73DF
100
AcDbEntity
  8
NOTE
100
AcDbLine
 10
774.1685124397336
 20
-784.9063003747041
 30
0.0
 11
342.9740791701897
 21
-784.9063003747041
 31
0.0
  0
TEXT
  5
8311
330
73DF
100
AcDbEntity
  8
NOTE
100
AcDbText
 10
644.8637176281704
 20
-118.3049508909607
 30
0.0
 40
64.0
  1
CL%%c27
 41
0.9
100
AcDbText
  0
LINE
  5
8312
330
73DF
100
AcDbEntity
  8
NOTE
100
AcDbLine
 10
923.7707686281702
 20
-138.7576858909615
 30
0.0
 11
601.9434866281703
 21
-138.7576858909615
 31
0.0
  0
LINE
  5
8313
330
73DF
100
AcDbEntity
  8
NOTE
100
AcDbLine
 10
899.3426933564792
 20
-10.74868013170635
 30
0.0
 11
607.9895533564791
 21
-10.74868013170635
 31
0.0
  0
TEXT
  5
8314
330
73DF
100
AcDbEntity
  8
NOTE
100
AcDbText
 10
625.7275423564792
 20
14.71323886829395
 30
0.0
 40
64.0
  1
EL %%c40
 41
0.9
100
AcDbText
  0
LINE
  5
8315
330
73DF
100
AcDbEntity
  8
SIZE
100
AcDbLine
 10
718.5342959584373
 20
-333.0000000000008
 30
0.0
 11
499.4773674589896
 21
-333.0000000000008
 31
0.0
  0
LINE
  5
8316
330
73DF
100
AcDbEntity
  8
SIZE
100
AcDbLine
 10
718.5342959584373
 20
-285.0000000000027
 30
0.0
 11
499.47736745899
 21
-285.0000000000027
 31
0.0
  0
TEXT
  5
8317
330
73DF
100
AcDbEntity
  8
SIZE
100
AcDbText
 10
681.2694496698386
 20
-239.9006720396682
 30
0.0
 40
64.0
  1
48
 50
90.0
 41
0.9
100
AcDbText
  0
LINE
  5
8318
330
73DF
100
AcDbEntity
  8
SIZE
100
AcDbLine
 10
834.017492041276
 20
-254.9999999999982
 30
0.0
 11
349.4773674589889
 21
-254.9999999999972
 31
0.0
  0
LINE
  5
8319
330
73DF
100
AcDbEntity
  8
SIZE
100
AcDbLine
 10
938.0662950585119
 20
-375.0000000000009
 30
0.0
 11
464.4773674589896
 21
-375.0
 31
0.0
  0
LINE
  5
831A
330
73DF
100
AcDbEntity
  8
SIZE
100
AcDbLine
 10
937.7938068756558
 20
-251.9999999999499
 30
0.0
 11
279.2048792761324
 21
-251.999999999949
 31
0.0
  0
LINE
  5
831B
330
73DF
100
AcDbEntity
  8
NOTE
  6
CONTINUOUS
100
AcDbLine
 10
300.0
 20
-254.9999999999972
 30
0.0
 11
677.0683241968163
 21
-670.1282114933455
 31
0.0
  0
TEXT
  5
831C
330
73DF
100
AcDbEntity
  8
SIZE
100
AcDbText
 10
681.2694496698386
 20
-489.3986748794323
 30
0.0
 40
64.0
  1
42
 50
90.0
 41
0.9
100
AcDbText
  0
TEXT
  5
831D
330
73DF
100
AcDbEntity
  8
ETC
100
AcDbText
 10
643.3800962782211
 20
608.0352600277174
 30
0.0
 40
64.0
  1
SMPU2746
 41
0.8750000068359348
 72
     5
 11
1070.046766278219
 21
608.0352600277174
 31
0.0
100
AcDbText
  0
LINE
  5
831E
330
73DF
100
AcDbEntity
  8
NOTE
100
AcDbLine
 10
-1405.009708966169
 20
-703.3666027242288
 30
0.0
 11
-548.7553761983754
 21
-703.3666027242279
 31
0.0
  0
TEXT
  5
831F
330
73DF
100
AcDbEntity
  8
NOTE
100
AcDbText
 10
-1384.641708966167
 20
-686.4328357242293
 30
0.0
 40
64.0
  1
AH 2×2-12×28長穴
 41
0.9
100
AcDbText
  0
LINE
  5
8320
330
73DF
100
AcDbEntity
  8
NOTE
  6
CONTINUOUS
100
AcDbLine
 10
230.0
 20
-251.999999999949
 30
0.0
 11
342.9740791701897
 21
-784.9063003747041
 31
0.0
  0
LINE
  5
8321
330
73DF
100
AcDbEntity
  8
SIZE
100
AcDbLine
 10
230.0
 20
-284.0
 30
0.0
 11
230.0
 21
-529.8489100388933
 31
0.0
  0
LINE
  5
8322
330
73DF
100
AcDbEntity
  8
SIZE
100
AcDbLine
 10
300.0000000000018
 20
-287.0
 30
0.0
 11
300.0000000000018
 21
-529.8489100388933
 31
0.0
  0
LINE
  5
8323
330
73DF
100
AcDbEntity
  8
SIZE
100
AcDbLine
 10
450.0
 20
-380.0
 30
0.0
 11
450.0
 21
-535.8663502702857
 31
0.0
  0
POLYLINE
  5
8324
330
73DF
100
AcDbEntity
  8
NOTE
100
AcDb2dPolyline
 66
     1
 10
0.0
 20
0.0
 30
0.0
  0
VERTEX
  5
BA02
330
8324
100
AcDbEntity
  8
NOTE
100
AcDbVertex
100
AcDb2dVertex
 10
-296.7266156501709
 20
-404.3348358353141
 30
0.0
  0
VERTEX
  5
BA03
330
8324
100
AcDbEntity
  8
NOTE
100
AcDbVertex
100
AcDb2dVertex
 10
-280.0
 20
-368.0
 30
0.0
  0
VERTEX
  5
BA04
330
8324
100
AcDbEntity
  8
NOTE
100
AcDbVertex
100
AcDb2dVertex
 10
-312.6530921889075
 20
-391.103583054064
 30
0.0
  0
SEQEND
  5
BA05
330
8324
100
AcDbEntity
  8
NOTE
  0
LINE
  5
8325
330
73DF
100
AcDbEntity
  8
NOTE
100
AcDbLine
 10
-548.7553761983754
 20
-703.3666027242279
 30
0.0
 11
-280.0
 21
-368.0
 31
0.0
  0
LINE
  5
8326
330
73DF
100
AcDbEntity
  8
SIZE
100
AcDbLine
 10
-744.2729117735582
 20
-375.0
 30
0.0
 11
-744.2729117735582
 21
-489.2080310000001
 31
0.0
  0
LINE
  5
8327
330
73DF
100
AcDbEntity
  8
BASIS
  6
DASHDOT
 62
     6
100
AcDbLine
 10
0.0
 20
-481.49076021771
 30
0.0
 11
0.0
 21
481.4907602177145
 31
0.0
  0
TEXT
  5
8328
330
73DF
100
AcDbEntity
  8
SIZE
100
AcDbText
 10
-776.2729117735583
 20
-484.2743330000011
 30
0.0
 40
64.0
  1
15
 50
90.0
 41
0.9
100
AcDbText
  0
CIRCLE
  5
8329
330
73DF
100
AcDbEntity
  8
SIZE
100
AcDbCircle
 10
230.0
 20
-500.0744147487412
 30
0.0
 40
6.0
  0
LINE
  5
832A
330
73DF
100
AcDbEntity
  8
SIZE
100
AcDbLine
 10
61.92843212752541
 20
-500.0744147487412
 30
0.0
 11
450.0
 21
-500.0744147487412
 31
0.0
  0
TEXT
  5
832B
330
73DF
100
AcDbEntity
  8
SIZE
100
AcDbText
 10
104.7542355501786
 20
-479.7073034553359
 30
0.0
 40
64.0
  1
70
 41
0.9
100
AcDbText
  0
CIRCLE
  5
832C
330
73DF
100
AcDbEntity
  8
SIZE
100
AcDbCircle
 10
450.0
 20
-500.0744147487412
 30
0.0
 40
6.0
  0
TEXT
  5
832D
330
73DF
100
AcDbEntity
  8
SIZE
100
AcDbText
 10
299.3585209483817
 20
-488.5487611613098
 30
0.0
 40
64.0
  1
150
 41
0.9
100
AcDbText
  0
CIRCLE
  5
832E
330
73DF
100
AcDbEntity
  8
SIZE
100
AcDbCircle
 10
300.0000000000018
 20
-500.0744147487412
 30
0.0
 40
6.0
  0
LINE
  5
8331
330
73DF
100
AcDbEntity
  8
SIZE
100
AcDbLine
 10
-450.0
 20
633.8845647967509
 30
0.0
 11
450.0
 21
633.8845647967509
 31
0.0
  0
LINE
  5
8332
330
73DF
100
AcDbEntity
  8
SIZE
100
AcDbLine
 10
-280.0
 20
509.0421197048089
 30
0.0
 11
280.0000000000018
 21
509.0421197048089
 31
0.0
  0
LINE
  5
8333
330
73DF
100
AcDbEntity
  8
BASIS
  6
DASHDOT
 62
     6
100
AcDbLine
 10
481.4907602177136
 20
0.000000000001819
 30
0.0
 11
-481.4907602177113
 21
0.000000000001819
 31
0.0
  0
LINE
  5
8334
330
73DF
100
AcDbEntity
  8
DETAIL
  6
CONTINUOUS
100
AcDbLine
 10
-435.0
 20
375.0000000000027
 30
0.0
 11
435.0
 21
375.0000000000027
 31
0.0
  0
LINE
  5
8335
330
73DF
100
AcDbEntity
  8
DETAIL
  6
CONTINUOUS
100
AcDbLine
 10
-435.0
 20
-374.9999999999981
 30
0.0
 11
435.0
 21
-374.9999999999981
 31
0.0
  0
LINE
  5
8337
330
73DF
100
AcDbEntity
  8
SIZE
100
AcDbLine
 10
-744.2729117735582
 20
375.0000000000018
 30
0.0
 11
-744.2729117735582
 21
-375.0000000000009
 31
0.0
  0
LINE
  5
8338
330
73DF
100
AcDbEntity
  8
SIZE
100
AcDbLine
 10
-890.7596269817513
 20
390.0000000000036
 30
0.0
 11
-890.7596269817513
 21
-390.0
 31
0.0
  0
LINE
  5
8339
330
73DF
100
AcDbEntity
  8
SIZE
100
AcDbLine
 10
-619.3631412771182
 20
368.0
 30
0.0
 11
-619.3631412771174
 21
-368.0
 31
0.0
  0
LINE
  5
833A
330
73DF
100
AcDbEntity
  8
DETAIL
  6
CONTINUOUS
100
AcDbLine
 10
-450.0
 20
360.0000000000027
 30
0.0
 11
-450.0
 21
-359.9999999999972
 31
0.0
  0
LINE
  5
833B
330
73DF
100
AcDbEntity
  8
SIZE
100
AcDbLine
 10
-408.0
 20
-368.0
 30
0.0
 11
-659.4800024581054
 21
-368.0
 31
0.0
  0
LINE
  5
833C
330
73DF
100
AcDbEntity
  8
SIZE
100
AcDbLine
 10
-455.0
 20
-375.0
 30
0.0
 11
-786.3533999800425
 21
-375.0000000000009
 31
0.0
  0
LINE
  5
833D
330
73DF
100
AcDbEntity
  8
SIZE
100
AcDbLine
 10
-440.0
 20
-390.0000000000009
 30
0.0
 11
-939.6587530006039
 21
-390.0
 31
0.0
  0
CIRCLE
  5
833E
330
73DF
100
AcDbEntity
  8
SIZE
100
AcDbCircle
 10
-890.7596269817513
 20
-389.9999999999991
 30
0.0
 40
6.0
  0
CIRCLE
  5
833F
330
73DF
100
AcDbEntity
  8
SIZE
100
AcDbCircle
 10
-744.2729117735582
 20
-375.0
 30
0.0
 40
6.0
  0
CIRCLE
  5
8340
330
73DF
100
AcDbEntity
  8
SIZE
100
AcDbCircle
 10
-744.2729117735582
 20
-390.0
 30
0.0
 40
6.0
  0
TEXT
  5
8341
330
73DF
100
AcDbEntity
  8
SIZE
100
AcDbText
 10
-920.3317460008257
 20
-62.12597523855857
 30
0.0
 40
64.0
  1
780
 50
90.0
 41
0.9
100
AcDbText
  0
TEXT
  5
8342
330
73DF
100
AcDbEntity
  8
SIZE
100
AcDbText
 10
-645.1695088646884
 20
-56.07576102689018
 30
0.0
 40
64.0
  1
736
 50
90.0
 41
0.9
100
AcDbText
  0
TEXT
  5
8343
330
73DF
100
AcDbEntity
  8
SIZE
100
AcDbText
 10
-773.8450307926322
 20
-62.12597523855857
 30
0.0
 40
64.0
  1
750
 50
90.0
 41
0.9
100
AcDbText
  0
LINE
  5
8345
330
73DF
100
AcDbEntity
  8
DETAIL
  6
CONTINUOUS
100
AcDbLine
 10
-430.0
 20
-374.9999999999981
 30
0.0
 11
-415.0
 21
-389.9999999999991
 31
0.0
  0
CIRCLE
  5
8346
330
73DF
100
AcDbEntity
  8
SIZE
100
AcDbCircle
 10
-619.3631412771174
 20
-368.0
 30
0.0
 40
6.0
  0
ARC
  5
8349
330
73DF
100
AcDbEntity
  8
DETAIL
  6
CONTINUOUS
100
AcDbCircle
 10
-435.0
 20
-359.9999999999972
 30
0.0
 40
15.0
100
AcDbArc
 50
180.0
 51
270.0
  0
LINE
  5
834B
330
73DF
100
AcDbEntity
  8
DETAIL
  6
CONTINUOUS
100
AcDbLine
 10
-415.0
 20
-389.9999999999991
 30
0.0
 11
-220.0
 21
-390.0000000000009
 31
0.0
  0
LINE
  5
834C
330
73DF
100
AcDbEntity
  8
NOTE
100
AcDbLine
 10
-368.0
 20
-388.0000000000009
 30
0.0
 11
-368.0
 21
-348.0
 31
0.0
  0
CIRCLE
  5
834D
330
73DF
100
AcDbEntity
  8
FIX
100
AcDbCircle
 10
-368.0
 20
-368.0
 30
0.0
 40
20.0
  0
LINE
  5
834E
330
73DF
100
AcDbEntity
  8
NOTE
100
AcDbLine
 10
-388.0
 20
-368.0
 30
0.0
 11
-348.0
 21
-368.0
 31
0.0
  0
ARC
  5
8350
330
73DF
100
AcDbEntity
  8
DETAIL
  6
CONTINUOUS
100
AcDbCircle
 10
-288.0
 20
-368.0
 30
0.0
 40
6.0
100
AcDbArc
 50
90.0
 51
270.0
  0
LINE
  5
8351
330
73DF
100
AcDbEntity
  8
DETAIL
100
AcDbLine
 10
-288.0
 20
-362.0
 30
0.0
 11
-272.0
 21
-362.0
 31
0.0
  0
LINE
  5
8352
330
73DF
100
AcDbEntity
  8
DETAIL
100
AcDbLine
 10
-288.0
 20
-374.0
 30
0.0
 11
-272.0
 21
-374.0
 31
0.0
  0
ARC
  5
8353
330
73DF
100
AcDbEntity
  8
DETAIL
  6
CONTINUOUS
100
AcDbCircle
 10
-272.0
 20
-368.0
 30
0.0
 40
6.0
100
AcDbArc
 50
270.0
 51
90.0
  0
LINE
  5
8354
330
73DF
100
AcDbEntity
  8
NOTE
100
AcDbLine
 10
-280.0
 20
-388.0000000000009
 30
0.0
 11
-280.0
 21
-348.0
 31
0.0
  0
CIRCLE
  5
8355
330
73DF
100
AcDbEntity
  8
FIX
100
AcDbCircle
 10
-280.0
 20
-368.0
 30
0.0
 40
20.0
  0
LINE
  5
8356
330
73DF
100
AcDbEntity
  8
NOTE
100
AcDbLine
 10
-300.0
 20
-368.0
 30
0.0
 11
-260.0
 21
-368.0
 31
0.0
  0
LINE
  5
8357
330
73DF
100
AcDbEntity
  8
DETAIL
  6
CONTINUOUS
100
AcDbLine
 10
-220.0
 20
-390.0000000000027
 30
0.0
 11
-205.0
 21
-375.0000000000027
 31
0.0
  0
LINE
  5
8358
330
73DF
100
AcDbEntity
  8
SIZE
100
AcDbLine
 10
-408.0
 20
368.0
 30
0.0
 11
-659.4800024581054
 21
368.0
 31
0.0
  0
LINE
  5
8359
330
73DF
100
AcDbEntity
  8
SIZE
100
AcDbLine
 10
-450.0
 20
375.0000000000009
 30
0.0
 11
-786.3533999800425
 21
375.0000000000018
 31
0.0
  0
LINE
  5
835A
330
73DF
100
AcDbEntity
  8
SIZE
100
AcDbLine
 10
-430.0
 20
390.0000000000027
 30
0.0
 11
-939.6587530006039
 21
390.0000000000036
 31
0.0
  0
CIRCLE
  5
835B
330
73DF
100
AcDbEntity
  8
SIZE
100
AcDbCircle
 10
-890.7596269817513
 20
390.0000000000036
 30
0.0
 40
6.0
  0
CIRCLE
  5
835C
330
73DF
100
AcDbEntity
  8
SIZE
100
AcDbCircle
 10
-744.2729117735582
 20
375.0000000000018
 30
0.0
 40
6.0
  0
LINE
  5
835D
330
73DF
100
AcDbEntity
  8
SIZE
100
AcDbLine
 10
-450.0
 20
380.0
 30
0.0
 11
-450.0
 21
683.5116379999999
 31
0.0
  0
LINE
  5
835E
330
73DF
100
AcDbEntity
  8
SIZE
100
AcDbLine
 10
-450.0
 20
380.0
 30
0.0
 11
-450.0
 21
540.0232219999998
 31
0.0
  0
LINE
  5
835F
330
73DF
100
AcDbEntity
  8
SIZE
100
AcDbLine
 10
-280.0
 20
413.0
 30
0.0
 11
-280.0
 21
533.0232219999998
 31
0.0
  0
LINE
  5
8360
330
73DF
100
AcDbEntity
  8
SIZE
100
AcDbLine
 10
-280.0
 20
413.0
 30
0.0
 11
-280.0
 21
533.0232219999998
 31
0.0
  0
LINE
  5
8362
330
73DF
100
AcDbEntity
  8
DETAIL
  6
CONTINUOUS
100
AcDbLine
 10
-430.0
 20
375.0000000000036
 30
0.0
 11
-415.0
 21
390.0000000000036
 31
0.0
  0
CIRCLE
  5
8363
330
73DF
100
AcDbEntity
  8
SIZE
100
AcDbCircle
 10
-619.3631412771182
 20
368.0
 30
0.0
 40
6.0
  0
ARC
  5
8366
330
73DF
100
AcDbEntity
  8
DETAIL
  6
CONTINUOUS
100
AcDbCircle
 10
-435.0
 20
360.0000000000027
 30
0.0
 40
15.0
100
AcDbArc
 50
90.0
 51
180.0
  0
LINE
  5
8368
330
73DF
100
AcDbEntity
  8
DETAIL
  6
CONTINUOUS
100
AcDbLine
 10
-415.0
 20
390.0000000000036
 30
0.0
 11
-220.0
 21
390.0000000000045
 31
0.0
  0
LINE
  5
8369
330
73DF
100
AcDbEntity
  8
NOTE
100
AcDbLine
 10
-388.0
 20
368.0
 30
0.0
 11
-348.0
 21
368.0
 31
0.0
  0
CIRCLE
  5
836A
330
73DF
100
AcDbEntity
  8
FIX
100
AcDbCircle
 10
-368.0
 20
368.0
 30
0.0
 40
20.0
  0
LINE
  5
836B
330
73DF
100
AcDbEntity
  8
NOTE
100
AcDbLine
 10
-368.0
 20
348.0
 30
0.0
 11
-368.0
 21
388.0
 31
0.0
  0
ARC
  5
836D
330
73DF
100
AcDbEntity
  8
DETAIL
  6
CONTINUOUS
100
AcDbCircle
 10
-288.0
 20
368.0
 30
0.0
 40
6.0
100
AcDbArc
 50
90.0
 51
270.0
  0
ARC
  5
836E
330
73DF
100
AcDbEntity
  8
DETAIL
  6
CONTINUOUS
100
AcDbCircle
 10
-272.0
 20
368.0
 30
0.0
 40
6.0
100
AcDbArc
 50
270.0
 51
90.0
  0
LINE
  5
836F
330
73DF
100
AcDbEntity
  8
DETAIL
100
AcDbLine
 10
-288.0
 20
362.0
 30
0.0
 11
-272.0
 21
362.0
 31
0.0
  0
LINE
  5
8370
330
73DF
100
AcDbEntity
  8
DETAIL
100
AcDbLine
 10
-288.0
 20
374.0
 30
0.0
 11
-272.0
 21
374.0
 31
0.0
  0
LINE
  5
8371
330
73DF
100
AcDbEntity
  8
NOTE
100
AcDbLine
 10
-280.0
 20
348.0
 30
0.0
 11
-280.0
 21
388.0
 31
0.0
  0
CIRCLE
  5
8372
330
73DF
100
AcDbEntity
  8
FIX
100
AcDbCircle
 10
-280.0
 20
368.0
 30
0.0
 40
20.0
  0
LINE
  5
8373
330
73DF
100
AcDbEntity
  8
NOTE
100
AcDbLine
 10
-300.0
 20
368.0
 30
0.0
 11
-260.0
 21
368.0
 31
0.0
  0
LINE
  5
8374
330
73DF
100
AcDbEntity
  8
DETAIL
  6
CONTINUOUS
100
AcDbLine
 10
-220.0
 20
390.0000000000072
 30
0.0
 11
-205.0
 21
375.0000000000099
 31
0.0
  0
TEXT
  5
8375
330
73DF
100
AcDbEntity
  8
SIZE
100
AcDbText
 10
-425.2212103090882
 20
538.6441639737931
 30
0.0
 40
64.0
  1
170
 41
0.9
100
AcDbText
  0
LINE
  5
8376
330
73DF
100
AcDbEntity
  8
SIZE
100
AcDbLine
 10
-274.0
 20
509.0421197048089
 30
0.0
 11
-450.0
 21
509.0421197048089
 31
0.0
  0
CIRCLE
  5
8377
330
73DF
100
AcDbEntity
  8
SIZE
100
AcDbCircle
 10
-450.0
 20
509.0421197048089
 30
0.0
 40
6.0
  0
CIRCLE
  5
8378
330
73DF
100
AcDbEntity
  8
SIZE
100
AcDbCircle
 10
-450.0
 20
633.8845647967509
 30
0.0
 40
6.0
  0
CIRCLE
  5
8379
330
73DF
100
AcDbEntity
  8
SIZE
100
AcDbCircle
 10
-279.9999999999982
 20
509.0421197048089
 30
0.0
 40
6.0
  0
TEXT
  5
837B
330
73DF
100
AcDbEntity
  8
SIZE
100
AcDbText
 10
100.3670765344195
 20
143.7555526658379
 30
0.0
 40
64.0
  1
120
 41
0.9
100
AcDbText
  0
TEXT
  5
837C
330
73DF
100
AcDbEntity
  8
SIZE
100
AcDbText
 10
279.7192270408463
 20
144.6113272516759
 30
0.0
 40
64.0
  1
257
 41
0.9
100
AcDbText
  0
LINE
  5
837D
330
73DF
100
AcDbEntity
  8
SIZE
100
AcDbLine
 10
-75.14414601882163
 20
305.0000000000027
 30
0.0
 11
-75.14414601882163
 21
-374.9999999999981
 31
0.0
  0
LINE
  5
837E
330
73DF
100
AcDbEntity
  8
SIZE
100
AcDbLine
 10
73.0
 20
215.0000000000018
 30
0.0
 11
73.0
 21
107.0920460589932
 31
0.0
  0
LINE
  5
837F
330
73DF
100
AcDbEntity
  8
SIZE
100
AcDbLine
 10
193.0
 20
215.0000000000027
 30
0.0
 11
193.0
 21
107.0920460589932
 31
0.0
  0
LINE
  5
8380
330
73DF
100
AcDbEntity
  8
DETAIL
  6
CONTINUOUS
100
AcDbLine
 10
450.0
 20
360.0000000000027
 30
0.0
 11
450.0
 21
-359.9999999999972
 31
0.0
  0
LINE
  5
8382
330
73DF
100
AcDbEntity
  8
SIZE
100
AcDbLine
 10
73.0
 20
133.262069307616
 30
0.0
 11
450.0
 21
133.262069307616
 31
0.0
  0
TEXT
  5
8383
330
73DF
100
AcDbEntity
  8
SIZE
100
AcDbText
 10
201.8027498445553
 20
-84.30008258847919
 30
0.0
 40
64.0
  1
140
 41
0.9
100
AcDbText
  0
LINE
  5
8384
330
73DF
100
AcDbEntity
  8
SIZE
100
AcDbLine
 10
200.0
 20
-99.53842585335861
 30
0.0
 11
450.0
 21
-99.53842585335861
 31
0.0
  0
LINE
  5
8385
330
73DF
100
AcDbEntity
  8
DETAIL
  6
CONTINUOUS
100
AcDbLine
 10
200.0
 20
-291.9999999999981
 30
0.0
 11
340.0
 21
-291.9999999999981
 31
0.0
  0
LINE
  5
8386
330
73DF
100
AcDbEntity
  8
DETAIL
  6
CONTINUOUS
100
AcDbLine
 10
200.0
 20
-211.9999999999981
 30
0.0
 11
340.0
 21
-211.9999999999981
 31
0.0
  0
LINE
  5
8387
330
73DF
100
AcDbEntity
  8
NOTE
  6
DASHDOT
 62
     4
100
AcDbLine
 10
210.0
 20
-251.999999999949
 30
0.0
 11
250.0
 21
-251.999999999949
 31
0.0
  0
POLYLINE
  5
8388
330
73DF
100
AcDbEntity
  8
NOTE
100
AcDb2dPolyline
 66
     1
 10
0.0
 20
0.0
 30
0.0
  0
VERTEX
  5
BA06
330
8388
100
AcDbEntity
  8
NOTE
100
AcDbVertex
100
AcDb2dVertex
 10
249.3672706931633
 20
-286.9986970069157
 30
0.0
  0
VERTEX
  5
BA07
330
8388
100
AcDbEntity
  8
NOTE
100
AcDbVertex
100
AcDb2dVertex
 10
230.0000000000018
 20
-251.9999999999472
 30
0.0
  0
VERTEX
  5
BA08
330
8388
100
AcDbEntity
  8
NOTE
100
AcDbVertex
100
AcDb2dVertex
 10
229.2731998037374
 20
-291.9933962161739
 30
0.0
  0
SEQEND
  5
BA09
330
8388
100
AcDbEntity
  8
NOTE
  0
LINE
  5
8389
330
73DF
100
AcDbEntity
  8
DETAIL
  6
CONTINUOUS
100
AcDbLine
 10
415.0
 20
-389.9999999999991
 30
0.0
 11
220.0
 21
-390.0000000000009
 31
0.0
  0
TEXT
  5
838A
330
73DF
100
AcDbEntity
  8
SIZE
100
AcDbText
 10
-93.16649667447654
 20
-181.5456430431076
 30
0.0
 40
64.0
  1
610
 50
90.0
 41
0.9
100
AcDbText
  0
TEXT
  5
838B
330
73DF
100
AcDbEntity
  8
SIZE
100
AcDbText
 10
89.15570371165859
 20
-194.8299506232851
 30
0.0
 40
64.0
  1
80
 50
90.0
 41
0.9
100
AcDbText
  0
LINE
  5
838C
330
73DF
100
AcDbEntity
  8
SIZE
100
AcDbLine
 10
200.0
 20
-186.9999999999972
 30
0.0
 11
200.0
 21
-66.97677799999837
 31
0.0
  0
LINE
  5
838D
330
73DF
100
AcDbEntity
  8
SIZE
100
AcDbLine
 10
200.0
 20
-186.9999999999972
 30
0.0
 11
200.0
 21
-66.97677799999837
 31
0.0
  0
CIRCLE
  5
838E
330
73DF
100
AcDbEntity
  8
SIZE
100
AcDbCircle
 10
-75.14414601882163
 20
-374.9999999999981
 30
0.0
 40
6.0
  0
LINE
  5
838F
330
73DF
100
AcDbEntity
  8
SIZE
100
AcDbLine
 10
98.09726400053069
 20
-129.3744528954657
 30
0.0
 11
98.09726400052978
 21
-374.9999999999981
 31
0.0
  0
LINE
  5
8390
330
73DF
100
AcDbEntity
  8
DETAIL
  6
CONTINUOUS
100
AcDbLine
 10
200.0
 20
-211.9999999999981
 30
0.0
 11
200.0
 21
-291.9999999999981
 31
0.0
  0
LINE
  5
8391
330
73DF
100
AcDbEntity
  8
SIZE
100
AcDbLine
 10
180.0
 20
-291.9999999999981
 30
0.0
 11
75.20370430784169
 21
-291.9999999999972
 31
0.0
  0
CIRCLE
  5
8392
330
73DF
100
AcDbEntity
  8
SIZE
100
AcDbCircle
 10
98.09726400053069
 20
-291.9999999999981
 30
0.0
 40
6.0
  0
CIRCLE
  5
8393
330
73DF
100
AcDbEntity
  8
SIZE
100
AcDbCircle
 10
98.09726400053069
 20
-374.9999999999981
 30
0.0
 40
6.0
  0
TEXT
  5
8394
330
73DF
100
AcDbEntity
  8
SIZE
100
AcDbText
 10
83.55978400843651
 20
-357.0633865918916
 30
0.0
 40
64.0
  1
83
 50
90.0
 41
0.9
100
AcDbText
  0
LINE
  5
8396
330
73DF
100
AcDbEntity
  8
DETAIL
  6
CONTINUOUS
100
AcDbLine
 10
220.0
 20
-390.0000000000027
 30
0.0
 11
205.0
 21
-375.0000000000027
 31
0.0
  0
LINE
  5
8397
330
73DF
100
AcDbEntity
  8
SIZE
100
AcDbLine
 10
180.0
 20
-211.9999999999981
 30
0.0
 11
75.20370430784169
 21
-211.9999999999981
 31
0.0
  0
CIRCLE
  5
8398
330
73DF
100
AcDbEntity
  8
SIZE
100
AcDbCircle
 10
98.09726400053069
 20
-211.9999999999981
 30
0.0
 40
6.0
  0
CIRCLE
  5
8399
330
73DF
100
AcDbEntity
  8
ARRANGE
  6
CONTINUOUS
100
AcDbCircle
 10
0.0
 20
0.0
 30
0.0
 40
40.0
  0
POINT
  5
839A
330
73DF
100
AcDbEntity
  8
ARRANGE
  6
CONTINUOUS
100
AcDbPoint
 10
0.0
 20
0.0
 30
0.0
  0
CIRCLE
  5
839B
330
73DF
100
AcDbEntity
  8
SIZE
100
AcDbCircle
 10
200.0
 20
-99.53842585335861
 30
0.0
 40
6.0
  0
CIRCLE
  5
839C
330
73DF
100
AcDbEntity
  8
SIZE
100
AcDbCircle
 10
73.0
 20
133.262069307616
 30
0.0
 40
6.0
  0
CIRCLE
  5
839D
330
73DF
100
AcDbEntity
  8
SIZE
100
AcDbCircle
 10
193.0
 20
133.262069307616
 30
0.0
 40
6.0
  0
LINE
  5
839E
330
73DF
100
AcDbEntity
  8
SIZE
100
AcDbLine
 10
340.0
 20
-186.9999999999972
 30
0.0
 11
340.0
 21
-66.97677799999837
 31
0.0
  0
LINE
  5
839F
330
73DF
100
AcDbEntity
  8
SIZE
100
AcDbLine
 10
340.0
 20
-186.9999999999972
 30
0.0
 11
340.0
 21
-66.97677799999837
 31
0.0
  0
LINE
  5
83A0
330
73DF
100
AcDbEntity
  8
NOTE
  6
CONTINUOUS
100
AcDbLine
 10
607.9895533564791
 20
-10.74868013170635
 30
0.0
 11
450.0
 21
-285.0000000000027
 31
0.0
  0
LINE
  5
83A1
330
73DF
100
AcDbEntity
  8
NOTE
  6
DASHDOT
 62
     4
100
AcDbLine
 10
430.0
 20
-333.0000000000008
 30
0.0
 11
470.0
 21
-333.0000000000008
 31
0.0
  0
LINE
  5
83A2
330
73DF
100
AcDbEntity
  8
NOTE
  6
DASHDOT
 62
     4
100
AcDbLine
 10
430.0000000000009
 20
-285.0000000000027
 30
0.0
 11
470.0000000000009
 21
-285.0000000000027
 31
0.0
  0
ARC
  5
83A4
330
73DF
100
AcDbEntity
  8
DETAIL
  6
CONTINUOUS
100
AcDbCircle
 10
435.0
 20
-359.9999999999972
 30
0.0
 40
14.99999999999985
100
AcDbArc
 50
270.0
 51
0.0
  0
LINE
  5
83A5
330
73DF
100
AcDbEntity
  8
DETAIL
  6
CONTINUOUS
100
AcDbLine
 10
340.0
 20
-211.9999999999981
 30
0.0
 11
340.0
 21
-291.9999999999981
 31
0.0
  0
LINE
  5
83A6
330
73DF
100
AcDbEntity
  8
NOTE
  6
DASHDOT
 62
     4
100
AcDbLine
 10
230.0
 20
-231.999999999949
 30
0.0
 11
230.0
 21
-271.999999999949
 31
0.0
  0
LINE
  5
83A7
330
73DF
100
AcDbEntity
  8
NOTE
  6
DASHDOT
 62
     4
100
AcDbLine
 10
300.0
 20
-234.9999999999972
 30
0.0
 11
300.0
 21
-274.9999999999972
 31
0.0
  0
POLYLINE
  5
83A8
330
73DF
100
AcDbEntity
  8
NOTE
100
AcDb2dPolyline
 66
     1
 10
0.0
 20
0.0
 30
0.0
  0
VERTEX
  5
BA0A
330
83A8
100
AcDbEntity
  8
NOTE
100
AcDbVertex
100
AcDb2dVertex
 10
333.1669805956335
 20
-277.3595922247368
 30
0.0
  0
VERTEX
  5
BA0B
330
83A8
100
AcDbEntity
  8
NOTE
100
AcDbVertex
100
AcDb2dVertex
 10
300.0
 20
-254.9999999999972
 30
0.0
  0
VERTEX
  5
BA0C
330
83A8
100
AcDbEntity
  8
NOTE
100
AcDbVertex
100
AcDb2dVertex
 10
317.5436516216354
 20
-290.9474653795204
 30
0.0
  0
SEQEND
  5
BA0D
330
83A8
100
AcDbEntity
  8
NOTE
  0
ARC
  5
83A9
330
73DF
100
AcDbEntity
  8
DETAIL
  6
CONTINUOUS
100
AcDbCircle
 10
272.0000000000018
 20
-368.0
 30
0.0
 40
6.0
100
AcDbArc
 50
90.0
 51
270.0
  0
LINE
  5
83AA
330
73DF
100
AcDbEntity
  8
DETAIL
100
AcDbLine
 10
272.0000000000018
 20
-374.0
 30
0.0
 11
288.0
 21
-374.0
 31
0.0
  0
ARC
  5
83AB
330
73DF
100
AcDbEntity
  8
DETAIL
  6
CONTINUOUS
100
AcDbCircle
 10
288.0
 20
-368.0
 30
0.0
 40
6.0
100
AcDbArc
 50
270.0
 51
90.0
  0
LINE
  5
83AC
330
73DF
100
AcDbEntity
  8
DETAIL
100
AcDbLine
 10
272.0000000000018
 20
-362.0
 30
0.0
 11
288.0
 21
-362.0
 31
0.0
  0
LINE
  5
83AD
330
73DF
100
AcDbEntity
  8
NOTE
100
AcDbLine
 10
280.0
 20
-388.0000000000009
 30
0.0
 11
280.0
 21
-348.0
 31
0.0
  0
LINE
  5
83AE
330
73DF
100
AcDbEntity
  8
NOTE
100
AcDbLine
 10
260.0
 20
-368.0
 30
0.0
 11
300.0000000000018
 21
-368.0
 31
0.0
  0
CIRCLE
  5
83AF
330
73DF
100
AcDbEntity
  8
FIX
100
AcDbCircle
 10
280.0
 20
-368.0
 30
0.0
 40
20.0
  0
CIRCLE
  5
83B2
330
73DF
100
AcDbEntity
  8
FIX
100
AcDbCircle
 10
368.0000000000018
 20
-368.0
 30
0.0
 40
20.0
  0
LINE
  5
83B3
330
73DF
100
AcDbEntity
  8
NOTE
100
AcDbLine
 10
348.0
 20
-368.0
 30
0.0
 11
388.0
 21
-368.0
 31
0.0
  0
LINE
  5
83B4
330
73DF
100
AcDbEntity
  8
NOTE
100
AcDbLine
 10
368.0000000000018
 20
-388.0000000000009
 30
0.0
 11
368.0000000000018
 21
-348.0
 31
0.0
  0
LINE
  5
83B5
330
73DF
100
AcDbEntity
  8
DETAIL
  6
CONTINUOUS
100
AcDbLine
 10
430.0
 20
-374.9999999999981
 30
0.0
 11
415.0
 21
-389.9999999999991
 31
0.0
  0
LINE
  5
83B6
330
73DF
100
AcDbEntity
  8
NOTE
  6
DASHDOT
 62
     4
100
AcDbLine
 10
280.0
 20
-254.9999999999972
 30
0.0
 11
320.0
 21
-254.9999999999972
 31
0.0
  0
POLYLINE
  5
83B7
330
73DF
100
AcDbEntity
  8
NOTE
100
AcDb2dPolyline
 66
     1
 10
0.0
 20
0.0
 30
0.0
  0
VERTEX
  5
BA0E
330
83B7
100
AcDbEntity
  8
NOTE
100
AcDbVertex
100
AcDb2dVertex
 10
460.6434937814424
 20
-246.4420435394749
 30
0.0
  0
VERTEX
  5
BA0F
330
83B7
100
AcDbEntity
  8
NOTE
100
AcDbVertex
100
AcDb2dVertex
 10
449.9999999999986
 20
-285.0000000000063
 30
0.0
  0
VERTEX
  5
BA10
330
83B7
100
AcDbEntity
  8
NOTE
100
AcDbVertex
100
AcDb2dVertex
 10
478.4965144257189
 20
-256.9295770424159
 30
0.0
  0
SEQEND
  5
BA11
330
83B7
100
AcDbEntity
  8
NOTE
  0
LINE
  5
83B8
330
73DF
100
AcDbEntity
  8
NOTE
  6
CONTINUOUS
100
AcDbLine
 10
601.9434866281703
 20
-138.7576858909615
 30
0.0
 11
450.0
 21
-333.0000000000008
 31
0.0
  0
LINE
  5
83B9
330
73DF
100
AcDbEntity
  8
NOTE
  6
DASHDOT
 62
     4
100
AcDbLine
 10
450.0000000000008
 20
-265.0000000000009
 30
0.0
 11
450.0000000000008
 21
-305.0000000000027
 31
0.0
  0
LINE
  5
83BA
330
73DF
100
AcDbEntity
  8
NOTE
  6
DASHDOT
 62
     4
100
AcDbLine
 10
450.0
 20
-313.0000000000009
 30
0.0
 11
450.0
 21
-353.0000000000009
 31
0.0
  0
POLYLINE
  5
83BB
330
73DF
100
AcDbEntity
  8
NOTE
100
AcDb2dPolyline
 66
     1
 10
0.0
 20
0.0
 30
0.0
  0
VERTEX
  5
BA12
330
83BB
100
AcDbEntity
  8
NOTE
100
AcDbVertex
100
AcDb2dVertex
 10
465.0554150005523
 20
-295.9414727026487
 30
0.0
  0
VERTEX
  5
BA13
330
83BB
100
AcDbEntity
  8
NOTE
100
AcDbVertex
100
AcDb2dVertex
 10
449.9999999999986
 20
-333.0000000000045
 30
0.0
  0
VERTEX
  5
BA14
330
83BB
100
AcDbEntity
  8
NOTE
100
AcDbVertex
100
AcDb2dVertex
 10
481.5676357021756
 20
-308.4340814214529
 30
0.0
  0
SEQEND
  5
BA15
330
83BB
100
AcDbEntity
  8
NOTE
  0
CIRCLE
  5
83BC
330
73DF
100
AcDbEntity
  8
SIZE
100
AcDbCircle
 10
450.0
 20
133.262069307616
 30
0.0
 40
6.0
  0
CIRCLE
  5
83BD
330
73DF
100
AcDbEntity
  8
SIZE
100
AcDbCircle
 10
450.0
 20
-99.53842585335861
 30
0.0
 40
6.0
  0
TEXT
  5
83BE
330
73DF
100
AcDbEntity
  8
SIZE
100
AcDbText
 10
375.7255745642919
 20
-84.9376288561225
 30
0.0
 40
64.0
  1
110
 41
0.9
100
AcDbText
  0
CIRCLE
  5
83BF
330
73DF
100
AcDbEntity
  8
SIZE
100
AcDbCircle
 10
340.0
 20
-99.53842585335861
 30
0.0
 40
6.0
  0
LINE
  5
83C1
330
73DF
100
AcDbEntity
  8
DETAIL
  6
CONTINUOUS
100
AcDbLine
 10
415.0
 20
390.0000000000036
 30
0.0
 11
220.0
 21
390.0000000000045
 31
0.0
  0
LINE
  5
83C2
330
73DF
100
AcDbEntity
  8
SIZE
100
AcDbLine
 10
53.0
 20
305.0000000000027
 30
0.0
 11
-101.0751790947538
 21
305.0000000000027
 31
0.0
  0
LINE
  5
83C3
330
73DF
100
AcDbEntity
  8
SIZE
100
AcDbLine
 10
53.0
 20
235.0000000000018
 30
0.0
 11
-101.0751790947538
 21
235.0000000000018
 31
0.0
  0
TEXT
  5
83C4
330
73DF
100
AcDbEntity
  8
SIZE
100
AcDbText
 10
-93.91452784243439
 20
199.5568574664539
 30
0.0
 40
64.0
  1
70
 50
90.0
 41
0.9
100
AcDbText
  0
CIRCLE
  5
83C5
330
73DF
100
AcDbEntity
  8
SIZE
100
AcDbCircle
 10
-75.14414601882163
 20
235.0000000000018
 30
0.0
 40
6.0
  0
CIRCLE
  5
83C6
330
73DF
100
AcDbEntity
  8
SIZE
100
AcDbCircle
 10
-75.14414601882163
 20
305.0000000000027
 30
0.0
 40
6.0
  0
LINE
  5
83C7
330
73DF
100
AcDbEntity
  8
DETAIL
  6
CONTINUOUS
100
AcDbLine
 10
73.0
 20
235.0000000000018
 30
0.0
 11
193.0
 21
235.0000000000018
 31
0.0
  0
LINE
  5
83C8
330
73DF
100
AcDbEntity
  8
DETAIL
  6
CONTINUOUS
100
AcDbLine
 10
73.0
 20
305.0000000000027
 30
0.0
 11
193.0
 21
305.0000000000027
 31
0.0
  0
LINE
  5
83C9
330
73DF
100
AcDbEntity
  8
DETAIL
  6
CONTINUOUS
100
AcDbLine
 10
73.0
 20
305.0000000000027
 30
0.0
 11
73.0
 21
235.0000000000018
 31
0.0
  0
LINE
  5
83CA
330
73DF
100
AcDbEntity
  8
DETAIL
  6
CONTINUOUS
100
AcDbLine
 10
193.0
 20
305.0000000000027
 30
0.0
 11
193.0
 21
235.0000000000018
 31
0.0
  0
LINE
  5
83CC
330
73DF
100
AcDbEntity
  8
DETAIL
  6
CONTINUOUS
100
AcDbLine
 10
220.0
 20
390.0000000000072
 30
0.0
 11
205.0
 21
375.0000000000099
 31
0.0
  0
TEXT
  5
83CD
330
73DF
100
AcDbEntity
  8
SIZE
100
AcDbText
 10
-68.69038785021212
 20
538.8579250653156
 30
0.0
 40
64.0
  1
560
 41
0.9
100
AcDbText
  0
TEXT
  5
83CE
330
73DF
100
AcDbEntity
  8
SIZE
100
AcDbText
 10
-64.1949361039924
 20
663.7003701572584
 30
0.0
 40
64.0
  1
900
 41
0.9
100
AcDbText
  0
LINE
  5
83CF
330
73DF
100
AcDbEntity
  8
SIZE
100
AcDbLine
 10
450.0
 20
380.0
 30
0.0
 11
450.0
 21
540.0232219999998
 31
0.0
  0
LINE
  5
83D0
330
73DF
100
AcDbEntity
  8
SIZE
100
AcDbLine
 10
450.0
 20
380.0
 30
0.0
 11
450.0
 21
683.5116379999999
 31
0.0
  0
LINE
  5
83D1
330
73DF
100
AcDbEntity
  8
SIZE
100
AcDbLine
 10
280.0
 20
413.0
 30
0.0
 11
280.0
 21
533.0232219999998
 31
0.0
  0
LINE
  5
83D2
330
73DF
100
AcDbEntity
  8
SIZE
100
AcDbLine
 10
280.0
 20
413.0
 30
0.0
 11
280.0
 21
533.0232219999998
 31
0.0
  0
ARC
  5
83D4
330
73DF
100
AcDbEntity
  8
DETAIL
  6
CONTINUOUS
100
AcDbCircle
 10
435.0
 20
360.0000000000027
 30
0.0
 40
15.0
100
AcDbArc
 50
0.0
 51
90.0
  0
ARC
  5
83D5
330
73DF
100
AcDbEntity
  8
DETAIL
  6
CONTINUOUS
100
AcDbCircle
 10
272.0000000000018
 20
368.0
 30
0.0
 40
6.0
100
AcDbArc
 50
90.0
 51
270.0
  0
LINE
  5
83D6
330
73DF
100
AcDbEntity
  8
DETAIL
100
AcDbLine
 10
272.0000000000018
 20
362.0
 30
0.0
 11
288.0
 21
362.0
 31
0.0
  0
LINE
  5
83D7
330
73DF
100
AcDbEntity
  8
DETAIL
100
AcDbLine
 10
272.0000000000018
 20
374.0
 30
0.0
 11
288.0
 21
374.0
 31
0.0
  0
ARC
  5
83D8
330
73DF
100
AcDbEntity
  8
DETAIL
  6
CONTINUOUS
100
AcDbCircle
 10
288.0
 20
368.0
 30
0.0
 40
6.0
100
AcDbArc
 50
270.0
 51
90.0
  0
LINE
  5
83D9
330
73DF
100
AcDbEntity
  8
NOTE
100
AcDbLine
 10
260.0
 20
368.0
 30
0.0
 11
300.0000000000018
 21
368.0
 31
0.0
  0
CIRCLE
  5
83DA
330
73DF
100
AcDbEntity
  8
FIX
100
AcDbCircle
 10
280.0
 20
368.0
 30
0.0
 40
20.0
  0
LINE
  5
83DB
330
73DF
100
AcDbEntity
  8
NOTE
100
AcDbLine
 10
280.0
 20
348.0
 30
0.0
 11
280.0
 21
388.0
 31
0.0
  0
LINE
  5
83DE
330
73DF
100
AcDbEntity
  8
NOTE
100
AcDbLine
 10
348.0
 20
368.0
 30
0.0
 11
388.0
 21
368.0
 31
0.0
  0
CIRCLE
  5
83DF
330
73DF
100
AcDbEntity
  8
FIX
100
AcDbCircle
 10
368.0000000000018
 20
368.0
 30
0.0
 40
20.0
  0
LINE
  5
83E0
330
73DF
100
AcDbEntity
  8
NOTE
100
AcDbLine
 10
368.0000000000018
 20
348.0
 30
0.0
 11
368.0000000000018
 21
388.0
 31
0.0
  0
LINE
  5
83E1
330
73DF
100
AcDbEntity
  8
DETAIL
  6
CONTINUOUS
100
AcDbLine
 10
430.0
 20
375.0000000000036
 30
0.0
 11
415.0
 21
390.0000000000036
 31
0.0
  0
CIRCLE
  5
83E2
330
73DF
100
AcDbEntity
  8
SIZE
100
AcDbCircle
 10
450.0
 20
633.8845647967509
 30
0.0
 40
6.0
  0
CIRCLE
  5
83E3
330
73DF
100
AcDbEntity
  8
SIZE
100
AcDbCircle
 10
450.0
 20
509.0421197048072
 30
0.0
 40
6.0
  0
LINE
  5
83E4
330
73DF
100
AcDbEntity
  8
SIZE
100
AcDbLine
 10
450.0
 20
509.0421197048072
 30
0.0
 11
280.0000000000018
 21
509.0421197048089
 31
0.0
  0
TEXT
  5
83E5
330
73DF
100
AcDbEntity
  8
SIZE
100
AcDbText
 10
298.7787896909103
 20
538.6441639737931
 30
0.0
 40
64.0
  1
170
 41
0.9
100
AcDbText
  0
CIRCLE
  5
83E6
330
73DF
100
AcDbEntity
  8
SIZE
100
AcDbCircle
 10
280.0000000000018
 20
509.0421197048089
 30
0.0
 40
6.0
  0
LINE
  5
83E7
330
73DF
100
AcDbEntity
  8
SIZE
100
AcDbLine
 10
802.145467932787
 20
-254.9999999999972
 30
0.0
 11
802.1454679327867
 21
-547.4605216405416
 31
0.0
  0
TEXT
  5
83E8
330
73DF
100
AcDbEntity
  8
SIZE
100
AcDbText
 10
789.5528245696182
 20
-527.9113017817808
 30
0.0
 40
64.0
  1
120
 50
90.0
 41
0.9
100
AcDbText
  0
LINE
  5
83E9
330
73DF
100
AcDbEntity
  8
SIZE
100
AcDbLine
 10
693.1887788421372
 20
-138.7576858909615
 30
0.0
 11
693.1887788421372
 21
-545.9314149041293
 31
0.0
  0
TEXT
  5
83EA
330
73DF
100
AcDbEntity
  8
SIZE
100
AcDbText
 10
889.4372286175094
 20
-515.8632669379949
 30
0.0
 40
64.0
  1
123
 50
90.0
 41
0.9
100
AcDbText
  0
LINE
  5
83EB
330
73DF
100
AcDbEntity
  8
SIZE
100
AcDbLine
 10
908.0944135826994
 20
-251.9999999999499
 30
0.0
 11
908.0944135827017
 21
-514.1236922834996
 31
0.0
  0
LINE
  5
83EC
330
73DF
100
AcDbEntity
  8
NOTE
100
AcDbLine
 10
1151.027345859537
 20
-670.1282114933455
 30
0.0
 11
677.0683241968163
 21
-670.1282114933455
 31
0.0
  0
TEXT
  5
83ED
330
73DF
100
AcDbEntity
  8
NOTE
100
AcDbText
 10
710.809723859536
 20
-651.359890493346
 30
0.0
 40
64.0
  1
RG %%c25.4
 41
0.9
100
AcDbText
  0
CIRCLE
  5
83EE
330
73DF
100
AcDbEntity
  8
SIZE
100
AcDbCircle
 10
802.1454679327867
 20
-254.9999999999982
 30
0.0
 40
6.0
  0
CIRCLE
  5
83EF
330
73DF
100
AcDbEntity
  8
SIZE
100
AcDbCircle
 10
693.1887788421372
 20
-285.0000000000027
 30
0.0
 40
6.0
  0
CIRCLE
  5
83F0
330
73DF
100
AcDbEntity
  8
SIZE
100
AcDbCircle
 10
693.1887788421372
 20
-333.0000000000008
 30
0.0
 40
6.0
  0
CIRCLE
  5
83F1
330
73DF
100
AcDbEntity
  8
SIZE
100
AcDbCircle
 10
693.1887788421372
 20
-375.0
 30
0.0
 40
6.0
  0
CIRCLE
  5
83F2
330
73DF
100
AcDbEntity
  8
SIZE
100
AcDbCircle
 10
802.1454679327867
 20
-375.0
 30
0.0
 40
6.0
  0
CIRCLE
  5
83F3
330
73DF
100
AcDbEntity
  8
SIZE
100
AcDbCircle
 10
907.8219253998431
 20
-253.070115557698
 30
0.0
 40
6.0
  0
CIRCLE
  5
83F4
330
73DF
100
AcDbEntity
  8
SIZE
100
AcDbCircle
 10
908.0944135827017
 20
-376.070115557748
 30
0.0
 40
6.0
  0
LINE
  5
A634
330
73DF
100
AcDbEntity
  8
OUTLINE
  6
CONTINUOUS
100
AcDbLine
 10
415.0
 20
390.0000000000036
 30
0.0
 11
220.0
 21
390.0000000000045
 31
0.0
  0
LINE
  5
A635
330
73DF
100
AcDbEntity
  8
OUTLINE
  6
CONTINUOUS
100
AcDbLine
 10
415.0
 20
-389.9999999999991
 30
0.0
 11
220.0
 21
-390.0000000000009
 31
0.0
  0
LINE
  5
A638
330
73DF
100
AcDbEntity
  8
OUTLINE
  6
CONTINUOUS
100
AcDbLine
 10
-435.0
 20
-374.9999999999981
 30
0.0
 11
435.0
 21
-374.9999999999981
 31
0.0
  0
LINE
  5
A639
330
73DF
100
AcDbEntity
  8
OUTLINE
  6
CONTINUOUS
100
AcDbLine
 10
-435.0
 20
375.0000000000027
 30
0.0
 11
435.0
 21
375.0000000000027
 31
0.0
  0
LINE
  5
A63A
330
73DF
100
AcDbEntity
  8
OUTLINE
  6
CONTINUOUS
100
AcDbLine
 10
-450.0
 20
360.0000000000027
 30
0.0
 11
-450.0
 21
-359.9999999999972
 31
0.0
  0
LINE
  5
A63B
330
73DF
100
AcDbEntity
  8
OUTLINE
  6
CONTINUOUS
100
AcDbLine
 10
-415.0
 20
-389.9999999999991
 30
0.0
 11
-220.0
 21
-390.0000000000009
 31
0.0
  0
ARC
  5
A63C
330
73DF
100
AcDbEntity
  8
OUTLINE
  6
CONTINUOUS
100
AcDbCircle
 10
-435.0
 20
-359.9999999999972
 30
0.0
 40
15.0
100
AcDbArc
 50
180.0
 51
270.0
  0
LINE
  5
A63D
330
73DF
100
AcDbEntity
  8
OUTLINE
  6
CONTINUOUS
100
AcDbLine
 10
-430.0
 20
-374.9999999999981
 30
0.0
 11
-415.0
 21
-389.9999999999991
 31
0.0
  0
LINE
  5
A642
330
73DF
100
AcDbEntity
  8
OUTLINE
  6
CONTINUOUS
100
AcDbLine
 10
-220.0
 20
-390.0000000000027
 30
0.0
 11
-205.0
 21
-375.0000000000027
 31
0.0
  0
LINE
  5
A648
330
73DF
100
AcDbEntity
  8
OUTLINE
  6
CONTINUOUS
100
AcDbLine
 10
220.0
 20
-390.0000000000027
 30
0.0
 11
205.0
 21
-375.0000000000027
 31
0.0
  0
LINE
  5
A64D
330
73DF
100
AcDbEntity
  8
OUTLINE
  6
CONTINUOUS
100
AcDbLine
 10
-415.0
 20
390.0000000000036
 30
0.0
 11
-220.0
 21
390.0000000000045
 31
0.0
  0
ARC
  5
A64E
330
73DF
100
AcDbEntity
  8
OUTLINE
  6
CONTINUOUS
100
AcDbCircle
 10
-435.0
 20
360.0000000000027
 30
0.0
 40
15.0
100
AcDbArc
 50
90.0
 51
180.0
  0
LINE
  5
A64F
330
73DF
100
AcDbEntity
  8
OUTLINE
  6
CONTINUOUS
100
AcDbLine
 10
-430.0
 20
375.0000000000036
 30
0.0
 11
-415.0
 21
390.0000000000036
 31
0.0
  0
LINE
  5
A654
330
73DF
100
AcDbEntity
  8
OUTLINE
  6
CONTINUOUS
100
AcDbLine
 10
-220.0
 20
390.0000000000072
 30
0.0
 11
-205.0
 21
375.0000000000099
 31
0.0
  0
LINE
  5
A659
330
73DF
100
AcDbEntity
  8
OUTLINE
  6
CONTINUOUS
100
AcDbLine
 10
220.0
 20
390.0000000000072
 30
0.0
 11
205.0
 21
375.0000000000099
 31
0.0
  0
LINE
  5
A65A
330
73DF
100
AcDbEntity
  8
OUTLINE
  6
CONTINUOUS
100
AcDbLine
 10
450.0
 20
360.0000000000027
 30
0.0
 11
450.0
 21
-359.9999999999972
 31
0.0
  0
ARC
  5
A65C
330
73DF
100
AcDbEntity
  8
OUTLINE
  6
CONTINUOUS
100
AcDbCircle
 10
435.0
 20
-359.9999999999972
 30
0.0
 40
14.99999999999985
100
AcDbArc
 50
270.0
 51
0.0
  0
LINE
  5
A65D
330
73DF
100
AcDbEntity
  8
OUTLINE
  6
CONTINUOUS
100
AcDbLine
 10
430.0
 20
-374.9999999999981
 30
0.0
 11
415.0
 21
-389.9999999999991
 31
0.0
  0
ARC
  5
A65E
330
73DF
100
AcDbEntity
  8
OUTLINE
  6
CONTINUOUS
100
AcDbCircle
 10
435.0
 20
360.0000000000027
 30
0.0
 40
15.0
100
AcDbArc
 50
0.0
 51
90.0
  0
LINE
  5
A65F
330
73DF
100
AcDbEntity
  8
OUTLINE
  6
CONTINUOUS
100
AcDbLine
 10
430.0
 20
375.0000000000036
 30
0.0
 11
415.0
 21
390.0000000000036
 31
0.0
  0
ENDSEC
  0
SECTION
  2
OBJECTS
  0
DICTIONARY
  5
73CD
330
0
100
AcDbDictionary
  3
ACAD_GROUP
350
73CE
  3
ACAD_LAYOUT
350
73DA
  3
ACAD_MLINESTYLE
350
73D7
  3
ACAD_PLOTSETTINGS
350
73D9
1001
ACAD
1000
TREAT_AS_HARD
1070
     0
  0
DICTIONARY
  5
BA00
330
73DF
100
AcDbDictionary
  3
ACAD_LAYOUTSELFREF
350
BA01
  0
DICTIONARY
  5
B9FE
330
73DB
100
AcDbDictionary
  3
ACAD_LAYOUTSELFREF
350
B9FF
  0
DICTIONARY
  5
73CE
102
{ACAD_REACTORS
330
73CD
102
}
330
73CD
100
AcDbDictionary
1001
ACAD
1000
TREAT_AS_HARD
1070
     0
  0
DICTIONARY
  5
73DA
102
{ACAD_REACTORS
330
73CD
102
}
330
73CD
100
AcDbDictionary
1001
ACAD
1000
TREAT_AS_HARD
1070
     0
  0
DICTIONARY
  5
73D7
102
{ACAD_REACTORS
330
73CD
102
}
330
73CD
100
AcDbDictionary
  3
STANDARD
350
73D8
1001
ACAD
1000
TREAT_AS_HARD
1070
     0
  0
DICTIONARY
  5
73D9
102
{ACAD_REACTORS
330
73CD
102
}
330
73CD
100
AcDbDictionary
1001
ACAD
1000
TREAT_AS_HARD
1070
     0
  0
XRECORD
  5
BA01
102
{ACAD_REACTORS
330
BA00
102
}
330
BA00
100
AcDbXrecord
340
73DF
  0
XRECORD
  5
B9FF
102
{ACAD_REACTORS
330
B9FE
102
}
330
B9FE
100
AcDbXrecord
340
73DB
  0
MLINESTYLE
  5
73D8
102
{ACAD_REACTORS
330
73D7
102
}
330
73D7
100
AcDbMlineStyle
  2
STANDARD
 70
     0
  3

 62
   256
 51
90.0
 52
90.0
 71
     2
 49
0.5
 62
   256
  6
BYLAYER
 49
-0.5
 62
   256
  6
BYLAYER
  0
ENDSEC
  0
EOF
