  0
SECTION
  2
HEADER
  9
$ACADVER
  1
AC1009
  9
$INSBASE
 10
0.0
 20
0.0
 30
0.0
  9
$EXTMIN
 10
-1158.47893
 20
-491.52686816432782
 30
0.0
  9
$EXTMAX
 10
1230.3648499999999
 20
446.78294793971651
 30
0.0
  9
$LIMMIN
 10
-2428.8995530523239
 20
-3385.7899241372611
  9
$LIMMAX
 10
5476.8888439526527
 20
849.23357081275742
  9
$ORTHOMODE
 70
     0
  9
$REGENMODE
 70
     1
  9
$FILLMODE
 70
     1
  9
$QTEXTMODE
 70
     0
  9
$MIRRTEXT
 70
     0
  9
$DRAGMODE
 70
     2
  9
$LTSCALE
 40
20.0
  9
$OSMODE
 70
    55
  9
$ATTMODE
 70
     1
  9
$TEXTSIZE
 40
64.0
  9
$TRACEWID
 40
0.05
  9
$TEXTSTYLE
  7
STANDARD
  9
$CLAYER
  8
SIZE
  9
$CELTYPE
  6
CONTINUOUS
  9
$CECOLOR
 62
   256
  9
$DIMSCALE
 40
1.0
  9
$DIMASZ
 40
10.0
  9
$DIMEXO
 40
20.0
  9
$DIMDLI
 40
200.0
  9
$DIMRND
 40
0.0
  9
$DIMDLE
 40
0.0
  9
$DIMEXE
 40
30.0
  9
$DIMTP
 40
0.0
  9
$DIMTM
 40
0.0
  9
$DIMTXT
 40
64.0
  9
$DIMCEN
 40
0.09
  9
$DIMTSZ
 40
0.0
  9
$DIMTOL
 70
     0
  9
$DIMLIM
 70
     0
  9
$DIMTIH
 70
     0
  9
$DIMTOH
 70
     0
  9
$DIMSE1
 70
     0
  9
$DIMSE2
 70
     0
  9
$DIMTAD
 70
     1
  9
$DIMZIN
 70
     8
  9
$DIMBLK
  1
ORIGIN
  9
$DIMASO
 70
     1
  9
$DIMSHO
 70
     0
  9
$DIMPOST
  1

  9
$DIMAPOST
  1

  9
$DIMALT
 70
     0
  9
$DIMALTD
 70
     2
  9
$DIMALTF
 40
25.399999999999999
  9
$DIMLFAC
 40
1.0
  9
$DIMTOFL
 70
     1
  9
$DIMTVP
 40
0.0
  9
$DIMTIX
 70
     0
  9
$DIMSOXD
 70
     0
  9
$DIMSAH
 70
     0
  9
$DIMBLK1
  1

  9
$DIMBLK2
  1

  9
$DIMSTYLE
  2
STANDARD
  9
$DIMCLRD
 70
     0
  9
$DIMCLRE
 70
     0
  9
$DIMCLRT
 70
     0
  9
$DIMTFAC
 40
1.0
  9
$DIMGAP
 40
20.0
  9
$LUNITS
 70
     2
  9
$LUPREC
 70
     4
  9
$SKETCHINC
 40
0.1
  9
$FILLETRAD
 40
10.0
  9
$AUNITS
 70
     1
  9
$AUPREC
 70
     3
  9
$MENU
  1
ACAD
  9
$ELEVATION
 40
0.0
  9
$PELEVATION
 40
0.0
  9
$THICKNESS
 40
0.0
  9
$LIMCHECK
 70
     0
  9
$BLIPMODE
 70
     0
  9
$CHAMFERA
 40
0.0
  9
$CHAMFERB
 40
0.0
  9
$SKPOLY
 70
     0
  9
$TDCREATE
 40
2450330.3932059952
  9
$TDUPDATE
 40
2453328.3843033798
  9
$TDINDWG
 40
0.4533696644
  9
$TDUSRTIMER
 40
0.4533696644
  9
$USRTIMER
 70
     1
  9
$ANGBASE
 50
0.0
  9
$ANGDIR
 70
     0
  9
$PDMODE
 70
     3
  9
$PDSIZE
 40
-2.0
  9
$PLINEWID
 40
0.0
  9
$COORDS
 70
     0
  9
$SPLFRAME
 70
     0
  9
$SPLINETYPE
 70
     6
  9
$SPLINESEGS
 70
     8
  9
$ATTDIA
 70
     0
  9
$ATTREQ
 70
     1
  9
$HANDLING
 70
-16383
  9
$HANDSEED
  5
123D
  9
$SURFTAB1
 70
     6
  9
$SURFTAB2
 70
     6
  9
$SURFTYPE
 70
     6
  9
$SURFU
 70
     6
  9
$SURFV
 70
     6
  9
$UCSNAME
  2

  9
$UCSORG
 10
0.0
 20
0.0
 30
0.0
  9
$UCSXDIR
 10
1.0
 20
0.0
 30
0.0
  9
$UCSYDIR
 10
0.0
 20
1.0
 30
0.0
  9
$PUCSNAME
  2

  9
$PUCSORG
 10
0.0
 20
0.0
 30
0.0
  9
$PUCSXDIR
 10
1.0
 20
0.0
 30
0.0
  9
$PUCSYDIR
 10
0.0
 20
1.0
 30
0.0
  9
$USERI1
 70
     0
  9
$USERI2
 70
     0
  9
$USERI3
 70
     0
  9
$USERI4
 70
     0
  9
$USERI5
 70
     0
  9
$USERR1
 40
20.0
  9
$USERR2
 40
0.0
  9
$USERR3
 40
0.0
  9
$USERR4
 40
0.0
  9
$USERR5
 40
0.0
  9
$WORLDVIEW
 70
     1
  9
$SHADEDGE
 70
     3
  9
$SHADEDIF
 70
    70
  9
$TILEMODE
 70
     1
  9
$MAXACTVP
 70
    64
  9
$PLIMCHECK
 70
     0
  9
$PEXTMIN
 10
1.0000000000000000E+020
 20
1.0000000000000000E+020
 30
1.0000000000000000E+020
  9
$PEXTMAX
 10
-1.0000000000000000E+020
 20
-1.0000000000000000E+020
 30
-1.0000000000000000E+020
  9
$PLIMMIN
 10
0.0
 20
0.0
  9
$PLIMMAX
 10
12.0
 20
9.0
  9
$UNITMODE
 70
     0
  9
$VISRETAIN
 70
     1
  9
$PLINEGEN
 70
     0
  9
$PSLTSCALE
 70
     1
  0
ENDSEC
  0
SECTION
  2
TABLES
  0
TABLE
  2
VPORT
 70
     2
  0
VPORT
  2
*ACTIVE
 70
     0
 10
0.0
 20
0.0
 11
1.0
 21
1.0
 12
78.733883031052756
 22
-175.99581305151099
 13
0.0
 23
0.0
 14
50.0
 24
50.0
 15
100.0
 25
100.0
 16
0.0
 26
0.0
 36
1.0
 17
0.0
 27
0.0
 37
0.0
 40
3424.3472919905412
 41
1.27621483375959
 42
50.0
 43
0.0
 44
0.0
 50
0.0
 51
0.0
 71
     0
 72
   500
 73
     1
 74
     0
 75
     0
 76
     0
 77
     0
 78
     0
  0
ENDTAB
  0
TABLE
  2
LTYPE
 70
    15
  0
LTYPE
  2
CONTINUOUS
 70
     0
  3
実線
 72
    65
 73
     0
 40
0.0
  0
LTYPE
  2
DASHDOT
 70
     0
  3
____ _ ____ _ ____ _ ____ _ ____ _ ____ _ ____
 72
    65
 73
     4
 40
5.5
 49
4.0
 49
-0.6
 49
0.3
 49
-0.6
  0
LTYPE
  2
CONTINOUS
 70
     0
  3
Solid line
 72
    65
 73
     0
 40
0.0
  0
LTYPE
  2
BORDER
 70
     0
  3
BORDER
 72
    65
 73
     6
 40
1.75
 49
0.5
 49
-0.25
 49
0.5
 49
-0.25
 49
0.0
 49
-0.25
  0
LTYPE
  2
CENTER
 70
     0
  3
CENTER
 72
    65
 73
     4
 40
2.0
 49
1.25
 49
-0.25
 49
0.25
 49
-0.25
  0
LTYPE
  2
DASHED
 70
     0
  3
DASHED
 72
    65
 73
     2
 40
0.75
 49
0.5
 49
-0.25
  0
LTYPE
  2
DIVIDE
 70
     0
  3
DIVIDE
 72
    65
 73
     6
 40
1.25
 49
0.5
 49
-0.25
 49
0.0
 49
-0.25
 49
0.0
 49
-0.25
  0
LTYPE
  2
DOT
 70
     0
  3
DOT
 72
    65
 73
     2
 40
0.25
 49
0.0
 49
-0.25
  0
LTYPE
  2
HIDDEN
 70
     0
  3
HIDDEN
 72
    65
 73
     2
 40
0.375
 49
0.25
 49
-0.125
  0
LTYPE
  2
PHANTOM
 70
     0
  3
PHANTOM
 72
    65
 73
     6
 40
2.5
 49
1.25
 49
-0.25
 49
0.25
 49
-0.25
 49
0.25
 49
-0.25
  0
LTYPE
  2
$INVISIBLE
 70
     0
  3
$INVISIBLE
 72
    65
 73
     2
 40
200.0
 49
-100.0
 49
-100.0
  0
LTYPE
  2
$MARGINS
 70
     0
  3
$MARGINS
 72
    65
 73
     2
 40
0.075
 49
0.05
 49
-0.025
  0
LTYPE
  2
JLSTYLE_0
 70
     0
  3
JLSTYLE_0
 72
    65
 73
     4
 40
1.0
 49
0.5
 49
-0.25
 49
0.0
 49
-0.25
  0
LTYPE
  2
JLSTYLE_1
 70
     0
  3
JLSTYLE_1
 72
    65
 73
     2
 40
0.75
 49
0.5
 49
-0.25
  0
LTYPE
  2
JLSTYLE_2
 70
     0
  3
JLSTYLE_2
 72
    65
 73
     6
 40
1.25
 49
0.5
 49
-0.25
 49
0.0
 49
-0.25
 49
0.0
 49
-0.25
  0
ENDTAB
  0
TABLE
  2
LAYER
 70
    13
  0
LAYER
  2
0
 70
     0
 62
     7
  6
CONTINUOUS
  0
LAYER
  2
DETAIL
 70
     0
 62
     5
  6
CONTINUOUS
  0
LAYER
  2
OUTLINE
 70
     0
 62
     3
  6
CONTINUOUS
  0
LAYER
  2
BASIS
 70
     0
 62
     6
  6
CONTINUOUS
  0
LAYER
  2
SIZE
 70
     0
 62
    32
  6
CONTINUOUS
  0
LAYER
  2
NOTE
 70
     0
 62
     4
  6
CONTINUOUS
  0
LAYER
  2
ARRANGE
 70
     0
 62
     1
  6
CONTINUOUS
  0
LAYER
  2
FIX
 70
     0
 62
   241
  6
CONTINUOUS
  0
LAYER
  2
ETC
 70
     0
 62
    83
  6
CONTINUOUS
  0
LAYER
  2
SERVICESPACE
 70
     0
 62
     2
  6
CONTINUOUS
  0
LAYER
  2
SYMBOLLINE
 70
     0
 62
    38
  6
CONTINUOUS
  0
LAYER
  2
DEFPOINTS
 70
     0
 62
     7
  6
CONTINUOUS
  0
LAYER
  2
SERVICE_SPACE
 70
     0
 62
     2
  6
CONTINUOUS
  0
ENDTAB
  0
TABLE
  2
STYLE
 70
     1
  0
STYLE
  2
STANDARD
 70
     0
 40
0.0
 41
0.9
 50
0.0
 71
     0
 42
64.0
  3
SIMPLEX
  4
BIGFONT
  0
ENDTAB
  0
TABLE
  2
VIEW
 70
     1
  0
VIEW
  2
ALL
 70
     0
 40
4282.6199999999999
 10
0.0
 20
41.309903999999989
 41
5940.0
 11
0.0
 21
0.0
 31
1.0
 12
0.0
 22
0.0
 32
0.0
 42
50.0
 43
0.0
 44
0.0
 50
0.0
 71
     0
  0
ENDTAB
  0
TABLE
  2
UCS
 70
     0
  0
ENDTAB
  0
TABLE
  2
APPID
 70
     1
  0
APPID
  2
ACAD
 70
     0
  0
ENDTAB
  0
TABLE
  2
DIMSTYLE
 70
     1
  0
DIMSTYLE
  2
STANDARD
 70
     0
  3

  4

  5

  6

  7

 40
1.0
 41
0.18
 42
0.0625
 43
0.38
 44
0.18
 45
0.0
 46
0.0
 47
0.0
 48
0.0
140
0.18
141
0.09
142
0.0
143
25.399999999999999
144
1.0
145
0.0
146
1.0
147
0.09
 71
     0
 72
     0
 73
     1
 74
     1
 75
     0
 76
     0
 77
     0
 78
     0
170
     0
171
     2
172
     0
173
     0
174
     0
175
     0
176
     0
177
     0
178
     0
  0
ENDTAB
  0
ENDSEC
  0
SECTION
  2
BLOCKS
  0
BLOCK
  8
0
  2
$MODEL_SPACE
 70
     0
 10
0.0
 20
0.0
 30
0.0
  3
$MODEL_SPACE
  1

  0
ENDBLK
  5
20
  8
0
  0
BLOCK
 67
     1
  8
0
  2
$PAPER_SPACE
 70
     0
 10
0.0
 20
0.0
 30
0.0
  3
$PAPER_SPACE
  1

  0
ENDBLK
  5
1C
 67
     1
  8
0
  0
BLOCK
  8
0
  2
_ORIGIN
 70
     0
 10
0.0
 20
0.0
 30
0.0
  3
_ORIGIN
  1

  0
CIRCLE
  5
531
  8
0
  6
BYBLOCK
 62
     0
 10
0.0
 20
0.0
 30
0.0
 40
0.5
  0
LINE
  5
532
  8
0
  6
BYBLOCK
 62
     0
 10
0.0
 20
0.0
 30
0.0
 11
-1.0
 21
0.0
 31
0.0
  0
ENDBLK
  5
534
  8
0
  0
ENDSEC
  0
SECTION
  2
ENTITIES
  0
POINT
  5
2C5
  8
ARRANGE
 62
     1
 10
0.0
 20
0.0
 30
0.0
  0
CIRCLE
  5
2C6
  8
ARRANGE
  6
CONTINUOUS
 62
     1
 10
0.0
 20
0.0
 30
0.0
 40
40.0
  0
LINE
  5
2CB
  8
BASIS
  6
DASHDOT
 62
     6
 10
492.75264999999939
 20
-149.0
 30
0.0
 11
-492.7526499999999
 21
-149.0
 31
0.0
  0
LINE
  5
2CC
  8
DETAIL
  6
CONTINUOUS
 10
380.0
 20
0.0
 30
0.0
 11
-380.0
 21
0.0
 31
0.0
  0
LINE
  5
2CD
  8
DETAIL
  6
CONTINUOUS
 10
380.0
 20
-298.0
 30
0.0
 11
-380.0
 21
-298.0
 31
0.0
  0
CIRCLE
  5
2CE
  8
ARRANGE
  6
CONTINUOUS
 10
0.0
 20
0.0
 30
0.0
 40
40.0
  0
POINT
  5
2CF
  8
ARRANGE
  6
CONTINUOUS
 10
0.0
 20
0.0
 30
0.0
  0
ARC
  5
2D1
  8
DETAIL
  6
CONTINUOUS
 10
-380.0
 20
-10.0
 30
0.0
 40
10.0
 50
90.0
 51
180.0
  0
LINE
  5
2D2
  8
NOTE
  6
CONTINUOUS
 62
     4
 10
-320.0
 20
-255.5
 30
0.0
 11
-624.73932000000013
 21
127.9001899999998
 31
0.0
  0
LINE
  5
2D3
  8
BASIS
  6
DASHDOT
 62
     6
 10
0.0
 20
57.813579843071459
 30
0.0
 11
0.0
 21
-333.9052583812549
 31
0.0
  0
LINE
  5
2EC
  8
DETAIL
  6
CONTINUOUS
 10
-390.0
 20
-10.0
 30
0.0
 11
-390.0
 21
-288.0
 31
0.0
  0
LINE
  5
2ED
  8
NOTE
  6
CONTINUOUS
 62
     4
 10
-352.04927000000038
 20
-231.56583999999989
 30
0.0
 11
-320.0
 21
-255.5
 31
0.0
  0
CIRCLE
  5
2EE
  8
DETAIL
  6
CONTINUOUS
 10
-320.0
 20
-256.0
 30
0.0
 40
32.5
  0
ARC
  5
2F0
  8
DETAIL
  6
CONTINUOUS
 10
-380.0
 20
-288.0
 30
0.0
 40
10.0
 50
180.0
 51
270.0
  0
LINE
  5
2F1
  8
NOTE
  6
DASHDOT
 62
     4
 10
-320.0
 20
-275.49999999999989
 30
0.0
 11
-320.0
 21
-235.49999999999989
 31
0.0
  0
LINE
  5
2F2
  8
NOTE
  6
CONTINUOUS
 62
     4
 10
-320.0
 20
-255.5
 30
0.0
 11
-335.78840000000031
 21
-218.74776999999989
 31
0.0
  0
LINE
  5
2F3
  8
NOTE
  6
DASHDOT
 62
     4
 10
-300.0
 20
-255.5
 30
0.0
 11
-340.0
 21
-255.5
 31
0.0
  0
LINE
  5
2F4
  8
NOTE
  6
CONTINUOUS
 62
     4
 10
-1158.47893
 20
127.9001899999998
 30
0.0
 11
-624.73932000000013
 21
127.9001899999998
 31
0.0
  0
TEXT
  5
2F5
  8
NOTE
 62
     4
 10
-1132.26648
 20
158.1457199999999
 30
0.0
 40
64.0
  1
D,RL,RG%%C65
 41
0.9
  0
ARC
  5
2F9
  8
DETAIL
  6
CONTINUOUS
 10
380.0
 20
-10.0
 30
0.0
 40
10.0
 50
0.0
 51
90.0
  0
LINE
  5
2FA
  8
NOTE
  6
CONTINUOUS
 62
     4
 10
335.0
 20
-256.49999999999989
 30
0.0
 11
536.82692999999915
 21
117.7748099999998
 31
0.0
  0
LINE
  5
30E
  8
DETAIL
  6
CONTINUOUS
 10
390.0
 20
-10.0
 30
0.0
 11
390.0
 21
-288.0
 31
0.0
  0
LINE
  5
30F
  8
NOTE
  6
CONTINUOUS
 62
     4
 10
335.0
 20
-256.49999999999989
 30
0.0
 11
362.86660999999998
 21
-227.8041399999999
 31
0.0
  0
CIRCLE
  5
310
  8
DETAIL
  6
CONTINUOUS
 10
335.0
 20
-257.0
 30
0.0
 40
32.5
  0
LINE
  5
311
  8
NOTE
  6
DASHDOT
 62
     4
 10
335.0
 20
-276.5
 30
0.0
 11
335.0
 21
-236.5
 31
0.0
  0
LINE
  5
312
  8
NOTE
  6
CONTINUOUS
 62
     4
 10
344.7852599999996
 20
-217.71536000000009
 30
0.0
 11
335.0
 21
-256.49999999999989
 31
0.0
  0
LINE
  5
313
  8
NOTE
  6
DASHDOT
 62
     4
 10
355.0
 20
-256.49999999999989
 30
0.0
 11
315.0
 21
-256.49999999999989
 31
0.0
  0
ARC
  5
315
  8
DETAIL
  6
CONTINUOUS
 10
380.0
 20
-288.0
 30
0.0
 40
10.0
 50
270.0
 51
0.0
  0
TEXT
  5
31F
  8
NOTE
 62
     4
 10
549.49209394832349
 20
139.8324099999999
 30
0.0
 40
64.0
  1
D,RL,RG%%C65
 41
0.9
  0
LINE
  5
320
  8
NOTE
  6
CONTINUOUS
 62
     4
 10
536.82692999999915
 20
117.7748099999998
 30
0.0
 11
1055.0035339483229
 21
117.7748099999998
 31
0.0
  0
TEXT
  5
321
  8
ETC
 10
803.69818000000032
 20
276.54585793971648
 30
0.0
 40
64.0
  1
SMSZ3113
 41
0.933333340624999
 72
     5
 11
1230.364849999999
 21
276.54585793971648
 31
0.0
  0
TEXT
  5
322
  8
ETC
 10
811.11481000000015
 20
382.78294793971639
 30
0.0
 40
64.0
  1
RAC
 41
0.9051724137931035
 72
     5
 11
971.11481000000003
 21
382.78294793971639
 31
0.0
  0
LINE
  5
101A
  8
OUTLINE
  6
CONTINUOUS
 10
-390.0
 20
-10.0
 30
0.0
 11
-390.0
 21
-288.0
 31
0.0
  0
LINE
  5
101B
  8
OUTLINE
  6
CONTINUOUS
 10
390.0
 20
-10.0
 30
0.0
 11
390.0
 21
-288.0
 31
0.0
  0
LINE
  5
101E
  8
OUTLINE
  6
CONTINUOUS
 10
380.0
 20
-298.0
 30
0.0
 11
-380.0
 21
-298.0
 31
0.0
  0
ARC
  5
1021
  8
OUTLINE
  6
CONTINUOUS
 10
-380.0
 20
-288.0
 30
0.0
 40
10.0
 50
180.0
 51
270.0
  0
ARC
  5
1024
  8
OUTLINE
  6
CONTINUOUS
 10
380.0
 20
-288.0
 30
0.0
 40
10.0
 50
270.0
 51
0.0
  0
LINE
  5
1025
  8
OUTLINE
  6
CONTINUOUS
 10
380.0
 20
0.0
 30
0.0
 11
-380.0
 21
0.0
 31
0.0
  0
ARC
  5
1029
  8
OUTLINE
  6
CONTINUOUS
 10
-380.0
 20
-10.0
 30
0.0
 40
10.0
 50
90.0
 51
180.0
  0
ARC
  5
102A
  8
OUTLINE
  6
CONTINUOUS
 10
380.0
 20
-10.0
 30
0.0
 40
10.0
 50
0.0
 51
90.0
  0
LINE
  5
1047
  8
SIZE
  6
CONTINUOUS
 10
-400.0
 20
-298.0
 30
0.0
 11
-542.5658692979722
 21
-297.99999999999972
 31
0.0
  0
LINE
  5
1048
  8
SIZE
  6
CONTINUOUS
 10
-360.0
 20
-255.5
 30
0.0
 11
-542.5658692979722
 21
-255.49999999999969
 31
0.0
  0
LINE
  5
1049
  8
SIZE
  6
CONTINUOUS
 10
-512.5658692979722
 20
-307.99999999999972
 30
0.0
 11
-512.5658692979722
 21
-317.99999999999972
 31
0.0
  0
LINE
  5
104A
  8
SIZE
  6
CONTINUOUS
 10
-512.5658692979722
 20
-245.49999999999969
 30
0.0
 11
-512.5658692979722
 21
-19.957142857142571
 31
0.0
  0
LINE
  5
104B
  8
SIZE
  6
CONTINUOUS
 10
-512.5658692979722
 20
-297.99999999999972
 30
0.0
 11
-512.5658692979722
 21
-255.49999999999969
 31
0.0
  0
LINE
  5
104F
  8
SIZE
  6
CONTINUOUS
 10
400.0
 20
-298.0
 30
0.0
 11
623.84955183462262
 21
-298.00000000000023
 31
0.0
  0
LINE
  5
1050
  8
SIZE
  6
CONTINUOUS
 10
375.0
 20
-256.49999999999989
 30
0.0
 11
623.84955183462262
 21
-256.50000000000023
 31
0.0
  0
LINE
  5
1051
  8
SIZE
  6
CONTINUOUS
 10
593.84955183462262
 20
-308.00000000000023
 30
0.0
 11
593.84955183462262
 21
-318.00000000000023
 31
0.0
  0
LINE
  5
1052
  8
SIZE
  6
CONTINUOUS
 10
593.84955183462262
 20
-246.5000000000002
 30
0.0
 11
593.84955183462262
 21
-31.928571428571779
 31
0.0
  0
LINE
  5
1053
  8
SIZE
  6
CONTINUOUS
 10
593.84955183462262
 20
-298.00000000000023
 30
0.0
 11
593.84955183462262
 21
-256.50000000000023
 31
0.0
  0
LINE
  5
1057
  8
SIZE
  6
CONTINUOUS
 10
400.0
 20
0.0
 30
0.0
 11
762.35671097096736
 21
-0.0000000000002274
 31
0.0
  0
LINE
  5
1058
  8
SIZE
  6
CONTINUOUS
 10
400.0
 20
-298.0
 30
0.0
 11
762.35671097096736
 21
-298.00000000000023
 31
0.0
  0
LINE
  5
1059
  8
SIZE
  6
CONTINUOUS
 10
732.35671097096736
 20
-10.00000000000022
 30
0.0
 11
732.35671097096736
 21
-288.00000000000023
 31
0.0
  0
LINE
  5
10A1
  8
SIZE
  6
CONTINUOUS
 10
0.0
 20
-353.9052583812549
 30
0.0
 11
0.0
 21
-491.3910453404128
 31
0.0
  0
LINE
  5
10A2
  8
SIZE
  6
CONTINUOUS
 10
335.0
 20
-296.49999999999989
 30
0.0
 11
335.0
 21
-491.3910453404128
 31
0.0
  0
LINE
  5
10A3
  8
SIZE
  6
CONTINUOUS
 10
10.0
 20
-461.3910453404128
 30
0.0
 11
325.0
 21
-461.3910453404128
 31
0.0
  0
LINE
  5
10A7
  8
SIZE
  6
CONTINUOUS
 10
335.0
 20
-296.49999999999989
 30
0.0
 11
335.0
 21
-491.52686816432782
 31
0.0
  0
LINE
  5
10A8
  8
SIZE
  6
CONTINUOUS
 10
390.0
 20
-308.0
 30
0.0
 11
390.0
 21
-491.52686816432782
 31
0.0
  0
LINE
  5
10A9
  8
SIZE
  6
CONTINUOUS
 10
325.0
 20
-461.52686816432788
 30
0.0
 11
315.0
 21
-461.52686816432788
 31
0.0
  0
LINE
  5
10AA
  8
SIZE
  6
CONTINUOUS
 10
400.0
 20
-461.52686816432788
 30
0.0
 11
543.25714285714275
 21
-461.52686816432788
 31
0.0
  0
LINE
  5
10AB
  8
SIZE
  6
CONTINUOUS
 10
335.0
 20
-461.52686816432788
 30
0.0
 11
390.0
 21
-461.52686816432788
 31
0.0
  0
LINE
  5
10AF
  8
SIZE
  6
CONTINUOUS
 10
-320.0
 20
-295.5
 30
0.0
 11
-320.0
 21
-491.0400076733635
 31
0.0
  0
LINE
  5
10B0
  8
SIZE
  6
CONTINUOUS
 10
-390.0
 20
-308.0
 30
0.0
 11
-390.0
 21
-491.0400076733635
 31
0.0
  0
LINE
  5
10B1
  8
SIZE
  6
CONTINUOUS
 10
-310.0
 20
-461.0400076733635
 30
0.0
 11
-300.0
 21
-461.0400076733635
 31
0.0
  0
LINE
  5
10B2
  8
SIZE
  6
CONTINUOUS
 10
-400.0
 20
-461.0400076733635
 30
0.0
 11
-543.25714285714275
 21
-461.0400076733635
 31
0.0
  0
LINE
  5
10B3
  8
SIZE
  6
CONTINUOUS
 10
-320.0
 20
-461.0400076733635
 30
0.0
 11
-390.0
 21
-461.0400076733635
 31
0.0
  0
LINE
  5
10B7
  8
SIZE
  6
CONTINUOUS
 10
-320.0
 20
-295.5
 30
0.0
 11
-320.0
 21
-491.09248749430071
 31
0.0
  0
LINE
  5
10B8
  8
SIZE
  6
CONTINUOUS
 10
0.0
 20
-353.9052583812549
 30
0.0
 11
0.0
 21
-491.09248749430071
 31
0.0
  0
LINE
  5
10B9
  8
SIZE
  6
CONTINUOUS
 10
-310.0
 20
-461.09248749430071
 30
0.0
 11
-10.0
 21
-461.09248749430071
 31
0.0
  0
LINE
  5
10F7
  8
SIZE
  6
CONTINUOUS
 10
390.0
 20
10.0
 30
0.0
 11
390.0
 21
205.99371073835789
 31
0.0
  0
LINE
  5
10F8
  8
SIZE
  6
CONTINUOUS
 10
-390.0
 20
10.0
 30
0.0
 11
-390.0
 21
205.99371073835789
 31
0.0
  0
LINE
  5
10F9
  8
SIZE
  6
CONTINUOUS
 10
380.0
 20
175.993710738358
 30
0.0
 11
-380.0
 21
175.993710738358
 31
0.0
  0
TEXT
  5
1193
  8
SIZE
  6
CONTINUOUS
 10
712.35671097096736
 20
-223.0571428571422
 30
0.0
 40
64.0
  1
298
 50
90.0
 41
0.9
  0
TEXT
  5
1194
  8
SIZE
  6
CONTINUOUS
 10
573.8495518346225
 20
-216.49999999999929
 30
0.0
 40
64.0
  1
41.5
 50
90.0
 41
0.9
  0
TEXT
  5
1195
  8
SIZE
  6
CONTINUOUS
 10
-532.56586929797174
 20
-215.49999999999929
 30
0.0
 40
64.0
  1
42.5
 50
90.0
 41
0.9
  0
CIRCLE
  5
1196
  8
SIZE
  6
BYBLOCK
 10
335.0
 20
-461.52686816432788
 30
0.0
 40
5.0
  0
LINE
  5
1197
  8
SIZE
  6
BYBLOCK
 10
335.0
 20
-461.52686816432788
 30
0.0
 11
325.0
 21
-461.52686816432788
 31
0.0
  0
CIRCLE
  5
1198
  8
SIZE
  6
BYBLOCK
 10
335.0
 20
-461.3910453404128
 30
0.0
 40
5.0
  0
LINE
  5
1199
  8
SIZE
  6
BYBLOCK
 10
335.0
 20
-461.3910453404128
 30
0.0
 11
325.0
 21
-461.3910453404128
 31
0.0
  0
TEXT
  5
119A
  8
SIZE
  6
CONTINUOUS
 10
-234.05714285714291
 20
-441.09248749430071
 30
0.0
 40
64.0
  1
320
 41
0.9
  0
TEXT
  5
119B
  8
SIZE
  6
CONTINUOUS
 10
-523.25714285714275
 20
-441.0400076733635
 30
0.0
 40
64.0
  1
70
 41
0.9
  0
TEXT
  5
119C
  8
SIZE
  6
CONTINUOUS
 10
93.442857142857065
 20
-441.3910453404128
 30
0.0
 40
64.0
  1
335
 41
0.9
  0
CIRCLE
  5
119D
  8
SIZE
  6
BYBLOCK
 10
-320.0
 20
-461.09248749430071
 30
0.0
 40
5.0
  0
LINE
  5
119E
  8
SIZE
  6
BYBLOCK
 10
-320.0
 20
-461.09248749430071
 30
0.0
 11
-310.0
 21
-461.09248749430071
 31
0.0
  0
CIRCLE
  5
119F
  8
SIZE
  6
BYBLOCK
 10
-320.0
 20
-461.0400076733635
 30
0.0
 40
5.0
  0
LINE
  5
11A0
  8
SIZE
  6
BYBLOCK
 10
-320.0
 20
-461.0400076733635
 30
0.0
 11
-310.0
 21
-461.0400076733635
 31
0.0
  0
CIRCLE
  5
11A1
  8
SIZE
  6
BYBLOCK
 10
-390.0
 20
-461.0400076733635
 30
0.0
 40
5.0
  0
LINE
  5
11A2
  8
SIZE
  6
BYBLOCK
 10
-390.0
 20
-461.0400076733635
 30
0.0
 11
-400.0
 21
-461.0400076733635
 31
0.0
  0
CIRCLE
  5
11A3
  8
SIZE
  6
BYBLOCK
 10
0.0
 20
-461.3910453404128
 30
0.0
 40
5.0
  0
LINE
  5
11A4
  8
SIZE
  6
BYBLOCK
 10
0.0
 20
-461.3910453404128
 30
0.0
 11
10.0
 21
-461.3910453404128
 31
0.0
  0
CIRCLE
  5
11A5
  8
SIZE
  6
BYBLOCK
 10
0.0
 20
-461.09248749430071
 30
0.0
 40
5.0
  0
LINE
  5
11A6
  8
SIZE
  6
BYBLOCK
 10
0.0
 20
-461.09248749430071
 30
0.0
 11
-10.0
 21
-461.09248749430071
 31
0.0
  0
CIRCLE
  5
11A7
  8
SIZE
  6
BYBLOCK
 10
-512.5658692979722
 20
-297.99999999999972
 30
0.0
 40
5.0
  0
LINE
  5
11A8
  8
SIZE
  6
BYBLOCK
 10
-512.5658692979722
 20
-297.99999999999972
 30
0.0
 11
-512.5658692979722
 21
-307.99999999999972
 31
0.0
  0
CIRCLE
  5
11A9
  8
SIZE
  6
BYBLOCK
 10
-512.5658692979722
 20
-255.49999999999969
 30
0.0
 40
5.0
  0
LINE
  5
11AA
  8
SIZE
  6
BYBLOCK
 10
-512.5658692979722
 20
-255.49999999999969
 30
0.0
 11
-512.5658692979722
 21
-245.49999999999969
 31
0.0
  0
TEXT
  5
11AB
  8
SIZE
  6
CONTINUOUS
 10
430.0
 20
-441.52686816432782
 30
0.0
 40
64.0
  1
55
 41
0.9
  0
CIRCLE
  5
11AC
  8
SIZE
  6
BYBLOCK
 10
390.0
 20
-461.52686816432788
 30
0.0
 40
5.0
  0
LINE
  5
11AD
  8
SIZE
  6
BYBLOCK
 10
390.0
 20
-461.52686816432788
 30
0.0
 11
400.0
 21
-461.52686816432788
 31
0.0
  0
CIRCLE
  5
11AE
  8
SIZE
  6
BYBLOCK
 10
593.84955183462262
 20
-298.00000000000023
 30
0.0
 40
5.0
  0
LINE
  5
11AF
  8
SIZE
  6
BYBLOCK
 10
593.84955183462262
 20
-298.00000000000023
 30
0.0
 11
593.84955183462262
 21
-308.00000000000023
 31
0.0
  0
CIRCLE
  5
11B0
  8
SIZE
  6
BYBLOCK
 10
732.35671097096736
 20
-298.00000000000023
 30
0.0
 40
5.0
  0
LINE
  5
11B1
  8
SIZE
  6
BYBLOCK
 10
732.35671097096736
 20
-298.00000000000023
 30
0.0
 11
732.35671097096736
 21
-288.00000000000023
 31
0.0
  0
CIRCLE
  5
11B2
  8
SIZE
  6
BYBLOCK
 10
593.84955183462262
 20
-256.50000000000023
 30
0.0
 40
5.0
  0
LINE
  5
11B3
  8
SIZE
  6
BYBLOCK
 10
593.84955183462262
 20
-256.50000000000023
 30
0.0
 11
593.84955183462262
 21
-246.5000000000002
 31
0.0
  0
TEXT
  5
11B4
  8
SIZE
  6
CONTINUOUS
 10
-54.138505088959391
 20
221.5963419693021
 30
0.0
 40
64.0
  1
780
 41
0.9
  0
CIRCLE
  5
11B5
  8
SIZE
  6
BYBLOCK
 10
-390.0
 20
175.993710738358
 30
0.0
 40
5.0
  0
LINE
  5
11B6
  8
SIZE
  6
BYBLOCK
 10
-390.0
 20
175.993710738358
 30
0.0
 11
-380.0
 21
175.993710738358
 31
0.0
  0
CIRCLE
  5
11B7
  8
SIZE
  6
BYBLOCK
 10
732.35671097096736
 20
-0.0000000000002274
 30
0.0
 40
5.0
  0
LINE
  5
11B8
  8
SIZE
  6
BYBLOCK
 10
732.35671097096736
 20
-0.0000000000002274
 30
0.0
 11
732.35671097096736
 21
-10.00000000000022
 31
0.0
  0
CIRCLE
  5
11B9
  8
SIZE
  6
BYBLOCK
 10
390.0
 20
175.993710738358
 30
0.0
 40
5.0
  0
LINE
  5
11BA
  8
SIZE
  6
BYBLOCK
 10
390.0
 20
175.993710738358
 30
0.0
 11
380.0
 21
175.993710738358
 31
0.0
  0
ENDSEC
  0
EOF
