  0
SECTION
  2
HEADER
  9
$ACADVER
  1
AC1009
  9
$INSBASE
 10
0.0
 20
0.0
 30
0.0
  9
$EXTMIN
 10
-2047.3218907860571
 20
-2932.2258377894859
 30
0.0
  9
$EXTMAX
 10
5297.2981908239899
 20
699.33593600367794
 30
0.0
  9
$LIMMIN
 10
-2428.8995530523239
 20
-3385.7899241372611
  9
$LIMMAX
 10
5476.8888439526527
 20
849.23357081275742
  9
$ORTHOMODE
 70
     0
  9
$REGENMODE
 70
     1
  9
$FILLMODE
 70
     1
  9
$QTEXTMODE
 70
     0
  9
$MIRRTEXT
 70
     0
  9
$DRAGMODE
 70
     2
  9
$LTSCALE
 40
20.0
  9
$OSMODE
 70
    55
  9
$ATTMODE
 70
     1
  9
$TEXTSIZE
 40
64.0
  9
$TRACEWID
 40
0.05
  9
$TEXTSTYLE
  7
STANDARD
  9
$CLAYER
  8
SIZE
  9
$CELTYPE
  6
CONTINUOUS
  9
$CECOLOR
 62
   256
  9
$DIMSCALE
 40
1.0
  9
$DIMASZ
 40
10.0
  9
$DIMEXO
 40
20.0
  9
$DIMDLI
 40
200.0
  9
$DIMRND
 40
0.0
  9
$DIMDLE
 40
0.0
  9
$DIMEXE
 40
30.0
  9
$DIMTP
 40
0.0
  9
$DIMTM
 40
0.0
  9
$DIMTXT
 40
64.0
  9
$DIMCEN
 40
0.09
  9
$DIMTSZ
 40
0.0
  9
$DIMTOL
 70
     0
  9
$DIMLIM
 70
     0
  9
$DIMTIH
 70
     0
  9
$DIMTOH
 70
     0
  9
$DIMSE1
 70
     0
  9
$DIMSE2
 70
     0
  9
$DIMTAD
 70
     1
  9
$DIMZIN
 70
     8
  9
$DIMBLK
  1
ORIGIN
  9
$DIMASO
 70
     1
  9
$DIMSHO
 70
     0
  9
$DIMPOST
  1

  9
$DIMAPOST
  1

  9
$DIMALT
 70
     0
  9
$DIMALTD
 70
     2
  9
$DIMALTF
 40
25.399999999999999
  9
$DIMLFAC
 40
1.0
  9
$DIMTOFL
 70
     1
  9
$DIMTVP
 40
0.0
  9
$DIMTIX
 70
     0
  9
$DIMSOXD
 70
     0
  9
$DIMSAH
 70
     0
  9
$DIMBLK1
  1

  9
$DIMBLK2
  1

  9
$DIMSTYLE
  2
STANDARD
  9
$DIMCLRD
 70
     0
  9
$DIMCLRE
 70
     0
  9
$DIMCLRT
 70
     0
  9
$DIMTFAC
 40
1.0
  9
$DIMGAP
 40
20.0
  9
$LUNITS
 70
     2
  9
$LUPREC
 70
     4
  9
$SKETCHINC
 40
0.1
  9
$FILLETRAD
 40
10.0
  9
$AUNITS
 70
     1
  9
$AUPREC
 70
     3
  9
$MENU
  1
ACAD
  9
$ELEVATION
 40
0.0
  9
$PELEVATION
 40
0.0
  9
$THICKNESS
 40
0.0
  9
$LIMCHECK
 70
     0
  9
$BLIPMODE
 70
     0
  9
$CHAMFERA
 40
0.0
  9
$CHAMFERB
 40
0.0
  9
$SKPOLY
 70
     0
  9
$TDCREATE
 40
2450330.3932059952
  9
$TDUPDATE
 40
2453328.3934805319
  9
$TDINDWG
 40
0.4544194792
  9
$TDUSRTIMER
 40
0.4544194792
  9
$USRTIMER
 70
     1
  9
$ANGBASE
 50
0.0
  9
$ANGDIR
 70
     0
  9
$PDMODE
 70
     3
  9
$PDSIZE
 40
-2.0
  9
$PLINEWID
 40
0.0
  9
$COORDS
 70
     0
  9
$SPLFRAME
 70
     0
  9
$SPLINETYPE
 70
     6
  9
$SPLINESEGS
 70
     8
  9
$ATTDIA
 70
     0
  9
$ATTREQ
 70
     1
  9
$HANDLING
 70
-16383
  9
$HANDSEED
  5
123C
  9
$SURFTAB1
 70
     6
  9
$SURFTAB2
 70
     6
  9
$SURFTYPE
 70
     6
  9
$SURFU
 70
     6
  9
$SURFV
 70
     6
  9
$UCSNAME
  2

  9
$UCSORG
 10
0.0
 20
0.0
 30
0.0
  9
$UCSXDIR
 10
1.0
 20
0.0
 30
0.0
  9
$UCSYDIR
 10
0.0
 20
1.0
 30
0.0
  9
$PUCSNAME
  2

  9
$PUCSORG
 10
0.0
 20
0.0
 30
0.0
  9
$PUCSXDIR
 10
1.0
 20
0.0
 30
0.0
  9
$PUCSYDIR
 10
0.0
 20
1.0
 30
0.0
  9
$USERI1
 70
     0
  9
$USERI2
 70
     0
  9
$USERI3
 70
     0
  9
$USERI4
 70
     0
  9
$USERI5
 70
     0
  9
$USERR1
 40
20.0
  9
$USERR2
 40
0.0
  9
$USERR3
 40
0.0
  9
$USERR4
 40
0.0
  9
$USERR5
 40
0.0
  9
$WORLDVIEW
 70
     1
  9
$SHADEDGE
 70
     3
  9
$SHADEDIF
 70
    70
  9
$TILEMODE
 70
     1
  9
$MAXACTVP
 70
    64
  9
$PLIMCHECK
 70
     0
  9
$PEXTMIN
 10
1.0000000000000000E+020
 20
1.0000000000000000E+020
 30
1.0000000000000000E+020
  9
$PEXTMAX
 10
-1.0000000000000000E+020
 20
-1.0000000000000000E+020
 30
-1.0000000000000000E+020
  9
$PLIMMIN
 10
0.0
 20
0.0
  9
$PLIMMAX
 10
12.0
 20
9.0
  9
$UNITMODE
 70
     0
  9
$VISRETAIN
 70
     1
  9
$PLINEGEN
 70
     0
  9
$PSLTSCALE
 70
     1
  0
ENDSEC
  0
SECTION
  2
TABLES
  0
TABLE
  2
VPORT
 70
     3
  0
VPORT
  2
*ACTIVE
 70
     0
 10
0.0
 20
0.0
 11
1.0
 21
1.0
 12
-119.29454042256469
 22
-51.917616479268872
 13
0.0
 23
0.0
 14
50.0
 24
50.0
 15
100.0
 25
100.0
 16
0.0
 26
0.0
 36
1.0
 17
0.0
 27
0.0
 37
0.0
 40
2006.5395705812709
 41
1.27621483375959
 42
50.0
 43
0.0
 44
0.0
 50
0.0
 51
0.0
 71
     0
 72
   500
 73
     1
 74
     0
 75
     0
 76
     0
 77
     0
 78
     0
  0
ENDTAB
  0
TABLE
  2
LTYPE
 70
    15
  0
LTYPE
  2
CONTINUOUS
 70
     0
  3
実線
 72
    65
 73
     0
 40
0.0
  0
LTYPE
  2
DASHDOT
 70
     0
  3
____ _ ____ _ ____ _ ____ _ ____ _ ____ _ ____
 72
    65
 73
     4
 40
5.5
 49
4.0
 49
-0.6
 49
0.3
 49
-0.6
  0
LTYPE
  2
CONTINOUS
 70
     0
  3
Solid line
 72
    65
 73
     0
 40
0.0
  0
LTYPE
  2
BORDER
 70
     0
  3
BORDER
 72
    65
 73
     6
 40
1.75
 49
0.5
 49
-0.25
 49
0.5
 49
-0.25
 49
0.0
 49
-0.25
  0
LTYPE
  2
CENTER
 70
     0
  3
CENTER
 72
    65
 73
     4
 40
2.0
 49
1.25
 49
-0.25
 49
0.25
 49
-0.25
  0
LTYPE
  2
DASHED
 70
     0
  3
DASHED
 72
    65
 73
     2
 40
0.75
 49
0.5
 49
-0.25
  0
LTYPE
  2
DIVIDE
 70
     0
  3
DIVIDE
 72
    65
 73
     6
 40
1.25
 49
0.5
 49
-0.25
 49
0.0
 49
-0.25
 49
0.0
 49
-0.25
  0
LTYPE
  2
DOT
 70
     0
  3
DOT
 72
    65
 73
     2
 40
0.25
 49
0.0
 49
-0.25
  0
LTYPE
  2
HIDDEN
 70
     0
  3
HIDDEN
 72
    65
 73
     2
 40
0.375
 49
0.25
 49
-0.125
  0
LTYPE
  2
PHANTOM
 70
     0
  3
PHANTOM
 72
    65
 73
     6
 40
2.5
 49
1.25
 49
-0.25
 49
0.25
 49
-0.25
 49
0.25
 49
-0.25
  0
LTYPE
  2
$INVISIBLE
 70
     0
  3
$INVISIBLE
 72
    65
 73
     2
 40
200.0
 49
-100.0
 49
-100.0
  0
LTYPE
  2
$MARGINS
 70
     0
  3
$MARGINS
 72
    65
 73
     2
 40
0.075
 49
0.05
 49
-0.025
  0
LTYPE
  2
JLSTYLE_0
 70
     0
  3
JLSTYLE_0
 72
    65
 73
     4
 40
1.0
 49
0.5
 49
-0.25
 49
0.0
 49
-0.25
  0
LTYPE
  2
JLSTYLE_1
 70
     0
  3
JLSTYLE_1
 72
    65
 73
     2
 40
0.75
 49
0.5
 49
-0.25
  0
LTYPE
  2
JLSTYLE_2
 70
     0
  3
JLSTYLE_2
 72
    65
 73
     6
 40
1.25
 49
0.5
 49
-0.25
 49
0.0
 49
-0.25
 49
0.0
 49
-0.25
  0
ENDTAB
  0
TABLE
  2
LAYER
 70
    13
  0
LAYER
  2
0
 70
     0
 62
     7
  6
CONTINUOUS
  0
LAYER
  2
DETAIL
 70
     0
 62
     5
  6
CONTINUOUS
  0
LAYER
  2
OUTLINE
 70
     0
 62
     3
  6
CONTINUOUS
  0
LAYER
  2
BASIS
 70
     0
 62
     6
  6
CONTINUOUS
  0
LAYER
  2
SIZE
 70
     0
 62
    32
  6
CONTINUOUS
  0
LAYER
  2
NOTE
 70
     0
 62
     4
  6
CONTINUOUS
  0
LAYER
  2
ARRANGE
 70
     0
 62
     1
  6
CONTINUOUS
  0
LAYER
  2
FIX
 70
     0
 62
   241
  6
CONTINUOUS
  0
LAYER
  2
ETC
 70
     0
 62
    83
  6
CONTINUOUS
  0
LAYER
  2
SERVICESPACE
 70
     0
 62
     2
  6
CONTINUOUS
  0
LAYER
  2
SYMBOLLINE
 70
     0
 62
    38
  6
CONTINUOUS
  0
LAYER
  2
DEFPOINTS
 70
     0
 62
     7
  6
CONTINUOUS
  0
LAYER
  2
SERVICE_SPACE
 70
     0
 62
     2
  6
CONTINUOUS
  0
ENDTAB
  0
TABLE
  2
STYLE
 70
     1
  0
STYLE
  2
STANDARD
 70
     0
 40
0.0
 41
0.9
 50
0.0
 71
     0
 42
64.0
  3
SIMPLEX
  4
BIGFONT
  0
ENDTAB
  0
TABLE
  2
VIEW
 70
     1
  0
VIEW
  2
ALL
 70
     0
 40
4282.6199999999999
 10
0.0
 20
41.309903999999989
 41
5940.0
 11
0.0
 21
0.0
 31
1.0
 12
0.0
 22
0.0
 32
0.0
 42
50.0
 43
0.0
 44
0.0
 50
0.0
 71
     0
  0
ENDTAB
  0
TABLE
  2
UCS
 70
     0
  0
ENDTAB
  0
TABLE
  2
APPID
 70
     1
  0
APPID
  2
ACAD
 70
     0
  0
ENDTAB
  0
TABLE
  2
DIMSTYLE
 70
     1
  0
DIMSTYLE
  2
STANDARD
 70
     0
  3

  4

  5

  6

  7

 40
1.0
 41
0.18
 42
0.0625
 43
0.38
 44
0.18
 45
0.0
 46
0.0
 47
0.0
 48
0.0
140
0.18
141
0.09
142
0.0
143
25.399999999999999
144
1.0
145
0.0
146
1.0
147
0.09
 71
     0
 72
     0
 73
     1
 74
     1
 75
     0
 76
     0
 77
     0
 78
     0
170
     0
171
     2
172
     0
173
     0
174
     0
175
     0
176
     0
177
     0
178
     0
  0
ENDTAB
  0
ENDSEC
  0
SECTION
  2
BLOCKS
  0
BLOCK
  8
0
  2
$MODEL_SPACE
 70
     0
 10
0.0
 20
0.0
 30
0.0
  3
$MODEL_SPACE
  1

  0
ENDBLK
  5
20
  8
0
  0
BLOCK
 67
     1
  8
0
  2
$PAPER_SPACE
 70
     0
 10
0.0
 20
0.0
 30
0.0
  3
$PAPER_SPACE
  1

  0
ENDBLK
  5
1C
 67
     1
  8
0
  0
BLOCK
  8
0
  2
_ORIGIN
 70
     0
 10
0.0
 20
0.0
 30
0.0
  3
_ORIGIN
  1

  0
CIRCLE
  5
531
  8
0
  6
BYBLOCK
 62
     0
 10
0.0
 20
0.0
 30
0.0
 40
0.5
  0
LINE
  5
532
  8
0
  6
BYBLOCK
 62
     0
 10
0.0
 20
0.0
 30
0.0
 11
-1.0
 21
0.0
 31
0.0
  0
ENDBLK
  5
534
  8
0
  0
ENDSEC
  0
SECTION
  2
ENTITIES
  0
TEXT
  5
449
  8
ETC
 10
146.42329741052001
 20
272.04048102682941
 30
0.0
 40
64.0
  1
SMSZ3115
 41
0.933333340625001
 72
     5
 11
573.08996741052033
 21
272.04048102682941
 31
0.0
  0
TEXT
  5
44A
  8
ETC
 10
153.83992741051989
 20
378.27757102682921
 30
0.0
 40
64.0
  1
RAC
 41
0.9051724137931035
 72
     5
 11
313.83992741051998
 21
378.27757102682921
 31
0.0
  0
ARC
  5
E17
  8
DETAIL
  6
CONTINUOUS
 10
-552.20009145662425
 20
-74.43611864269792
 30
0.0
 40
738.58296023918513
 50
342.70608722803632
 51
5.4812285880215779
  0
ARC
  5
E18
  8
DETAIL
  6
CONTINUOUS
 10
22.260747911086352
 20
-142.18345867255439
 30
0.0
 40
203.39565847642669
 50
313.4809034650383
 51
341.37111737426392
  0
ARC
  5
E19
  8
DETAIL
  6
CONTINUOUS
 10
165.0
 20
-50.0
 30
0.0
 40
50.0
 50
0.000000000000007
 51
90.000000000000099
  0
LINE
  5
E1A
  8
BASIS
  6
DASHDOT
 62
     6
 10
-54.152849999999937
 20
-149.0
 30
0.0
 11
278.78812999999991
 21
-149.0
 31
0.0
  0
LINE
  5
E1B
  8
DETAIL
  6
CONTINUOUS
 10
215.0
 20
-50.0
 30
0.0
 11
215.0
 21
-207.15556492797299
 31
0.0
  0
LINE
  5
E1E
  8
DETAIL
  6
CONTINUOUS
 10
98.0
 20
0.0
 30
0.0
 11
98.0
 21
-298.0
 31
0.0
  0
LINE
  5
E1F
  8
DETAIL
  6
CONTINUOUS
 10
0.0
 20
-25.0
 30
0.0
 11
0.0
 21
-298.0
 31
0.0
  0
LINE
  5
E20
  8
NOTE
  6
CONTINUOUS
 62
     4
 10
0.0
 20
-255.5
 30
0.0
 11
-287.90161999999998
 21
57.104289999999992
 31
0.0
  0
LINE
  5
E22
  8
NOTE
  6
CONTINUOUS
 62
     4
 10
-263.85847000000012
 20
-465.12463999999989
 30
0.0
 11
-781.77221000000009
 21
-465.12463999999989
 31
0.0
  0
TEXT
  5
E23
  8
NOTE
 62
     4
 10
-773.04320999999982
 20
-443.92957000000001
 30
0.0
 40
64.0
  1
D,RL,RG%%C65
 41
0.9
  0
LINE
  5
E24
  8
NOTE
  6
CONTINUOUS
 62
     4
 10
0.0
 20
-256.49999999999989
 30
0.0
 11
-263.85847000000012
 21
-465.12463999999989
 31
0.0
  0
LINE
  5
E25
  8
NOTE
  6
DASHDOT
 62
     4
 10
0.0
 20
-236.5
 30
0.0
 11
0.0
 21
-276.5
 31
0.0
  0
LINE
  5
E26
  8
NOTE
  6
DASHDOT
 62
     4
 10
0.0
 20
-235.49999999999989
 30
0.0
 11
0.0
 21
-275.49999999999989
 31
0.0
  0
LINE
  5
E27
  8
NOTE
  6
CONTINUOUS
 62
     4
 10
0.0
 20
-256.49999999999989
 30
0.0
 11
-23.921129999999941
 21
-288.55899999999991
 31
0.0
  0
LINE
  5
E28
  8
NOTE
  6
CONTINUOUS
 62
     4
 10
-36.745809999999892
 20
-272.30335000000008
 30
0.0
 11
0.0
 21
-256.49999999999989
 31
0.0
  0
LINE
  5
E29
  8
DETAIL
  6
CONTINUOUS
 10
0.0
 20
-298.0
 30
0.0
 11
141.57651512930579
 21
-298.0
 31
0.0
  0
ARC
  5
E2A
  8
DETAIL
  6
CONTINUOUS
 10
141.57651512930599
 20
-268.0
 30
0.0
 40
30.0
 50
269.9999999999996
 51
313.48090346503852
  0
LINE
  5
E2B
  8
NOTE
  6
CONTINUOUS
 62
     4
 10
-17.62796000000003
 20
-219.5938000000001
 30
0.0
 11
0.0
 21
-255.5
 31
0.0
  0
LINE
  5
E2C
  8
NOTE
  6
CONTINUOUS
 62
     4
 10
0.0
 20
-255.5
 30
0.0
 11
-33.219360000000052
 21
-233.2183
 31
0.0
  0
LINE
  5
E2D
  8
NOTE
  6
DASHDOT
 62
     4
 10
-20.0
 20
-256.49999999999989
 30
0.0
 11
20.0
 21
-256.49999999999989
 31
0.0
  0
LINE
  5
E2E
  8
NOTE
  6
DASHDOT
 62
     4
 10
-20.0
 20
-255.5
 30
0.0
 11
20.0
 21
-255.5
 31
0.0
  0
LINE
  5
E2F
  8
NOTE
  6
CONTINUOUS
 62
     4
 10
-287.90161999999998
 20
57.104289999999992
 30
0.0
 11
-805.81536000000006
 21
57.104289999999992
 31
0.0
  0
TEXT
  5
E30
  8
NOTE
 62
     4
 10
-797.08636000000024
 20
78.299350000000004
 30
0.0
 40
64.0
  1
D,RL,RG%%C65
 41
0.9
  0
POINT
  5
E31
  8
ARRANGE
  6
CONTINUOUS
 10
0.0
 20
0.0
 30
0.0
  0
ARC
  5
E32
  8
DETAIL
  6
CONTINUOUS
 10
25.0
 20
-25.0
 30
0.0
 40
25.0
 50
90.0
 51
180.0
  0
ARC
  5
E33
  8
DETAIL
  6
CONTINUOUS
 10
25.0
 20
-25.0
 30
0.0
 40
25.0
 50
90.0
 51
180.0
  0
CIRCLE
  5
E34
  8
ARRANGE
  6
CONTINUOUS
 10
0.0
 20
0.0
 30
0.0
 40
40.0
  0
CIRCLE
  5
E35
  8
ARRANGE
  6
CONTINUOUS
 62
     1
 10
0.0
 20
0.0
 30
0.0
 40
40.0
  0
LINE
  5
E36
  8
DETAIL
  6
CONTINUOUS
 10
25.0
 20
-0.0000000000002274
 30
0.0
 11
165.0
 21
0.0
 31
0.0
  0
LINE
  5
FAF
  8
OUTLINE
  6
CONTINUOUS
 10
215.0
 20
-50.0
 30
0.0
 11
215.0
 21
-207.15556492797299
 31
0.0
  0
LINE
  5
FB1
  8
OUTLINE
  6
CONTINUOUS
 10
0.0
 20
-25.0
 30
0.0
 11
0.0
 21
-298.0
 31
0.0
  0
ARC
  5
FB7
  8
OUTLINE
  6
CONTINUOUS
 10
22.260747911086579
 20
-142.18345867255439
 30
0.0
 40
203.39565847642669
 50
313.4809034650383
 51
341.37111737426392
  0
LINE
  5
FB8
  8
OUTLINE
  6
CONTINUOUS
 10
0.0
 20
-298.0
 30
0.0
 11
141.57651512930531
 21
-298.0
 31
0.0
  0
ARC
  5
FB9
  8
OUTLINE
  6
CONTINUOUS
 10
141.57651512930619
 20
-268.0
 30
0.0
 40
30.0
 50
269.9999999999996
 51
313.48090346503852
  0
LINE
  5
FE7
  8
OUTLINE
  6
CONTINUOUS
 10
25.0
 20
-0.0000000000004547
 30
0.0
 11
165.0
 21
0.0
 31
0.0
  0
ARC
  5
FE8
  8
OUTLINE
  6
CONTINUOUS
 10
25.0
 20
-25.0
 30
0.0
 40
25.0
 50
90.0
 51
180.0
  0
ARC
  5
FE9
  8
OUTLINE
  6
CONTINUOUS
 10
25.0
 20
-25.0
 30
0.0
 40
25.0
 50
90.0
 51
180.0
  0
ARC
  5
FEA
  8
OUTLINE
  6
CONTINUOUS
 10
165.0
 20
-50.0
 30
0.0
 40
50.0
 50
0.000000000000007
 51
90.000000000000099
  0
LINE
  5
1031
  8
SIZE
  6
CONTINUOUS
 10
20.0
 20
0.0
 30
0.0
 11
-491.4843902873871
 21
0.0000000000002274
 31
0.0
  0
LINE
  5
1032
  8
SIZE
  6
CONTINUOUS
 10
-20.0
 20
-298.0
 30
0.0
 11
-491.4843902873871
 21
-297.99999999999972
 31
0.0
  0
LINE
  5
1033
  8
SIZE
  6
CONTINUOUS
 10
-461.48439028738721
 20
-9.9999999999997726
 30
0.0
 11
-461.48439028738721
 21
-287.99999999999972
 31
0.0
  0
LINE
  5
1037
  8
SIZE
  6
CONTINUOUS
 10
-20.0
 20
-298.0
 30
0.0
 11
-294.25994256639018
 21
-298.0
 31
0.0
  0
LINE
  5
1038
  8
SIZE
  6
CONTINUOUS
 10
-40.0
 20
-256.49999999999989
 30
0.0
 11
-294.25994256639018
 21
-256.49999999999989
 31
0.0
  0
LINE
  5
1039
  8
SIZE
  6
CONTINUOUS
 10
-264.25994256639018
 20
-308.0
 30
0.0
 11
-264.25994256639018
 21
-318.0
 31
0.0
  0
LINE
  5
103A
  8
SIZE
  6
CONTINUOUS
 10
-264.25994256639018
 20
-246.49999999999989
 30
0.0
 11
-264.25994256639018
 21
-31.928571428571331
 31
0.0
  0
LINE
  5
103B
  8
SIZE
  6
CONTINUOUS
 10
-264.25994256639018
 20
-298.0
 30
0.0
 11
-264.25994256639018
 21
-256.49999999999989
 31
0.0
  0
LINE
  5
103F
  8
SIZE
  6
CONTINUOUS
 10
-40.0
 20
-255.5
 30
0.0
 11
-387.56074211532558
 21
-255.49999999999969
 31
0.0
  0
LINE
  5
1040
  8
SIZE
  6
CONTINUOUS
 10
-20.0
 20
-298.0
 30
0.0
 11
-387.56074211532558
 21
-297.99999999999972
 31
0.0
  0
LINE
  5
1041
  8
SIZE
  6
CONTINUOUS
 10
-357.56074211532558
 20
-307.99999999999972
 30
0.0
 11
-357.56074211532558
 21
-317.99999999999972
 31
0.0
  0
LINE
  5
1042
  8
SIZE
  6
CONTINUOUS
 10
-357.56074211532558
 20
-245.49999999999969
 30
0.0
 11
-357.56074211532558
 21
-19.957142857142109
 31
0.0
  0
LINE
  5
1043
  8
SIZE
  6
CONTINUOUS
 10
-357.56074211532558
 20
-297.99999999999972
 30
0.0
 11
-357.56074211532558
 21
-255.49999999999969
 31
0.0
  0
LINE
  5
10D9
  8
SIZE
  6
CONTINUOUS
 10
0.0
 20
20.0
 30
0.0
 11
0.0
 21
142.2596348969204
 31
0.0
  0
LINE
  5
10DA
  8
SIZE
  6
CONTINUOUS
 10
215.0
 20
-30.0
 30
0.0
 11
215.0
 21
142.2596348969204
 31
0.0
  0
LINE
  5
10DB
  8
SIZE
  6
CONTINUOUS
 10
10.0
 20
112.2596348969205
 30
0.0
 11
205.0
 21
112.2596348969205
 31
0.0
  0
TEXT
  5
11D0
  8
SIZE
  6
CONTINUOUS
 10
-377.5607421153253
 20
-215.49999999999969
 30
0.0
 40
64.0
  1
42.5
 50
90.0
 41
0.9
  0
TEXT
  5
11D1
  8
SIZE
  6
CONTINUOUS
 10
-284.25994256639001
 20
-216.5000000000002
 30
0.0
 40
64.0
  1
41.5
 50
90.0
 41
0.9
  0
TEXT
  5
11D2
  8
SIZE
  6
CONTINUOUS
 10
-481.48439028738687
 20
-223.05714285714311
 30
0.0
 40
64.0
  1
298
 50
90.0
 41
0.9
  0
CIRCLE
  5
11F1
  8
SIZE
  6
BYBLOCK
 10
-461.48439028738721
 20
-297.99999999999972
 30
0.0
 40
5.0
  0
LINE
  5
11F2
  8
SIZE
  6
BYBLOCK
 10
-461.48439028738721
 20
-297.99999999999972
 30
0.0
 11
-461.48439028738721
 21
-287.99999999999972
 31
0.0
  0
CIRCLE
  5
11F3
  8
SIZE
  6
BYBLOCK
 10
-357.56074211532558
 20
-297.99999999999972
 30
0.0
 40
5.0
  0
LINE
  5
11F4
  8
SIZE
  6
BYBLOCK
 10
-357.56074211532558
 20
-297.99999999999972
 30
0.0
 11
-357.56074211532558
 21
-307.99999999999972
 31
0.0
  0
CIRCLE
  5
11F5
  8
SIZE
  6
BYBLOCK
 10
-264.25994256639018
 20
-298.0
 30
0.0
 40
5.0
  0
LINE
  5
11F6
  8
SIZE
  6
BYBLOCK
 10
-264.25994256639018
 20
-298.0
 30
0.0
 11
-264.25994256639018
 21
-308.0
 31
0.0
  0
CIRCLE
  5
11F7
  8
SIZE
  6
BYBLOCK
 10
-357.56074211532558
 20
-255.49999999999969
 30
0.0
 40
5.0
  0
LINE
  5
11F8
  8
SIZE
  6
BYBLOCK
 10
-357.56074211532558
 20
-255.49999999999969
 30
0.0
 11
-357.56074211532558
 21
-245.49999999999969
 31
0.0
  0
CIRCLE
  5
11F9
  8
SIZE
  6
BYBLOCK
 10
-264.25994256639018
 20
-256.49999999999989
 30
0.0
 40
5.0
  0
LINE
  5
11FA
  8
SIZE
  6
BYBLOCK
 10
-264.25994256639018
 20
-256.49999999999989
 30
0.0
 11
-264.25994256639018
 21
-246.49999999999989
 31
0.0
  0
CIRCLE
  5
11FD
  8
SIZE
  6
BYBLOCK
 10
-461.48439028738721
 20
0.0000000000002274
 30
0.0
 40
5.0
  0
LINE
  5
11FE
  8
SIZE
  6
BYBLOCK
 10
-461.48439028738721
 20
0.0000000000002274
 30
0.0
 11
-461.48439028738721
 21
-9.9999999999997726
 31
0.0
  0
TEXT
  5
11FF
  8
SIZE
  6
CONTINUOUS
 10
38.928571428571331
 20
132.2596348969204
 30
0.0
 40
64.0
  1
215
 41
0.9
  0
CIRCLE
  5
1200
  8
SIZE
  6
BYBLOCK
 10
0.0
 20
112.2596348969205
 30
0.0
 40
5.0
  0
LINE
  5
1201
  8
SIZE
  6
BYBLOCK
 10
0.0
 20
112.2596348969205
 30
0.0
 11
10.0
 21
112.2596348969205
 31
0.0
  0
CIRCLE
  5
1202
  8
SIZE
  6
BYBLOCK
 10
215.0
 20
112.2596348969205
 30
0.0
 40
5.0
  0
LINE
  5
1203
  8
SIZE
  6
BYBLOCK
 10
215.0
 20
112.2596348969205
 30
0.0
 11
205.0
 21
112.2596348969205
 31
0.0
  0
ENDSEC
  0
EOF
