  0
SECTION
  2
HEADER
  9
$ACADVER
  1
AC1009
  9
$INSBASE
 10
0.0
 20
0.0
 30
0.0
  9
$EXTMIN
 10
-667.90253827938056
 20
-334.17683543704152
 30
-0.0015258207003583
  9
$EXTMAX
 10
978.1314308299842
 20
320.76034181179239
 30
0.0000000349246037
  9
$LIMMIN
 10
-735.23231401287921
 20
-549.75023569845143
  9
$LIMMAX
 10
1075.021870569504
 20
405.42918302991887
  9
$ORTHOMODE
 70
     1
  9
$REGENMODE
 70
     1
  9
$FILLMODE
 70
     1
  9
$QTEXTMODE
 70
     0
  9
$MIRRTEXT
 70
     0
  9
$DRAGMODE
 70
     2
  9
$LTSCALE
 40
20.0
  9
$OSMODE
 70
   119
  9
$ATTMODE
 70
     1
  9
$TEXTSIZE
 40
64.0
  9
$TRACEWID
 40
0.05
  9
$TEXTSTYLE
  7
STANDARD
  9
$CLAYER
  8
SIZE
  9
$CELTYPE
  6
CONTINUOUS
  9
$CECOLOR
 62
   256
  9
$DIMSCALE
 40
1.0
  9
$DIMASZ
 40
10.0
  9
$DIMEXO
 40
20.0
  9
$DIMDLI
 40
200.0
  9
$DIMRND
 40
0.0
  9
$DIMDLE
 40
0.0
  9
$DIMEXE
 40
30.0
  9
$DIMTP
 40
0.0
  9
$DIMTM
 40
0.0
  9
$DIMTXT
 40
64.0
  9
$DIMCEN
 40
0.09
  9
$DIMTSZ
 40
0.0
  9
$DIMTOL
 70
     0
  9
$DIMLIM
 70
     0
  9
$DIMTIH
 70
     0
  9
$DIMTOH
 70
     0
  9
$DIMSE1
 70
     0
  9
$DIMSE2
 70
     0
  9
$DIMTAD
 70
     1
  9
$DIMZIN
 70
     8
  9
$DIMBLK
  1
ORIGIN
  9
$DIMASO
 70
     1
  9
$DIMSHO
 70
     0
  9
$DIMPOST
  1

  9
$DIMAPOST
  1

  9
$DIMALT
 70
     0
  9
$DIMALTD
 70
     2
  9
$DIMALTF
 40
25.399999999999999
  9
$DIMLFAC
 40
1.0
  9
$DIMTOFL
 70
     1
  9
$DIMTVP
 40
0.0
  9
$DIMTIX
 70
     0
  9
$DIMSOXD
 70
     0
  9
$DIMSAH
 70
     0
  9
$DIMBLK1
  1

  9
$DIMBLK2
  1

  9
$DIMSTYLE
  2
STANDARD
  9
$DIMCLRD
 70
     0
  9
$DIMCLRE
 70
     0
  9
$DIMCLRT
 70
     0
  9
$DIMTFAC
 40
1.0
  9
$DIMGAP
 40
20.0
  9
$LUNITS
 70
     2
  9
$LUPREC
 70
     4
  9
$SKETCHINC
 40
0.1
  9
$FILLETRAD
 40
10.0
  9
$AUNITS
 70
     1
  9
$AUPREC
 70
     3
  9
$MENU
  1
ACAD
  9
$ELEVATION
 40
0.0
  9
$PELEVATION
 40
0.0
  9
$THICKNESS
 40
0.0
  9
$LIMCHECK
 70
     0
  9
$BLIPMODE
 70
     0
  9
$CHAMFERA
 40
0.0
  9
$CHAMFERB
 40
0.0
  9
$SKPOLY
 70
     0
  9
$TDCREATE
 40
2450330.3932059952
  9
$TDUPDATE
 40
2453726.8417697451
  9
$TDINDWG
 40
0.5338458449
  9
$TDUSRTIMER
 40
0.5338458449
  9
$USRTIMER
 70
     1
  9
$ANGBASE
 50
0.0
  9
$ANGDIR
 70
     0
  9
$PDMODE
 70
     3
  9
$PDSIZE
 40
-2.0
  9
$PLINEWID
 40
0.0
  9
$COORDS
 70
     0
  9
$SPLFRAME
 70
     0
  9
$SPLINETYPE
 70
     6
  9
$SPLINESEGS
 70
     8
  9
$ATTDIA
 70
     0
  9
$ATTREQ
 70
     1
  9
$HANDLING
 70
-16383
  9
$HANDSEED
  5
1338
  9
$SURFTAB1
 70
     6
  9
$SURFTAB2
 70
     6
  9
$SURFTYPE
 70
     6
  9
$SURFU
 70
     6
  9
$SURFV
 70
     6
  9
$UCSNAME
  2

  9
$UCSORG
 10
0.0
 20
0.0
 30
0.0
  9
$UCSXDIR
 10
1.0
 20
0.0
 30
0.0
  9
$UCSYDIR
 10
0.0
 20
1.0
 30
0.0
  9
$PUCSNAME
  2

  9
$PUCSORG
 10
0.0
 20
0.0
 30
0.0
  9
$PUCSXDIR
 10
1.0
 20
0.0
 30
0.0
  9
$PUCSYDIR
 10
0.0
 20
1.0
 30
0.0
  9
$USERI1
 70
     0
  9
$USERI2
 70
     0
  9
$USERI3
 70
     0
  9
$USERI4
 70
     0
  9
$USERI5
 70
     0
  9
$USERR1
 40
20.0
  9
$USERR2
 40
0.0
  9
$USERR3
 40
0.0
  9
$USERR4
 40
0.0
  9
$USERR5
 40
0.0
  9
$WORLDVIEW
 70
     1
  9
$SHADEDGE
 70
     3
  9
$SHADEDIF
 70
    70
  9
$TILEMODE
 70
     1
  9
$MAXACTVP
 70
    64
  9
$PLIMCHECK
 70
     0
  9
$PEXTMIN
 10
1.0000000000000000E+020
 20
1.0000000000000000E+020
 30
1.0000000000000000E+020
  9
$PEXTMAX
 10
-1.0000000000000000E+020
 20
-1.0000000000000000E+020
 30
-1.0000000000000000E+020
  9
$PLIMMIN
 10
0.0
 20
0.0
  9
$PLIMMAX
 10
12.0
 20
9.0
  9
$UNITMODE
 70
     0
  9
$VISRETAIN
 70
     1
  9
$PLINEGEN
 70
     0
  9
$PSLTSCALE
 70
     1
  0
ENDSEC
  0
SECTION
  2
TABLES
  0
TABLE
  2
VPORT
 70
     3
  0
VPORT
  2
*ACTIVE
 70
     0
 10
0.0
 20
0.0
 11
1.0
 21
1.0
 12
119.55043448665489
 22
-59.310577769624729
 13
0.0
 23
0.0
 14
50.0
 24
50.0
 15
100.0
 25
100.0
 16
0.0
 26
0.0
 36
1.0
 17
0.0
 27
0.0
 37
0.0
 40
1676.918133712622
 41
1.314578005115089
 42
50.0
 43
0.0
 44
0.0
 50
0.0
 51
0.0
 71
     0
 72
   500
 73
     1
 74
     0
 75
     0
 76
     0
 77
     0
 78
     0
  0
ENDTAB
  0
TABLE
  2
LTYPE
 70
    15
  0
LTYPE
  2
CONTINUOUS
 70
     0
  3
実線
 72
    65
 73
     0
 40
0.0
  0
LTYPE
  2
DASHDOT
 70
     0
  3
____ _ ____ _ ____ _ ____ _ ____ _ ____ _ ____
 72
    65
 73
     4
 40
5.5
 49
4.0
 49
-0.6
 49
0.3
 49
-0.6
  0
LTYPE
  2
CONTINOUS
 70
     0
  3
Solid line
 72
    65
 73
     0
 40
0.0
  0
LTYPE
  2
BORDER
 70
     0
  3
BORDER
 72
    65
 73
     6
 40
1.75
 49
0.5
 49
-0.25
 49
0.5
 49
-0.25
 49
0.0
 49
-0.25
  0
LTYPE
  2
CENTER
 70
     0
  3
CENTER
 72
    65
 73
     4
 40
2.0
 49
1.25
 49
-0.25
 49
0.25
 49
-0.25
  0
LTYPE
  2
DASHED
 70
     0
  3
DASHED
 72
    65
 73
     2
 40
0.75
 49
0.5
 49
-0.25
  0
LTYPE
  2
DIVIDE
 70
     0
  3
DIVIDE
 72
    65
 73
     6
 40
1.25
 49
0.5
 49
-0.25
 49
0.0
 49
-0.25
 49
0.0
 49
-0.25
  0
LTYPE
  2
DOT
 70
     0
  3
DOT
 72
    65
 73
     2
 40
0.25
 49
0.0
 49
-0.25
  0
LTYPE
  2
HIDDEN
 70
     0
  3
HIDDEN
 72
    65
 73
     2
 40
0.375
 49
0.25
 49
-0.125
  0
LTYPE
  2
PHANTOM
 70
     0
  3
PHANTOM
 72
    65
 73
     6
 40
2.5
 49
1.25
 49
-0.25
 49
0.25
 49
-0.25
 49
0.25
 49
-0.25
  0
LTYPE
  2
$INVISIBLE
 70
     0
  3
$INVISIBLE
 72
    65
 73
     2
 40
200.0
 49
-100.0
 49
-100.0
  0
LTYPE
  2
$MARGINS
 70
     0
  3
$MARGINS
 72
    65
 73
     2
 40
0.075
 49
0.05
 49
-0.025
  0
LTYPE
  2
JLSTYLE_0
 70
     0
  3
JLSTYLE_0
 72
    65
 73
     4
 40
1.0
 49
0.5
 49
-0.25
 49
0.0
 49
-0.25
  0
LTYPE
  2
JLSTYLE_1
 70
     0
  3
JLSTYLE_1
 72
    65
 73
     2
 40
0.75
 49
0.5
 49
-0.25
  0
LTYPE
  2
JLSTYLE_2
 70
     0
  3
JLSTYLE_2
 72
    65
 73
     6
 40
1.25
 49
0.5
 49
-0.25
 49
0.0
 49
-0.25
 49
0.0
 49
-0.25
  0
ENDTAB
  0
TABLE
  2
LAYER
 70
    13
  0
LAYER
  2
0
 70
     0
 62
     7
  6
CONTINUOUS
  0
LAYER
  2
DETAIL
 70
     0
 62
     5
  6
CONTINUOUS
  0
LAYER
  2
OUTLINE
 70
     0
 62
     3
  6
CONTINUOUS
  0
LAYER
  2
BASIS
 70
     0
 62
     6
  6
CONTINUOUS
  0
LAYER
  2
SIZE
 70
     0
 62
    32
  6
CONTINUOUS
  0
LAYER
  2
NOTE
 70
     0
 62
     4
  6
CONTINUOUS
  0
LAYER
  2
ARRANGE
 70
     0
 62
     1
  6
CONTINUOUS
  0
LAYER
  2
FIX
 70
     0
 62
   241
  6
CONTINUOUS
  0
LAYER
  2
ETC
 70
     0
 62
    83
  6
CONTINUOUS
  0
LAYER
  2
SERVICESPACE
 70
     0
 62
     2
  6
CONTINUOUS
  0
LAYER
  2
SYMBOLLINE
 70
     0
 62
    38
  6
CONTINUOUS
  0
LAYER
  2
DEFPOINTS
 70
     0
 62
     7
  6
CONTINUOUS
  0
LAYER
  2
SERVICE_SPACE
 70
     0
 62
     2
  6
CONTINUOUS
  0
ENDTAB
  0
TABLE
  2
STYLE
 70
     1
  0
STYLE
  2
STANDARD
 70
     0
 40
0.0
 41
0.9
 50
0.0
 71
     0
 42
64.0
  3
SIMPLEX
  4
BIGFONT
  0
ENDTAB
  0
TABLE
  2
VIEW
 70
     1
  0
VIEW
  2
ALL
 70
     0
 40
4282.6199999999999
 10
0.0
 20
41.309903999999989
 41
5940.0
 11
0.0
 21
0.0
 31
1.0
 12
0.0
 22
0.0
 32
0.0
 42
50.0
 43
0.0
 44
0.0
 50
0.0
 71
     0
  0
ENDTAB
  0
TABLE
  2
UCS
 70
     0
  0
ENDTAB
  0
TABLE
  2
APPID
 70
     1
  0
APPID
  2
ACAD
 70
     0
  0
ENDTAB
  0
TABLE
  2
DIMSTYLE
 70
     1
  0
DIMSTYLE
  2
STANDARD
 70
     0
  3

  4

  5

  6

  7

 40
1.0
 41
0.18
 42
0.0625
 43
0.38
 44
0.18
 45
0.0
 46
0.0
 47
0.0
 48
0.0
140
0.18
141
0.09
142
0.0
143
25.399999999999999
144
1.0
145
0.0
146
1.0
147
0.09
 71
     0
 72
     0
 73
     1
 74
     1
 75
     0
 76
     0
 77
     0
 78
     0
170
     0
171
     2
172
     0
173
     0
174
     0
175
     0
176
     0
177
     0
178
     0
  0
ENDTAB
  0
ENDSEC
  0
SECTION
  2
BLOCKS
  0
BLOCK
  8
0
  2
$MODEL_SPACE
 70
     0
 10
0.0
 20
0.0
 30
0.0
  3
$MODEL_SPACE
  1

  0
ENDBLK
  5
20
  8
0
  0
BLOCK
 67
     1
  8
0
  2
$PAPER_SPACE
 70
     0
 10
0.0
 20
0.0
 30
0.0
  3
$PAPER_SPACE
  1

  0
ENDBLK
  5
1C
 67
     1
  8
0
  0
BLOCK
  8
0
  2
_ORIGIN
 70
     0
 10
0.0
 20
0.0
 30
0.0
  3
_ORIGIN
  1

  0
CIRCLE
  5
531
  8
0
  6
BYBLOCK
 62
     0
 10
0.0
 20
0.0
 30
0.0
 40
0.5
  0
LINE
  5
532
  8
0
  6
BYBLOCK
 62
     0
 10
0.0
 20
0.0
 30
0.0
 11
-1.0
 21
0.0
 31
0.0
  0
ENDBLK
  5
534
  8
0
  0
ENDSEC
  0
SECTION
  2
ENTITIES
  0
LINE
  5
191
  8
DETAIL
  6
CONTINUOUS
 10
-417.5
 20
-10.0
 30
0.0
 11
417.49999999999989
 21
-10.0
 31
0.0
  0
LINE
  5
192
  8
DETAIL
  6
CONTINUOUS
 10
-417.5
 20
-20.00000000000022
 30
0.0
 11
417.49999999999989
 21
-19.999999999999769
 31
0.0
  0
LINE
  5
195
  8
DETAIL
  6
CONTINUOUS
 10
-417.50000000000011
 20
-30.000000000000231
 30
0.0
 11
417.49999999999989
 21
-30.0
 31
0.0
  0
LINE
  5
196
  8
BASIS
  6
DASHDOT
 62
     6
 10
510.31839699999989
 20
-149.0
 30
0.0
 11
-510.31839699999989
 21
-149.0
 31
0.0
  0
POINT
  5
21B
  8
ARRANGE
 62
     1
 10
0.0
 20
0.0
 30
0.0
  0
LINE
  5
21F
  8
DETAIL
  6
CONTINUOUS
 10
-435.0
 20
-298.0
 30
0.0
 11
435.0
 21
-298.0
 31
0.0
  0
LINE
  5
220
  8
DETAIL
  6
CONTINUOUS
 10
-435.0
 20
0.0
 30
0.0
 11
435.0
 21
0.0
 31
0.0
  0
CIRCLE
  5
221
  8
ARRANGE
  6
CONTINUOUS
 10
0.0
 20
0.0
 30
0.0
 40
40.0
  0
POINT
  5
222
  8
ARRANGE
  6
CONTINUOUS
 10
0.0
 20
0.0
 30
0.0
  0
ARC
  5
224
  8
DETAIL
  6
CONTINUOUS
 10
-435.0
 20
-10.0
 30
0.0
 40
10.0
 50
90.0
 51
180.0
  0
LINE
  5
237
  8
DETAIL
  6
CONTINUOUS
 10
-445.0
 20
-10.0
 30
0.0
 11
-445.0
 21
-288.0
 31
0.0
  0
ARC
  5
239
  8
DETAIL
  6
CONTINUOUS
 10
-435.0
 20
-288.0
 30
0.0
 40
10.0
 50
180.0
 51
270.0
  0
LINE
  5
23B
  8
DETAIL
  6
CONTINUOUS
 10
-417.49999999999989
 20
0.0
 30
0.0
 11
-417.5
 21
-47.918860184013731
 31
0.0
  0
LINE
  5
23C
  8
DETAIL
  6
CONTINUOUS
 10
-250.0
 20
0.0
 30
0.0
 11
-250.0
 21
-30.0
 31
0.0
  0
LINE
  5
23F
  8
DETAIL
  6
CONTINUOUS
 10
-150.0
 20
0.0
 30
0.0
 11
-150.0
 21
-30.0
 31
0.0
  0
LINE
  5
240
  8
DETAIL
  6
CONTINUOUS
 10
-50.0
 20
0.0
 30
0.0
 11
-50.0
 21
-30.0
 31
0.0
  0
ARC
  5
243
  8
DETAIL
  6
CONTINUOUS
 10
435.0
 20
-10.0
 30
0.0
 40
10.0
 50
0.0
 51
90.0
  0
LINE
  5
250
  8
DETAIL
  6
CONTINUOUS
 10
50.0
 20
0.0
 30
0.0
 11
50.0
 21
-30.0
 31
0.0
  0
LINE
  5
251
  8
DETAIL
  6
CONTINUOUS
 10
150.0
 20
0.0
 30
0.0
 11
150.0
 21
-30.0
 31
0.0
  0
LINE
  5
253
  8
DETAIL
  6
CONTINUOUS
 10
445.0
 20
-10.0
 30
0.0
 11
445.0
 21
-288.0
 31
0.0
  0
ARC
  5
256
  8
DETAIL
  6
CONTINUOUS
 10
435.0
 20
-288.0
 30
0.0
 40
10.0
 50
270.0
 51
0.0
  0
LINE
  5
258
  8
DETAIL
  6
CONTINUOUS
 10
250.0
 20
0.0
 30
0.0
 11
250.0
 21
-30.0
 31
0.0
  0
LINE
  5
259
  8
DETAIL
  6
CONTINUOUS
 10
417.49999999999989
 20
0.0
 30
0.0
 11
417.49999999999989
 21
-47.918860184013511
 31
0.0
  0
TEXT
  5
25A
  8
ETC
 10
551.16853008490921
 20
150.28547800000001
 30
0.0
 40
64.0
  1
SMSZ3442
 41
0.8860759562895562
 72
     5
 11
977.83520008490905
 21
150.28547800000001
 31
0.0
  0
TEXT
  5
25C
  8
ETC
 10
558.58516008490915
 20
256.52256800000009
 30
0.0
 40
64.0
  1
RAC
 41
0.9051724137931035
 72
     5
 11
718.58516008490915
 21
256.52256800000009
 31
0.0
  0
LINE
  5
574
  8
DETAIL
  6
CONTINUOUS
 10
-399.91910377582047
 20
-257.97488700000031
 30
0.0
 11
399.91910377582042
 21
-257.97488700000031
 31
0.0
  0
LINE
  5
575
  8
DETAIL
  6
CONTINUOUS
 10
-402.11418872723112
 20
-222.97488700000019
 30
0.0
 11
402.11418872723101
 21
-222.97488700000019
 31
0.0
  0
LINE
  5
598
  8
DETAIL
  6
CONTINUOUS
 10
-399.91910377582047
 20
-228.9748869999994
 30
0.0
 11
399.91910377582047
 21
-228.97488700000051
 31
0.0
  0
LINE
  5
5B3
  8
DETAIL
  6
CONTINUOUS
 10
-399.91910377582047
 20
-265.97488700000031
 30
0.0
 11
399.91910377582042
 21
-265.97488700000071
 31
0.0
  0
LINE
  5
71C
  8
BASIS
  6
DASHDOT
 62
     6
 10
-0.0000000000000284
 20
51.792729999999892
 30
0.0
 11
-0.0000000000000284
 21
-333.9052583812549
 31
0.0
  0
LINE
  5
AC4
  8
DETAIL
  6
CONTINUOUS
 10
-399.91910377582047
 20
-274.15586786363951
 30
0.0
 11
399.91910377582042
 21
-274.15586786363917
 31
0.0
  0
LINE
  5
AC5
  8
DETAIL
  6
CONTINUOUS
 10
-399.91910377582047
 20
-281.22581133330112
 30
0.0
 11
399.91910377582042
 21
-281.22581133330073
 31
0.0
  0
LINE
  5
AC6
  8
DETAIL
  6
CONTINUOUS
 10
-399.91910377582047
 20
-287.82443284294271
 30
0.0
 11
399.91910377582042
 21
-287.82443284294288
 31
0.0
  0
LINE
  5
AC7
  8
DETAIL
  6
CONTINUOUS
 10
-432.70297888757472
 20
-293.4803850837979
 30
0.0
 11
432.7029788875746
 21
-293.4803850837979
 31
0.0
  0
ARC
  5
D09
  8
DETAIL
  6
CONTINUOUS
 10
161.94024064640161
 20
-25.0
 30
0.0
 40
607.12556832661232
 50
183.58081708972529
 51
199.03135688897461
  0
LINE
  5
D0A
  8
DETAIL
  6
CONTINUOUS
 10
-445.0
 20
-288.0
 30
0.0
 11
-411.9999999999996
 21
-222.97488700000019
 31
0.0
  0
LINE
  5
D0B
  8
DETAIL
  6
CONTINUOUS
 10
-432.70297888757472
 20
-293.4803850837979
 30
0.0
 11
-399.91910377582059
 21
-228.9748869999996
 31
0.0
  0
LINE
  5
D0C
  8
DETAIL
  6
CONTINUOUS
 10
-399.91910377582059
 20
-228.9748869999996
 30
0.0
 11
-399.91910377582059
 21
-293.48038508379773
 31
0.0
  0
ARC
  5
D0D
  8
DETAIL
  6
CONTINUOUS
 10
-161.94024064640161
 20
-25.0
 30
0.0
 40
607.12556832661232
 50
340.96864311102541
 51
356.41918291027463
  0
LINE
  5
D0E
  8
DETAIL
  6
CONTINUOUS
 10
444.99999999999989
 20
-288.0
 30
0.0
 11
411.99999999999949
 21
-222.97488700000019
 31
0.0
  0
LINE
  5
D0F
  8
DETAIL
  6
CONTINUOUS
 10
432.7029788875746
 20
-293.4803850837979
 30
0.0
 11
399.91910377582047
 21
-228.9748869999996
 31
0.0
  0
LINE
  5
D10
  8
DETAIL
  6
CONTINUOUS
 10
399.91910377582047
 20
-228.97488700000051
 30
0.0
 11
399.91910377582047
 21
-293.4803850837979
 31
0.0
  0
LINE
  5
D11
  8
DETAIL
  6
CONTINUOUS
 10
-438.12117795605059
 20
-62.918860184013738
 30
0.0
 11
438.12117795605059
 21
-62.918860184013738
 31
0.0
  0
LINE
  5
D12
  8
DETAIL
  6
CONTINUOUS
 10
-407.50000000000011
 20
-57.918860184013958
 30
0.0
 11
407.5
 21
-57.918860184013283
 31
0.0
  0
ARC
  5
D13
  8
DETAIL
  6
CONTINUOUS
 10
407.5
 20
-47.918860184013511
 30
0.0
 40
10.0
 50
270.0
 51
0.0
  0
ARC
  5
D14
  8
DETAIL
  6
CONTINUOUS
 10
-407.50000000000011
 20
-47.918860184013731
 30
0.0
 40
10.0
 50
180.0
 51
270.0
  0
ARC
  5
D4B
  8
DETAIL
  6
CONTINUOUS
 62
     5
 10
218.8263007427463
 20
0.793100530901711
 30
0.0
 40
660.02969910970307
 50
185.53932553776181
 51
199.81761385546079
  0
ARC
  5
D4C
  8
DETAIL
  6
CONTINUOUS
 62
     5
 10
-218.82630074274641
 20
0.793100530901711
 30
0.0
 40
660.02969910970307
 50
340.18238614453901
 51
354.46067446223822
  0
LINE
  5
105D
  8
SIZE
  6
CONTINUOUS
 10
-455.0
 20
0.0
 30
0.0
 11
-613.34239660897936
 21
0.0000000000002274
 31
0.0
  0
LINE
  5
105E
  8
SIZE
  6
CONTINUOUS
 10
-455.0
 20
-298.0
 30
0.0
 11
-613.34239660897936
 21
-297.99999999999972
 31
0.0
  0
LINE
  5
105F
  8
SIZE
  6
CONTINUOUS
 10
-583.34239660897936
 20
-9.9999999999997726
 30
0.0
 11
-583.34239660897936
 21
-287.99999999999972
 31
0.0
  0
LINE
  5
10DF
  8
SIZE
  6
CONTINUOUS
 10
445.0
 20
10.0
 30
0.0
 11
445.0
 21
168.1751528330883
 31
0.0
  0
LINE
  5
10E0
  8
SIZE
  6
CONTINUOUS
 10
-445.0
 20
10.0
 30
0.0
 11
-445.0
 21
168.1751528330883
 31
0.0
  0
LINE
  5
10E1
  8
SIZE
  6
CONTINUOUS
 10
445.0
 20
138.17515283308819
 30
0.0
 11
-445.0
 21
138.17515283308819
 31
0.0
  0
TEXT
  5
11CF
  8
SIZE
  6
CONTINUOUS
 10
-603.34239660897924
 20
-223.05714285714291
 30
0.0
 40
64.0
  1
298
 50
90.0
 41
0.9
  0
CIRCLE
  5
11FB
  8
SIZE
  6
BYBLOCK
 10
-583.34239660897936
 20
-297.99999999999972
 30
0.0
 40
5.0
  0
LINE
  5
11FC
  8
SIZE
  6
BYBLOCK
 10
-583.34239660897936
 20
-297.99999999999972
 30
0.0
 11
-583.34239660897936
 21
-287.99999999999972
 31
0.0
  0
CIRCLE
  5
1204
  8
SIZE
  6
BYBLOCK
 10
-583.34239660897936
 20
0.0000000000002274
 30
0.0
 40
5.0
  0
LINE
  5
1205
  8
SIZE
  6
BYBLOCK
 10
-583.34239660897936
 20
0.0000000000002274
 30
0.0
 11
-583.34239660897936
 21
-9.9999999999997726
 31
0.0
  0
CIRCLE
  5
1206
  8
SIZE
  6
BYBLOCK
 10
-445.0
 20
138.17515283308819
 30
0.0
 40
5.0
  0
TEXT
  5
1208
  8
SIZE
  6
CONTINUOUS
 10
-74.05714285714285
 20
158.1751528330883
 30
0.0
 40
64.0
  1
890
 41
0.9
  0
CIRCLE
  5
1209
  8
SIZE
  6
BYBLOCK
 10
445.0
 20
138.17515283308819
 30
0.0
 40
5.0
  0
LINE
  5
1265
  8
DETAIL
  6
CONTINUOUS
 10
337.06318387225832
 20
0.0
 30
0.0
 11
337.06318387225832
 21
-30.0
 31
0.0
  0
LINE
  5
1266
  8
DETAIL
  6
CONTINUOUS
 10
-333.53857271960442
 20
0.0
 30
0.0
 11
-333.53857271960442
 21
-30.0
 31
0.0
  0
LINE
  5
130A
  8
OUTLINE
  6
CONTINUOUS
 10
-435.0
 20
0.0
 30
0.0
 11
435.0
 21
0.0
 31
0.0
  0
LINE
  5
130D
  8
OUTLINE
  6
CONTINUOUS
 10
-435.0
 20
-298.0
 30
0.0
 11
435.0
 21
-298.0
 31
0.0
  0
LINE
  5
1319
  8
OUTLINE
  6
CONTINUOUS
 10
-445.0
 20
-10.0
 30
0.0
 11
-445.0
 21
-288.0
 31
0.0
  0
ARC
  5
131A
  8
OUTLINE
  6
CONTINUOUS
 10
-435.0
 20
-288.0
 30
0.0
 40
10.0
 50
180.0
 51
270.0
  0
ARC
  5
1320
  8
OUTLINE
  6
CONTINUOUS
 10
-435.0
 20
-10.0
 30
0.0
 40
10.0
 50
90.0
 51
180.0
  0
LINE
  5
132A
  8
OUTLINE
  6
CONTINUOUS
 10
445.0
 20
-10.0
 30
0.0
 11
445.0
 21
-288.0
 31
0.0
  0
ARC
  5
132B
  8
OUTLINE
  6
CONTINUOUS
 10
435.0
 20
-288.0
 30
0.0
 40
10.0
 50
270.0
 51
0.0
  0
ARC
  5
132E
  8
OUTLINE
  6
CONTINUOUS
 10
435.0
 20
-10.0
 30
0.0
 40
10.0
 50
0.0
 51
90.0
  0
ENDSEC
  0
EOF
