  0
SECTION
  2
HEADER
  9
$ACADVER
  1
AC1009
  9
$INSBASE
 10
0.0
 20
0.0
 30
0.0
  9
$EXTMIN
 10
-1006.2774235243591
 20
-514.1472402094787
 30
-0.0000000349181948
  9
$EXTMAX
 10
1020.956059800384
 20
636.43554012897584
 30
0.0000000814935746
  9
$LIMMIN
 10
-1217.064467228425
 20
-875.27798247211456
  9
$LIMMAX
 10
1152.3360599809271
 20
903.35419898523287
  9
$ORTHOMODE
 70
     1
  9
$REGENMODE
 70
     1
  9
$FILLMODE
 70
     1
  9
$QTEXTMODE
 70
     0
  9
$MIRRTEXT
 70
     0
  9
$DRAGMODE
 70
     2
  9
$LTSCALE
 40
20.0
  9
$OSMODE
 70
   119
  9
$ATTMODE
 70
     1
  9
$TEXTSIZE
 40
64.0
  9
$TRACEWID
 40
0.05
  9
$TEXTSTYLE
  7
STANDARD
  9
$CLAYER
  8
SIZE
  9
$CELTYPE
  6
CONTINUOUS
  9
$CECOLOR
 62
   256
  9
$DIMSCALE
 40
1.0
  9
$DIMASZ
 40
10.0
  9
$DIMEXO
 40
20.0
  9
$DIMDLI
 40
200.0
  9
$DIMRND
 40
0.0
  9
$DIMDLE
 40
0.0
  9
$DIMEXE
 40
30.0
  9
$DIMTP
 40
0.0
  9
$DIMTM
 40
0.0
  9
$DIMTXT
 40
64.0
  9
$DIMCEN
 40
0.09
  9
$DIMTSZ
 40
0.0
  9
$DIMTOL
 70
     0
  9
$DIMLIM
 70
     0
  9
$DIMTIH
 70
     0
  9
$DIMTOH
 70
     0
  9
$DIMSE1
 70
     0
  9
$DIMSE2
 70
     0
  9
$DIMTAD
 70
     1
  9
$DIMZIN
 70
     8
  9
$DIMBLK
  1
ORIGIN
  9
$DIMASO
 70
     1
  9
$DIMSHO
 70
     0
  9
$DIMPOST
  1

  9
$DIMAPOST
  1

  9
$DIMALT
 70
     0
  9
$DIMALTD
 70
     2
  9
$DIMALTF
 40
25.399999999999999
  9
$DIMLFAC
 40
1.0
  9
$DIMTOFL
 70
     1
  9
$DIMTVP
 40
0.0
  9
$DIMTIX
 70
     0
  9
$DIMSOXD
 70
     0
  9
$DIMSAH
 70
     0
  9
$DIMBLK1
  1

  9
$DIMBLK2
  1

  9
$DIMSTYLE
  2
STANDARD
  9
$DIMCLRD
 70
     0
  9
$DIMCLRE
 70
     0
  9
$DIMCLRT
 70
     0
  9
$DIMTFAC
 40
1.0
  9
$DIMGAP
 40
20.0
  9
$LUNITS
 70
     2
  9
$LUPREC
 70
     4
  9
$SKETCHINC
 40
0.1
  9
$FILLETRAD
 40
10.0
  9
$AUNITS
 70
     1
  9
$AUPREC
 70
     3
  9
$MENU
  1
ACAD
  9
$ELEVATION
 40
0.0
  9
$PELEVATION
 40
0.0
  9
$THICKNESS
 40
0.0
  9
$LIMCHECK
 70
     0
  9
$BLIPMODE
 70
     0
  9
$CHAMFERA
 40
0.0
  9
$CHAMFERB
 40
0.0
  9
$SKPOLY
 70
     0
  9
$TDCREATE
 40
2450330.3932059952
  9
$TDUPDATE
 40
2453726.8291883678
  9
$TDINDWG
 40
0.5342134954
  9
$TDUSRTIMER
 40
0.5342134954
  9
$USRTIMER
 70
     1
  9
$ANGBASE
 50
0.0
  9
$ANGDIR
 70
     0
  9
$PDMODE
 70
     3
  9
$PDSIZE
 40
-2.0
  9
$PLINEWID
 40
0.0
  9
$COORDS
 70
     0
  9
$SPLFRAME
 70
     0
  9
$SPLINETYPE
 70
     6
  9
$SPLINESEGS
 70
     8
  9
$ATTDIA
 70
     0
  9
$ATTREQ
 70
     1
  9
$HANDLING
 70
-16383
  9
$HANDSEED
  5
132E
  9
$SURFTAB1
 70
     6
  9
$SURFTAB2
 70
     6
  9
$SURFTYPE
 70
     6
  9
$SURFU
 70
     6
  9
$SURFV
 70
     6
  9
$UCSNAME
  2

  9
$UCSORG
 10
0.0
 20
0.0
 30
0.0
  9
$UCSXDIR
 10
1.0
 20
0.0
 30
0.0
  9
$UCSYDIR
 10
0.0
 20
1.0
 30
0.0
  9
$PUCSNAME
  2

  9
$PUCSORG
 10
0.0
 20
0.0
 30
0.0
  9
$PUCSXDIR
 10
1.0
 20
0.0
 30
0.0
  9
$PUCSYDIR
 10
0.0
 20
1.0
 30
0.0
  9
$USERI1
 70
     0
  9
$USERI2
 70
     0
  9
$USERI3
 70
     0
  9
$USERI4
 70
     0
  9
$USERI5
 70
     0
  9
$USERR1
 40
20.0
  9
$USERR2
 40
0.0
  9
$USERR3
 40
0.0
  9
$USERR4
 40
0.0
  9
$USERR5
 40
0.0
  9
$WORLDVIEW
 70
     1
  9
$SHADEDGE
 70
     3
  9
$SHADEDIF
 70
    70
  9
$TILEMODE
 70
     1
  9
$MAXACTVP
 70
    64
  9
$PLIMCHECK
 70
     0
  9
$PEXTMIN
 10
1.0000000000000000E+020
 20
1.0000000000000000E+020
 30
1.0000000000000000E+020
  9
$PEXTMAX
 10
-1.0000000000000000E+020
 20
-1.0000000000000000E+020
 30
-1.0000000000000000E+020
  9
$PLIMMIN
 10
0.0
 20
0.0
  9
$PLIMMAX
 10
12.0
 20
9.0
  9
$UNITMODE
 70
     0
  9
$VISRETAIN
 70
     1
  9
$PLINEGEN
 70
     0
  9
$PSLTSCALE
 70
     1
  0
ENDSEC
  0
SECTION
  2
TABLES
  0
TABLE
  2
VPORT
 70
    11
  0
VPORT
  2
*ACTIVE
 70
     0
 10
0.0
 20
0.0
 11
1.0
 21
1.0
 12
335.87596912181652
 22
212.21903248778511
 13
0.0
 23
0.0
 14
50.0
 24
50.0
 15
100.0
 25
100.0
 16
0.0
 26
0.0
 36
1.0
 17
0.0
 27
0.0
 37
0.0
 40
2491.4173331925599
 41
1.6278447121820609
 42
50.0
 43
0.0
 44
0.0
 50
0.0
 51
0.0
 71
     0
 72
   500
 73
     1
 74
     0
 75
     0
 76
     0
 77
     0
 78
     0
  0
ENDTAB
  0
TABLE
  2
LTYPE
 70
    15
  0
LTYPE
  2
CONTINUOUS
 70
     0
  3
実線
 72
    65
 73
     0
 40
0.0
  0
LTYPE
  2
DASHDOT
 70
     0
  3
____ _ ____ _ ____ _ ____ _ ____ _ ____ _ ____
 72
    65
 73
     4
 40
5.5
 49
4.0
 49
-0.6
 49
0.3
 49
-0.6
  0
LTYPE
  2
CONTINOUS
 70
     0
  3
Solid line
 72
    65
 73
     0
 40
0.0
  0
LTYPE
  2
BORDER
 70
     0
  3
BORDER
 72
    65
 73
     6
 40
1.75
 49
0.5
 49
-0.25
 49
0.5
 49
-0.25
 49
0.0
 49
-0.25
  0
LTYPE
  2
CENTER
 70
     0
  3
CENTER
 72
    65
 73
     4
 40
2.0
 49
1.25
 49
-0.25
 49
0.25
 49
-0.25
  0
LTYPE
  2
DASHED
 70
     0
  3
DASHED
 72
    65
 73
     2
 40
0.75
 49
0.5
 49
-0.25
  0
LTYPE
  2
DIVIDE
 70
     0
  3
DIVIDE
 72
    65
 73
     6
 40
1.25
 49
0.5
 49
-0.25
 49
0.0
 49
-0.25
 49
0.0
 49
-0.25
  0
LTYPE
  2
DOT
 70
     0
  3
DOT
 72
    65
 73
     2
 40
0.25
 49
0.0
 49
-0.25
  0
LTYPE
  2
HIDDEN
 70
     0
  3
HIDDEN
 72
    65
 73
     2
 40
0.375
 49
0.25
 49
-0.125
  0
LTYPE
  2
PHANTOM
 70
     0
  3
PHANTOM
 72
    65
 73
     6
 40
2.5
 49
1.25
 49
-0.25
 49
0.25
 49
-0.25
 49
0.25
 49
-0.25
  0
LTYPE
  2
$INVISIBLE
 70
     0
  3
$INVISIBLE
 72
    65
 73
     2
 40
200.0
 49
-100.0
 49
-100.0
  0
LTYPE
  2
$MARGINS
 70
     0
  3
$MARGINS
 72
    65
 73
     2
 40
0.075
 49
0.05
 49
-0.025
  0
LTYPE
  2
JLSTYLE_0
 70
     0
  3
JLSTYLE_0
 72
    65
 73
     4
 40
1.0
 49
0.5
 49
-0.25
 49
0.0
 49
-0.25
  0
LTYPE
  2
JLSTYLE_1
 70
     0
  3
JLSTYLE_1
 72
    65
 73
     2
 40
0.75
 49
0.5
 49
-0.25
  0
LTYPE
  2
JLSTYLE_2
 70
     0
  3
JLSTYLE_2
 72
    65
 73
     6
 40
1.25
 49
0.5
 49
-0.25
 49
0.0
 49
-0.25
 49
0.0
 49
-0.25
  0
ENDTAB
  0
TABLE
  2
LAYER
 70
    13
  0
LAYER
  2
0
 70
     0
 62
     7
  6
CONTINUOUS
  0
LAYER
  2
DETAIL
 70
     0
 62
     5
  6
CONTINUOUS
  0
LAYER
  2
OUTLINE
 70
     0
 62
     3
  6
CONTINUOUS
  0
LAYER
  2
BASIS
 70
     0
 62
     6
  6
CONTINUOUS
  0
LAYER
  2
SIZE
 70
     0
 62
    32
  6
CONTINUOUS
  0
LAYER
  2
NOTE
 70
     0
 62
     4
  6
CONTINUOUS
  0
LAYER
  2
ARRANGE
 70
     0
 62
     1
  6
CONTINUOUS
  0
LAYER
  2
FIX
 70
     0
 62
   241
  6
CONTINUOUS
  0
LAYER
  2
ETC
 70
     0
 62
    83
  6
CONTINUOUS
  0
LAYER
  2
SERVICESPACE
 70
     0
 62
     2
  6
CONTINUOUS
  0
LAYER
  2
SYMBOLLINE
 70
     0
 62
    38
  6
CONTINUOUS
  0
LAYER
  2
DEFPOINTS
 70
     0
 62
     7
  6
CONTINUOUS
  0
LAYER
  2
SERVICE_SPACE
 70
     0
 62
     2
  6
CONTINUOUS
  0
ENDTAB
  0
TABLE
  2
STYLE
 70
     1
  0
STYLE
  2
STANDARD
 70
     0
 40
0.0
 41
0.9
 50
0.0
 71
     0
 42
64.0
  3
SIMPLEX
  4
BIGFONT
  0
ENDTAB
  0
TABLE
  2
VIEW
 70
     1
  0
VIEW
  2
ALL
 70
     0
 40
4282.6199999999999
 10
0.0
 20
41.309903999999989
 41
5940.0
 11
0.0
 21
0.0
 31
1.0
 12
0.0
 22
0.0
 32
0.0
 42
50.0
 43
0.0
 44
0.0
 50
0.0
 71
     0
  0
ENDTAB
  0
TABLE
  2
UCS
 70
     0
  0
ENDTAB
  0
TABLE
  2
APPID
 70
     1
  0
APPID
  2
ACAD
 70
     0
  0
ENDTAB
  0
TABLE
  2
DIMSTYLE
 70
     1
  0
DIMSTYLE
  2
STANDARD
 70
     0
  3

  4

  5

  6

  7

 40
1.0
 41
0.18
 42
0.0625
 43
0.38
 44
0.18
 45
0.0
 46
0.0
 47
0.0
 48
0.0
140
0.18
141
0.09
142
0.0
143
25.399999999999999
144
1.0
145
0.0
146
1.0
147
0.09
 71
     0
 72
     0
 73
     1
 74
     1
 75
     0
 76
     0
 77
     0
 78
     0
170
     0
171
     2
172
     0
173
     0
174
     0
175
     0
176
     0
177
     0
178
     0
  0
ENDTAB
  0
ENDSEC
  0
SECTION
  2
BLOCKS
  0
BLOCK
  8
0
  2
$MODEL_SPACE
 70
     0
 10
0.0
 20
0.0
 30
0.0
  3
$MODEL_SPACE
  1

  0
ENDBLK
  5
20
  8
0
  0
BLOCK
 67
     1
  8
0
  2
$PAPER_SPACE
 70
     0
 10
0.0
 20
0.0
 30
0.0
  3
$PAPER_SPACE
  1

  0
ENDBLK
  5
1C
 67
     1
  8
0
  0
BLOCK
  8
0
  2
_ORIGIN
 70
     0
 10
0.0
 20
0.0
 30
0.0
  3
_ORIGIN
  1

  0
CIRCLE
  5
531
  8
0
  6
BYBLOCK
 62
     0
 10
0.0
 20
0.0
 30
0.0
 40
0.5
  0
LINE
  5
532
  8
0
  6
BYBLOCK
 62
     0
 10
0.0
 20
0.0
 30
0.0
 11
-1.0
 21
0.0
 31
0.0
  0
ENDBLK
  5
534
  8
0
  0
ENDSEC
  0
SECTION
  2
ENTITIES
  0
TEXT
  5
507
  8
ETC
 10
594.21222806293963
 20
465.94463593679689
 30
0.0
 40
64.0
  1
SMSZ3446
 41
0.891719752189491
 72
     5
 11
1020.878898062939
 21
465.94463593679689
 31
0.0
  0
TEXT
  5
508
  8
ETC
 10
601.6288580629398
 20
572.18172593679674
 30
0.0
 40
64.0
  1
RAC
 41
0.9051724137931035
 72
     5
 11
761.62885806293968
 21
572.18172593679674
 31
0.0
  0
LINE
  5
EBB
  8
NOTE
  6
CONTINUOUS
 62
     4
 10
-479.8133624108703
 20
110.5573037204599
 30
0.0
 11
-1005.92246
 21
110.5573037204599
 31
0.0
  0
LINE
  5
EC0
  8
NOTE
  6
CONTINUOUS
 62
     4
 10
-389.99999999999977
 20
-0.0000000000004547
 30
0.0
 11
-479.8133624108703
 21
110.5573037204599
 31
0.0
  0
LINE
  5
EC1
  8
NOTE
  6
CONTINUOUS
 62
     4
 10
375.0
 20
0.0000000000004547
 30
0.0
 11
469.82699589641749
 21
111.90556372046051
 31
0.0
  0
POINT
  5
EC2
  8
ARRANGE
  6
CONTINUOUS
 10
0.0000000000000284
 20
0.0
 30
0.0
  0
LINE
  5
EC4
  8
DETAIL
  6
CONTINUOUS
 10
-435.0
 20
-234.0
 30
0.0
 11
435.00000000000011
 21
-233.99999999999949
 31
0.0
  0
LINE
  5
EC5
  8
DETAIL
  6
CONTINUOUS
 10
-444.99999999999989
 20
-0.0000000000004547
 30
0.0
 11
444.99999999999989
 21
0.0000000000004547
 31
0.0
  0
LINE
  5
EC6
  8
DETAIL
  6
CONTINUOUS
 10
-430.3727504703723
 20
-226.3881156385969
 30
0.0
 11
430.37275047037281
 21
-226.3881156385973
 31
0.0
  0
LINE
  5
EC7
  8
DETAIL
  6
CONTINUOUS
 10
-418.55120809909869
 20
-206.94152799999929
 30
0.0
 11
418.55120809909818
 21
-206.94152799999929
 31
0.0
  0
LINE
  5
EC8
  8
DETAIL
  6
CONTINUOUS
 10
-423.69642569275737
 20
-191.94152799999981
 30
0.0
 11
423.6964256927568
 21
-191.94152799999981
 31
0.0
  0
LINE
  5
EC9
  8
DETAIL
  6
CONTINUOUS
 10
-429.36257862855291
 20
-171.94152799999929
 30
0.0
 11
429.36257862855263
 21
-171.94152799999929
 31
0.0
  0
LINE
  5
ECA
  8
DETAIL
  6
CONTINUOUS
 10
-433.7272200380466
 20
-151.9415279999989
 30
0.0
 11
433.72722003804648
 21
-151.94152799999929
 31
0.0
  0
LINE
  5
ED1
  8
NOTE
  6
DASHDOT
 62
     4
 10
-409.99999999999977
 20
-0.0000000000004547
 30
0.0
 11
-369.99999999999977
 21
-0.0000000000004547
 31
0.0
  0
LINE
  5
ED3
  8
DETAIL
  6
CONTINUOUS
 10
-444.99999999999989
 20
-0.0000000000004547
 30
0.0
 11
-444.99999999999989
 21
-224.0
 31
0.0
  0
LINE
  5
ED7
  8
NOTE
  6
DASHDOT
 62
     4
 10
-389.99999999999977
 20
19.999999999999542
 30
0.0
 11
-389.99999999999977
 21
-20.000000000000451
 31
0.0
  0
LINE
  5
ED8
  8
NOTE
  6
CONTINUOUS
 62
     4
 10
-389.99999999999977
 20
-0.0000000000004547
 30
0.0
 11
-406.59682999999978
 21
36.394299999999468
 31
0.0
  0
LINE
  5
ED9
  8
NOTE
  6
CONTINUOUS
 62
     4
 10
-422.57042999999982
 20
23.219979999999389
 30
0.0
 11
-389.99999999999977
 21
-0.0000000000004547
 31
0.0
  0
CIRCLE
  5
EDA
  8
ARRANGE
  6
CONTINUOUS
 10
0.0000000000000284
 20
0.0
 30
0.0
 40
40.0
  0
LINE
  5
EDB
  8
DETAIL
  6
CONTINUOUS
 10
-250.0
 20
-133.47456784852281
 30
0.0
 11
-250.0
 21
-151.94152799999929
 31
0.0
  0
LINE
  5
EDC
  8
DETAIL
  6
CONTINUOUS
 10
-150.0
 20
-133.47456784852281
 30
0.0
 11
-150.0
 21
-151.94152799999929
 31
0.0
  0
LINE
  5
EDD
  8
DETAIL
  6
CONTINUOUS
 10
-50.000000000000092
 20
-133.47456784852281
 30
0.0
 11
-50.000000000000092
 21
-151.94152799999929
 31
0.0
  0
LINE
  5
EDE
  8
BASIS
  6
DASHDOT
 62
     6
 10
0.0000000000000284
 20
51.79273000000012
 30
0.0
 11
0.0000000000000284
 21
-272.82677000000012
 31
0.0
  0
LINE
  5
EDF
  8
DETAIL
  6
CONTINUOUS
 10
49.999999999999922
 20
-133.47456784852321
 30
0.0
 11
49.999999999999922
 21
-151.94152799999929
 31
0.0
  0
LINE
  5
EE0
  8
DETAIL
  6
CONTINUOUS
 10
149.99999999999989
 20
-133.47456784852321
 30
0.0
 11
149.99999999999989
 21
-151.94152799999929
 31
0.0
  0
LINE
  5
EE1
  8
DETAIL
  6
CONTINUOUS
 10
249.9999999999998
 20
-133.47456784852321
 30
0.0
 11
249.9999999999998
 21
-151.94152799999929
 31
0.0
  0
LINE
  5
EE2
  8
DETAIL
  6
CONTINUOUS
 10
445.0
 20
0.0000000000004547
 30
0.0
 11
445.00000000000011
 21
-223.99999999999901
 31
0.0
  0
LINE
  5
EE3
  8
DETAIL
  6
CONTINUOUS
 10
433.72722003804643
 20
-133.47456784852281
 30
0.0
 11
433.72722003804648
 21
-151.9415279999989
 31
0.0
  0
LINE
  5
EE6
  8
NOTE
  6
DASHDOT
 62
     4
 10
355.0
 20
0.0000000000004547
 30
0.0
 11
395.0
 21
0.0000000000004547
 31
0.0
  0
LINE
  5
EE7
  8
NOTE
  6
DASHDOT
 62
     4
 10
375.0
 20
20.000000000000451
 30
0.0
 11
375.0
 21
-19.999999999999542
 31
0.0
  0
LINE
  5
EE8
  8
NOTE
  6
CONTINUOUS
 62
     4
 10
375.0
 20
0.0000000000004547
 30
0.0
 11
407.95472999999998
 21
22.67125000000032
 31
0.0
  0
LINE
  5
EE9
  8
NOTE
  6
CONTINUOUS
 62
     4
 10
392.20400999999998
 20
36.111250000000382
 30
0.0
 11
375.0
 21
0.0000000000004547
 31
0.0
  0
TEXT
  5
EEA
  8
NOTE
 62
     4
 10
-997.33154000000025
 20
134.08822372045961
 30
0.0
 40
64.0
  1
D,RL,RG%%C65
 41
0.9
  0
LINE
  5
EEB
  8
NOTE
  6
CONTINUOUS
 62
     4
 10
469.82699589641749
 20
111.90556372046051
 30
0.0
 11
1016.73235
 21
111.90556372046051
 31
0.0
  0
TEXT
  5
EEC
  8
NOTE
 62
     4
 10
513.78421000000003
 20
138.65642372046059
 30
0.0
 40
64.0
  1
D,RL,RG%%C65
 41
0.9
  0
ARC
  5
F74
  8
DETAIL
  6
CONTINUOUS
 10
102.3753155406972
 20
-90.106168191645807
 30
0.0
 40
337.07224201445138
 50
339.71939448692859
 51
349.4293164687511
  0
LINE
  5
F75
  8
DETAIL
  6
CONTINUOUS
 10
-433.7272200380466
 20
-133.47456784852281
 30
0.0
 11
433.72722003804643
 21
-133.47456784852281
 31
0.0
  0
LINE
  5
F77
  8
DETAIL
  6
CONTINUOUS
 10
-433.7272200380466
 20
-133.47456784852369
 30
0.0
 11
-433.7272200380466
 21
-151.94152799999981
 31
0.0
  0
ARC
  5
F78
  8
DETAIL
  6
CONTINUOUS
 10
-102.3753155406974
 20
-90.106168191646702
 30
0.0
 40
337.07224201445138
 50
190.5706835312489
 51
200.28060551307121
  0
ARC
  5
F79
  8
DETAIL
  6
CONTINUOUS
 10
435.00000000000011
 20
-223.99999999999901
 30
0.0
 40
10.0
 50
270.0
 51
0.0000000000000509
  0
ARC
  5
F7A
  8
DETAIL
  6
CONTINUOUS
 10
-435.0
 20
-224.0
 30
0.0
 40
10.0
 50
180.0
 51
270.0
  0
LINE
  5
FA3
  8
DETAIL
  6
CONTINUOUS
 10
436.99934593929339
 20
-211.9602952777895
 30
0.0
 11
423.69642569275692
 21
-191.94152799999929
 31
0.0
  0
LINE
  5
FA4
  8
DETAIL
  6
CONTINUOUS
 10
430.37275047037241
 20
-226.3881156385969
 30
0.0
 11
418.55120809909818
 21
-206.9415279999989
 31
0.0
  0
ARC
  5
FA6
  8
DETAIL
  6
CONTINUOUS
 10
273.25624376552082
 20
-159.5902866395958
 30
0.0
 40
171.91399394538831
 50
342.26414774304482
 51
2.550032676025324
  0
ARC
  5
FA7
  8
DETAIL
  6
CONTINUOUS
 10
-273.25624376552099
 20
-159.5902866395968
 30
0.0
 40
171.91399394538831
 50
177.44996732397459
 51
197.7358522569551
  0
LINE
  5
FA8
  8
DETAIL
  6
CONTINUOUS
 10
-436.99934593929362
 20
-211.96029527779041
 30
0.0
 11
-423.69642569275709
 21
-191.9415280000002
 31
0.0
  0
LINE
  5
FA9
  8
DETAIL
  6
CONTINUOUS
 10
-430.37275047037269
 20
-226.3881156385977
 30
0.0
 11
-418.55120809909852
 21
-206.94152799999981
 31
0.0
  0
LINE
  5
1079
  8
SIZE
  6
CONTINUOUS
 10
-461.14979123382722
 20
0.0
 30
0.0
 11
-580.75593806697725
 21
0.0
 31
0.0
  0
LINE
  5
107A
  8
SIZE
  6
CONTINUOUS
 10
-453.95877935129829
 20
-233.99999999999949
 30
0.0
 11
-580.75593806697725
 21
-233.99999999999949
 31
0.0
  0
LINE
  5
107B
  8
SIZE
  6
CONTINUOUS
 10
-550.75593806697725
 20
-10.0
 30
0.0
 11
-550.75593806697725
 21
-233.99999999999949
 31
0.0
  0
LINE
  5
107F
  8
SIZE
  6
CONTINUOUS
 10
-444.9999999999996
 20
-257.68158638027302
 30
0.0
 11
-444.9999999999996
 21
-514.0465638327222
 31
0.0
  0
LINE
  5
1080
  8
SIZE
  6
CONTINUOUS
 10
445.00000000000028
 20
-257.68158638027211
 30
0.0
 11
445.00000000000028
 21
-514.0465638327214
 31
0.0
  0
LINE
  5
1081
  8
SIZE
  6
CONTINUOUS
 10
-444.99999999999972
 20
-484.0465638327218
 30
0.0
 11
445.00000000000028
 21
-484.04656383272231
 31
0.0
  0
LINE
  5
1086
  8
SIZE
  6
CONTINUOUS
 10
445.0
 20
20.000000000000451
 30
0.0
 11
445.0
 21
277.3089447139505
 31
0.0
  0
LINE
  5
1088
  8
SIZE
  6
CONTINUOUS
 10
455.0
 20
247.30894471395041
 30
0.0
 11
598.25714285714287
 21
247.30894471395041
 31
0.0
  0
LINE
  5
1089
  8
SIZE
  6
CONTINUOUS
 10
375.0
 20
247.30894471395041
 30
0.0
 11
445.0
 21
247.30894471395041
 31
0.0
  0
LINE
  5
108D
  8
SIZE
  6
CONTINUOUS
 10
0.0000000000000296
 20
71.79273000000012
 30
0.0
 11
0.0000000000000422
 21
277.41526961722769
 31
0.0
  0
LINE
  5
108E
  8
SIZE
  6
CONTINUOUS
 10
375.0
 20
40.000000000000448
 30
0.0
 11
375.0
 21
277.41526961722809
 31
0.0
  0
LINE
  5
108F
  8
SIZE
  6
CONTINUOUS
 10
10.000000000000041
 20
247.41526961722769
 30
0.0
 11
375.0
 21
247.41526961722769
 31
0.0
  0
LINE
  5
1093
  8
SIZE
  6
CONTINUOUS
 10
0.0000000000000296
 20
71.79273000000012
 30
0.0
 11
0.0000000000000422
 21
276.21743890725332
 31
0.0
  0
LINE
  5
1094
  8
SIZE
  6
CONTINUOUS
 10
-389.99999999999977
 20
39.999999999999538
 30
0.0
 11
-389.99999999999977
 21
276.21743890725293
 31
0.0
  0
LINE
  5
1095
  8
SIZE
  6
CONTINUOUS
 10
-9.9999999999999591
 20
246.2174389072533
 30
0.0
 11
-389.99999999999977
 21
246.2174389072533
 31
0.0
  0
LINE
  5
1099
  8
SIZE
  6
CONTINUOUS
 10
-389.99999999999977
 20
39.999999999999538
 30
0.0
 11
-389.99999999999977
 21
277.09569501980462
 31
0.0
  0
LINE
  5
109A
  8
SIZE
  6
CONTINUOUS
 10
-444.99999999999989
 20
19.999999999999542
 30
0.0
 11
-444.99999999999989
 21
277.09569501980462
 31
0.0
  0
LINE
  5
109C
  8
SIZE
  6
CONTINUOUS
 10
-454.99999999999977
 20
246.2174389072533
 30
0.0
 11
-598.25714285714275
 21
246.2174389072533
 31
0.0
  0
LINE
  5
109D
  8
SIZE
  6
CONTINUOUS
 10
-389.99999999999977
 20
246.2174389072533
 30
0.0
 11
-444.99999999999989
 21
246.2174389072533
 31
0.0
  0
TEXT
  5
11D3
  8
SIZE
  6
CONTINUOUS
 10
-570.7559380669768
 20
-176.07142857142841
 30
0.0
 40
64.0
  1
234
 50
90.0
 41
0.9
  0
CIRCLE
  5
11D4
  8
SIZE
  6
BYBLOCK
 10
-444.99999999999972
 20
-484.0465638327218
 30
0.0
 40
5.0
  0
CIRCLE
  5
11D6
  8
SIZE
  6
BYBLOCK
 10
-550.75593806697725
 20
-233.99999999999949
 30
0.0
 40
5.0
  0
TEXT
  5
11D8
  8
SIZE
  6
CONTINUOUS
 10
-74.057142857142523
 20
-464.0465638327218
 30
0.0
 40
64.0
  1
890
 41
0.9
  0
CIRCLE
  5
11D9
  8
SIZE
  6
BYBLOCK
 10
445.00000000000028
 20
-484.0465638327214
 30
0.0
 40
5.0
  0
CIRCLE
  5
11DB
  8
SIZE
  6
BYBLOCK
 10
-550.75593806697725
 20
0.0
 30
0.0
 40
5.0
  0
LINE
  5
11DC
  8
SIZE
  6
BYBLOCK
 10
-550.75593806697725
 20
0.0
 30
0.0
 11
-550.75593806697725
 21
-10.0
 31
0.0
  0
CIRCLE
  5
11DD
  8
SIZE
  6
BYBLOCK
 10
-444.99999999999989
 20
246.2174389072533
 30
0.0
 40
5.0
  0
LINE
  5
11DE
  8
SIZE
  6
BYBLOCK
 10
-444.99999999999989
 20
246.2174389072533
 30
0.0
 11
-454.99999999999977
 21
246.2174389072533
 31
0.0
  0
TEXT
  5
11DF
  8
SIZE
  6
CONTINUOUS
 10
-578.25714285714275
 20
266.21743890725338
 30
0.0
 40
64.0
  1
55
 41
0.9
  0
TEXT
  5
11E0
  8
SIZE
  6
CONTINUOUS
 10
-241.55714285714279
 20
266.21743890725338
 30
0.0
 40
64.0
  1
390
 41
0.9
  0
CIRCLE
  5
11E1
  8
SIZE
  6
BYBLOCK
 10
-389.99999999999977
 20
246.2174389072533
 30
0.0
 40
5.0
  0
TEXT
  5
11E5
  8
SIZE
  6
CONTINUOUS
 10
85.942857142857207
 20
267.41526961722769
 30
0.0
 40
64.0
  1
375
 41
0.9
  0
CIRCLE
  5
11E6
  8
SIZE
  6
BYBLOCK
 10
0.0000000000000403
 20
246.2174389072533
 30
0.0
 40
5.0
  0
LINE
  5
11E7
  8
SIZE
  6
BYBLOCK
 10
0.0000000000000403
 20
246.2174389072533
 30
0.0
 11
-9.9999999999999591
 21
246.2174389072533
 31
0.0
  0
CIRCLE
  5
11E8
  8
SIZE
  6
BYBLOCK
 10
0.0000000000000404
 20
247.41526961722769
 30
0.0
 40
5.0
  0
LINE
  5
11E9
  8
SIZE
  6
BYBLOCK
 10
0.0000000000000404
 20
247.41526961722769
 30
0.0
 11
10.000000000000041
 21
247.41526961722769
 31
0.0
  0
TEXT
  5
11EA
  8
SIZE
  6
CONTINUOUS
 10
485.0
 20
267.3089447139505
 30
0.0
 40
64.0
  1
70
 41
0.9
  0
CIRCLE
  5
11EB
  8
SIZE
  6
BYBLOCK
 10
445.0
 20
247.30894471395041
 30
0.0
 40
5.0
  0
LINE
  5
11EC
  8
SIZE
  6
BYBLOCK
 10
445.0
 20
247.30894471395041
 30
0.0
 11
455.0
 21
247.30894471395041
 31
0.0
  0
CIRCLE
  5
11EF
  8
SIZE
  6
BYBLOCK
 10
375.0
 20
247.30894471395041
 30
0.0
 40
5.0
  0
LINE
  5
1295
  8
DETAIL
  6
CONTINUOUS
 10
343.55342255724452
 20
-133.47456784852321
 30
0.0
 11
343.55342255724452
 21
-151.94152799999929
 31
0.0
  0
LINE
  5
1296
  8
DETAIL
  6
CONTINUOUS
 10
-340.50815869867068
 20
-133.47456784852321
 30
0.0
 11
-340.50815869867068
 21
-151.94152799999929
 31
0.0
  0
LINE
  5
1308
  8
OUTLINE
  6
CONTINUOUS
 10
-445.0
 20
-0.0000000000004547
 30
0.0
 11
445.0
 21
0.0000000000004547
 31
0.0
  0
LINE
  5
130A
  8
OUTLINE
  6
CONTINUOUS
 10
-435.0
 20
-234.0
 30
0.0
 11
435.0
 21
-233.99999999999949
 31
0.0
  0
LINE
  5
1310
  8
OUTLINE
  6
CONTINUOUS
 10
-445.0
 20
-0.0000000000004547
 30
0.0
 11
-445.0
 21
-224.0
 31
0.0
  0
ARC
  5
1314
  8
OUTLINE
  6
CONTINUOUS
 10
-435.0
 20
-224.0
 30
0.0
 40
10.0
 50
180.0
 51
270.0
  0
LINE
  5
131E
  8
OUTLINE
  6
CONTINUOUS
 10
445.0
 20
0.0000000000004547
 30
0.0
 11
445.0
 21
-223.99999999999901
 31
0.0
  0
ARC
  5
131F
  8
OUTLINE
  6
CONTINUOUS
 10
435.0
 20
-223.99999999999901
 30
0.0
 40
10.0
 50
270.0
 51
0.0000000000000509
  0
ENDSEC
  0
EOF
