  0
SECTION
  2
HEADER
  9
$ACADVER
  1
AC1014
  9
$ACADMAINTVER
 70
     9
  9
$DWGCODEPAGE
  3
ANSI_932
  9
$INSBASE
 10
0.0
 20
0.0
 30
0.0
  9
$EXTMIN
 10
-806.6441629238942
 20
-641.9733044825006
 30
-0.0015258207003583
  9
$EXTMAX
 10
917.114086301899
 20
535.3160150845578
 30
0.0000000349246037
  9
$LIMMIN
 10
-899.6210406115933
 20
-770.6985429512606
  9
$LIMMAX
 10
1107.232536480551
 20
630.7898608278883
  9
$ORTHOMODE
 70
     1
  9
$REGENMODE
 70
     1
  9
$FILLMODE
 70
     1
  9
$QTEXTMODE
 70
     0
  9
$MIRRTEXT
 70
     0
  9
$DRAGMODE
 70
     2
  9
$LTSCALE
 40
20.0
  9
$OSMODE
 70
   119
  9
$ATTMODE
 70
     1
  9
$TEXTSIZE
 40
64.0
  9
$TRACEWID
 40
0.05
  9
$TEXTSTYLE
  7
STANDARD
  9
$CLAYER
  8
SIZE
  9
$CELTYPE
  6
BYLAYER
  9
$CECOLOR
 62
   256
  9
$CELTSCALE
 40
1.0
  9
$DELOBJ
 70
     1
  9
$DISPSILH
 70
     0
  9
$DIMSCALE
 40
0.0
  9
$DIMASZ
 40
12.0
  9
$DIMEXO
 40
20.0
  9
$DIMDLI
 40
10.0
  9
$DIMRND
 40
0.0
  9
$DIMDLE
 40
0.0
  9
$DIMEXE
 40
30.0
  9
$DIMTP
 40
0.0
  9
$DIMTM
 40
0.0
  9
$DIMTXT
 40
50.0
  9
$DIMCEN
 40
0.0
  9
$DIMTSZ
 40
0.0
  9
$DIMTOL
 70
     0
  9
$DIMLIM
 70
     0
  9
$DIMTIH
 70
     0
  9
$DIMTOH
 70
     0
  9
$DIMSE1
 70
     0
  9
$DIMSE2
 70
     0
  9
$DIMTAD
 70
     1
  9
$DIMZIN
 70
     0
  9
$DIMBLK
  1

  9
$DIMASO
 70
     1
  9
$DIMSHO
 70
     0
  9
$DIMPOST
  1

  9
$DIMAPOST
  1

  9
$DIMALT
 70
     0
  9
$DIMALTD
 70
     2
  9
$DIMALTF
 40
25.4
  9
$DIMLFAC
 40
1.0
  9
$DIMTOFL
 70
     1
  9
$DIMTVP
 40
0.0
  9
$DIMTIX
 70
     0
  9
$DIMSOXD
 70
     0
  9
$DIMSAH
 70
     1
  9
$DIMBLK1
  1
ORIGIN
  9
$DIMBLK2
  1
ORIGIN
  9
$DIMSTYLE
  2
STANDARD
  9
$DIMCLRD
 70
     0
  9
$DIMCLRE
 70
     0
  9
$DIMCLRT
 70
     0
  9
$DIMTFAC
 40
1.0
  9
$DIMGAP
 40
20.0
  9
$DIMJUST
 70
     0
  9
$DIMSD1
 70
     0
  9
$DIMSD2
 70
     0
  9
$DIMTOLJ
 70
     1
  9
$DIMTZIN
 70
     0
  9
$DIMALTZ
 70
     0
  9
$DIMALTTZ
 70
     0
  9
$DIMFIT
 70
     3
  9
$DIMUPT
 70
     0
  9
$DIMUNIT
 70
     2
  9
$DIMDEC
 70
     1
  9
$DIMTDEC
 70
     1
  9
$DIMALTU
 70
     2
  9
$DIMALTTD
 70
     2
  9
$DIMTXSTY
  7
STANDARD
  9
$DIMAUNIT
 70
     0
  9
$LUNITS
 70
     2
  9
$LUPREC
 70
     4
  9
$SKETCHINC
 40
0.1
  9
$FILLETRAD
 40
50.0
  9
$AUNITS
 70
     1
  9
$AUPREC
 70
     3
  9
$MENU
  1
ACAD
  9
$ELEVATION
 40
0.0
  9
$PELEVATION
 40
0.0
  9
$THICKNESS
 40
0.0
  9
$LIMCHECK
 70
     0
  9
$BLIPMODE
 70
     0
  9
$CHAMFERA
 40
0.0
  9
$CHAMFERB
 40
0.0
  9
$CHAMFERC
 40
0.0
  9
$CHAMFERD
 40
0.0
  9
$SKPOLY
 70
     0
  9
$TDCREATE
 40
2449761.493622685
  9
$TDUPDATE
 40
2454061.387319872
  9
$TDINDWG
 40
5.0922817824
  9
$TDUSRTIMER
 40
5.0922817824
  9
$USRTIMER
 70
     1
  9
$ANGBASE
 50
0.0
  9
$ANGDIR
 70
     0
  9
$PDMODE
 70
    35
  9
$PDSIZE
 40
20.0
  9
$PLINEWID
 40
0.0
  9
$COORDS
 70
     0
  9
$SPLFRAME
 70
     0
  9
$SPLINETYPE
 70
     6
  9
$SPLINESEGS
 70
     8
  9
$ATTDIA
 70
     0
  9
$ATTREQ
 70
     1
  9
$HANDLING
 70
-16383
  9
$HANDSEED
  5
F426
  9
$SURFTAB1
 70
     6
  9
$SURFTAB2
 70
     6
  9
$SURFTYPE
 70
     6
  9
$SURFU
 70
     6
  9
$SURFV
 70
     6
  9
$UCSNAME
  2

  9
$UCSORG
 10
0.0
 20
0.0
 30
0.0
  9
$UCSXDIR
 10
1.0
 20
0.0
 30
0.0
  9
$UCSYDIR
 10
0.0
 20
1.0
 30
0.0
  9
$PUCSNAME
  2

  9
$PUCSORG
 10
0.0
 20
0.0
 30
0.0
  9
$PUCSXDIR
 10
1.0
 20
0.0
 30
0.0
  9
$PUCSYDIR
 10
0.0
 20
1.0
 30
0.0
  9
$USERI1
 70
     0
  9
$USERI2
 70
     0
  9
$USERI3
 70
     0
  9
$USERI4
 70
     0
  9
$USERI5
 70
     0
  9
$USERR1
 40
20.0
  9
$USERR2
 40
0.0
  9
$USERR3
 40
0.0
  9
$USERR4
 40
0.0
  9
$USERR5
 40
0.0
  9
$WORLDVIEW
 70
     1
  9
$SHADEDGE
 70
     3
  9
$SHADEDIF
 70
    70
  9
$TILEMODE
 70
     1
  9
$MAXACTVP
 70
    48
  9
$PINSBASE
 10
0.0
 20
0.0
 30
0.0
  9
$PLIMCHECK
 70
     0
  9
$PEXTMIN
 10
1.000000000000000E+20
 20
1.000000000000000E+20
 30
1.000000000000000E+20
  9
$PEXTMAX
 10
-1.000000000000000E+20
 20
-1.000000000000000E+20
 30
-1.000000000000000E+20
  9
$PLIMMIN
 10
0.0
 20
0.0
  9
$PLIMMAX
 10
12.0
 20
9.0
  9
$UNITMODE
 70
     0
  9
$VISRETAIN
 70
     1
  9
$PLINEGEN
 70
     0
  9
$PSLTSCALE
 70
     1
  9
$TREEDEPTH
 70
  3020
  9
$PICKSTYLE
 70
     1
  9
$CMLSTYLE
  2
STANDARD
  9
$CMLJUST
 70
     0
  9
$CMLSCALE
 40
1.0
  9
$PROXYGRAPHICS
 70
     1
  9
$MEASUREMENT
 70
     0
  0
ENDSEC
  0
SECTION
  2
CLASSES
  0
CLASS
  1
ACDBDICTIONARYWDFLT
  2
AcDbDictionaryWithDefault
  3
AutoCAD 2000
 90
        0
280
     0
281
     0
  0
CLASS
  1
ACDBPLACEHOLDER
  2
AcDbPlaceHolder
  3
AutoCAD 2000
 90
        0
280
     0
281
     0
  0
CLASS
  1
LAYOUT
  2
AcDbLayout
  3
AutoCAD 2000
 90
        0
280
     0
281
     0
  0
CLASS
  1
LONG_TRANSACTION
  2
AcDbLongTransaction
  3
AutoCAD 2000
 90
        0
280
     0
281
     0
  0
CLASS
  1
LWPOLYLINE
  2
AcDbPolyline
  3
AutoCAD 2000
 90
        0
280
     0
281
     1
  0
CLASS
  1
HATCH
  2
AcDbHatch
  3
AutoCAD 2000
 90
        0
280
     0
281
     1
  0
CLASS
  1
XRECORD
  2
AcDbXrecord
  3
AutoCAD 2000
 90
        0
280
     0
281
     0
  0
ENDSEC
  0
SECTION
  2
TABLES
  0
TABLE
  2
VPORT
  5
8
330
0
100
AcDbSymbolTable
 70
     2
  0
VPORT
  5
F400
330
8
100
AcDbSymbolTableRecord
100
AcDbViewportTableRecord
  2
*ACTIVE
 70
     0
 10
0.0
 20
0.0
 11
1.0
 21
1.0
 12
101.4052092136771
 22
66.83476797480853
 13
0.0
 23
0.0
 14
50.0
 24
50.0
 15
100.0
 25
100.0
 16
0.0
 26
0.0
 36
1.0
 17
0.0
 27
0.0
 37
0.0
 40
1879.389809999414
 41
1.314578005115089
 42
50.0
 43
0.0
 44
0.0
 50
0.0
 51
0.0
 71
     0
 72
  1000
 73
     1
 74
     0
 75
     0
 76
     0
 77
     0
 78
     0
  0
ENDTAB
  0
TABLE
  2
LTYPE
  5
5
330
0
100
AcDbSymbolTable
 70
     5
  0
LTYPE
  5
12
330
5
100
AcDbSymbolTableRecord
100
AcDbLinetypeTableRecord
  2
BYBLOCK
 70
     0
  3

 72
    65
 73
     0
 40
0.0
  0
LTYPE
  5
13
330
5
100
AcDbSymbolTableRecord
100
AcDbLinetypeTableRecord
  2
BYLAYER
 70
     0
  3

 72
    65
 73
     0
 40
0.0
  0
LTYPE
  5
14
330
5
100
AcDbSymbolTableRecord
100
AcDbLinetypeTableRecord
  2
CONTINUOUS
 70
     0
  3
実線
 72
    65
 73
     0
 40
0.0
  0
LTYPE
  5
20
330
5
100
AcDbSymbolTableRecord
100
AcDbLinetypeTableRecord
  2
BYBLOCK
 70
     0
  3

 72
    65
 73
     0
 40
0.0
  0
LTYPE
  5
21
330
5
100
AcDbSymbolTableRecord
100
AcDbLinetypeTableRecord
  2
BYLAYER
 70
     0
  3

 72
    65
 73
     0
 40
0.0
  0
LTYPE
  5
22
330
5
100
AcDbSymbolTableRecord
100
AcDbLinetypeTableRecord
  2
DASHDOT
 70
     0
  3
____ _ ____ _ ____ _ ____ _ ____ _ ____ _ ____
 72
    65
 73
     4
 40
5.5
 49
4.0
 74
     0
 49
-0.6
 74
     0
 49
0.3
 74
     0
 49
-0.6
 74
     0
  0
LTYPE
  5
B04A
330
5
100
AcDbSymbolTableRecord
100
AcDbLinetypeTableRecord
  2
DASHED2
 70
     0
  3
Dashed (.5x) _ _ _ _ _ _ _ _ _ _ _ _ _ _ _ _ _
 72
    65
 73
     2
 40
0.375
 49
0.25
 74
     0
 49
-0.125
 74
     0
  0
ENDTAB
  0
TABLE
  2
LAYER
  5
2
330
0
100
AcDbSymbolTable
 70
    10
  0
LAYER
  5
E
330
2
100
AcDbSymbolTableRecord
100
AcDbLayerTableRecord
  2
0
 70
     0
 62
     7
  6
CONTINUOUS
  0
LAYER
  5
1F
330
2
100
AcDbSymbolTableRecord
100
AcDbLayerTableRecord
  2
SIZE
 70
     0
 62
    30
  6
CONTINUOUS
  0
LAYER
  5
23
330
2
100
AcDbSymbolTableRecord
100
AcDbLayerTableRecord
  2
OUTLINE
 70
     0
 62
     3
  6
CONTINUOUS
  0
LAYER
  5
24
330
2
100
AcDbSymbolTableRecord
100
AcDbLayerTableRecord
  2
DETAIL
 70
     0
 62
     5
  6
CONTINUOUS
  0
LAYER
  5
25
330
2
100
AcDbSymbolTableRecord
100
AcDbLayerTableRecord
  2
BASIS
 70
     0
 62
     6
  6
DASHDOT
  0
LAYER
  5
26
330
2
100
AcDbSymbolTableRecord
100
AcDbLayerTableRecord
  2
NOTE
 70
     0
 62
     4
  6
CONTINUOUS
  0
LAYER
  5
27
330
2
100
AcDbSymbolTableRecord
100
AcDbLayerTableRecord
  2
ARRANGE
 70
     0
 62
     1
  6
CONTINUOUS
  0
LAYER
  5
28
330
2
100
AcDbSymbolTableRecord
100
AcDbLayerTableRecord
  2
FIX
 70
     0
 62
    11
  6
CONTINUOUS
  0
LAYER
  5
2A
330
2
100
AcDbSymbolTableRecord
100
AcDbLayerTableRecord
  2
ETC
 70
     0
 62
    61
  6
CONTINUOUS
  0
LAYER
  5
2C
330
2
100
AcDbSymbolTableRecord
100
AcDbLayerTableRecord
  2
DEFPOINTS
 70
     0
 62
     7
  6
CONTINUOUS
  0
ENDTAB
  0
TABLE
  2
STYLE
  5
3
330
0
100
AcDbSymbolTable
 70
     1
  0
STYLE
  5
F
330
3
100
AcDbSymbolTableRecord
100
AcDbTextStyleTableRecord
  2
STANDARD
 70
     0
 40
0.0
 41
0.9
 50
0.0
 71
     0
 42
64.0
  3
SIMPLEX
  4
BIGFONT
  0
ENDTAB
  0
TABLE
  2
VIEW
  5
6
330
0
100
AcDbSymbolTable
 70
     1
  0
VIEW
  5
2D
330
6
100
AcDbSymbolTableRecord
100
AcDbViewTableRecord
  2
ALL
 70
     0
 40
6056.230032000001
 10
0.0
 20
58.11501599999999
 41
8400.0
 11
0.0
 21
0.0
 31
1.0
 12
0.0
 22
0.0
 32
0.0
 42
50.0
 43
0.0
 44
0.0
 50
0.0
 71
     0
  0
ENDTAB
  0
TABLE
  2
UCS
  5
7
330
0
100
AcDbSymbolTable
 70
     0
  0
ENDTAB
  0
TABLE
  2
APPID
  5
9
330
0
100
AcDbSymbolTable
 70
     1
  0
APPID
  5
10
330
9
100
AcDbSymbolTableRecord
100
AcDbRegAppTableRecord
  2
ACAD
 70
     0
  0
ENDTAB
  0
TABLE
  2
DIMSTYLE
  5
A
330
0
100
AcDbSymbolTable
 70
     1
  0
DIMSTYLE
105
15C
330
A
100
AcDbSymbolTableRecord
100
AcDbDimStyleTableRecord
  2
STANDARD
 70
     0
  3

  4

  5

  6

  7

 40
1.0
 41
0.18
 42
0.0625
 43
0.38
 44
0.18
 45
0.0
 46
0.0
 47
0.0
 48
0.0
140
0.18
141
0.09
142
0.0
143
25.4
144
1.0
145
0.0
146
1.0
147
0.09
 71
     0
 72
     0
 73
     1
 74
     1
 75
     0
 76
     0
 77
     0
 78
     0
170
     0
171
     2
172
     0
173
     0
174
     0
175
     0
176
     0
177
     0
178
     0
270
     2
271
     4
272
     4
273
     2
274
     2
340
F
275
     0
280
     0
281
     0
282
     0
283
     1
284
     0
285
     0
286
     0
287
     3
288
     0
  0
ENDTAB
  0
TABLE
  2
BLOCK_RECORD
  5
1
330
0
100
AcDbSymbolTable
 70
    79
  0
BLOCK_RECORD
  5
18
102
{ACAD_XDICTIONARY
360
F424
102
}
330
1
100
AcDbSymbolTableRecord
100
AcDbBlockTableRecord
  2
*MODEL_SPACE
  0
BLOCK_RECORD
  5
15
102
{ACAD_XDICTIONARY
360
F422
102
}
330
1
100
AcDbSymbolTableRecord
100
AcDbBlockTableRecord
  2
*PAPER_SPACE
  0
BLOCK_RECORD
  5
24C
330
1
100
AcDbSymbolTableRecord
100
AcDbBlockTableRecord
  2
_ORIGIN
  0
ENDTAB
  0
ENDSEC
  0
SECTION
  2
BLOCKS
  0
BLOCK
  5
19
330
18
100
AcDbEntity
  8
0
100
AcDbBlockBegin
  2
*MODEL_SPACE
 70
     0
 10
0.0
 20
0.0
 30
0.0
  3
*MODEL_SPACE
  1

  0
ENDBLK
  5
1A
330
18
100
AcDbEntity
  8
0
100
AcDbBlockEnd
  0
BLOCK
  5
16
330
15
100
AcDbEntity
 67
     1
  8
0
100
AcDbBlockBegin
  2
*PAPER_SPACE
 70
     0
 10
0.0
 20
0.0
 30
0.0
  3
*PAPER_SPACE
  1

  0
ENDBLK
  5
17
330
15
100
AcDbEntity
 67
     1
  8
0
100
AcDbBlockEnd
  0
BLOCK
  5
24D
330
24C
100
AcDbEntity
  8
0
100
AcDbBlockBegin
  2
_ORIGIN
 70
     0
 10
0.0
 20
0.0
 30
0.0
  3
_ORIGIN
  1

  0
CIRCLE
  5
24E
330
24C
100
AcDbEntity
  8
0
  6
BYBLOCK
 62
     0
100
AcDbCircle
 10
0.0
 20
0.0
 30
0.0
 40
0.5
  0
LINE
  5
24F
330
24C
100
AcDbEntity
  8
0
  6
BYBLOCK
 62
     0
100
AcDbLine
 10
0.0
 20
0.0
 30
0.0
 11
-1.0
 21
0.0
 31
0.0
  0
ENDBLK
  5
250
330
24C
100
AcDbEntity
  8
0
100
AcDbBlockEnd
  0
ENDSEC
  0
SECTION
  2
ENTITIES
  0
LINE
  5
D935
330
18
100
AcDbEntity
  8
DETAIL
100
AcDbLine
 10
-178.4466463496314
 20
-126.1279591163838
 30
0.0
 11
-178.4466463496314
 21
-78.96630323878799
 31
0.0
  0
LINE
  5
D93D
330
18
100
AcDbEntity
  8
DETAIL
100
AcDbLine
 10
181.445749649496
 20
-126.1279591163838
 30
0.0
 11
181.445749649496
 21
-78.96630323878799
 31
0.0
  0
LINE
  5
D945
330
18
100
AcDbEntity
  8
DETAIL
100
AcDbLine
 10
61.48161764978704
 20
-126.1279591163838
 30
0.0
 11
61.48161764978704
 21
-78.96630323878799
 31
0.0
  0
LINE
  5
D94D
330
18
100
AcDbEntity
  8
DETAIL
100
AcDbLine
 10
-58.48251434992199
 20
-126.1279591163838
 30
0.0
 11
-58.48251434992199
 21
-78.96630323878799
 31
0.0
  0
LINE
  5
D9D7
330
18
100
AcDbEntity
  8
DETAIL
100
AcDbLine
 10
299.9103299993289
 20
47.48580224989291
 30
0.0
 11
-299.9103299993298
 21
47.48580224989291
 31
0.0
  0
LINE
  5
D9D8
330
18
100
AcDbEntity
  8
DETAIL
100
AcDbLine
 10
-178.4466463496014
 20
-116.5651482597395
 30
0.0
 11
-59.08233500986852
 21
-116.5651482597395
 31
0.0
  0
LINE
  5
D9D9
330
18
100
AcDbEntity
  8
DETAIL
100
AcDbLine
 10
-295.7115853793393
 20
-116.5651482597395
 30
0.0
 11
-179.0464670096002
 21
-116.5651482597395
 31
0.0
  0
LINE
  5
D9DA
330
18
100
AcDbEntity
  8
DETAIL
100
AcDbLine
 10
-58.48251434986969
 20
-116.5651482597395
 30
0.0
 11
60.88179698986323
 21
-116.5651482597395
 31
0.0
  0
LINE
  5
D9DB
330
18
100
AcDbEntity
  8
DETAIL
100
AcDbLine
 10
61.48161764986207
 20
-116.5651482597395
 30
0.0
 11
180.8459289895949
 21
-116.5651482597395
 31
0.0
  0
LINE
  5
D9DC
330
18
100
AcDbEntity
  8
DETAIL
100
AcDbLine
 10
181.4457496495938
 20
-116.5651482597395
 30
0.0
 11
295.7115853793375
 21
-116.5651482597395
 31
0.0
  0
LINE
  5
D9DD
330
18
100
AcDbEntity
  8
DETAIL
100
AcDbLine
 10
299.9103299993289
 20
-161.6516678696389
 30
0.0
 11
-299.9103299993298
 21
-161.6516678696389
 31
0.0
  0
LINE
  5
D9DE
330
18
100
AcDbEntity
  8
DETAIL
100
AcDbLine
 10
-313.1063845192997
 20
-44.48669894989961
 30
0.0
 11
-320.5041726592835
 21
-44.48669894989961
 31
0.0
  0
LINE
  5
D9DF
330
18
100
AcDbEntity
  8
DETAIL
100
AcDbLine
 10
-320.5041726592835
 20
31.69052486992859
 30
0.0
 11
-319.3045313392863
 21
31.6905248699295
 31
0.0
  0
LINE
  5
D9E0
330
18
100
AcDbEntity
  8
DETAIL
100
AcDbLine
 10
-320.5041726592835
 20
-44.48669894989961
 30
0.0
 11
-320.5041726592835
 21
31.69052486992859
 31
0.0
  0
LINE
  5
D9E1
330
18
100
AcDbEntity
  8
DETAIL
100
AcDbLine
 10
-319.2545462842863
 20
31.6905248699295
 30
0.0
 11
-318.6547256242879
 21
31.6905248699295
 31
0.0
  0
LINE
  5
D9E2
330
18
100
AcDbEntity
  8
DETAIL
100
AcDbLine
 10
-319.3045313392863
 20
31.6905248699295
 30
0.0
 11
-319.2545462842863
 21
31.6905248699295
 31
0.0
  0
LINE
  5
D9E3
330
18
100
AcDbEntity
  8
DETAIL
100
AcDbLine
 10
-303.1093735193221
 20
-44.48669894989961
 30
0.0
 11
-313.1063845192997
 21
-44.48669894989961
 31
0.0
  0
LINE
  5
D9E4
330
18
100
AcDbEntity
  8
DETAIL
100
AcDbLine
 10
-296.2479772874553
 20
-44.48669894989961
 30
0.0
 11
-303.1093735193221
 21
-44.48669894989961
 31
0.0
  0
LINE
  5
D9E5
330
18
100
AcDbEntity
  8
DETAIL
100
AcDbLine
 10
-318.6547256242879
 20
31.6905248699295
 30
0.0
 11
-318.1048900192886
 21
31.6905248699295
 31
0.0
  0
LINE
  5
D9E6
330
18
100
AcDbEntity
  8
DETAIL
100
AcDbLine
 10
-318.1048900192886
 20
31.6905248699295
 30
0.0
 11
317.9049497992891
 21
31.6905248699295
 31
0.0
  0
LINE
  5
D9E7
330
18
100
AcDbEntity
  8
DETAIL
100
AcDbLine
 10
313.1063845192997
 20
-44.48669894989961
 30
0.0
 11
303.1093735193226
 21
-44.48669894989961
 31
0.0
  0
LINE
  5
D9E8
330
18
100
AcDbEntity
  8
DETAIL
100
AcDbLine
 10
-179.9461979995981
 20
-44.48669894989961
 30
0.0
 11
-174.9476924996092
 21
-44.48669894989961
 31
0.0
  0
LINE
  5
D9E9
330
18
100
AcDbEntity
  8
DETAIL
100
AcDbLine
 10
-195.9414155995623
 20
-44.48669894989961
 30
0.0
 11
-190.4824397894713
 21
-44.48669894989961
 31
0.0
  0
LINE
  5
D9EA
330
18
100
AcDbEntity
  8
DETAIL
100
AcDbLine
 10
-190.4824397894713
 20
-44.48669894989961
 30
0.0
 11
-179.9461979995981
 21
-44.48669894989961
 31
0.0
  0
LINE
  5
D9EB
330
18
100
AcDbEntity
  8
DETAIL
100
AcDbLine
 10
-295.7115853793388
 20
-44.48669894989961
 30
0.0
 11
-195.9414155995623
 21
-44.48669894989961
 31
0.0
  0
LINE
  5
D9EC
330
18
100
AcDbEntity
  8
DETAIL
100
AcDbLine
 10
-296.2479772874553
 20
-44.48669894989961
 30
0.0
 11
-295.7115853793388
 21
-44.48669894989961
 31
0.0
  0
LINE
  5
D9ED
330
18
100
AcDbEntity
  8
DETAIL
100
AcDbLine
 10
-54.98356049987705
 20
-44.48669894989961
 30
0.0
 11
43.98684839990164
 21
-44.48669894989961
 31
0.0
  0
LINE
  5
D9EE
330
18
100
AcDbEntity
  8
DETAIL
100
AcDbLine
 10
-174.9476924996092
 20
-44.48669894989961
 30
0.0
 11
-75.97728359983012
 21
-44.48669894989961
 31
0.0
  0
LINE
  5
D9EF
330
18
100
AcDbEntity
  8
DETAIL
100
AcDbLine
 10
-59.98206599986588
 20
-44.48669894989961
 30
0.0
 11
-54.98356049987705
 21
-44.48669894989961
 31
0.0
  0
LINE
  5
D9F0
330
18
100
AcDbEntity
  8
DETAIL
100
AcDbLine
 10
-75.97728359983012
 20
-44.48669894989961
 30
0.0
 11
-70.51830778973954
 21
-44.48669894989961
 31
0.0
  0
LINE
  5
D9F1
330
18
100
AcDbEntity
  8
DETAIL
100
AcDbLine
 10
-70.51830778973954
 20
-44.48669894989961
 30
0.0
 11
-59.98206599986588
 21
-44.48669894989961
 31
0.0
  0
LINE
  5
D9F2
330
18
100
AcDbEntity
  8
DETAIL
100
AcDbLine
 10
184.9447034995864
 20
-44.48669894989961
 30
0.0
 11
295.7115853793379
 21
-44.48669894989961
 31
0.0
  0
LINE
  5
D9F3
330
18
100
AcDbEntity
  8
DETAIL
100
AcDbLine
 10
59.98206599986588
 20
-44.48669894989961
 30
0.0
 11
64.9805714998547
 21
-44.48669894989961
 31
0.0
  0
LINE
  5
D9F4
330
18
100
AcDbEntity
  8
DETAIL
100
AcDbLine
 10
179.9461979995976
 20
-44.48669894989961
 30
0.0
 11
184.9447034995864
 21
-44.48669894989961
 31
0.0
  0
LINE
  5
D9F5
330
18
100
AcDbEntity
  8
DETAIL
100
AcDbLine
 10
64.9805714998547
 20
-44.48669894989961
 30
0.0
 11
163.9509803996334
 21
-44.48669894989961
 31
0.0
  0
LINE
  5
D9F6
330
18
100
AcDbEntity
  8
DETAIL
100
AcDbLine
 10
163.9509803996334
 20
-44.48669894989961
 30
0.0
 11
169.4099562097239
 21
-44.48669894989961
 31
0.0
  0
LINE
  5
D9F7
330
18
100
AcDbEntity
  8
DETAIL
100
AcDbLine
 10
169.4099562097239
 20
-44.48669894989961
 30
0.0
 11
179.9461979995976
 21
-44.48669894989961
 31
0.0
  0
LINE
  5
D9F8
330
18
100
AcDbEntity
  8
DETAIL
100
AcDbLine
 10
43.98684839990164
 20
-44.48669894989961
 30
0.0
 11
49.44582420999222
 21
-44.48669894989961
 31
0.0
  0
LINE
  5
D9F9
330
18
100
AcDbEntity
  8
DETAIL
100
AcDbLine
 10
49.44582420999222
 20
-44.48669894989961
 30
0.0
 11
59.98206599986588
 21
-44.48669894989961
 31
0.0
  0
LINE
  5
D9FA
330
18
100
AcDbEntity
  8
DETAIL
100
AcDbLine
 10
318.6547256242866
 20
31.6905248699295
 30
0.0
 11
317.9049497992891
 21
31.6905248699295
 31
0.0
  0
LINE
  5
D9FB
330
18
100
AcDbEntity
  8
DETAIL
100
AcDbLine
 10
295.7115853793379
 20
-44.48669894989961
 30
0.0
 11
296.2479772874553
 21
-44.48669894989961
 31
0.0
  0
LINE
  5
D9FC
330
18
100
AcDbEntity
  8
DETAIL
100
AcDbLine
 10
303.1093735193226
 20
-44.48669894989961
 30
0.0
 11
296.2479772874553
 21
-44.48669894989961
 31
0.0
  0
LINE
  5
D9FD
330
18
100
AcDbEntity
  8
DETAIL
100
AcDbLine
 10
319.3045313392858
 20
31.6905248699295
 30
0.0
 11
320.5041726592835
 21
31.6905248699295
 31
0.0
  0
LINE
  5
D9FE
330
18
100
AcDbEntity
  8
DETAIL
100
AcDbLine
 10
320.5041726592821
 20
-44.48669894989961
 30
0.0
 11
313.1063845192997
 21
-44.48669894989961
 31
0.0
  0
LINE
  5
D9FF
330
18
100
AcDbEntity
  8
DETAIL
100
AcDbLine
 10
320.5041726592835
 20
31.6905248699295
 30
0.0
 11
320.5041726592821
 21
-44.48669894989961
 31
0.0
  0
LINE
  5
DA00
330
18
100
AcDbEntity
  8
DETAIL
100
AcDbLine
 10
318.6547256242866
 20
31.6905248699295
 30
0.0
 11
319.3045313392858
 21
31.6905248699295
 31
0.0
  0
LINE
  5
DA01
330
18
100
AcDbEntity
  8
DETAIL
100
AcDbLine
 10
-313.1063845192997
 20
-136.4592001496948
 30
0.0
 11
-320.5041726592835
 21
-136.4592001496948
 31
0.0
  0
LINE
  5
DA02
330
18
100
AcDbEntity
  8
DETAIL
100
AcDbLine
 10
-320.5041726592835
 20
-159.6522656696433
 30
0.0
 11
-320.5041726592835
 21
-136.4592001496948
 31
0.0
  0
LINE
  5
DA03
330
18
100
AcDbEntity
  8
DETAIL
100
AcDbLine
 10
-320.5041726592835
 20
-160.4520265496412
 30
0.0
 11
-320.5041726592835
 21
-159.6522656696433
 31
0.0
  0
LINE
  5
DA04
330
18
100
AcDbEntity
  8
DETAIL
100
AcDbLine
 10
-319.8543669442847
 20
-160.4520265496412
 30
0.0
 11
-319.2545462842863
 21
-160.4520265496412
 31
0.0
  0
LINE
  5
DA05
330
18
100
AcDbEntity
  8
DETAIL
100
AcDbLine
 10
-320.5041726592835
 20
-160.4520265496412
 30
0.0
 11
-319.8543669442847
 21
-160.4520265496412
 31
0.0
  0
LINE
  5
DA06
330
18
100
AcDbEntity
  8
DETAIL
100
AcDbLine
 10
-303.1093735193221
 20
-136.4592001496948
 30
0.0
 11
-313.1063845192997
 21
-136.4592001496948
 31
0.0
  0
LINE
  5
DA07
330
18
100
AcDbEntity
  8
DETAIL
100
AcDbLine
 10
-299.9103299993298
 20
-136.4592001496948
 30
0.0
 11
-303.1093735193221
 21
-136.4592001496948
 31
0.0
  0
LINE
  5
DA08
330
18
100
AcDbEntity
  8
DETAIL
100
AcDbLine
 10
295.7115853793379
 20
-136.4592001496948
 30
0.0
 11
184.9447034995864
 21
-136.4592001496948
 31
0.0
  0
LINE
  5
DA09
330
18
100
AcDbEntity
  8
DETAIL
100
AcDbLine
 10
184.9447034995864
 20
-136.4592001496948
 30
0.0
 11
179.9461979995976
 21
-136.4592001496948
 31
0.0
  0
LINE
  5
DA0A
330
18
100
AcDbEntity
  8
DETAIL
100
AcDbLine
 10
179.9461979995976
 20
-136.4592001496948
 30
0.0
 11
169.4099562097239
 21
-136.4592001496948
 31
0.0
  0
LINE
  5
DA0B
330
18
100
AcDbEntity
  8
DETAIL
100
AcDbLine
 10
299.6552256588042
 20
-136.4592001496948
 30
0.0
 11
295.7115853793379
 21
-136.4592001496948
 31
0.0
  0
LINE
  5
DA0C
330
18
100
AcDbEntity
  8
DETAIL
100
AcDbLine
 10
169.4099562097239
 20
-136.4592001496948
 30
0.0
 11
64.9805714998547
 21
-136.4592001496948
 31
0.0
  0
LINE
  5
DA0D
330
18
100
AcDbEntity
  8
DETAIL
100
AcDbLine
 10
59.98206599986588
 20
-136.4592001496948
 30
0.0
 11
64.9805714998547
 21
-136.4592001496948
 31
0.0
  0
LINE
  5
DA0E
330
18
100
AcDbEntity
  8
DETAIL
100
AcDbLine
 10
49.44582420999222
 20
-136.4592001496948
 30
0.0
 11
59.98206599986588
 21
-136.4592001496948
 31
0.0
  0
LINE
  5
DA0F
330
18
100
AcDbEntity
  8
DETAIL
100
AcDbLine
 10
-54.98356049987705
 20
-136.4592001496948
 30
0.0
 11
49.44582420999222
 21
-136.4592001496948
 31
0.0
  0
LINE
  5
DA10
330
18
100
AcDbEntity
  8
DETAIL
100
AcDbLine
 10
-59.98206599986588
 20
-136.4592001496948
 30
0.0
 11
-54.98356049987705
 21
-136.4592001496948
 31
0.0
  0
LINE
  5
DA11
330
18
100
AcDbEntity
  8
DETAIL
100
AcDbLine
 10
-70.51830778973954
 20
-136.4592001496948
 30
0.0
 11
-59.98206599986588
 21
-136.4592001496948
 31
0.0
  0
LINE
  5
DA12
330
18
100
AcDbEntity
  8
DETAIL
100
AcDbLine
 10
-70.51830778973954
 20
-136.4592001496948
 30
0.0
 11
-174.9476924996092
 21
-136.4592001496948
 31
0.0
  0
LINE
  5
DA13
330
18
100
AcDbEntity
  8
DETAIL
100
AcDbLine
 10
-179.9461979995981
 20
-136.4592001496948
 30
0.0
 11
-174.9476924996092
 21
-136.4592001496948
 31
0.0
  0
LINE
  5
DA14
330
18
100
AcDbEntity
  8
DETAIL
100
AcDbLine
 10
-190.4824397894713
 20
-136.4592001496948
 30
0.0
 11
-179.9461979995981
 21
-136.4592001496948
 31
0.0
  0
LINE
  5
DA15
330
18
100
AcDbEntity
  8
DETAIL
100
AcDbLine
 10
-295.7115853793388
 20
-136.4592001496948
 30
0.0
 11
-299.6552256588056
 21
-136.4592001496948
 31
0.0
  0
LINE
  5
DA16
330
18
100
AcDbEntity
  8
DETAIL
100
AcDbLine
 10
-299.6552256588056
 20
-136.4592001496948
 30
0.0
 11
-299.9103299993298
 21
-136.4592001496948
 31
0.0
  0
LINE
  5
DA17
330
18
100
AcDbEntity
  8
DETAIL
100
AcDbLine
 10
-190.4824397894713
 20
-136.4592001496948
 30
0.0
 11
-295.7115853793388
 21
-136.4592001496948
 31
0.0
  0
LINE
  5
DA18
330
18
100
AcDbEntity
  8
DETAIL
100
AcDbLine
 10
317.9049497992891
 20
-160.4520265496412
 30
0.0
 11
-318.1048900192886
 21
-160.4520265496412
 31
0.0
  0
LINE
  5
DA19
330
18
100
AcDbEntity
  8
DETAIL
100
AcDbLine
 10
299.9103299993294
 20
-136.4592001496948
 30
0.0
 11
299.6552256588042
 21
-136.4592001496948
 31
0.0
  0
LINE
  5
DA1A
330
18
100
AcDbEntity
  8
DETAIL
100
AcDbLine
 10
-319.2545462842863
 20
-160.4520265496412
 30
0.0
 11
-318.1048900192886
 21
-160.4520265496412
 31
0.0
  0
LINE
  5
DA1B
330
18
100
AcDbEntity
  8
DETAIL
100
AcDbLine
 10
320.5041726592821
 20
-136.4592001496948
 30
0.0
 11
320.5041726592835
 21
-159.6522656696424
 31
0.0
  0
LINE
  5
DA1C
330
18
100
AcDbEntity
  8
DETAIL
100
AcDbLine
 10
303.1093735193226
 20
-136.4592001496948
 30
0.0
 11
299.9103299993294
 21
-136.4592001496948
 31
0.0
  0
LINE
  5
DA1D
330
18
100
AcDbEntity
  8
DETAIL
100
AcDbLine
 10
313.1063845192997
 20
-136.4592001496948
 30
0.0
 11
303.1093735193226
 21
-136.4592001496948
 31
0.0
  0
LINE
  5
DA1E
330
18
100
AcDbEntity
  8
DETAIL
100
AcDbLine
 10
320.5041726592821
 20
-136.4592001496948
 30
0.0
 11
313.1063845192997
 21
-136.4592001496948
 31
0.0
  0
LINE
  5
DA1F
330
18
100
AcDbEntity
  8
DETAIL
100
AcDbLine
 10
319.8543669442847
 20
-160.4520265496412
 30
0.0
 11
320.5041726592821
 21
-160.4520265496412
 31
0.0
  0
LINE
  5
DA20
330
18
100
AcDbEntity
  8
DETAIL
100
AcDbLine
 10
317.9049497992891
 20
-160.4520265496412
 30
0.0
 11
319.2545462842863
 21
-160.4520265496412
 31
0.0
  0
LINE
  5
DA21
330
18
100
AcDbEntity
  8
DETAIL
100
AcDbLine
 10
319.2545462842863
 20
-160.4520265496412
 30
0.0
 11
319.8543669442847
 21
-160.4520265496412
 31
0.0
  0
LINE
  5
DA22
330
18
100
AcDbEntity
  8
DETAIL
100
AcDbLine
 10
320.5041726592821
 20
-160.4520265496412
 30
0.0
 11
320.5041726592835
 21
-159.6522656696424
 31
0.0
  0
CIRCLE
  5
DA23
330
18
100
AcDbEntity
  8
DETAIL
100
AcDbCircle
 10
-327.4021102492683
 20
-108.5675394597565
 30
0.0
 40
2.499252749994411
  0
CIRCLE
  5
DA24
330
18
100
AcDbEntity
  8
DETAIL
100
AcDbCircle
 10
-327.4021102492683
 20
0.0
 30
0.0
 40
2.499252749994411
  0
CIRCLE
  5
DA25
330
18
100
AcDbEntity
  8
DETAIL
100
AcDbCircle
 10
327.4021102492679
 20
0.0
 30
0.0
 40
2.499252749994411
  0
CIRCLE
  5
DA26
330
18
100
AcDbEntity
  8
DETAIL
100
AcDbCircle
 10
-308.8076697892984
 20
-132.4603957497038
 30
0.0
 40
1.39958153999673
  0
CIRCLE
  5
DA27
330
18
100
AcDbEntity
  8
DETAIL
100
AcDbCircle
 10
-308.8076697892984
 20
-48.48550334989159
 30
0.0
 40
1.39958153999673
  0
CIRCLE
  5
DA28
330
18
100
AcDbEntity
  8
DETAIL
100
AcDbCircle
 10
306.9082376993137
 20
-132.4603957497038
 30
0.0
 40
1.39958153999673
  0
CIRCLE
  5
DA29
330
18
100
AcDbEntity
  8
DETAIL
100
AcDbCircle
 10
327.4021102492679
 20
-108.5675394597565
 30
0.0
 40
2.499252749994411
  0
CIRCLE
  5
DA2A
330
18
100
AcDbEntity
  8
DETAIL
100
AcDbCircle
 10
306.9082376993137
 20
-48.48550334989159
 30
0.0
 40
1.39958153999673
  0
ARC
  5
DA2B
330
18
100
AcDbEntity
  8
DETAIL
100
AcDbCircle
 10
-324.5029770592746
 20
21.69351386995185
 30
0.0
 40
9.997010999977616
100
AcDbArc
 50
90.0
 51
180.0
  0
ARC
  5
DA2C
330
18
100
AcDbEntity
  8
DETAIL
100
AcDbCircle
 10
-318.6547256242879
 20
-160.4520265496412
 30
0.0
 40
1.199641319997367
100
AcDbArc
 50
180.0
 51
270.0
  0
ARC
  5
DA2D
330
18
100
AcDbEntity
  8
DETAIL
100
AcDbCircle
 10
-324.5029770592746
 20
-149.6552546696648
 30
0.0
 40
9.997010999977646
100
AcDbArc
 50
180.0
 51
270.0
  0
ARC
  5
DA2E
330
18
100
AcDbEntity
  8
DETAIL
100
AcDbCircle
 10
-318.6547256242879
 20
31.89046508992851
 30
0.0
 40
1.199641319997417
100
AcDbArc
 50
90.0
 51
180.0
  0
ARC
  5
DA2F
330
18
100
AcDbEntity
  8
DETAIL
100
AcDbCircle
 10
-318.6547256242879
 20
31.89046508992851
 30
0.0
 40
0.5998206599987488
100
AcDbArc
 50
90.0
 51
180.0
  0
ARC
  5
DA30
330
18
100
AcDbEntity
  8
DETAIL
100
AcDbCircle
 10
-315.6556223242946
 20
44.48669894990053
 30
0.0
 40
2.999103299993294
100
AcDbArc
 50
90.0
 51
180.0
  0
ARC
  5
DA31
330
18
100
AcDbEntity
  8
DETAIL
100
AcDbCircle
 10
-180.9458990995958
 20
-41.48759564990633
 30
0.0
 40
9.997010999978227
100
AcDbArc
 50
197.4576031237047
 51
270.0
  0
ARC
  5
DA32
330
18
100
AcDbEntity
  8
DETAIL
100
AcDbCircle
 10
178.9464968995998
 20
-139.4583034496881
 30
0.0
 40
9.997010999977646
100
AcDbArc
 50
90.0
 51
162.5423968762952
  0
ARC
  5
DA33
330
18
100
AcDbEntity
  8
DETAIL
100
AcDbCircle
 10
58.98236489986811
 20
-139.4583034496881
 30
0.0
 40
9.997010999977646
100
AcDbArc
 50
90.0
 51
162.5423968762952
  0
ARC
  5
DA34
330
18
100
AcDbEntity
  8
DETAIL
100
AcDbCircle
 10
-60.98176709986365
 20
-139.4583034496881
 30
0.0
 40
9.997010999977646
100
AcDbArc
 50
90.0
 51
162.5423968762952
  0
ARC
  5
DA35
330
18
100
AcDbEntity
  8
DETAIL
100
AcDbCircle
 10
-60.98176709986365
 20
-41.48759564990633
 30
0.0
 40
9.997010999978227
100
AcDbArc
 50
197.4576031237047
 51
270.0
  0
ARC
  5
DA36
330
18
100
AcDbEntity
  8
DETAIL
100
AcDbCircle
 10
-180.9458990995958
 20
-139.4583034496881
 30
0.0
 40
9.997010999977646
100
AcDbArc
 50
90.0
 51
162.5423968762952
  0
ARC
  5
DA37
330
18
100
AcDbEntity
  8
DETAIL
100
AcDbCircle
 10
178.9464968995998
 20
-41.48759564990633
 30
0.0
 40
9.997010999978227
100
AcDbArc
 50
197.4576031237047
 51
270.0
  0
ARC
  5
DA38
330
18
100
AcDbEntity
  8
DETAIL
100
AcDbCircle
 10
58.98236489986811
 20
-41.48759564990633
 30
0.0
 40
9.997010999978227
100
AcDbArc
 50
197.4576031237047
 51
270.0
  0
ARC
  5
DA39
330
18
100
AcDbEntity
  8
DETAIL
100
AcDbCircle
 10
324.5029770592746
 20
-149.6552546696648
 30
0.0
 40
9.997010999977646
100
AcDbArc
 50
270.0
 51
0.0
  0
ARC
  5
DA3A
330
18
100
AcDbEntity
  8
DETAIL
100
AcDbCircle
 10
324.5029770592746
 20
21.69351386995185
 30
0.0
 40
9.997010999977646
100
AcDbArc
 50
0.0
 51
90.0
  0
ARC
  5
DA3B
330
18
100
AcDbEntity
  8
DETAIL
100
AcDbCircle
 10
318.6547256242874
 20
31.89046508992851
 30
0.0
 40
0.599820659998569
100
AcDbArc
 50
0.0
 51
90.0
  0
ARC
  5
DA3C
330
18
100
AcDbEntity
  8
DETAIL
100
AcDbCircle
 10
315.6556223242942
 20
44.48669894990053
 30
0.0
 40
2.999103299993294
100
AcDbArc
 50
0.0
 51
90.0
  0
ARC
  5
DA3D
330
18
100
AcDbEntity
  8
DETAIL
100
AcDbCircle
 10
318.6547256242874
 20
-160.4520265496412
 30
0.0
 40
1.199641319997307
100
AcDbArc
 50
270.0
 51
0.0
  0
ARC
  5
DA3E
330
18
100
AcDbEntity
  8
DETAIL
100
AcDbCircle
 10
-318.6547256242879
 20
-160.4520265496412
 30
0.0
 40
0.599820659998569
100
AcDbArc
 50
180.0
 51
270.0
  0
ARC
  5
DA3F
330
18
100
AcDbEntity
  8
DETAIL
100
AcDbCircle
 10
318.6547256242874
 20
31.89046508992851
 30
0.0
 40
1.199641319997367
100
AcDbArc
 50
0.0
 51
90.0
  0
ARC
  5
DA40
330
18
100
AcDbEntity
  8
DETAIL
100
AcDbCircle
 10
318.6547256242874
 20
-160.4520265496412
 30
0.0
 40
0.599820659998569
100
AcDbArc
 50
270.0
 51
0.0
  0
LINE
  5
DA45
330
18
100
AcDbEntity
  8
BASIS
100
AcDbLine
 10
0.0
 20
63.16023581308309
 30
0.0
 11
0.0
 21
-181.6920333104008
 31
0.0
  0
LINE
  5
DA46
330
18
100
AcDbEntity
  8
BASIS
100
AcDbLine
 10
-308.8076697892984
 20
-130.9208560557072
 30
0.0
 11
-308.8076697892984
 21
-135.0224770175182
 31
0.0
  0
LINE
  5
DA47
330
18
100
AcDbEntity
  8
BASIS
100
AcDbLine
 10
302.8807501749024
 20
-132.4603957497038
 30
0.0
 11
-311.5865313831318
 21
-132.4603957497038
 31
0.0
  0
LINE
  5
DA48
330
18
100
AcDbEntity
  8
BASIS
100
AcDbLine
 10
-308.8076697892984
 20
-45.72359360277096
 30
0.0
 11
-308.8076697892984
 21
-130.9208560557072
 31
0.0
  0
LINE
  5
DA49
330
18
100
AcDbEntity
  8
BASIS
100
AcDbLine
 10
302.8643013205805
 20
-48.48550334989159
 30
0.0
 11
-311.4733155467142
 21
-48.48550334989159
 31
0.0
  0
LINE
  5
DA4A
330
18
100
AcDbEntity
  8
BASIS
100
AcDbLine
 10
306.9082376993137
 20
-130.9208560557072
 30
0.0
 11
306.9082376993137
 21
-135.6296261992765
 31
0.0
  0
LINE
  5
DA4B
330
18
100
AcDbEntity
  8
BASIS
100
AcDbLine
 10
311.5558258432188
 20
-132.4603957497038
 30
0.0
 11
302.8807501748983
 21
-132.4603957497038
 31
0.0
  0
LINE
  5
DA4C
330
18
100
AcDbEntity
  8
BASIS
100
AcDbLine
 10
306.9082376993137
 20
-44.48669894989961
 30
0.0
 11
306.9082376993151
 21
-130.9208560557072
 31
0.0
  0
LINE
  5
DA4D
330
18
100
AcDbEntity
  8
BASIS
100
AcDbLine
 10
311.3495210195596
 20
-48.48550334989159
 30
0.0
 11
302.8643013205805
 21
-48.48550334989159
 31
0.0
  0
LINE
  5
DA4E
330
18
100
AcDbEntity
  8
BASIS
100
AcDbLine
 10
-327.4021102492683
 20
-105.8183614347626
 30
0.0
 11
-327.4021102492683
 21
-115.0387567362513
 31
0.0
  0
LINE
  5
DA4F
330
18
100
AcDbEntity
  8
BASIS
100
AcDbLine
 10
-322.9229417393639
 20
-108.5675394597565
 30
0.0
 11
-331.3478409066142
 21
-108.5675394597565
 31
0.0
  0
LINE
  5
DA50
330
18
100
AcDbEntity
  8
BASIS
100
AcDbLine
 10
-327.4021102492683
 20
5.362868350740427
 30
0.0
 11
-327.4021102492661
 21
-105.8183614347626
 31
0.0
  0
LINE
  5
DA51
330
18
100
AcDbEntity
  8
BASIS
100
AcDbLine
 10
-322.7397917574676
 20
0.0
 30
0.0
 11
-331.5309908885115
 21
0.0
 31
0.0
  0
LINE
  5
DA52
330
18
100
AcDbEntity
  8
BASIS
100
AcDbLine
 10
327.4021102492692
 20
-2.749178024993852
 30
0.0
 11
327.4021102492679
 21
-114.2725649082203
 31
0.0
  0
LINE
  5
DA53
330
18
100
AcDbEntity
  8
BASIS
100
AcDbLine
 10
331.508203934572
 20
-108.5675394597565
 30
0.0
 11
-322.9229417393617
 21
-108.5675394597565
 31
0.0
  0
LINE
  5
DA54
330
18
100
AcDbEntity
  8
BASIS
100
AcDbLine
 10
327.4021102492679
 20
5.68879733293852
 30
0.0
 11
327.4021102492679
 21
-2.749178024993852
 31
0.0
  0
LINE
  5
DA55
330
18
100
AcDbEntity
  8
BASIS
100
AcDbLine
 10
331.6786035968461
 20
0.0
 30
0.0
 11
-322.7397917574676
 21
0.0
 31
0.0
  0
LINE
  5
DA56
330
18
100
AcDbEntity
  8
DETAIL
100
AcDbLine
 10
321.3039335392814
 20
31.6905248699295
 30
0.0
 11
324.5029770592746
 21
31.6905248699295
 31
0.0
  0
LINE
  5
DA57
330
18
100
AcDbEntity
  8
DETAIL
100
AcDbLine
 10
-324.5029770592746
 20
31.6905248699295
 30
0.0
 11
-321.1039933192819
 21
31.69052486992859
 31
0.0
  0
LINE
  5
DA58
330
18
100
AcDbEntity
  8
DETAIL
100
AcDbLine
 10
-320.5041726592835
 20
31.69052486992859
 30
0.0
 11
-319.3045313392863
 21
31.6905248699295
 31
0.0
  0
LINE
  5
DA59
330
18
100
AcDbEntity
  8
DETAIL
100
AcDbLine
 10
-321.1039933192819
 20
-159.6522656696424
 30
0.0
 11
-320.5041726592835
 21
-159.6522656696433
 31
0.0
  0
LINE
  5
DA5A
330
18
100
AcDbEntity
  8
DETAIL
100
AcDbLine
 10
-321.1039933192819
 20
31.69052486992859
 30
0.0
 11
-320.5041726592835
 21
31.69052486992859
 31
0.0
  0
LINE
  5
DA5B
330
18
100
AcDbEntity
  8
DETAIL
100
AcDbLine
 10
-320.5041726592835
 20
-136.4592001496948
 30
0.0
 11
-320.5041726592835
 21
-44.48669894989961
 31
0.0
  0
LINE
  5
DA5C
330
18
100
AcDbEntity
  8
DETAIL
100
AcDbLine
 10
-320.5041726592835
 20
-44.48669894989961
 30
0.0
 11
-320.5041726592835
 21
31.69052486992859
 31
0.0
  0
LINE
  5
DA5D
330
18
100
AcDbEntity
  8
DETAIL
100
AcDbLine
 10
-320.5041726592835
 20
-159.6522656696433
 30
0.0
 11
-320.5041726592835
 21
-136.4592001496948
 31
0.0
  0
LINE
  5
DA5E
330
18
100
AcDbEntity
  8
DETAIL
100
AcDbLine
 10
-319.2545462842863
 20
31.6905248699295
 30
0.0
 11
-318.6547256242879
 21
31.6905248699295
 31
0.0
  0
LINE
  5
DA5F
330
18
100
AcDbEntity
  8
DETAIL
100
AcDbLine
 10
-319.3045313392863
 20
31.6905248699295
 30
0.0
 11
-319.2545462842863
 21
31.6905248699295
 31
0.0
  0
LINE
  5
DA60
330
18
100
AcDbEntity
  8
DETAIL
100
AcDbLine
 10
-321.1039933192819
 20
-159.6522656696424
 30
0.0
 11
-324.5029770592746
 21
-159.6522656696424
 31
0.0
  0
LINE
  5
DA61
330
18
100
AcDbEntity
  8
DETAIL
100
AcDbLine
 10
-334.4999880592522
 20
-149.6552546696648
 30
0.0
 11
-334.4999880592522
 21
21.69351386995185
 31
0.0
  0
LINE
  5
DA62
330
18
100
AcDbEntity
  8
DETAIL
100
AcDbLine
 10
-318.6547256242879
 20
31.6905248699295
 30
0.0
 11
-318.1048900192886
 21
31.6905248699295
 31
0.0
  0
LINE
  5
DA63
330
18
100
AcDbEntity
  8
DETAIL
100
AcDbLine
 10
-318.1048900192886
 20
31.6905248699295
 30
0.0
 11
317.9049497992891
 21
31.6905248699295
 31
0.0
  0
LINE
  5
DA64
330
18
100
AcDbEntity
  8
DETAIL
100
AcDbLine
 10
299.9103299993294
 20
47.48580224989382
 30
0.0
 11
315.6556223242942
 21
47.48580224989382
 31
0.0
  0
LINE
  5
DA65
330
18
100
AcDbEntity
  8
DETAIL
100
AcDbLine
 10
317.9049497992891
 20
32.49028574992735
 30
0.0
 11
317.9049497992891
 21
31.6905248699295
 31
0.0
  0
LINE
  5
DA66
330
18
100
AcDbEntity
  8
DETAIL
100
AcDbLine
 10
317.9049497992891
 20
33.09010640992619
 30
0.0
 11
317.9049497992891
 21
32.49028574992735
 31
0.0
  0
LINE
  5
DA67
330
18
100
AcDbEntity
  8
DETAIL
100
AcDbLine
 10
-318.1048900192886
 20
33.09010640992619
 30
0.0
 11
317.9049497992891
 21
33.09010640992619
 31
0.0
  0
LINE
  5
DA68
330
18
100
AcDbEntity
  8
DETAIL
100
AcDbLine
 10
-318.1048900192886
 20
32.49028574992735
 30
0.0
 11
-318.1048900192886
 21
31.6905248699295
 31
0.0
  0
LINE
  5
DA69
330
18
100
AcDbEntity
  8
DETAIL
100
AcDbLine
 10
-318.1048900192886
 20
33.09010640992619
 30
0.0
 11
-318.1048900192886
 21
32.49028574992735
 31
0.0
  0
LINE
  5
DA6A
330
18
100
AcDbEntity
  8
DETAIL
100
AcDbLine
 10
-319.2545462842863
 20
31.6905248699295
 30
0.0
 11
-319.2545462842863
 21
31.89046508992851
 31
0.0
  0
LINE
  5
DA6B
330
18
100
AcDbEntity
  8
DETAIL
100
AcDbLine
 10
-318.6547256242879
 20
32.49028574992735
 30
0.0
 11
-318.1048900192886
 21
32.49028574992735
 31
0.0
  0
LINE
  5
DA6C
330
18
100
AcDbEntity
  8
DETAIL
100
AcDbLine
 10
-318.6547256242879
 20
33.09010640992619
 30
0.0
 11
-318.1048900192886
 21
33.09010640992619
 31
0.0
  0
LINE
  5
DA6D
330
18
100
AcDbEntity
  8
DETAIL
100
AcDbLine
 10
-318.6547256242879
 20
33.68992706992503
 30
0.0
 11
-318.6547256242879
 21
44.48669894990053
 31
0.0
  0
LINE
  5
DA6E
330
18
100
AcDbEntity
  8
DETAIL
100
AcDbLine
 10
-318.6547256242879
 20
33.68992706992503
 30
0.0
 11
-318.6547256242879
 21
33.09010640992619
 31
0.0
  0
LINE
  5
DA6F
330
18
100
AcDbEntity
  8
DETAIL
100
AcDbLine
 10
-180.9458990995958
 20
-51.48460664988397
 30
0.0
 11
-179.6462876695982
 21
-51.48460664988397
 31
0.0
  0
LINE
  5
DA70
330
18
100
AcDbEntity
  8
DETAIL
100
AcDbLine
 10
-179.6462876695982
 20
-46.48610114989515
 30
0.0
 11
-179.6462876695982
 21
-51.48460664988397
 31
0.0
  0
LINE
  5
DA71
330
18
100
AcDbEntity
  8
DETAIL
100
AcDbLine
 10
-178.4466463496014
 20
-46.48610114989515
 30
0.0
 11
-178.4466463496014
 21
-51.48460664988397
 31
0.0
  0
LINE
  5
DA72
330
18
100
AcDbEntity
  8
DETAIL
100
AcDbLine
 10
-179.9461979995981
 20
-44.48669894989961
 30
0.0
 11
-179.9461979995981
 21
-46.48610114989515
 31
0.0
  0
LINE
  5
DA73
330
18
100
AcDbEntity
  8
DETAIL
100
AcDbLine
 10
-179.0464670095998
 20
-51.48460664988397
 30
0.0
 11
-179.6462876695982
 21
-51.48460664988397
 31
0.0
  0
LINE
  5
DA74
330
18
100
AcDbEntity
  8
DETAIL
100
AcDbLine
 10
-178.4466463496014
 20
-51.48460664988397
 30
0.0
 11
-179.0464670095998
 21
-51.48460664988397
 31
0.0
  0
LINE
  5
DA75
330
18
100
AcDbEntity
  8
DETAIL
100
AcDbLine
 10
-178.4466463496014
 20
-46.48610114989515
 30
0.0
 11
-179.6462876695982
 21
-46.48610114989515
 31
0.0
  0
LINE
  5
DA76
330
18
100
AcDbEntity
  8
DETAIL
100
AcDbLine
 10
-179.9461979995981
 20
-46.48610114989515
 30
0.0
 11
-179.6462876695982
 21
-46.48610114989515
 31
0.0
  0
LINE
  5
DA78
330
18
100
AcDbEntity
  8
DETAIL
100
AcDbLine
 10
180.246108329597
 20
-129.4612924497105
 30
0.0
 11
180.246108329597
 21
-134.4597979496993
 31
0.0
  0
LINE
  5
DA79
330
18
100
AcDbEntity
  8
DETAIL
100
AcDbLine
 10
181.4457496495943
 20
-134.4597979496993
 30
0.0
 11
180.246108329597
 21
-134.4597979496993
 31
0.0
  0
LINE
  5
DA7A
330
18
100
AcDbEntity
  8
DETAIL
100
AcDbLine
 10
180.246108329597
 20
-134.4597979496993
 30
0.0
 11
179.9461979995976
 21
-134.4597979496993
 31
0.0
  0
LINE
  5
DA7B
330
18
100
AcDbEntity
  8
DETAIL
100
AcDbLine
 10
179.9461979995976
 20
-134.4597979496993
 30
0.0
 11
179.9461979995976
 21
-136.4592001496948
 31
0.0
  0
LINE
  5
DA7C
330
18
100
AcDbEntity
  8
DETAIL
100
AcDbLine
 10
180.246108329597
 20
-129.4612924497105
 30
0.0
 11
178.9464968995998
 21
-129.4612924497105
 31
0.0
  0
LINE
  5
DA7D
330
18
100
AcDbEntity
  8
DETAIL
100
AcDbLine
 10
181.4457496495943
 20
-129.4612924497105
 30
0.0
 11
181.4457496495943
 21
-134.4597979496993
 31
0.0
  0
LINE
  5
DA7E
330
18
100
AcDbEntity
  8
DETAIL
100
AcDbLine
 10
180.8459289895954
 20
-129.4612924497105
 30
0.0
 11
180.246108329597
 21
-129.4612924497105
 31
0.0
  0
LINE
  5
DA7F
330
18
100
AcDbEntity
  8
DETAIL
100
AcDbLine
 10
181.4457496495943
 20
-129.4612924497105
 30
0.0
 11
180.8459289895954
 21
-129.4612924497105
 31
0.0
  0
LINE
  5
DA80
330
18
100
AcDbEntity
  8
DETAIL
100
AcDbLine
 10
181.4457496495943
 20
-51.48460664988397
 30
0.0
 11
181.4457496495943
 21
-129.4612924497105
 31
0.0
  0
LINE
  5
DA82
330
18
100
AcDbEntity
  8
DETAIL
100
AcDbLine
 10
60.2819763298653
 20
-129.4612924497105
 30
0.0
 11
60.2819763298653
 21
-134.4597979496993
 31
0.0
  0
LINE
  5
DA83
330
18
100
AcDbEntity
  8
DETAIL
100
AcDbLine
 10
61.48161764986252
 20
-134.4597979496993
 30
0.0
 11
60.2819763298653
 21
-134.4597979496993
 31
0.0
  0
LINE
  5
DA84
330
18
100
AcDbEntity
  8
DETAIL
100
AcDbLine
 10
60.2819763298653
 20
-134.4597979496993
 30
0.0
 11
59.98206599986588
 21
-134.4597979496993
 31
0.0
  0
LINE
  5
DA85
330
18
100
AcDbEntity
  8
DETAIL
100
AcDbLine
 10
59.98206599986588
 20
-134.4597979496993
 30
0.0
 11
59.98206599986588
 21
-136.4592001496948
 31
0.0
  0
LINE
  5
DA86
330
18
100
AcDbEntity
  8
DETAIL
100
AcDbLine
 10
60.2819763298653
 20
-129.4612924497105
 30
0.0
 11
58.98236489986811
 21
-129.4612924497105
 31
0.0
  0
LINE
  5
DA87
330
18
100
AcDbEntity
  8
DETAIL
100
AcDbLine
 10
61.48161764986252
 20
-129.4612924497105
 30
0.0
 11
61.48161764986252
 21
-134.4597979496993
 31
0.0
  0
LINE
  5
DA88
330
18
100
AcDbEntity
  8
DETAIL
100
AcDbLine
 10
60.88179698986369
 20
-129.4612924497105
 30
0.0
 11
60.2819763298653
 21
-129.4612924497105
 31
0.0
  0
LINE
  5
DA89
330
18
100
AcDbEntity
  8
DETAIL
100
AcDbLine
 10
61.48161764986252
 20
-129.4612924497105
 30
0.0
 11
60.88179698986369
 21
-129.4612924497105
 31
0.0
  0
LINE
  5
DA8A
330
18
100
AcDbEntity
  8
DETAIL
100
AcDbLine
 10
61.48161764986252
 20
-51.48460664988397
 30
0.0
 11
61.48161764986252
 21
-129.4612924497105
 31
0.0
  0
LINE
  5
DA8B
330
18
100
AcDbEntity
  8
DETAIL
100
AcDbLine
 10
-58.48251434986924
 20
-51.48460664988397
 30
0.0
 11
-58.48251434986924
 21
-129.4612924497105
 31
0.0
  0
LINE
  5
DA8C
330
18
100
AcDbEntity
  8
DETAIL
100
AcDbLine
 10
-59.68215566986646
 20
-129.4612924497105
 30
0.0
 11
-59.68215566986646
 21
-134.4597979496993
 31
0.0
  0
LINE
  5
DA8D
330
18
100
AcDbEntity
  8
DETAIL
100
AcDbLine
 10
-58.48251434986924
 20
-134.4597979496993
 30
0.0
 11
-59.68215566986646
 21
-134.4597979496993
 31
0.0
  0
LINE
  5
DA8E
330
18
100
AcDbEntity
  8
DETAIL
100
AcDbLine
 10
-59.68215566986646
 20
-134.4597979496993
 30
0.0
 11
-59.98206599986588
 21
-134.4597979496993
 31
0.0
  0
LINE
  5
DA8F
330
18
100
AcDbEntity
  8
DETAIL
100
AcDbLine
 10
-59.98206599986588
 20
-134.4597979496993
 30
0.0
 11
-59.98206599986588
 21
-136.4592001496948
 31
0.0
  0
LINE
  5
DA90
330
18
100
AcDbEntity
  8
DETAIL
100
AcDbLine
 10
-59.08233500986807
 20
-129.4612924497105
 30
0.0
 11
-59.68215566986646
 21
-129.4612924497105
 31
0.0
  0
LINE
  5
DA91
330
18
100
AcDbEntity
  8
DETAIL
100
AcDbLine
 10
-58.48251434986924
 20
-129.4612924497105
 30
0.0
 11
-59.08233500986807
 21
-129.4612924497105
 31
0.0
  0
LINE
  5
DA92
330
18
100
AcDbEntity
  8
DETAIL
100
AcDbLine
 10
-58.48251434986924
 20
-129.4612924497105
 30
0.0
 11
-58.48251434986924
 21
-134.4597979496993
 31
0.0
  0
LINE
  5
DA93
330
18
100
AcDbEntity
  8
DETAIL
100
AcDbLine
 10
-59.68215566986646
 20
-129.4612924497105
 30
0.0
 11
-60.98176709986365
 21
-129.4612924497105
 31
0.0
  0
LINE
  5
DA95
330
18
100
AcDbEntity
  8
DETAIL
100
AcDbLine
 10
-58.48251434986924
 20
-46.48610114989515
 30
0.0
 11
-59.68215566986646
 21
-46.48610114989515
 31
0.0
  0
LINE
  5
DA96
330
18
100
AcDbEntity
  8
DETAIL
100
AcDbLine
 10
-59.98206599986588
 20
-46.48610114989515
 30
0.0
 11
-59.68215566986646
 21
-46.48610114989515
 31
0.0
  0
LINE
  5
DA97
330
18
100
AcDbEntity
  8
DETAIL
100
AcDbLine
 10
-58.48251434986924
 20
-51.48460664988397
 30
0.0
 11
-59.08233500986807
 21
-51.48460664988397
 31
0.0
  0
LINE
  5
DA98
330
18
100
AcDbEntity
  8
DETAIL
100
AcDbLine
 10
-58.48251434986924
 20
-46.48610114989515
 30
0.0
 11
-58.48251434986924
 21
-51.48460664988397
 31
0.0
  0
LINE
  5
DA99
330
18
100
AcDbEntity
  8
DETAIL
100
AcDbLine
 10
-59.98206599986588
 20
-44.48669894989961
 30
0.0
 11
-59.98206599986588
 21
-46.48610114989515
 31
0.0
  0
LINE
  5
DA9A
330
18
100
AcDbEntity
  8
DETAIL
100
AcDbLine
 10
-59.08233500986807
 20
-51.48460664988397
 30
0.0
 11
-59.68215566986646
 21
-51.48460664988397
 31
0.0
  0
LINE
  5
DA9B
330
18
100
AcDbEntity
  8
DETAIL
100
AcDbLine
 10
-60.98176709986365
 20
-51.48460664988397
 30
0.0
 11
-59.68215566986646
 21
-51.48460664988397
 31
0.0
  0
LINE
  5
DA9C
330
18
100
AcDbEntity
  8
DETAIL
100
AcDbLine
 10
-59.68215566986646
 20
-46.48610114989515
 30
0.0
 11
-59.68215566986646
 21
-51.48460664988397
 31
0.0
  0
LINE
  5
DA9D
330
18
100
AcDbEntity
  8
DETAIL
100
AcDbLine
 10
-178.4466463496014
 20
-51.48460664988397
 30
0.0
 11
-178.4466463496014
 21
-129.4612924497105
 31
0.0
  0
LINE
  5
DA9E
330
18
100
AcDbEntity
  8
DETAIL
100
AcDbLine
 10
-179.6462876695982
 20
-129.4612924497105
 30
0.0
 11
-179.6462876695982
 21
-134.4597979496993
 31
0.0
  0
LINE
  5
DA9F
330
18
100
AcDbEntity
  8
DETAIL
100
AcDbLine
 10
-178.4466463496014
 20
-134.4597979496993
 30
0.0
 11
-179.6462876695982
 21
-134.4597979496993
 31
0.0
  0
LINE
  5
DAA0
330
18
100
AcDbEntity
  8
DETAIL
100
AcDbLine
 10
-179.6462876695982
 20
-134.4597979496993
 30
0.0
 11
-179.9461979995981
 21
-134.4597979496993
 31
0.0
  0
LINE
  5
DAA1
330
18
100
AcDbEntity
  8
DETAIL
100
AcDbLine
 10
-179.9461979995981
 20
-134.4597979496993
 30
0.0
 11
-179.9461979995981
 21
-136.4592001496948
 31
0.0
  0
LINE
  5
DAA2
330
18
100
AcDbEntity
  8
DETAIL
100
AcDbLine
 10
-179.6462876695982
 20
-129.4612924497105
 30
0.0
 11
-180.9458990995958
 21
-129.4612924497105
 31
0.0
  0
LINE
  5
DAA3
330
18
100
AcDbEntity
  8
DETAIL
100
AcDbLine
 10
-178.4466463496014
 20
-129.4612924497105
 30
0.0
 11
-178.4466463496014
 21
-134.4597979496993
 31
0.0
  0
LINE
  5
DAA4
330
18
100
AcDbEntity
  8
DETAIL
100
AcDbLine
 10
-179.0464670095998
 20
-129.4612924497105
 30
0.0
 11
-179.6462876695982
 21
-129.4612924497105
 31
0.0
  0
LINE
  5
DAA5
330
18
100
AcDbEntity
  8
DETAIL
100
AcDbLine
 10
-178.4466463496014
 20
-129.4612924497105
 30
0.0
 11
-179.0464670095998
 21
-129.4612924497105
 31
0.0
  0
LINE
  5
DAA7
330
18
100
AcDbEntity
  8
DETAIL
100
AcDbLine
 10
181.4457496495943
 20
-46.48610114989515
 30
0.0
 11
180.246108329597
 21
-46.48610114989515
 31
0.0
  0
LINE
  5
DAA8
330
18
100
AcDbEntity
  8
DETAIL
100
AcDbLine
 10
179.9461979995976
 20
-46.48610114989515
 30
0.0
 11
180.246108329597
 21
-46.48610114989515
 31
0.0
  0
LINE
  5
DAA9
330
18
100
AcDbEntity
  8
DETAIL
100
AcDbLine
 10
178.9464968995998
 20
-51.48460664988397
 30
0.0
 11
180.246108329597
 21
-51.48460664988397
 31
0.0
  0
LINE
  5
DAAA
330
18
100
AcDbEntity
  8
DETAIL
100
AcDbLine
 10
180.246108329597
 20
-46.48610114989515
 30
0.0
 11
180.246108329597
 21
-51.48460664988397
 31
0.0
  0
LINE
  5
DAAB
330
18
100
AcDbEntity
  8
DETAIL
100
AcDbLine
 10
181.4457496495943
 20
-46.48610114989515
 30
0.0
 11
181.4457496495943
 21
-51.48460664988397
 31
0.0
  0
LINE
  5
DAAC
330
18
100
AcDbEntity
  8
DETAIL
100
AcDbLine
 10
181.4457496495943
 20
-51.48460664988397
 30
0.0
 11
180.8459289895954
 21
-51.48460664988397
 31
0.0
  0
LINE
  5
DAAD
330
18
100
AcDbEntity
  8
DETAIL
100
AcDbLine
 10
179.9461979995976
 20
-44.48669894989961
 30
0.0
 11
179.9461979995976
 21
-46.48610114989515
 31
0.0
  0
LINE
  5
DAAE
330
18
100
AcDbEntity
  8
DETAIL
100
AcDbLine
 10
59.98206599986588
 20
-44.48669894989961
 30
0.0
 11
59.98206599986588
 21
-46.48610114989515
 31
0.0
  0
LINE
  5
DAAF
330
18
100
AcDbEntity
  8
DETAIL
100
AcDbLine
 10
61.48161764986252
 20
-46.48610114989515
 30
0.0
 11
61.48161764986252
 21
-51.48460664988397
 31
0.0
  0
LINE
  5
DAB0
330
18
100
AcDbEntity
  8
DETAIL
100
AcDbLine
 10
60.2819763298653
 20
-46.48610114989515
 30
0.0
 11
60.2819763298653
 21
-51.48460664988397
 31
0.0
  0
LINE
  5
DAB1
330
18
100
AcDbEntity
  8
DETAIL
100
AcDbLine
 10
61.48161764986252
 20
-51.48460664988397
 30
0.0
 11
60.88179698986369
 21
-51.48460664988397
 31
0.0
  0
LINE
  5
DAB2
330
18
100
AcDbEntity
  8
DETAIL
100
AcDbLine
 10
60.88179698986369
 20
-51.48460664988397
 30
0.0
 11
60.2819763298653
 21
-51.48460664988397
 31
0.0
  0
LINE
  5
DAB3
330
18
100
AcDbEntity
  8
DETAIL
100
AcDbLine
 10
58.98236489986811
 20
-51.48460664988397
 30
0.0
 11
60.2819763298653
 21
-51.48460664988397
 31
0.0
  0
LINE
  5
DAB4
330
18
100
AcDbEntity
  8
DETAIL
100
AcDbLine
 10
61.48161764986252
 20
-46.48610114989515
 30
0.0
 11
60.2819763298653
 21
-46.48610114989515
 31
0.0
  0
LINE
  5
DAB5
330
18
100
AcDbEntity
  8
DETAIL
100
AcDbLine
 10
59.98206599986588
 20
-46.48610114989515
 30
0.0
 11
60.2819763298653
 21
-46.48610114989515
 31
0.0
  0
LINE
  5
DAB6
330
18
100
AcDbEntity
  8
DETAIL
100
AcDbLine
 10
180.8459289895954
 20
-51.48460664988397
 30
0.0
 11
180.246108329597
 21
-51.48460664988397
 31
0.0
  0
LINE
  5
DAB7
330
18
100
AcDbEntity
  8
DETAIL
100
AcDbLine
 10
-319.8543669442847
 20
31.6905248699295
 30
0.0
 11
-319.8543669442847
 21
31.89046508992851
 31
0.0
  0
LINE
  5
DAB8
330
18
100
AcDbEntity
  8
DETAIL
100
AcDbLine
 10
317.9049497992891
 20
-160.4520265496412
 30
0.0
 11
-318.1048900192886
 21
-160.4520265496412
 31
0.0
  0
LINE
  5
DAB9
330
18
100
AcDbEntity
  8
DETAIL
100
AcDbLine
 10
334.4999880592522
 20
21.69351386995185
 30
0.0
 11
334.4999880592522
 21
-149.6552546696648
 31
0.0
  0
LINE
  5
DABA
330
18
100
AcDbEntity
  8
DETAIL
100
AcDbLine
 10
-299.9103299993298
 20
47.48580224989382
 30
0.0
 11
-315.6556223242946
 21
47.48580224989382
 31
0.0
  0
LINE
  5
DABB
330
18
100
AcDbEntity
  8
DETAIL
100
AcDbLine
 10
318.6547256242866
 20
31.6905248699295
 30
0.0
 11
317.9049497992891
 21
31.6905248699295
 31
0.0
  0
LINE
  5
DABC
330
18
100
AcDbEntity
  8
DETAIL
100
AcDbLine
 10
318.6547256242874
 20
44.48669894990053
 30
0.0
 11
318.6547256242874
 21
33.68992706992503
 31
0.0
  0
LINE
  5
DABD
330
18
100
AcDbEntity
  8
DETAIL
100
AcDbLine
 10
318.6547256242874
 20
33.68992706992503
 30
0.0
 11
318.6547256242874
 21
33.09010640992619
 31
0.0
  0
LINE
  5
DABE
330
18
100
AcDbEntity
  8
DETAIL
100
AcDbLine
 10
317.9049497992891
 20
33.09010640992619
 30
0.0
 11
318.6547256242874
 21
33.09010640992619
 31
0.0
  0
LINE
  5
DABF
330
18
100
AcDbEntity
  8
DETAIL
100
AcDbLine
 10
317.9049497992891
 20
32.49028574992735
 30
0.0
 11
318.6547256242874
 21
32.49028574992735
 31
0.0
  0
LINE
  5
DAC0
330
18
100
AcDbEntity
  8
DETAIL
100
AcDbLine
 10
299.9103299993294
 20
47.48580224989382
 30
0.0
 11
-299.9103299993298
 21
47.48580224989382
 31
0.0
  0
LINE
  5
DAC1
330
18
100
AcDbEntity
  8
DETAIL
100
AcDbLine
 10
317.9049497992891
 20
-161.05184720964
 30
0.0
 11
318.6547256242874
 21
-161.05184720964
 31
0.0
  0
LINE
  5
DAC2
330
18
100
AcDbEntity
  8
DETAIL
100
AcDbLine
 10
-318.1048900192886
 20
-161.6516678696389
 30
0.0
 11
-318.6547256242879
 21
-161.6516678696389
 31
0.0
  0
LINE
  5
DAC3
330
18
100
AcDbEntity
  8
DETAIL
100
AcDbLine
 10
317.9049497992891
 20
-161.05184720964
 30
0.0
 11
317.9049497992891
 21
-160.4520265496412
 31
0.0
  0
LINE
  5
DAC4
330
18
100
AcDbEntity
  8
DETAIL
100
AcDbLine
 10
-299.9103299993298
 20
-161.6516678696389
 30
0.0
 11
-318.1048900192886
 21
-161.6516678696389
 31
0.0
  0
LINE
  5
DAC5
330
18
100
AcDbEntity
  8
DETAIL
100
AcDbLine
 10
299.9103299993294
 20
-161.6516678696389
 30
0.0
 11
-299.9103299993298
 21
-161.6516678696389
 31
0.0
  0
LINE
  5
DAC6
330
18
100
AcDbEntity
  8
DETAIL
100
AcDbLine
 10
317.9049497992891
 20
-161.6516678696389
 30
0.0
 11
299.9103299993294
 21
-161.6516678696389
 31
0.0
  0
LINE
  5
DAC7
330
18
100
AcDbEntity
  8
DETAIL
100
AcDbLine
 10
-318.1048900192886
 20
-161.05184720964
 30
0.0
 11
-318.1048900192886
 21
-160.4520265496412
 31
0.0
  0
LINE
  5
DAC8
330
18
100
AcDbEntity
  8
DETAIL
100
AcDbLine
 10
-318.1048900192886
 20
-161.6516678696389
 30
0.0
 11
-318.1048900192886
 21
-161.05184720964
 31
0.0
  0
LINE
  5
DAC9
330
18
100
AcDbEntity
  8
DETAIL
100
AcDbLine
 10
317.9049497992891
 20
-161.6516678696389
 30
0.0
 11
317.9049497992891
 21
-161.05184720964
 31
0.0
  0
LINE
  5
DACA
330
18
100
AcDbEntity
  8
DETAIL
100
AcDbLine
 10
-318.1048900192886
 20
-161.05184720964
 30
0.0
 11
-318.6547256242879
 21
-161.05184720964
 31
0.0
  0
LINE
  5
DACB
330
18
100
AcDbEntity
  8
DETAIL
100
AcDbLine
 10
317.9049497992891
 20
-161.6516678696389
 30
0.0
 11
318.6547256242874
 21
-161.6516678696389
 31
0.0
  0
LINE
  5
DACC
330
18
100
AcDbEntity
  8
DETAIL
100
AcDbLine
 10
319.2545462842863
 20
31.6905248699295
 30
0.0
 11
319.2545462842863
 21
31.89046508992851
 31
0.0
  0
LINE
  5
DACD
330
18
100
AcDbEntity
  8
DETAIL
100
AcDbLine
 10
319.3045313392858
 20
31.6905248699295
 30
0.0
 11
320.5041726592835
 21
31.6905248699295
 31
0.0
  0
LINE
  5
DACE
330
18
100
AcDbEntity
  8
DETAIL
100
AcDbLine
 10
320.5041726592821
 20
-136.4592001496948
 30
0.0
 11
320.5041726592835
 21
-159.6522656696424
 31
0.0
  0
LINE
  5
DACF
330
18
100
AcDbEntity
  8
DETAIL
100
AcDbLine
 10
321.3039335392814
 20
-159.6522656696424
 30
0.0
 11
320.5041726592835
 21
-159.6522656696424
 31
0.0
  0
LINE
  5
DAD0
330
18
100
AcDbEntity
  8
DETAIL
100
AcDbLine
 10
324.5029770592746
 20
-159.6522656696424
 30
0.0
 11
321.3039335392814
 21
-159.6522656696424
 31
0.0
  0
LINE
  5
DAD1
330
18
100
AcDbEntity
  8
DETAIL
100
AcDbLine
 10
320.5041726592821
 20
-44.48669894989961
 30
0.0
 11
320.5041726592821
 21
-136.4592001496948
 31
0.0
  0
LINE
  5
DAD2
330
18
100
AcDbEntity
  8
DETAIL
100
AcDbLine
 10
320.5041726592835
 20
31.6905248699295
 30
0.0
 11
320.5041726592821
 21
-44.48669894989961
 31
0.0
  0
LINE
  5
DAD3
330
18
100
AcDbEntity
  8
DETAIL
100
AcDbLine
 10
318.6547256242866
 20
31.6905248699295
 30
0.0
 11
319.3045313392858
 21
31.6905248699295
 31
0.0
  0
LINE
  5
DAD4
330
18
100
AcDbEntity
  8
DETAIL
100
AcDbLine
 10
320.5041726592835
 20
31.6905248699295
 30
0.0
 11
321.3039335392814
 21
31.6905248699295
 31
0.0
  0
LINE
  5
DAD5
330
18
100
AcDbEntity
  8
DETAIL
100
AcDbLine
 10
319.8543669442847
 20
31.89046508992851
 30
0.0
 11
319.8543669442847
 21
31.6905248699295
 31
0.0
  0
LINE
  5
DAD8
330
18
100
AcDbEntity
  8
DETAIL
100
AcDbLine
 10
-313.1063845192997
 20
-44.48669894990143
 30
0.0
 11
-320.5041726592835
 21
-44.48669894990143
 31
0.0
  0
LINE
  5
DAD9
330
18
100
AcDbEntity
  8
DETAIL
100
AcDbLine
 10
-313.1063845192997
 20
-136.4592001496957
 30
0.0
 11
-320.5041726592835
 21
-136.4592001496957
 31
0.0
  0
LINE
  5
DADA
330
18
100
AcDbEntity
  8
DETAIL
100
AcDbLine
 10
-320.5041726592835
 20
-136.4592001496957
 30
0.0
 11
-320.5041726592835
 21
-44.48669894990143
 31
0.0
  0
LINE
  5
DADB
330
18
100
AcDbEntity
  8
DETAIL
100
AcDbLine
 10
-299.9103299993298
 20
-136.4592001496957
 30
0.0
 11
-303.1093735193221
 21
-136.4592001496957
 31
0.0
  0
LINE
  5
DADC
330
18
100
AcDbEntity
  8
DETAIL
100
AcDbLine
 10
-296.2479772874553
 20
-44.48669894990143
 30
0.0
 11
-303.1093735193221
 21
-44.48669894990143
 31
0.0
  0
LINE
  5
DADD
330
18
100
AcDbEntity
  8
DETAIL
100
AcDbLine
 10
-296.2479772874553
 20
-44.48669894990143
 30
0.0
 11
-295.7115853793388
 21
-44.48669894990143
 31
0.0
  0
LINE
  5
DADE
330
18
100
AcDbEntity
  8
DETAIL
100
AcDbLine
 10
-295.7115853793388
 20
-136.4592001496957
 30
0.0
 11
-299.6552256588056
 21
-136.4592001496957
 31
0.0
  0
LINE
  5
DADF
330
18
100
AcDbEntity
  8
DETAIL
100
AcDbLine
 10
-299.6552256588056
 20
-136.4592001496957
 30
0.0
 11
-299.9103299993298
 21
-136.4592001496957
 31
0.0
  0
LINE
  5
DAE0
330
18
100
AcDbEntity
  8
DETAIL
100
AcDbLine
 10
-295.7115853793388
 20
-44.48669894990143
 30
0.0
 11
-295.7115853793388
 21
-136.4592001496957
 31
0.0
  0
ARC
  5
DAE1
330
18
100
AcDbEntity
  8
DETAIL
100
AcDbCircle
 10
-324.5029770592746
 20
21.69351386995185
 30
0.0
 40
9.997010999977616
100
AcDbArc
 50
90.0
 51
180.0
  0
ARC
  5
DAE2
330
18
100
AcDbEntity
  8
DETAIL
100
AcDbCircle
 10
-324.5029770592746
 20
-149.6552546696648
 30
0.0
 40
9.997010999977646
100
AcDbArc
 50
180.0
 51
270.0
  0
LINE
  5
DAE3
330
18
100
AcDbEntity
  8
DETAIL
100
AcDbLine
 10
-324.5029770592746
 20
31.6905248699295
 30
0.0
 11
-321.1039933192819
 21
31.69052486992859
 31
0.0
  0
LINE
  5
DAE4
330
18
100
AcDbEntity
  8
DETAIL
100
AcDbLine
 10
-320.5041726592835
 20
31.69052486992859
 30
0.0
 11
-319.3045313392863
 21
31.6905248699295
 31
0.0
  0
LINE
  5
DAE5
330
18
100
AcDbEntity
  8
DETAIL
100
AcDbLine
 10
-321.1039933192819
 20
-159.6522656696424
 30
0.0
 11
-320.5041726592835
 21
-159.6522656696433
 31
0.0
  0
LINE
  5
DAE6
330
18
100
AcDbEntity
  8
DETAIL
100
AcDbLine
 10
-321.1039933192819
 20
31.69052486992859
 30
0.0
 11
-320.5041726592835
 21
31.69052486992859
 31
0.0
  0
LINE
  5
DAE7
330
18
100
AcDbEntity
  8
DETAIL
100
AcDbLine
 10
-319.2545462842863
 20
31.6905248699295
 30
0.0
 11
-318.6547256242879
 21
31.6905248699295
 31
0.0
  0
LINE
  5
DAE8
330
18
100
AcDbEntity
  8
DETAIL
100
AcDbLine
 10
-319.3045313392863
 20
31.6905248699295
 30
0.0
 11
-319.2545462842863
 21
31.6905248699295
 31
0.0
  0
LINE
  5
DAE9
330
18
100
AcDbEntity
  8
DETAIL
100
AcDbLine
 10
-321.1039933192819
 20
-159.6522656696424
 30
0.0
 11
-324.5029770592746
 21
-159.6522656696424
 31
0.0
  0
LINE
  5
DAEA
330
18
100
AcDbEntity
  8
DETAIL
100
AcDbLine
 10
-334.4999880592522
 20
-149.6552546696648
 30
0.0
 11
-334.4999880592522
 21
21.69351386995185
 31
0.0
  0
LINE
  5
DAEB
330
18
100
AcDbEntity
  8
DETAIL
100
AcDbLine
 10
-318.6547256242879
 20
32.49028574992735
 30
0.0
 11
-318.6547256242879
 21
31.6905248699295
 31
0.0
  0
LINE
  5
DAEC
330
18
100
AcDbEntity
  8
DETAIL
100
AcDbLine
 10
-318.6547256242879
 20
33.68992706992503
 30
0.0
 11
-318.6547256242879
 21
44.48669894990053
 31
0.0
  0
LINE
  5
DAED
330
18
100
AcDbEntity
  8
DETAIL
100
AcDbLine
 10
-318.6547256242879
 20
33.68992706992503
 30
0.0
 11
-318.6547256242879
 21
33.09010640992619
 31
0.0
  0
LINE
  5
DAF0
330
18
100
AcDbEntity
  8
DETAIL
100
AcDbLine
 10
-299.9103299993298
 20
47.48580224989382
 30
0.0
 11
-315.6556223242946
 21
47.48580224989382
 31
0.0
  0
LINE
  5
DAF1
330
18
100
AcDbEntity
  8
DETAIL
100
AcDbLine
 10
295.7115853793379
 20
-136.4592001496957
 30
0.0
 11
295.7115853793379
 21
-44.48669894990143
 31
0.0
  0
LINE
  5
DAF2
330
18
100
AcDbEntity
  8
DETAIL
100
AcDbLine
 10
299.6552256588042
 20
-136.4592001496957
 30
0.0
 11
295.7115853793379
 21
-136.4592001496957
 31
0.0
  0
LINE
  5
DAF3
330
18
100
AcDbEntity
  8
DETAIL
100
AcDbLine
 10
299.9103299993294
 20
-136.4592001496957
 30
0.0
 11
299.6552256588042
 21
-136.4592001496957
 31
0.0
  0
LINE
  5
DAF4
330
18
100
AcDbEntity
  8
DETAIL
100
AcDbLine
 10
295.7115853793379
 20
-44.48669894990143
 30
0.0
 11
296.2479772874553
 21
-44.48669894990143
 31
0.0
  0
LINE
  5
DAF5
330
18
100
AcDbEntity
  8
DETAIL
100
AcDbLine
 10
303.1093735193226
 20
-44.48669894990143
 30
0.0
 11
296.2479772874553
 21
-44.48669894990143
 31
0.0
  0
LINE
  5
DAF6
330
18
100
AcDbEntity
  8
DETAIL
100
AcDbLine
 10
303.1093735193226
 20
-136.4592001496957
 30
0.0
 11
299.9103299993294
 21
-136.4592001496957
 31
0.0
  0
LINE
  5
DAF7
330
18
100
AcDbEntity
  8
DETAIL
100
AcDbLine
 10
320.5041726592821
 20
-136.4592001496957
 30
0.0
 11
313.1063845192997
 21
-136.4592001496957
 31
0.0
  0
LINE
  5
DAF8
330
18
100
AcDbEntity
  8
DETAIL
100
AcDbLine
 10
320.5041726592821
 20
-44.48669894990143
 30
0.0
 11
313.1063845192997
 21
-44.48669894990143
 31
0.0
  0
LINE
  5
DAF9
330
18
100
AcDbEntity
  8
DETAIL
100
AcDbLine
 10
320.5041726592821
 20
-44.48669894990143
 30
0.0
 11
320.5041726592821
 21
-136.4592001496957
 31
0.0
  0
ARC
  5
DAFA
330
18
100
AcDbEntity
  8
DETAIL
100
AcDbCircle
 10
324.5029770592741
 20
-149.6552546696639
 30
0.0
 40
9.997010999977646
100
AcDbArc
 50
270.0
 51
0.0
  0
ARC
  5
DAFB
330
18
100
AcDbEntity
  8
DETAIL
100
AcDbCircle
 10
324.5029770592741
 20
21.69351386995276
 30
0.0
 40
9.997010999977646
100
AcDbArc
 50
0.0
 51
90.0
  0
LINE
  5
DAFC
330
18
100
AcDbEntity
  8
DETAIL
100
AcDbLine
 10
321.3039335392809
 20
31.69052486993041
 30
0.0
 11
324.5029770592741
 21
31.69052486993041
 31
0.0
  0
LINE
  5
DAFD
330
18
100
AcDbEntity
  8
DETAIL
100
AcDbLine
 10
299.9103299993289
 20
47.48580224989473
 30
0.0
 11
315.6556223242937
 21
47.48580224989473
 31
0.0
  0
LINE
  5
DAFE
330
18
100
AcDbEntity
  8
DETAIL
100
AcDbLine
 10
334.4999880592518
 20
21.69351386995276
 30
0.0
 11
334.4999880592518
 21
-149.6552546696639
 31
0.0
  0
LINE
  5
DAFF
330
18
100
AcDbEntity
  8
DETAIL
100
AcDbLine
 10
318.654725624287
 20
32.49028574992826
 30
0.0
 11
318.6547256242861
 21
31.69052486993041
 31
0.0
  0
LINE
  5
DB02
330
18
100
AcDbEntity
  8
DETAIL
100
AcDbLine
 10
318.654725624287
 20
33.68992706992594
 30
0.0
 11
318.654725624287
 21
33.0901064099271
 31
0.0
  0
LINE
  5
DB04
330
18
100
AcDbEntity
  8
DETAIL
100
AcDbLine
 10
319.3045313392854
 20
31.69052486993041
 30
0.0
 11
320.504172659283
 21
31.69052486993041
 31
0.0
  0
LINE
  5
DB05
330
18
100
AcDbEntity
  8
DETAIL
100
AcDbLine
 10
321.3039335392809
 20
-159.6522656696415
 30
0.0
 11
320.504172659283
 21
-159.6522656696415
 31
0.0
  0
LINE
  5
DB06
330
18
100
AcDbEntity
  8
DETAIL
100
AcDbLine
 10
324.5029770592741
 20
-159.6522656696415
 30
0.0
 11
321.3039335392809
 21
-159.6522656696415
 31
0.0
  0
LINE
  5
DB07
330
18
100
AcDbEntity
  8
DETAIL
100
AcDbLine
 10
318.6547256242861
 20
31.69052486993041
 30
0.0
 11
319.3045313392854
 21
31.69052486993041
 31
0.0
  0
LINE
  5
DB08
330
18
100
AcDbEntity
  8
DETAIL
100
AcDbLine
 10
320.504172659283
 20
31.69052486993041
 30
0.0
 11
321.3039335392809
 21
31.69052486993041
 31
0.0
  0
LINE
  5
DB09
330
18
100
AcDbEntity
  8
DETAIL
100
AcDbLine
 10
-179.9461979995981
 20
-44.48669894990143
 30
0.0
 11
-174.9476924996092
 21
-44.48669894990143
 31
0.0
  0
LINE
  5
DB0A
330
18
100
AcDbEntity
  8
DETAIL
100
AcDbLine
 10
-195.9414155995623
 20
-44.48669894990143
 30
0.0
 11
-190.4824397894713
 21
-44.48669894990143
 31
0.0
  0
LINE
  5
DB0B
330
18
100
AcDbEntity
  8
DETAIL
100
AcDbLine
 10
-190.4824397894713
 20
-44.48669894990143
 30
0.0
 11
-179.9461979995981
 21
-44.48669894990143
 31
0.0
  0
LINE
  5
DB0C
330
18
100
AcDbEntity
  8
DETAIL
100
AcDbLine
 10
-295.7115853793388
 20
-44.48669894990143
 30
0.0
 11
-195.9414155995623
 21
-44.48669894990143
 31
0.0
  0
LINE
  5
DB0D
330
18
100
AcDbEntity
  8
DETAIL
100
AcDbLine
 10
-296.2479772874553
 20
-44.48669894990143
 30
0.0
 11
-295.7115853793388
 21
-44.48669894990143
 31
0.0
  0
LINE
  5
DB0E
330
18
100
AcDbEntity
  8
DETAIL
100
AcDbLine
 10
184.9447034995864
 20
-136.4592001496967
 30
0.0
 11
179.9461979995976
 21
-136.4592001496967
 31
0.0
  0
LINE
  5
DB0F
330
18
100
AcDbEntity
  8
DETAIL
100
AcDbLine
 10
179.9461979995976
 20
-136.4592001496967
 30
0.0
 11
169.4099562097239
 21
-136.4592001496967
 31
0.0
  0
LINE
  5
DB10
330
18
100
AcDbEntity
  8
DETAIL
100
AcDbLine
 10
169.4099562097239
 20
-136.4592001496967
 30
0.0
 11
64.9805714998547
 21
-136.4592001496967
 31
0.0
  0
LINE
  5
DB11
330
18
100
AcDbEntity
  8
DETAIL
100
AcDbLine
 10
59.98206599986588
 20
-136.4592001496967
 30
0.0
 11
64.9805714998547
 21
-136.4592001496967
 31
0.0
  0
LINE
  5
DB12
330
18
100
AcDbEntity
  8
DETAIL
100
AcDbLine
 10
49.44582420999222
 20
-136.4592001496967
 30
0.0
 11
59.98206599986588
 21
-136.4592001496967
 31
0.0
  0
LINE
  5
DB13
330
18
100
AcDbEntity
  8
DETAIL
100
AcDbLine
 10
-54.98356049987705
 20
-136.4592001496967
 30
0.0
 11
49.44582420999222
 21
-136.4592001496967
 31
0.0
  0
LINE
  5
DB14
330
18
100
AcDbEntity
  8
DETAIL
100
AcDbLine
 10
-59.98206599986588
 20
-136.4592001496967
 30
0.0
 11
-54.98356049987705
 21
-136.4592001496967
 31
0.0
  0
LINE
  5
DB15
330
18
100
AcDbEntity
  8
DETAIL
100
AcDbLine
 10
-70.51830778973954
 20
-136.4592001496967
 30
0.0
 11
-59.98206599986588
 21
-136.4592001496967
 31
0.0
  0
LINE
  5
DB16
330
18
100
AcDbEntity
  8
DETAIL
100
AcDbLine
 10
-54.98356049987705
 20
-44.48669894990143
 30
0.0
 11
43.98684839990164
 21
-44.48669894990143
 31
0.0
  0
LINE
  5
DB17
330
18
100
AcDbEntity
  8
DETAIL
100
AcDbLine
 10
-174.9476924996092
 20
-44.48669894990143
 30
0.0
 11
-75.97728359983012
 21
-44.48669894990143
 31
0.0
  0
LINE
  5
DB18
330
18
100
AcDbEntity
  8
DETAIL
100
AcDbLine
 10
-59.98206599986588
 20
-44.48669894990143
 30
0.0
 11
-54.98356049987705
 21
-44.48669894990143
 31
0.0
  0
LINE
  5
DB19
330
18
100
AcDbEntity
  8
DETAIL
100
AcDbLine
 10
-75.97728359983012
 20
-44.48669894990143
 30
0.0
 11
-70.51830778973954
 21
-44.48669894990143
 31
0.0
  0
LINE
  5
DB1A
330
18
100
AcDbEntity
  8
DETAIL
100
AcDbLine
 10
-70.51830778973954
 20
-44.48669894990143
 30
0.0
 11
-59.98206599986588
 21
-44.48669894990143
 31
0.0
  0
LINE
  5
DB1B
330
18
100
AcDbEntity
  8
DETAIL
100
AcDbLine
 10
-70.51830778973954
 20
-136.4592001496967
 30
0.0
 11
-174.9476924996092
 21
-136.4592001496967
 31
0.0
  0
LINE
  5
DB1C
330
18
100
AcDbEntity
  8
DETAIL
100
AcDbLine
 10
-179.9461979995981
 20
-136.4592001496967
 30
0.0
 11
-174.9476924996092
 21
-136.4592001496967
 31
0.0
  0
LINE
  5
DB1D
330
18
100
AcDbEntity
  8
DETAIL
100
AcDbLine
 10
-190.4824397894713
 20
-136.4592001496967
 30
0.0
 11
-179.9461979995981
 21
-136.4592001496967
 31
0.0
  0
LINE
  5
DB1E
330
18
100
AcDbEntity
  8
DETAIL
100
AcDbLine
 10
-299.6552256588056
 20
-136.4592001496967
 30
0.0
 11
-299.9103299993298
 21
-136.4592001496967
 31
0.0
  0
LINE
  5
DB1F
330
18
100
AcDbEntity
  8
DETAIL
100
AcDbLine
 10
-190.4824397894713
 20
-136.4592001496967
 30
0.0
 11
-295.7115853793388
 21
-136.4592001496967
 31
0.0
  0
LINE
  5
DB20
330
18
100
AcDbEntity
  8
DETAIL
100
AcDbLine
 10
184.9447034995864
 20
-44.48669894990143
 30
0.0
 11
295.7115853793379
 21
-44.48669894990143
 31
0.0
  0
LINE
  5
DB21
330
18
100
AcDbEntity
  8
DETAIL
100
AcDbLine
 10
59.98206599986588
 20
-44.48669894990143
 30
0.0
 11
64.9805714998547
 21
-44.48669894990143
 31
0.0
  0
LINE
  5
DB22
330
18
100
AcDbEntity
  8
DETAIL
100
AcDbLine
 10
179.9461979995976
 20
-44.48669894990143
 30
0.0
 11
184.9447034995864
 21
-44.48669894990143
 31
0.0
  0
LINE
  5
DB23
330
18
100
AcDbEntity
  8
DETAIL
100
AcDbLine
 10
64.9805714998547
 20
-44.48669894990143
 30
0.0
 11
163.9509803996334
 21
-44.48669894990143
 31
0.0
  0
LINE
  5
DB24
330
18
100
AcDbEntity
  8
DETAIL
100
AcDbLine
 10
163.9509803996334
 20
-44.48669894990143
 30
0.0
 11
169.4099562097239
 21
-44.48669894990143
 31
0.0
  0
LINE
  5
DB25
330
18
100
AcDbEntity
  8
DETAIL
100
AcDbLine
 10
169.4099562097239
 20
-44.48669894990143
 30
0.0
 11
179.9461979995976
 21
-44.48669894990143
 31
0.0
  0
LINE
  5
DB26
330
18
100
AcDbEntity
  8
DETAIL
100
AcDbLine
 10
43.98684839990164
 20
-44.48669894990143
 30
0.0
 11
49.44582420999222
 21
-44.48669894990143
 31
0.0
  0
LINE
  5
DB27
330
18
100
AcDbEntity
  8
DETAIL
100
AcDbLine
 10
49.44582420999222
 20
-44.48669894990143
 30
0.0
 11
59.98206599986588
 21
-44.48669894990143
 31
0.0
  0
LINE
  5
DB28
330
18
100
AcDbEntity
  8
DETAIL
100
AcDbLine
 10
-178.4466463496014
 20
-116.5651482597413
 30
0.0
 11
-59.08233500986807
 21
-116.5651482597413
 31
0.0
  0
LINE
  5
DB29
330
18
100
AcDbEntity
  8
DETAIL
100
AcDbLine
 10
-295.7115853793388
 20
-116.5651482597413
 30
0.0
 11
-179.0464670095998
 21
-116.5651482597413
 31
0.0
  0
LINE
  5
DB2A
330
18
100
AcDbEntity
  8
DETAIL
100
AcDbLine
 10
-58.48251434986924
 20
-116.5651482597413
 30
0.0
 11
60.88179698986369
 21
-116.5651482597413
 31
0.0
  0
LINE
  5
DB2B
330
18
100
AcDbEntity
  8
DETAIL
100
AcDbLine
 10
61.48161764986252
 20
-116.5651482597413
 30
0.0
 11
180.8459289895954
 21
-116.5651482597413
 31
0.0
  0
LINE
  5
DB2C
330
18
100
AcDbEntity
  8
DETAIL
100
AcDbLine
 10
181.4457496495943
 20
-116.5651482597413
 30
0.0
 11
295.7115853793379
 21
-116.5651482597413
 31
0.0
  0
LINE
  5
DB2D
330
18
100
AcDbEntity
  8
DETAIL
100
AcDbLine
 10
299.9103299993294
 20
-136.4592001496967
 30
0.0
 11
299.6552256588042
 21
-136.4592001496967
 31
0.0
  0
LINE
  5
DB2E
330
18
100
AcDbEntity
  8
DETAIL
100
AcDbLine
 10
295.7115853793379
 20
-44.48669894990143
 30
0.0
 11
296.2479772874553
 21
-44.48669894990143
 31
0.0
  0
TEXT
  5
DB88
330
18
100
AcDbEntity
  8
NOTE
  6
CONTINUOUS
100
AcDbText
 10
529.5257027474745
 20
248.6092827886077
 30
0.0
 40
50.0
  1
AH 4-%%c5
 41
0.9
100
AcDbText
  0
LINE
  5
DB89
330
18
100
AcDbEntity
  8
NOTE
  6
CONTINUOUS
100
AcDbLine
 10
491.7696502415329
 20
227.3193183188727
 30
0.0
 11
874.9076579380648
 21
227.3193183188705
 31
0.0
  0
LINE
  5
DB8A
330
18
100
AcDbEntity
  8
NOTE
  6
CONTINUOUS
100
AcDbLine
 10
327.4021102492706
 20
-0.0000000000263753
 30
0.0
 11
491.7696502415329
 21
227.3193183188727
 31
0.0
  0
LINE
  5
DB8B
330
18
100
AcDbEntity
  8
NOTE
  6
CONTINUOUS
100
AcDbLine
 10
327.4021102492706
 20
-0.0000000000245564
 30
0.0
 11
375.3508187233565
 21
39.03996233889938
 31
0.0
  0
LINE
  5
DB8C
330
18
100
AcDbEntity
  8
NOTE
  6
CONTINUOUS
100
AcDbLine
 10
327.4021102492688
 20
-0.0000000000254659
 30
0.0
 11
349.8296459216512
 21
57.62120223858165
 31
0.0
  0
LINE
  5
DB8D
330
18
100
AcDbEntity
  8
NOTE
  6
CONTINUOUS
100
AcDbLine
 10
291.4021102492679
 20
-108.567539459746
 30
0.0
 11
363.4021102492679
 21
-108.567539459746
 31
0.0
  0
LINE
  5
DB8E
330
18
100
AcDbEntity
  8
NOTE
  6
CONTINUOUS
100
AcDbLine
 10
327.4021102492679
 20
-72.56753945974605
 30
0.0
 11
327.4021102492679
 21
-144.5675394597465
 31
0.0
  0
CIRCLE
  5
DB8F
330
18
100
AcDbEntity
  8
FIX
  6
CONTINUOUS
100
AcDbCircle
 10
327.4021102492679
 20
-108.567539459746
 30
0.0
 40
8.0
  0
LINE
  5
DB90
330
18
100
AcDbEntity
  8
NOTE
  6
CONTINUOUS
100
AcDbLine
 10
291.4021102492679
 20
0.0
 30
0.0
 11
363.4021102492679
 21
0.0
 31
0.0
  0
LINE
  5
DB91
330
18
100
AcDbEntity
  8
NOTE
  6
CONTINUOUS
100
AcDbLine
 10
327.4021102492679
 20
36.0
 30
0.0
 11
327.4021102492679
 21
-36.0
 31
0.0
  0
CIRCLE
  5
DB92
330
18
100
AcDbEntity
  8
FIX
  6
CONTINUOUS
100
AcDbCircle
 10
327.4021102492679
 20
0.0
 30
0.0
 40
8.0
  0
LINE
  5
DB93
330
18
100
AcDbEntity
  8
NOTE
  6
CONTINUOUS
100
AcDbLine
 10
-363.4021102492683
 20
0.0
 30
0.0
 11
-291.4021102492684
 21
0.0
 31
0.0
  0
LINE
  5
DB94
330
18
100
AcDbEntity
  8
NOTE
  6
CONTINUOUS
100
AcDbLine
 10
-327.4021102492683
 20
36.0
 30
0.0
 11
-327.4021102492683
 21
-36.0
 31
0.0
  0
CIRCLE
  5
DB95
330
18
100
AcDbEntity
  8
FIX
  6
CONTINUOUS
100
AcDbCircle
 10
-327.4021102492683
 20
0.0
 30
0.0
 40
8.0
  0
LINE
  5
DB96
330
18
100
AcDbEntity
  8
NOTE
  6
CONTINUOUS
100
AcDbLine
 10
-363.4021102492683
 20
-108.5675394597565
 30
0.0
 11
-291.4021102492684
 21
-108.5675394597565
 31
0.0
  0
LINE
  5
DB97
330
18
100
AcDbEntity
  8
NOTE
  6
CONTINUOUS
100
AcDbLine
 10
-327.4021102492683
 20
-72.56753945975652
 30
0.0
 11
-327.4021102492683
 21
-144.5675394597565
 31
0.0
  0
CIRCLE
  5
DB98
330
18
100
AcDbEntity
  8
FIX
  6
CONTINUOUS
100
AcDbCircle
 10
-327.4021102492683
 20
-108.5675394597565
 30
0.0
 40
8.0
  0
POINT
  5
DBFF
330
18
100
AcDbEntity
  8
ARRANGE
  6
CONTINUOUS
100
AcDbPoint
 10
-0.0000005318597687
 20
-0.0000000000004547
 30
0.0
  0
TEXT
  5
DC03
330
18
100
AcDbEntity
  8
ETC
  6
CONTINUOUS
100
AcDbText
 10
540.5499489812914
 20
487.1033958253729
 30
0.0
 40
48.0
  1
SMAC3532
 41
0.9
100
AcDbText
  0
TEXT
  5
DC9D
330
18
100
AcDbEntity
  8
NOTE
  6
CONTINUOUS
100
AcDbText
 10
-788.926779182239
 20
109.8368803354196
 30
0.0
 40
50.0
  1
ﾀｯﾋﾟﾝﾈｼﾞ用穴
 41
0.9
100
AcDbText
  0
LINE
  5
DC9E
330
18
100
AcDbEntity
  8
NOTE
  6
CONTINUOUS
100
AcDbLine
 10
-806.3981940696258
 20
173.7380327929122
 30
0.0
 11
-486.6703546155799
 21
173.7380327929104
 31
0.0
  0
TEXT
  5
DC9F
330
18
100
AcDbEntity
  8
NOTE
  6
CONTINUOUS
100
AcDbText
 10
-767.2512237934865
 20
191.3788477565385
 30
0.0
 40
50.0
  1
4-%%c2.8
 41
0.9
100
AcDbText
  0
LINE
  5
DCA0
330
18
100
AcDbEntity
  8
NOTE
  6
CONTINUOUS
100
AcDbLine
 10
-308.8076697892997
 20
-48.48550334990704
 30
0.0
 11
-486.6703546155799
 21
173.7380327929104
 31
0.0
  0
LINE
  5
DCA1
330
18
100
AcDbEntity
  8
NOTE
  6
CONTINUOUS
100
AcDbLine
 10
-308.8076697893006
 20
-48.48550334990886
 30
0.0
 11
-358.3671642816466
 21
-11.51181257631151
 31
0.0
  0
LINE
  5
DCA2
330
18
100
AcDbEntity
  8
NOTE
  6
CONTINUOUS
100
AcDbLine
 10
-308.8076697893015
 20
-48.48550334990704
 30
0.0
 11
-333.6560488457485
 21
8.133886986130164
 31
0.0
  0
TEXT
  5
E842
330
18
100
AcDbEntity
  8
NOTE
  6
CONTINUOUS
100
AcDbText
 10
218.4309282147678
 20
-111.9225750101195
 30
0.0
 40
50.0
  1
穴
 41
0.9
100
AcDbText
  0
TEXT
  5
E843
330
18
100
AcDbEntity
  8
NOTE
  6
CONTINUOUS
100
AcDbText
 10
102.4726759828754
 20
-111.9225750101195
 30
0.0
 40
50.0
  1
穴
 41
0.9
100
AcDbText
  0
TEXT
  5
E844
330
18
100
AcDbEntity
  8
NOTE
  6
CONTINUOUS
100
AcDbText
 10
6.044210383641257
 20
-110.7023197338949
 30
0.0
 40
50.0
  1
穴
 41
0.9
100
AcDbText
  0
TEXT
  5
E845
330
18
100
AcDbEntity
  8
NOTE
  6
CONTINUOUS
100
AcDbText
 10
-139.2087824711252
 20
-107.0415908289451
 30
0.0
 40
50.0
  1
穴
 41
0.9
100
AcDbText
  0
TEXT
  5
E846
330
18
100
AcDbEntity
  8
NOTE
  6
CONTINUOUS
100
AcDbText
 10
-257.6082853353491
 20
-108.2618461051697
 30
0.0
 40
50.0
  1
穴
 41
0.9
100
AcDbText
  0
LINE
  5
E847
330
18
100
AcDbEntity
  8
DETAIL
100
AcDbLine
 10
-182.4466463496009
 20
-51.37131896783103
 30
0.0
 11
-182.4466463496014
 21
-129.5745801317643
 31
0.0
  0
LINE
  5
E848
330
18
100
AcDbEntity
  8
DETAIL
100
AcDbLine
 10
-62.48251434986923
 20
-51.37131896783103
 30
0.0
 11
-62.48251434986968
 21
-129.5745801317643
 31
0.0
  0
LINE
  5
E849
330
18
100
AcDbEntity
  8
DETAIL
100
AcDbLine
 10
57.48161764986253
 20
-51.37131896783103
 30
0.0
 11
57.48161764986253
 21
-129.5745801317643
 31
0.0
  0
LINE
  5
E84A
330
18
100
AcDbEntity
  8
DETAIL
100
AcDbLine
 10
177.4457496495942
 20
-51.37131896783103
 30
0.0
 11
177.4457496495942
 21
-129.5745801317643
 31
0.0
  0
LINE
  5
F1CE
330
18
100
AcDbEntity
  8
SIZE
100
AcDbLine
 10
337.9049497992891
 20
33.09010640992618
 30
0.0
 11
778.9670450098065
 21
33.09010640992606
 31
0.0
  0
LINE
  5
F1CF
330
18
100
AcDbEntity
  8
SIZE
100
AcDbLine
 10
335.6556223242942
 20
47.48580224989382
 30
0.0
 11
778.9670450098065
 21
47.48580224989369
 31
0.0
  0
LINE
  5
F1D0
330
18
100
AcDbEntity
  8
SIZE
100
AcDbLine
 10
748.9670450098064
 20
21.09010640992607
 30
0.0
 11
748.9670450098064
 21
9.090106409926068
 31
0.0
  0
LINE
  5
F1D1
330
18
100
AcDbEntity
  8
SIZE
100
AcDbLine
 10
748.9670450098064
 20
59.4858022498937
 30
0.0
 11
748.9670450098064
 21
177.9143736784651
 31
0.0
  0
LINE
  5
F1D2
330
18
100
AcDbEntity
  8
SIZE
100
AcDbLine
 10
748.9670450098064
 20
33.09010640992607
 30
0.0
 11
748.9670450098064
 21
47.4858022498937
 31
0.0
  0
LINE
  5
F1D6
330
18
100
AcDbEntity
  8
SIZE
100
AcDbLine
 10
-327.4021102492683
 20
56.0
 30
0.0
 11
-327.4021102492683
 21
333.1627038174856
 31
0.0
  0
LINE
  5
F1D7
330
18
100
AcDbEntity
  8
SIZE
100
AcDbLine
 10
-334.4999880592522
 20
41.69351386995185
 30
0.0
 11
-334.4999880592522
 21
333.1627038174856
 31
0.0
  0
LINE
  5
F1D8
330
18
100
AcDbEntity
  8
SIZE
100
AcDbLine
 10
-315.4021102492683
 20
303.1627038174856
 30
0.0
 11
-303.4021102492683
 21
303.1627038174856
 31
0.0
  0
LINE
  5
F1D9
330
18
100
AcDbEntity
  8
SIZE
100
AcDbLine
 10
-346.4999880592522
 20
303.1627038174856
 30
0.0
 11
-428.4999880592522
 21
303.1627038174856
 31
0.0
  0
LINE
  5
F1DA
330
18
100
AcDbEntity
  8
SIZE
100
AcDbLine
 10
-327.4021102492683
 20
303.1627038174856
 30
0.0
 11
-334.4999880592522
 21
303.1627038174856
 31
0.0
  0
LINE
  5
F1DE
330
18
100
AcDbEntity
  8
SIZE
100
AcDbLine
 10
-334.4999880592522
 20
41.69351386995185
 30
0.0
 11
-334.4999880592522
 21
482.592739927827
 31
0.0
  0
LINE
  5
F1DF
330
18
100
AcDbEntity
  8
SIZE
100
AcDbLine
 10
334.4999880592518
 20
41.69351386995276
 30
0.0
 11
334.4999880592518
 21
482.592739927827
 31
0.0
  0
LINE
  5
F1E0
330
18
100
AcDbEntity
  8
SIZE
100
AcDbLine
 10
-322.4999880592522
 20
452.5927399278271
 30
0.0
 11
322.4999880592517
 21
452.5927399278271
 31
0.0
  0
LINE
  5
F1E4
330
18
100
AcDbEntity
  8
SIZE
100
AcDbLine
 10
-327.4021102492683
 20
56.0
 30
0.0
 11
-327.4021102492683
 21
333.1627038174856
 31
0.0
  0
LINE
  5
F1E5
330
18
100
AcDbEntity
  8
SIZE
100
AcDbLine
 10
327.4021102492679
 20
56.0
 30
0.0
 11
327.4021102492679
 21
333.1627038174856
 31
0.0
  0
LINE
  5
F1E6
330
18
100
AcDbEntity
  8
SIZE
100
AcDbLine
 10
-315.4021102492683
 20
303.1627038174856
 30
0.0
 11
315.4021102492679
 21
303.1627038174856
 31
0.0
  0
LINE
  5
F1EA
330
18
100
AcDbEntity
  8
SIZE
100
AcDbLine
 10
-334.4999880592522
 20
41.69351386995185
 30
0.0
 11
-334.4999880592522
 21
191.1028392563466
 31
0.0
  0
LINE
  5
F1EB
330
18
100
AcDbEntity
  8
SIZE
100
AcDbLine
 10
0.0000000000000012
 20
83.16023581308309
 30
0.0
 11
0.0000000000000078
 21
191.1028392563466
 31
0.0
  0
LINE
  5
F1EC
330
18
100
AcDbEntity
  8
SIZE
100
AcDbLine
 10
-322.4999880592522
 20
161.1028392563466
 30
0.0
 11
-11.99999999999999
 21
161.1028392563466
 31
0.0
  0
LINE
  5
F1F0
330
18
100
AcDbEntity
  8
SIZE
100
AcDbLine
 10
383.4021102492679
 20
-0.0000000000000057
 30
0.0
 11
632.67303370746
 21
-0.0000000000000763
 31
0.0
  0
LINE
  5
F1F1
330
18
100
AcDbEntity
  8
SIZE
100
AcDbLine
 10
383.4021102492679
 20
-108.567539459746
 30
0.0
 11
632.67303370746
 21
-108.5675394597461
 31
0.0
  0
LINE
  5
F1F2
330
18
100
AcDbEntity
  8
SIZE
100
AcDbLine
 10
602.67303370746
 20
-12.00000000000006
 30
0.0
 11
602.67303370746
 21
-96.56753945974612
 31
0.0
  0
LINE
  5
F1F6
330
18
100
AcDbEntity
  8
SIZE
100
AcDbLine
 10
337.9049497992891
 20
33.09010640992618
 30
0.0
 11
778.967045009807
 21
33.09010640992606
 31
0.0
  0
LINE
  5
F1F7
330
18
100
AcDbEntity
  8
SIZE
100
AcDbLine
 10
337.9049497992891
 20
-161.6516678696389
 30
0.0
 11
778.967045009807
 21
-161.651667869639
 31
0.0
  0
LINE
  5
F1F8
330
18
100
AcDbEntity
  8
SIZE
100
AcDbLine
 10
748.9670450098069
 20
21.09010640992607
 30
0.0
 11
748.9670450098069
 21
-149.651667869639
 31
0.0
  0
LINE
  5
F1FC
330
18
100
AcDbEntity
  8
SIZE
100
AcDbLine
 10
383.4021102492679
 20
-108.567539459746
 30
0.0
 11
528.5036953071625
 21
-108.5675394597461
 31
0.0
  0
LINE
  5
F1FD
330
18
100
AcDbEntity
  8
SIZE
100
AcDbLine
 10
331.5558258432188
 20
-132.4603957497038
 30
0.0
 11
528.5036953071625
 21
-132.4603957497038
 31
0.0
  0
LINE
  5
F1FE
330
18
100
AcDbEntity
  8
SIZE
100
AcDbLine
 10
498.5036953071626
 20
-96.5675394597461
 30
0.0
 11
498.5036953071626
 21
-84.56753945974609
 31
0.0
  0
LINE
  5
F1FF
330
18
100
AcDbEntity
  8
SIZE
100
AcDbLine
 10
498.5036953071626
 20
-144.4603957497038
 30
0.0
 11
498.5036953071626
 21
-271.4603957497038
 31
0.0
  0
LINE
  5
F200
330
18
100
AcDbEntity
  8
SIZE
100
AcDbLine
 10
498.5036953071626
 20
-108.5675394597461
 30
0.0
 11
498.5036953071626
 21
-132.4603957497038
 31
0.0
  0
LINE
  5
F204
330
18
100
AcDbEntity
  8
SIZE
100
AcDbLine
 10
383.4021102492679
 20
-108.567539459746
 30
0.0
 11
632.6730337074596
 21
-108.5675394597461
 31
0.0
  0
LINE
  5
F205
330
18
100
AcDbEntity
  8
SIZE
100
AcDbLine
 10
337.9049497992891
 20
-161.6516678696389
 30
0.0
 11
632.6730337074596
 21
-161.651667869639
 31
0.0
  0
LINE
  5
F206
330
18
100
AcDbEntity
  8
SIZE
100
AcDbLine
 10
602.6730337074596
 20
-96.56753945974612
 30
0.0
 11
602.6730337074596
 21
-84.56753945974611
 31
0.0
  0
LINE
  5
F207
330
18
100
AcDbEntity
  8
SIZE
100
AcDbLine
 10
602.6730337074596
 20
-173.651667869639
 30
0.0
 11
602.6730337074594
 21
-298.5088107267817
 31
0.0
  0
LINE
  5
F208
330
18
100
AcDbEntity
  8
SIZE
100
AcDbLine
 10
602.6730337074596
 20
-108.5675394597461
 30
0.0
 11
602.6730337074596
 21
-161.651667869639
 31
0.0
  0
LINE
  5
F20C
330
18
100
AcDbEntity
  8
SIZE
100
AcDbLine
 10
295.7115853793379
 20
-156.4592001496957
 30
0.0
 11
295.7115853793379
 21
-374.7893102962507
 31
0.0
  0
LINE
  5
F20D
330
18
100
AcDbEntity
  8
SIZE
100
AcDbLine
 10
306.9082376993137
 20
-155.6296261992765
 30
0.0
 11
306.9082376993137
 21
-374.7893102962507
 31
0.0
  0
LINE
  5
F20E
330
18
100
AcDbEntity
  8
SIZE
100
AcDbLine
 10
283.7115853793379
 20
-344.7893102962507
 30
0.0
 11
271.7115853793379
 21
-344.7893102962507
 31
0.0
  0
LINE
  5
F20F
330
18
100
AcDbEntity
  8
SIZE
100
AcDbLine
 10
318.9082376993137
 20
-344.7893102962507
 30
0.0
 11
490.9082376993137
 21
-344.7893102962507
 31
0.0
  0
LINE
  5
F210
330
18
100
AcDbEntity
  8
SIZE
100
AcDbLine
 10
295.7115853793379
 20
-344.7893102962507
 30
0.0
 11
306.9082376993137
 21
-344.7893102962507
 31
0.0
  0
LINE
  5
F214
330
18
100
AcDbEntity
  8
SIZE
100
AcDbLine
 10
306.9082376993137
 20
-155.6296261992765
 30
0.0
 11
306.9082376993137
 21
-506.9730163161575
 31
0.0
  0
LINE
  5
F215
330
18
100
AcDbEntity
  8
SIZE
100
AcDbLine
 10
320.5041726592821
 20
-180.4520265496412
 30
0.0
 11
320.5041726592821
 21
-506.9730163161575
 31
0.0
  0
LINE
  5
F216
330
18
100
AcDbEntity
  8
SIZE
100
AcDbLine
 10
294.9082376993137
 20
-476.9730163161575
 30
0.0
 11
282.9082376993137
 21
-476.9730163161575
 31
0.0
  0
LINE
  5
F217
330
18
100
AcDbEntity
  8
SIZE
100
AcDbLine
 10
332.5041726592822
 20
-476.9730163161575
 30
0.0
 11
513.0756012307107
 21
-476.9730163161575
 31
0.0
  0
LINE
  5
F218
330
18
100
AcDbEntity
  8
SIZE
100
AcDbLine
 10
306.9082376993137
 20
-476.9730163161575
 30
0.0
 11
320.5041726592821
 21
-476.9730163161575
 31
0.0
  0
LINE
  5
F21C
330
18
100
AcDbEntity
  8
SIZE
100
AcDbLine
 10
335.6556223242937
 20
47.48580224989473
 30
0.0
 11
916.5820922616344
 21
47.48580224989455
 31
0.0
  0
LINE
  5
F21D
330
18
100
AcDbEntity
  8
SIZE
100
AcDbLine
 10
337.9049497992891
 20
-161.6516678696389
 30
0.0
 11
916.5820922616344
 21
-161.651667869639
 31
0.0
  0
LINE
  5
F21E
330
18
100
AcDbEntity
  8
SIZE
100
AcDbLine
 10
886.5820922616345
 20
35.48580224989457
 30
0.0
 11
886.5820922616345
 21
-149.651667869639
 31
0.0
  0
LINE
  5
F222
330
18
100
AcDbEntity
  8
SIZE
100
AcDbLine
 10
-320.5041726592835
 20
-180.4520265496412
 30
0.0
 11
-320.5041726592836
 21
-641.6248518350975
 31
0.0
  0
LINE
  5
F223
330
18
100
AcDbEntity
  8
SIZE
100
AcDbLine
 10
320.5041726592821
 20
-180.4520265496412
 30
0.0
 11
320.5041726592821
 21
-641.6248518350975
 31
0.0
  0
LINE
  5
F224
330
18
100
AcDbEntity
  8
SIZE
100
AcDbLine
 10
-308.5041726592835
 20
-611.6248518350976
 30
0.0
 11
308.5041726592821
 21
-611.6248518350976
 31
0.0
  0
LINE
  5
F228
330
18
100
AcDbEntity
  8
SIZE
100
AcDbLine
 10
-308.8076697892984
 20
-155.0224770175182
 30
0.0
 11
-308.8076697892984
 21
-506.9730163161575
 31
0.0
  0
LINE
  5
F229
330
18
100
AcDbEntity
  8
SIZE
100
AcDbLine
 10
306.9082376993137
 20
-155.6296261992765
 30
0.0
 11
306.9082376993137
 21
-506.9730163161575
 31
0.0
  0
LINE
  5
F22A
330
18
100
AcDbEntity
  8
SIZE
100
AcDbLine
 10
-296.8076697892984
 20
-476.9730163161575
 30
0.0
 11
294.9082376993137
 21
-476.9730163161575
 31
0.0
  0
LINE
  5
F22E
330
18
100
AcDbEntity
  8
SIZE
100
AcDbLine
 10
-295.7115853793388
 20
-156.4592001496957
 30
0.0
 11
-295.7115853793388
 21
-374.7893102962507
 31
0.0
  0
LINE
  5
F22F
330
18
100
AcDbEntity
  8
SIZE
100
AcDbLine
 10
295.7115853793379
 20
-156.4592001496957
 30
0.0
 11
295.7115853793379
 21
-374.7893102962507
 31
0.0
  0
LINE
  5
F230
330
18
100
AcDbEntity
  8
SIZE
100
AcDbLine
 10
-283.7115853793388
 20
-344.7893102962507
 30
0.0
 11
283.7115853793379
 21
-344.7893102962507
 31
0.0
  0
LINE
  5
F234
330
18
100
AcDbEntity
  8
SIZE
100
AcDbLine
 10
-340.5041726592835
 20
-136.4592001496948
 30
0.0
 11
-593.0163405695302
 21
-136.4592001496947
 31
0.0
  0
LINE
  5
F235
330
18
100
AcDbEntity
  8
SIZE
100
AcDbLine
 10
-338.1048900192886
 20
-161.6516678696388
 30
0.0
 11
-593.0163405695302
 21
-161.6516678696387
 31
0.0
  0
LINE
  5
F236
330
18
100
AcDbEntity
  8
SIZE
100
AcDbLine
 10
-563.0163405695302
 20
-124.4592001496948
 30
0.0
 11
-563.0163405695302
 21
-112.4592001496948
 31
0.0
  0
LINE
  5
F237
330
18
100
AcDbEntity
  8
SIZE
100
AcDbLine
 10
-563.0163405695302
 20
-173.6516678696388
 30
0.0
 11
-563.0163405695303
 21
-298.5088107267817
 31
0.0
  0
LINE
  5
F238
330
18
100
AcDbEntity
  8
SIZE
100
AcDbLine
 10
-563.0163405695302
 20
-136.4592001496948
 30
0.0
 11
-563.0163405695302
 21
-161.6516678696388
 31
0.0
  0
LINE
  5
F23C
330
18
100
AcDbEntity
  8
SIZE
100
AcDbLine
 10
-295.7115853793388
 20
-156.4592001496967
 30
0.0
 11
-295.7115853793388
 21
-374.7893102962507
 31
0.0
  0
LINE
  5
F23D
330
18
100
AcDbEntity
  8
SIZE
100
AcDbLine
 10
-308.8076697892984
 20
-155.0224770175182
 30
0.0
 11
-308.8076697892984
 21
-374.7893102962507
 31
0.0
  0
LINE
  5
F23E
330
18
100
AcDbEntity
  8
SIZE
100
AcDbLine
 10
-283.7115853793388
 20
-344.7893102962507
 30
0.0
 11
-271.7115853793389
 21
-344.7893102962507
 31
0.0
  0
LINE
  5
F23F
330
18
100
AcDbEntity
  8
SIZE
100
AcDbLine
 10
-320.8076697892984
 20
-344.7893102962507
 30
0.0
 11
-501.3790983607269
 21
-344.7893102962507
 31
0.0
  0
LINE
  5
F240
330
18
100
AcDbEntity
  8
SIZE
100
AcDbLine
 10
-295.7115853793388
 20
-344.7893102962507
 30
0.0
 11
-308.8076697892984
 21
-344.7893102962507
 31
0.0
  0
LINE
  5
F244
330
18
100
AcDbEntity
  8
SIZE
100
AcDbLine
 10
-308.8076697892984
 20
-155.0224770175182
 30
0.0
 11
-308.8076697892984
 21
-506.9730163161575
 31
0.0
  0
LINE
  5
F245
330
18
100
AcDbEntity
  8
SIZE
100
AcDbLine
 10
-320.5041726592835
 20
-180.4520265496412
 30
0.0
 11
-320.5041726592835
 21
-506.9730163161575
 31
0.0
  0
LINE
  5
F246
330
18
100
AcDbEntity
  8
SIZE
100
AcDbLine
 10
-296.8076697892984
 20
-476.9730163161575
 30
0.0
 11
-284.8076697892984
 21
-476.9730163161575
 31
0.0
  0
LINE
  5
F247
330
18
100
AcDbEntity
  8
SIZE
100
AcDbLine
 10
-332.5041726592835
 20
-476.9730163161575
 30
0.0
 11
-504.5041726592835
 21
-476.9730163161575
 31
0.0
  0
LINE
  5
F248
330
18
100
AcDbEntity
  8
SIZE
100
AcDbLine
 10
-308.8076697892984
 20
-476.9730163161575
 30
0.0
 11
-320.5041726592835
 21
-476.9730163161575
 31
0.0
  0
LINE
  5
F24C
330
18
100
AcDbEntity
  8
SIZE
100
AcDbLine
 10
-331.5865313831318
 20
-132.4603957497037
 30
0.0
 11
-449.1691861675631
 21
-132.4603957497037
 31
0.0
  0
LINE
  5
F24D
330
18
100
AcDbEntity
  8
SIZE
100
AcDbLine
 10
-331.4733155467142
 20
-48.48550334989159
 30
0.0
 11
-449.1691861675631
 21
-48.48550334989155
 31
0.0
  0
LINE
  5
F24E
330
18
100
AcDbEntity
  8
SIZE
100
AcDbLine
 10
-419.169186167563
 20
-120.4603957497037
 30
0.0
 11
-419.169186167563
 21
-60.48550334989156
 31
0.0
  0
LINE
  5
F252
330
18
100
AcDbEntity
  8
SIZE
100
AcDbLine
 10
-340.5041726592835
 20
-44.48669894989961
 30
0.0
 11
-593.0163405695298
 21
-44.48669894989953
 31
0.0
  0
LINE
  5
F253
330
18
100
AcDbEntity
  8
SIZE
100
AcDbLine
 10
-340.5041726592835
 20
-136.4592001496948
 30
0.0
 11
-593.0163405695298
 21
-136.4592001496947
 31
0.0
  0
LINE
  5
F254
330
18
100
AcDbEntity
  8
SIZE
100
AcDbLine
 10
-563.0163405695298
 20
-56.48669894989954
 30
0.0
 11
-563.0163405695298
 21
-124.4592001496948
 31
0.0
  0
TEXT
  5
F258
330
18
100
AcDbEntity
  8
SIZE
100
AcDbText
 10
728.9670450098064
 20
91.48580224989382
 30
0.0
 40
50.0
  1
14
 50
90.0
 41
0.9
100
AcDbText
  0
TEXT
  5
F259
330
18
100
AcDbEntity
  8
SIZE
100
AcDbText
 10
364.5041726592821
 20
-456.9730163161575
 30
0.0
 40
50.0
  1
13.5
 41
0.9
100
AcDbText
  0
TEXT
  5
F25A
330
18
100
AcDbEntity
  8
SIZE
100
AcDbText
 10
350.9082376993137
 20
-324.7893102962507
 30
0.0
 40
50.0
  1
11.2
 41
0.9
100
AcDbText
  0
TEXT
  5
F25B
330
18
100
AcDbEntity
  8
SIZE
100
AcDbText
 10
-48.2142857142864
 20
-591.6248518350975
 30
0.0
 40
50.0
  1
641
 41
0.9
100
AcDbText
  0
CIRCLE
  5
F25C
330
18
100
AcDbEntity
  8
SIZE
100
AcDbCircle
 10
-320.5041726592835
 20
-611.6248518350976
 30
0.0
 40
6.0
  0
LINE
  5
F25D
330
18
100
AcDbEntity
  8
SIZE
100
AcDbLine
 10
-320.5041726592835
 20
-611.6248518350976
 30
0.0
 11
-308.5041726592835
 21
-611.6248518350976
 31
0.0
  0
CIRCLE
  5
F25E
330
18
100
AcDbEntity
  8
SIZE
100
AcDbCircle
 10
320.5041726592821
 20
-611.6248518350976
 30
0.0
 40
6.0
  0
LINE
  5
F25F
330
18
100
AcDbEntity
  8
SIZE
100
AcDbLine
 10
320.5041726592821
 20
-611.6248518350976
 30
0.0
 11
308.5041726592821
 21
-611.6248518350976
 31
0.0
  0
TEXT
  5
F260
330
18
100
AcDbEntity
  8
SIZE
100
AcDbText
 10
-583.0163405695302
 20
-278.5088107267817
 30
0.0
 40
50.0
  1
25
 50
90.0
 41
0.9
100
AcDbText
  0
TEXT
  5
F261
330
18
100
AcDbEntity
  8
SIZE
100
AcDbText
 10
-484.5041726592835
 20
-456.9730163161575
 30
0.0
 40
50.0
  1
11.5
 41
0.9
100
AcDbText
  0
TEXT
  5
F262
330
18
100
AcDbEntity
  8
SIZE
100
AcDbText
 10
-481.3790983607269
 20
-324.7893102962507
 30
0.0
 40
50.0
  1
13.2
 41
0.9
100
AcDbText
  0
CIRCLE
  5
F263
330
18
100
AcDbEntity
  8
SIZE
100
AcDbCircle
 10
-320.5041726592835
 20
-476.9730163161575
 30
0.0
 40
6.0
  0
LINE
  5
F264
330
18
100
AcDbEntity
  8
SIZE
100
AcDbLine
 10
-320.5041726592835
 20
-476.9730163161575
 30
0.0
 11
-332.5041726592835
 21
-476.9730163161575
 31
0.0
  0
CIRCLE
  5
F265
330
18
100
AcDbEntity
  8
SIZE
100
AcDbCircle
 10
-308.8076697892984
 20
-476.9730163161575
 30
0.0
 40
6.0
  0
LINE
  5
F266
330
18
100
AcDbEntity
  8
SIZE
100
AcDbLine
 10
-308.8076697892984
 20
-476.9730163161575
 30
0.0
 11
-296.8076697892984
 21
-476.9730163161575
 31
0.0
  0
CIRCLE
  5
F267
330
18
100
AcDbEntity
  8
SIZE
100
AcDbCircle
 10
-308.8076697892984
 20
-476.9730163161575
 30
0.0
 40
6.0
  0
LINE
  5
F268
330
18
100
AcDbEntity
  8
SIZE
100
AcDbLine
 10
-308.8076697892984
 20
-476.9730163161575
 30
0.0
 11
-296.8076697892984
 21
-476.9730163161575
 31
0.0
  0
CIRCLE
  5
F269
330
18
100
AcDbEntity
  8
SIZE
100
AcDbCircle
 10
-308.8076697892984
 20
-344.7893102962507
 30
0.0
 40
6.0
  0
LINE
  5
F26A
330
18
100
AcDbEntity
  8
SIZE
100
AcDbLine
 10
-308.8076697892984
 20
-344.7893102962507
 30
0.0
 11
-320.8076697892984
 21
-344.7893102962507
 31
0.0
  0
CIRCLE
  5
F26B
330
18
100
AcDbEntity
  8
SIZE
100
AcDbCircle
 10
-295.7115853793388
 20
-344.7893102962507
 30
0.0
 40
6.0
  0
LINE
  5
F26C
330
18
100
AcDbEntity
  8
SIZE
100
AcDbLine
 10
-295.7115853793388
 20
-344.7893102962507
 30
0.0
 11
-283.7115853793388
 21
-344.7893102962507
 31
0.0
  0
CIRCLE
  5
F26D
330
18
100
AcDbEntity
  8
SIZE
100
AcDbCircle
 10
-295.7115853793388
 20
-344.7893102962507
 30
0.0
 40
6.0
  0
LINE
  5
F26E
330
18
100
AcDbEntity
  8
SIZE
100
AcDbLine
 10
-295.7115853793388
 20
-344.7893102962507
 30
0.0
 11
-283.7115853793388
 21
-344.7893102962507
 31
0.0
  0
TEXT
  5
F26F
330
18
100
AcDbEntity
  8
SIZE
100
AcDbText
 10
-439.1691861675631
 20
-127.9729495497977
 30
0.0
 40
50.0
  1
84
 50
90.0
 41
0.9
100
AcDbText
  0
CIRCLE
  5
F270
330
18
100
AcDbEntity
  8
SIZE
100
AcDbCircle
 10
-563.0163405695298
 20
-44.48669894989954
 30
0.0
 40
6.0
  0
LINE
  5
F271
330
18
100
AcDbEntity
  8
SIZE
100
AcDbLine
 10
-563.0163405695298
 20
-44.48669894989954
 30
0.0
 11
-563.0163405695298
 21
-56.48669894989954
 31
0.0
  0
TEXT
  5
F272
330
18
100
AcDbEntity
  8
SIZE
100
AcDbText
 10
-583.0163405695298
 20
-126.9015209783686
 30
0.0
 40
50.0
  1
92
 50
90.0
 41
0.9
100
AcDbText
  0
CIRCLE
  5
F273
330
18
100
AcDbEntity
  8
SIZE
100
AcDbCircle
 10
-563.0163405695298
 20
-136.4592001496948
 30
0.0
 40
6.0
  0
LINE
  5
F274
330
18
100
AcDbEntity
  8
SIZE
100
AcDbLine
 10
-563.0163405695298
 20
-136.4592001496948
 30
0.0
 11
-563.0163405695298
 21
-124.4592001496948
 31
0.0
  0
CIRCLE
  5
F275
330
18
100
AcDbEntity
  8
SIZE
100
AcDbCircle
 10
-563.0163405695302
 20
-136.4592001496948
 30
0.0
 40
6.0
  0
LINE
  5
F276
330
18
100
AcDbEntity
  8
SIZE
100
AcDbLine
 10
-563.0163405695302
 20
-136.4592001496948
 30
0.0
 11
-563.0163405695302
 21
-124.4592001496948
 31
0.0
  0
CIRCLE
  5
F277
330
18
100
AcDbEntity
  8
SIZE
100
AcDbCircle
 10
-563.0163405695302
 20
-161.6516678696388
 30
0.0
 40
6.0
  0
LINE
  5
F278
330
18
100
AcDbEntity
  8
SIZE
100
AcDbLine
 10
-563.0163405695302
 20
-161.6516678696388
 30
0.0
 11
-563.0163405695302
 21
-173.6516678696388
 31
0.0
  0
CIRCLE
  5
F279
330
18
100
AcDbEntity
  8
SIZE
100
AcDbCircle
 10
-419.169186167563
 20
-48.48550334989155
 30
0.0
 40
6.0
  0
LINE
  5
F27A
330
18
100
AcDbEntity
  8
SIZE
100
AcDbLine
 10
-419.169186167563
 20
-48.48550334989155
 30
0.0
 11
-419.169186167563
 21
-60.48550334989156
 31
0.0
  0
CIRCLE
  5
F27B
330
18
100
AcDbEntity
  8
SIZE
100
AcDbCircle
 10
-419.1691861675631
 20
-132.4603957497037
 30
0.0
 40
6.0
  0
LINE
  5
F27C
330
18
100
AcDbEntity
  8
SIZE
100
AcDbLine
 10
-419.1691861675631
 20
-132.4603957497037
 30
0.0
 11
-419.1691861675631
 21
-120.4603957497037
 31
0.0
  0
TEXT
  5
F27D
330
18
100
AcDbEntity
  8
SIZE
100
AcDbText
 10
-53.44971604499234
 20
-456.9730163161575
 30
0.0
 40
50.0
  1
616
 41
0.9
100
AcDbText
  0
TEXT
  5
F27E
330
18
100
AcDbEntity
  8
SIZE
100
AcDbText
 10
-84.64285714285759
 20
-324.7893102962507
 30
0.0
 40
50.0
  1
591.6
 41
0.9
100
AcDbText
  0
CIRCLE
  5
F27F
330
18
100
AcDbEntity
  8
SIZE
100
AcDbCircle
 10
306.9082376993137
 20
-476.9730163161575
 30
0.0
 40
6.0
  0
LINE
  5
F280
330
18
100
AcDbEntity
  8
SIZE
100
AcDbLine
 10
306.9082376993137
 20
-476.9730163161575
 30
0.0
 11
294.9082376993137
 21
-476.9730163161575
 31
0.0
  0
CIRCLE
  5
F281
330
18
100
AcDbEntity
  8
SIZE
100
AcDbCircle
 10
306.9082376993137
 20
-476.9730163161575
 30
0.0
 40
6.0
  0
LINE
  5
F282
330
18
100
AcDbEntity
  8
SIZE
100
AcDbLine
 10
306.9082376993137
 20
-476.9730163161575
 30
0.0
 11
294.9082376993137
 21
-476.9730163161575
 31
0.0
  0
CIRCLE
  5
F283
330
18
100
AcDbEntity
  8
SIZE
100
AcDbCircle
 10
320.5041726592821
 20
-476.9730163161575
 30
0.0
 40
6.0
  0
LINE
  5
F284
330
18
100
AcDbEntity
  8
SIZE
100
AcDbLine
 10
320.5041726592821
 20
-476.9730163161575
 30
0.0
 11
332.5041726592822
 21
-476.9730163161575
 31
0.0
  0
CIRCLE
  5
F285
330
18
100
AcDbEntity
  8
SIZE
100
AcDbCircle
 10
295.7115853793379
 20
-344.7893102962507
 30
0.0
 40
6.0
  0
LINE
  5
F286
330
18
100
AcDbEntity
  8
SIZE
100
AcDbLine
 10
295.7115853793379
 20
-344.7893102962507
 30
0.0
 11
283.7115853793379
 21
-344.7893102962507
 31
0.0
  0
CIRCLE
  5
F287
330
18
100
AcDbEntity
  8
SIZE
100
AcDbCircle
 10
306.9082376993137
 20
-344.7893102962507
 30
0.0
 40
6.0
  0
LINE
  5
F288
330
18
100
AcDbEntity
  8
SIZE
100
AcDbLine
 10
306.9082376993137
 20
-344.7893102962507
 30
0.0
 11
318.9082376993137
 21
-344.7893102962507
 31
0.0
  0
CIRCLE
  5
F289
330
18
100
AcDbEntity
  8
SIZE
100
AcDbCircle
 10
295.7115853793379
 20
-344.7893102962507
 30
0.0
 40
6.0
  0
LINE
  5
F28A
330
18
100
AcDbEntity
  8
SIZE
100
AcDbLine
 10
295.7115853793379
 20
-344.7893102962507
 30
0.0
 11
283.7115853793379
 21
-344.7893102962507
 31
0.0
  0
TEXT
  5
F28B
330
18
100
AcDbEntity
  8
SIZE
100
AcDbText
 10
582.6730337074596
 20
-278.5088107267817
 30
0.0
 40
50.0
  1
53
 50
90.0
 41
0.9
100
AcDbText
  0
TEXT
  5
F28C
330
18
100
AcDbEntity
  8
SIZE
100
AcDbText
 10
478.5036953071626
 20
-251.4603957497037
 30
0.0
 40
50.0
  1
24
 50
90.0
 41
0.9
100
AcDbText
  0
TEXT
  5
F28D
330
18
100
AcDbEntity
  8
SIZE
100
AcDbText
 10
582.67303370746
 20
-106.783769729873
 30
0.0
 40
50.0
  1
109
 50
90.0
 41
0.9
100
AcDbText
  0
CIRCLE
  5
F28E
330
18
100
AcDbEntity
  8
SIZE
100
AcDbCircle
 10
498.5036953071626
 20
-132.4603957497038
 30
0.0
 40
6.0
  0
LINE
  5
F28F
330
18
100
AcDbEntity
  8
SIZE
100
AcDbLine
 10
498.5036953071626
 20
-132.4603957497038
 30
0.0
 11
498.5036953071626
 21
-144.4603957497038
 31
0.0
  0
CIRCLE
  5
F290
330
18
100
AcDbEntity
  8
SIZE
100
AcDbCircle
 10
498.5036953071626
 20
-108.5675394597461
 30
0.0
 40
6.0
  0
LINE
  5
F291
330
18
100
AcDbEntity
  8
SIZE
100
AcDbLine
 10
498.5036953071626
 20
-108.5675394597461
 30
0.0
 11
498.5036953071626
 21
-96.5675394597461
 31
0.0
  0
CIRCLE
  5
F292
330
18
100
AcDbEntity
  8
SIZE
100
AcDbCircle
 10
602.6730337074596
 20
-161.651667869639
 30
0.0
 40
6.0
  0
LINE
  5
F293
330
18
100
AcDbEntity
  8
SIZE
100
AcDbLine
 10
602.6730337074596
 20
-161.651667869639
 30
0.0
 11
602.6730337074596
 21
-173.651667869639
 31
0.0
  0
CIRCLE
  5
F294
330
18
100
AcDbEntity
  8
SIZE
100
AcDbCircle
 10
602.6730337074596
 20
-108.5675394597461
 30
0.0
 40
6.0
  0
LINE
  5
F295
330
18
100
AcDbEntity
  8
SIZE
100
AcDbLine
 10
602.6730337074596
 20
-108.5675394597461
 30
0.0
 11
602.6730337074596
 21
-96.56753945974612
 31
0.0
  0
CIRCLE
  5
F296
330
18
100
AcDbEntity
  8
SIZE
100
AcDbCircle
 10
602.67303370746
 20
-108.5675394597461
 30
0.0
 40
6.0
  0
LINE
  5
F297
330
18
100
AcDbEntity
  8
SIZE
100
AcDbLine
 10
602.67303370746
 20
-108.5675394597461
 30
0.0
 11
602.67303370746
 21
-96.56753945974612
 31
0.0
  0
CIRCLE
  5
F298
330
18
100
AcDbEntity
  8
SIZE
100
AcDbCircle
 10
602.67303370746
 20
-0.0000000000000678
 30
0.0
 40
6.0
  0
LINE
  5
F299
330
18
100
AcDbEntity
  8
SIZE
100
AcDbLine
 10
602.67303370746
 20
-0.0000000000000678
 30
0.0
 11
602.67303370746
 21
-12.00000000000006
 31
0.0
  0
TEXT
  5
F29A
330
18
100
AcDbEntity
  8
SIZE
100
AcDbText
 10
866.5820922616344
 20
-113.8686470955863
 30
0.0
 40
50.0
  1
209
 50
90.0
 41
0.9
100
AcDbText
  0
TEXT
  5
F29B
330
18
100
AcDbEntity
  8
SIZE
100
AcDbText
 10
728.967045009807
 20
-117.852209301284
 30
0.0
 40
50.0
  1
195
 50
90.0
 41
0.9
100
AcDbText
  0
CIRCLE
  5
F29C
330
18
100
AcDbEntity
  8
SIZE
100
AcDbCircle
 10
748.9670450098069
 20
-161.651667869639
 30
0.0
 40
6.0
  0
LINE
  5
F29D
330
18
100
AcDbEntity
  8
SIZE
100
AcDbLine
 10
748.9670450098069
 20
-161.651667869639
 30
0.0
 11
748.9670450098069
 21
-149.651667869639
 31
0.0
  0
CIRCLE
  5
F29E
330
18
100
AcDbEntity
  8
SIZE
100
AcDbCircle
 10
886.5820922616345
 20
-161.651667869639
 30
0.0
 40
6.0
  0
LINE
  5
F29F
330
18
100
AcDbEntity
  8
SIZE
100
AcDbLine
 10
886.5820922616345
 20
-161.651667869639
 30
0.0
 11
886.5820922616345
 21
-149.651667869639
 31
0.0
  0
CIRCLE
  5
F2A0
330
18
100
AcDbEntity
  8
SIZE
100
AcDbCircle
 10
748.9670450098069
 20
33.09010640992607
 30
0.0
 40
6.0
  0
LINE
  5
F2A1
330
18
100
AcDbEntity
  8
SIZE
100
AcDbLine
 10
748.9670450098069
 20
33.09010640992607
 30
0.0
 11
748.9670450098069
 21
21.09010640992607
 31
0.0
  0
CIRCLE
  5
F2A2
330
18
100
AcDbEntity
  8
SIZE
100
AcDbCircle
 10
748.9670450098064
 20
33.09010640992607
 30
0.0
 40
6.0
  0
LINE
  5
F2A3
330
18
100
AcDbEntity
  8
SIZE
100
AcDbLine
 10
748.9670450098064
 20
33.09010640992607
 30
0.0
 11
748.9670450098064
 21
21.09010640992607
 31
0.0
  0
CIRCLE
  5
F2A4
330
18
100
AcDbEntity
  8
SIZE
100
AcDbCircle
 10
748.9670450098064
 20
47.4858022498937
 30
0.0
 40
6.0
  0
LINE
  5
F2A5
330
18
100
AcDbEntity
  8
SIZE
100
AcDbLine
 10
748.9670450098064
 20
47.4858022498937
 30
0.0
 11
748.9670450098064
 21
59.4858022498937
 31
0.0
  0
CIRCLE
  5
F2A6
330
18
100
AcDbEntity
  8
SIZE
100
AcDbCircle
 10
886.5820922616345
 20
47.48580224989456
 30
0.0
 40
6.0
  0
LINE
  5
F2A7
330
18
100
AcDbEntity
  8
SIZE
100
AcDbLine
 10
886.5820922616345
 20
47.48580224989456
 30
0.0
 11
886.5820922616345
 21
35.48580224989457
 31
0.0
  0
TEXT
  5
F2A8
330
18
100
AcDbEntity
  8
SIZE
100
AcDbText
 10
-257.2499940296261
 20
181.1028392563466
 30
0.0
 40
50.0
  1
334.5
 41
0.9
100
AcDbText
  0
CIRCLE
  5
F2A9
330
18
100
AcDbEntity
  8
SIZE
100
AcDbCircle
 10
-327.4021102492683
 20
303.1627038174856
 30
0.0
 40
6.0
  0
LINE
  5
F2AA
330
18
100
AcDbEntity
  8
SIZE
100
AcDbLine
 10
-327.4021102492683
 20
303.1627038174856
 30
0.0
 11
-315.4021102492683
 21
303.1627038174856
 31
0.0
  0
CIRCLE
  5
F2AB
330
18
100
AcDbEntity
  8
SIZE
100
AcDbCircle
 10
-334.4999880592522
 20
303.1627038174856
 30
0.0
 40
6.0
  0
LINE
  5
F2AC
330
18
100
AcDbEntity
  8
SIZE
100
AcDbLine
 10
-334.4999880592522
 20
303.1627038174856
 30
0.0
 11
-346.4999880592522
 21
303.1627038174856
 31
0.0
  0
CIRCLE
  5
F2AD
330
18
100
AcDbEntity
  8
SIZE
100
AcDbCircle
 10
-327.4021102492683
 20
303.1627038174856
 30
0.0
 40
6.0
  0
LINE
  5
F2AE
330
18
100
AcDbEntity
  8
SIZE
100
AcDbLine
 10
-327.4021102492683
 20
303.1627038174856
 30
0.0
 11
-315.4021102492683
 21
303.1627038174856
 31
0.0
  0
CIRCLE
  5
F2AF
330
18
100
AcDbEntity
  8
SIZE
100
AcDbCircle
 10
-334.4999880592522
 20
161.1028392563466
 30
0.0
 40
6.0
  0
LINE
  5
F2B0
330
18
100
AcDbEntity
  8
SIZE
100
AcDbLine
 10
-334.4999880592522
 20
161.1028392563466
 30
0.0
 11
-322.4999880592522
 21
161.1028392563466
 31
0.0
  0
CIRCLE
  5
F2B1
330
18
100
AcDbEntity
  8
SIZE
100
AcDbCircle
 10
-334.4999880592522
 20
452.5927399278271
 30
0.0
 40
6.0
  0
LINE
  5
F2B2
330
18
100
AcDbEntity
  8
SIZE
100
AcDbLine
 10
-334.4999880592522
 20
452.5927399278271
 30
0.0
 11
-322.4999880592522
 21
452.5927399278271
 31
0.0
  0
TEXT
  5
F2B3
330
18
100
AcDbEntity
  8
SIZE
100
AcDbText
 10
-408.4999880592522
 20
323.1627038174856
 30
0.0
 40
50.0
  1
7
 41
0.9
100
AcDbText
  0
TEXT
  5
F2B4
330
18
100
AcDbEntity
  8
SIZE
100
AcDbText
 10
-58.14127038691646
 20
472.5927399278271
 30
0.0
 40
50.0
  1
669
 41
0.9
100
AcDbText
  0
CIRCLE
  5
F2B5
330
18
100
AcDbEntity
  8
SIZE
100
AcDbCircle
 10
0.000000000000006
 20
161.1028392563466
 30
0.0
 40
6.0
  0
LINE
  5
F2B6
330
18
100
AcDbEntity
  8
SIZE
100
AcDbLine
 10
0.000000000000006
 20
161.1028392563466
 30
0.0
 11
-11.99999999999999
 21
161.1028392563466
 31
0.0
  0
TEXT
  5
F2B7
330
18
100
AcDbEntity
  8
SIZE
100
AcDbText
 10
-57.8571428571433
 20
323.1627038174856
 30
0.0
 40
50.0
  1
655
 41
0.9
100
AcDbText
  0
CIRCLE
  5
F2B8
330
18
100
AcDbEntity
  8
SIZE
100
AcDbCircle
 10
327.4021102492679
 20
303.1627038174856
 30
0.0
 40
6.0
  0
LINE
  5
F2B9
330
18
100
AcDbEntity
  8
SIZE
100
AcDbLine
 10
327.4021102492679
 20
303.1627038174856
 30
0.0
 11
315.4021102492679
 21
303.1627038174856
 31
0.0
  0
CIRCLE
  5
F2BA
330
18
100
AcDbEntity
  8
SIZE
100
AcDbCircle
 10
334.4999880592518
 20
452.5927399278271
 30
0.0
 40
6.0
  0
LINE
  5
F2BB
330
18
100
AcDbEntity
  8
SIZE
100
AcDbLine
 10
334.4999880592518
 20
452.5927399278271
 30
0.0
 11
322.4999880592517
 21
452.5927399278271
 31
0.0
  0
LINE
  5
F2C2
330
18
100
AcDbEntity
  8
OUTLINE
100
AcDbLine
 10
299.9103299993289
 20
47.48580224989291
 30
0.0
 11
-299.9103299993298
 21
47.48580224989291
 31
0.0
  0
LINE
  5
F2C4
330
18
100
AcDbEntity
  8
OUTLINE
100
AcDbLine
 10
299.9103299993289
 20
-161.6516678696389
 30
0.0
 11
-299.9103299993298
 21
-161.6516678696389
 31
0.0
  0
LINE
  5
F2CA
330
18
100
AcDbEntity
  8
OUTLINE
100
AcDbLine
 10
299.9103299993294
 20
47.48580224989382
 30
0.0
 11
-299.9103299993298
 21
47.48580224989382
 31
0.0
  0
LINE
  5
F2CB
330
18
100
AcDbEntity
  8
OUTLINE
100
AcDbLine
 10
299.9103299993294
 20
-161.6516678696389
 30
0.0
 11
-299.9103299993298
 21
-161.6516678696389
 31
0.0
  0
LINE
  5
F2D0
330
18
100
AcDbEntity
  8
OUTLINE
100
AcDbLine
 10
-334.4999880592522
 20
-149.6552546696648
 30
0.0
 11
-334.4999880592522
 21
21.69351386995185
 31
0.0
  0
LINE
  5
F2D1
330
18
100
AcDbEntity
  8
OUTLINE
100
AcDbLine
 10
-334.4999880592522
 20
-149.6552546696648
 30
0.0
 11
-334.4999880592522
 21
21.69351386995185
 31
0.0
  0
LINE
  5
F2D2
330
18
100
AcDbEntity
  8
OUTLINE
100
AcDbLine
 10
-321.1039933192819
 20
-159.6522656696424
 30
0.0
 11
-324.5029770592746
 21
-159.6522656696424
 31
0.0
  0
LINE
  5
F2D3
330
18
100
AcDbEntity
  8
OUTLINE
100
AcDbLine
 10
-321.1039933192819
 20
-159.6522656696424
 30
0.0
 11
-324.5029770592746
 21
-159.6522656696424
 31
0.0
  0
ARC
  5
F2D4
330
18
100
AcDbEntity
  8
OUTLINE
100
AcDbCircle
 10
-324.5029770592746
 20
-149.6552546696648
 30
0.0
 40
9.997010999977646
100
AcDbArc
 50
180.0
 51
270.0
  0
ARC
  5
F2D5
330
18
100
AcDbEntity
  8
OUTLINE
100
AcDbCircle
 10
-324.5029770592746
 20
-149.6552546696648
 30
0.0
 40
9.997010999977646
100
AcDbArc
 50
180.0
 51
270.0
  0
LINE
  5
F2D9
330
18
100
AcDbEntity
  8
OUTLINE
100
AcDbLine
 10
-320.5041726592835
 20
-160.4520265496412
 30
0.0
 11
-320.5041726592835
 21
-159.6522656696433
 31
0.0
  0
LINE
  5
F2DB
330
18
100
AcDbEntity
  8
OUTLINE
100
AcDbLine
 10
-320.5041726592835
 20
-160.4520265496412
 30
0.0
 11
-319.8543669442847
 21
-160.4520265496412
 31
0.0
  0
ARC
  5
F2DD
330
18
100
AcDbEntity
  8
OUTLINE
100
AcDbCircle
 10
-318.6547256242879
 20
-160.4520265496412
 30
0.0
 40
1.199641319997367
100
AcDbArc
 50
180.0
 51
270.0
  0
LINE
  5
F2DF
330
18
100
AcDbEntity
  8
OUTLINE
100
AcDbLine
 10
-321.1039933192819
 20
-159.6522656696424
 30
0.0
 11
-320.5041726592835
 21
-159.6522656696433
 31
0.0
  0
LINE
  5
F2E0
330
18
100
AcDbEntity
  8
OUTLINE
100
AcDbLine
 10
-318.1048900192886
 20
-161.6516678696389
 30
0.0
 11
-318.6547256242879
 21
-161.6516678696389
 31
0.0
  0
LINE
  5
F2E1
330
18
100
AcDbEntity
  8
OUTLINE
100
AcDbLine
 10
-299.9103299993298
 20
-161.6516678696389
 30
0.0
 11
-318.1048900192886
 21
-161.6516678696389
 31
0.0
  0
LINE
  5
F2E5
330
18
100
AcDbEntity
  8
OUTLINE
100
AcDbLine
 10
-321.1039933192819
 20
-159.6522656696424
 30
0.0
 11
-320.5041726592835
 21
-159.6522656696433
 31
0.0
  0
LINE
  5
F2F3
330
18
100
AcDbEntity
  8
OUTLINE
100
AcDbLine
 10
-324.5029770592746
 20
31.6905248699295
 30
0.0
 11
-321.1039933192819
 21
31.69052486992859
 31
0.0
  0
LINE
  5
F2F4
330
18
100
AcDbEntity
  8
OUTLINE
100
AcDbLine
 10
-324.5029770592746
 20
31.6905248699295
 30
0.0
 11
-321.1039933192819
 21
31.69052486992859
 31
0.0
  0
ARC
  5
F2F5
330
18
100
AcDbEntity
  8
OUTLINE
100
AcDbCircle
 10
-324.5029770592746
 20
21.69351386995185
 30
0.0
 40
9.997010999977616
100
AcDbArc
 50
90.0
 51
180.0
  0
ARC
  5
F2F6
330
18
100
AcDbEntity
  8
OUTLINE
100
AcDbCircle
 10
-324.5029770592746
 20
21.69351386995185
 30
0.0
 40
9.997010999977616
100
AcDbArc
 50
90.0
 51
180.0
  0
LINE
  5
F2F8
330
18
100
AcDbEntity
  8
OUTLINE
100
AcDbLine
 10
-318.6547256242879
 20
33.68992706992503
 30
0.0
 11
-318.6547256242879
 21
44.48669894990053
 31
0.0
  0
LINE
  5
F2F9
330
18
100
AcDbEntity
  8
OUTLINE
100
AcDbLine
 10
-318.6547256242879
 20
33.68992706992503
 30
0.0
 11
-318.6547256242879
 21
44.48669894990053
 31
0.0
  0
ARC
  5
F300
330
18
100
AcDbEntity
  8
OUTLINE
100
AcDbCircle
 10
-318.6547256242879
 20
31.89046508992851
 30
0.0
 40
1.199641319997417
100
AcDbArc
 50
90.0
 51
180.0
  0
LINE
  5
F303
330
18
100
AcDbEntity
  8
OUTLINE
100
AcDbLine
 10
-321.1039933192819
 20
31.69052486992859
 30
0.0
 11
-320.5041726592835
 21
31.69052486992859
 31
0.0
  0
LINE
  5
F30C
330
18
100
AcDbEntity
  8
OUTLINE
100
AcDbLine
 10
-318.6547256242879
 20
33.68992706992503
 30
0.0
 11
-318.6547256242879
 21
33.09010640992619
 31
0.0
  0
LINE
  5
F30D
330
18
100
AcDbEntity
  8
OUTLINE
100
AcDbLine
 10
-319.8543669442847
 20
31.6905248699295
 30
0.0
 11
-319.8543669442847
 21
31.89046508992851
 31
0.0
  0
LINE
  5
F30F
330
18
100
AcDbEntity
  8
OUTLINE
100
AcDbLine
 10
-321.1039933192819
 20
31.69052486992859
 30
0.0
 11
-319.8543669442845
 21
31.69052486992859
 31
0.0
  0
LINE
  5
F313
330
18
100
AcDbEntity
  8
OUTLINE
100
AcDbLine
 10
-318.6547256242879
 20
33.68992706992503
 30
0.0
 11
-318.6547256242879
 21
33.09010640992619
 31
0.0
  0
ARC
  5
F321
330
18
100
AcDbEntity
  8
OUTLINE
100
AcDbCircle
 10
-315.6556223242946
 20
44.48669894990053
 30
0.0
 40
2.999103299993294
100
AcDbArc
 50
90.0
 51
180.0
  0
LINE
  5
F322
330
18
100
AcDbEntity
  8
OUTLINE
100
AcDbLine
 10
-299.9103299993298
 20
47.48580224989382
 30
0.0
 11
-315.6556223242946
 21
47.48580224989382
 31
0.0
  0
LINE
  5
F323
330
18
100
AcDbEntity
  8
OUTLINE
100
AcDbLine
 10
-299.9103299993298
 20
47.48580224989382
 30
0.0
 11
-315.6556223242946
 21
47.48580224989382
 31
0.0
  0
LINE
  5
F391
330
18
100
AcDbEntity
  8
OUTLINE
100
AcDbLine
 10
334.4999880592522
 20
21.69351386995185
 30
0.0
 11
334.4999880592522
 21
-149.6552546696648
 31
0.0
  0
LINE
  5
F392
330
18
100
AcDbEntity
  8
OUTLINE
100
AcDbLine
 10
334.4999880592518
 20
21.69351386995276
 30
0.0
 11
334.4999880592518
 21
-149.6552546696639
 31
0.0
  0
LINE
  5
F3A6
330
18
100
AcDbEntity
  8
OUTLINE
100
AcDbLine
 10
317.9049497992891
 20
-161.6516678696389
 30
0.0
 11
299.9103299993294
 21
-161.6516678696389
 31
0.0
  0
LINE
  5
F3A7
330
18
100
AcDbEntity
  8
OUTLINE
100
AcDbLine
 10
319.8543669442847
 20
-160.4520265496412
 30
0.0
 11
320.5041726592821
 21
-160.4520265496412
 31
0.0
  0
LINE
  5
F3AA
330
18
100
AcDbEntity
  8
OUTLINE
100
AcDbLine
 10
320.5041726592821
 20
-160.4520265496412
 30
0.0
 11
320.5041726592835
 21
-159.6522656696424
 31
0.0
  0
ARC
  5
F3AB
330
18
100
AcDbEntity
  8
OUTLINE
100
AcDbCircle
 10
324.5029770592746
 20
-149.6552546696648
 30
0.0
 40
9.997010999977646
100
AcDbArc
 50
270.0
 51
0.0
  0
ARC
  5
F3AC
330
18
100
AcDbEntity
  8
OUTLINE
100
AcDbCircle
 10
318.6547256242874
 20
-160.4520265496412
 30
0.0
 40
1.199641319997307
100
AcDbArc
 50
270.0
 51
0.0
  0
LINE
  5
F3B1
330
18
100
AcDbEntity
  8
OUTLINE
100
AcDbLine
 10
317.9049497992891
 20
-161.6516678696389
 30
0.0
 11
318.6547256242874
 21
-161.6516678696389
 31
0.0
  0
LINE
  5
F3B2
330
18
100
AcDbEntity
  8
OUTLINE
100
AcDbLine
 10
321.3039335392814
 20
-159.6522656696424
 30
0.0
 11
320.5041726592835
 21
-159.6522656696424
 31
0.0
  0
LINE
  5
F3B3
330
18
100
AcDbEntity
  8
OUTLINE
100
AcDbLine
 10
324.5029770592746
 20
-159.6522656696424
 30
0.0
 11
321.3039335392814
 21
-159.6522656696424
 31
0.0
  0
ARC
  5
F3B4
330
18
100
AcDbEntity
  8
OUTLINE
100
AcDbCircle
 10
324.5029770592741
 20
-149.6552546696639
 30
0.0
 40
9.997010999977646
100
AcDbArc
 50
270.0
 51
0.0
  0
LINE
  5
F3B5
330
18
100
AcDbEntity
  8
OUTLINE
100
AcDbLine
 10
321.3039335392809
 20
-159.6522656696415
 30
0.0
 11
320.504172659283
 21
-159.6522656696415
 31
0.0
  0
LINE
  5
F3B6
330
18
100
AcDbEntity
  8
OUTLINE
100
AcDbLine
 10
324.5029770592741
 20
-159.6522656696415
 30
0.0
 11
321.3039335392809
 21
-159.6522656696415
 31
0.0
  0
LINE
  5
F3D3
330
18
100
AcDbEntity
  8
OUTLINE
100
AcDbLine
 10
318.6547256242874
 20
44.48669894990053
 30
0.0
 11
318.6547256242874
 21
33.68992706992503
 31
0.0
  0
ARC
  5
F3DC
330
18
100
AcDbEntity
  8
OUTLINE
100
AcDbCircle
 10
324.5029770592746
 20
21.69351386995185
 30
0.0
 40
9.997010999977646
100
AcDbArc
 50
0.0
 51
90.0
  0
ARC
  5
F3DE
330
18
100
AcDbEntity
  8
OUTLINE
100
AcDbCircle
 10
318.6455536295686
 20
31.86832193588415
 30
0.0
 40
1.221818900859112
100
AcDbArc
 50
351.6327033786255
 51
89.56988591143538
  0
LINE
  5
F3DF
330
18
100
AcDbEntity
  8
OUTLINE
100
AcDbLine
 10
321.3039335392814
 20
31.6905248699295
 30
0.0
 11
324.5029770592746
 21
31.6905248699295
 31
0.0
  0
LINE
  5
F3E3
330
18
100
AcDbEntity
  8
OUTLINE
100
AcDbLine
 10
318.6547256242874
 20
33.68992706992503
 30
0.0
 11
318.6547256242874
 21
33.09010640992619
 31
0.0
  0
LINE
  5
F3E9
330
18
100
AcDbEntity
  8
OUTLINE
100
AcDbLine
 10
320.5041726592835
 20
31.6905248699295
 30
0.0
 11
321.3039335392814
 21
31.6905248699295
 31
0.0
  0
LINE
  5
F3EA
330
18
100
AcDbEntity
  8
OUTLINE
100
AcDbLine
 10
319.8543669442847
 20
31.69052486993041
 30
0.0
 11
319.8543669442847
 21
31.6905248699295
 31
0.0
  0
ARC
  5
F3EB
330
18
100
AcDbEntity
  8
OUTLINE
100
AcDbCircle
 10
324.5029770592741
 20
21.69351386995276
 30
0.0
 40
9.997010999977646
100
AcDbArc
 50
0.0
 51
90.0
  0
LINE
  5
F3EC
330
18
100
AcDbEntity
  8
OUTLINE
100
AcDbLine
 10
321.3039335392809
 20
31.69052486993041
 30
0.0
 11
324.5029770592741
 21
31.69052486993041
 31
0.0
  0
LINE
  5
F3EE
330
18
100
AcDbEntity
  8
OUTLINE
100
AcDbLine
 10
318.654725624287
 20
33.68992706992594
 30
0.0
 11
318.654725624287
 21
33.0901064099271
 31
0.0
  0
LINE
  5
F3F1
330
18
100
AcDbEntity
  8
OUTLINE
100
AcDbLine
 10
319.8543669442847
 20
31.69052486993041
 30
0.0
 11
321.3039335392809
 21
31.69052486993041
 31
0.0
  0
LINE
  5
F3F9
330
18
100
AcDbEntity
  8
OUTLINE
100
AcDbLine
 10
299.9103299993294
 20
47.48580224989382
 30
0.0
 11
315.6556223242942
 21
47.48580224989382
 31
0.0
  0
LINE
  5
F3FA
330
18
100
AcDbEntity
  8
OUTLINE
100
AcDbLine
 10
299.9103299993289
 20
47.48580224989473
 30
0.0
 11
315.6556223242937
 21
47.48580224989473
 31
0.0
  0
ARC
  5
F3FB
330
18
100
AcDbEntity
  8
OUTLINE
100
AcDbCircle
 10
315.6556223242942
 20
44.48669894990053
 30
0.0
 40
2.999103299993294
100
AcDbArc
 50
0.0
 51
90.0
  0
ENDSEC
  0
SECTION
  2
OBJECTS
  0
DICTIONARY
  5
C
330
0
100
AcDbDictionary
  3
ACAD_GROUP
350
D
  3
ACAD_LAYOUT
350
FD9
  3
ACAD_MLINESTYLE
350
1B
  3
ACAD_PLOTSETTINGS
350
FDA
  3
ACAD_PLOTSTYLENAME
350
FD7
  3
ACDBHEADERROUNDTRIPXREC
350
F401
  3
DWGPROPS
350
F0FD
  0
DICTIONARY
  5
F424
330
18
100
AcDbDictionary
280
     1
  3
ACAD_LAYOUTSELFREF
360
F425
  0
DICTIONARY
  5
F422
330
15
100
AcDbDictionary
280
     1
  3
ACAD_LAYOUTSELFREF
360
F423
  0
DICTIONARY
  5
D
102
{ACAD_REACTORS
330
C
102
}
330
C
100
AcDbDictionary
  0
DICTIONARY
  5
FD9
102
{ACAD_REACTORS
330
C
102
}
330
C
100
AcDbDictionary
  0
DICTIONARY
  5
1B
102
{ACAD_REACTORS
330
C
102
}
330
C
100
AcDbDictionary
  3
STANDARD
350
1C
  0
DICTIONARY
  5
FDA
102
{ACAD_REACTORS
330
C
102
}
330
C
100
AcDbDictionary
  0
ACDBDICTIONARYWDFLT
  5
FD7
102
{ACAD_REACTORS
330
C
102
}
330
C
100
AcDbDictionary
281
     1
  3
Normal
350
FD8
100
AcDbDictionaryWithDefault
340
FD8
  0
DICTIONARY
  5
F401
102
{ACAD_REACTORS
330
C
102
}
330
C
100
AcDbDictionary
  3
CEPSNTYPE
350
F40B
  3
DIMSTYLEDATA
350
F40F
  3
FINGERPRINTGUID
350
F40C
  3
HYPERLINKBASE
350
F404
  3
INSUNITS
350
F40A
  3
LAYOUTDICT
350
F406
  3
LWETCUNION
350
F409
  3
PLOTSETDICT
350
F407
  3
PLOTSTYLNAMDICT
350
F408
  3
PSVPSCALE
350
F40E
  3
PUCSBASE
350
F412
  3
PUCSORGBACK
350
F418
  3
PUCSORGBOTTOM
350
F414
  3
PUCSORGFRONT
350
F417
  3
PUCSORGLEFT
350
F415
  3
PUCSORGRIGHT
350
F416
  3
PUCSORGTOP
350
F413
  3
PUCSORTHOREF
350
F410
  3
PUCSORTHOVIEW
350
F411
  3
STYLESHEET
350
F405
  3
TSTACKALIGN
350
F402
  3
TSTACKSIZE
350
F403
  3
UCSBASE
350
F41B
  3
UCSORGBACK
350
F421
  3
UCSORGBOTTOM
350
F41D
  3
UCSORGFRONT
350
F420
  3
UCSORGLEFT
350
F41E
  3
UCSORGRIGHT
350
F41F
  3
UCSORGTOP
350
F41C
  3
UCSORTHOREF
350
F419
  3
UCSORTHOVIEW
350
F41A
  3
VERSIONGUID
350
F40D
  0
XRECORD
  5
F0FD
102
{ACAD_REACTORS
330
C
102
}
330
C
100
AcDbXrecord
  1
DWGPROPS COOKIE
  2

  3

  4

  6

  7

  8

  9

300
=
301
=
302
=
303
=
304
=
305
=
306
=
307
=
308
=
309
=
 40
4.989876724537037
 41
2449761.493622685
 42
2454059.577329282
  1

 90
        0
  0
XRECORD
  5
F425
102
{ACAD_REACTORS
330
F424
102
}
330
F424
100
AcDbXrecord
340
18
  0
XRECORD
  5
F423
102
{ACAD_REACTORS
330
F422
102
}
330
F422
100
AcDbXrecord
340
15
  0
MLINESTYLE
  5
1C
102
{ACAD_REACTORS
330
1B
102
}
330
1B
100
AcDbMlineStyle
  2
STANDARD
 70
     0
  3

 62
   256
 51
90.0
 52
90.0
 71
     2
 49
0.5
 62
   256
  6
BYLAYER
 49
-0.5
 62
   256
  6
BYLAYER
  0
ACDBPLACEHOLDER
  5
FD8
102
{ACAD_REACTORS
330
FD7
102
}
330
FD7
100
AcDbPlaceHolder
280
     0
  0
XRECORD
  5
F40B
102
{ACAD_REACTORS
330
F401
102
}
330
F401
100
AcDbXrecord
 90
        0
  0
XRECORD
  5
F40F
102
{ACAD_REACTORS
330
F401
102
}
330
F401
100
AcDbXrecord
1000
DSTYLE
1002
{
1070
   341
340
24C
1070
   343
340
24C
1070
   344
340
24C
1002
}
  0
XRECORD
  5
F40C
102
{ACAD_REACTORS
330
F401
102
}
330
F401
100
AcDbXrecord
  1
{A4E2D666-79C1-40CA-A6AF-C72AE7BABF3A}
  0
XRECORD
  5
F404
102
{ACAD_REACTORS
330
F401
102
}
330
F401
100
AcDbXrecord
  1

  0
XRECORD
  5
F40A
102
{ACAD_REACTORS
330
F401
102
}
330
F401
100
AcDbXrecord
 90
        0
  0
XRECORD
  5
F406
102
{ACAD_REACTORS
330
F401
102
}
330
F401
100
AcDbXrecord
340
FD9
  0
XRECORD
  5
F409
102
{ACAD_REACTORS
330
F401
102
}
330
F401
100
AcDbXrecord
 90
    14877
  0
XRECORD
  5
F407
102
{ACAD_REACTORS
330
F401
102
}
330
F401
100
AcDbXrecord
340
FDA
  0
XRECORD
  5
F408
102
{ACAD_REACTORS
330
F401
102
}
330
F401
100
AcDbXrecord
340
FD7
  0
XRECORD
  5
F40E
102
{ACAD_REACTORS
330
F401
102
}
330
F401
100
AcDbXrecord
 40
0.0
  0
XRECORD
  5
F412
102
{ACAD_REACTORS
330
F401
102
}
330
F401
100
AcDbXrecord
340
0
  0
XRECORD
  5
F418
102
{ACAD_REACTORS
330
F401
102
}
330
F401
100
AcDbXrecord
 10
0.0
 20
0.0
 30
0.0
  0
XRECORD
  5
F414
102
{ACAD_REACTORS
330
F401
102
}
330
F401
100
AcDbXrecord
 10
0.0
 20
0.0
 30
0.0
  0
XRECORD
  5
F417
102
{ACAD_REACTORS
330
F401
102
}
330
F401
100
AcDbXrecord
 10
0.0
 20
0.0
 30
0.0
  0
XRECORD
  5
F415
102
{ACAD_REACTORS
330
F401
102
}
330
F401
100
AcDbXrecord
 10
0.0
 20
0.0
 30
0.0
  0
XRECORD
  5
F416
102
{ACAD_REACTORS
330
F401
102
}
330
F401
100
AcDbXrecord
 10
0.0
 20
0.0
 30
0.0
  0
XRECORD
  5
F413
102
{ACAD_REACTORS
330
F401
102
}
330
F401
100
AcDbXrecord
 10
0.0
 20
0.0
 30
0.0
  0
XRECORD
  5
F410
102
{ACAD_REACTORS
330
F401
102
}
330
F401
100
AcDbXrecord
340
0
  0
XRECORD
  5
F411
102
{ACAD_REACTORS
330
F401
102
}
330
F401
100
AcDbXrecord
 70
     0
  0
XRECORD
  5
F405
102
{ACAD_REACTORS
330
F401
102
}
330
F401
100
AcDbXrecord
  1

  0
XRECORD
  5
F402
102
{ACAD_REACTORS
330
F401
102
}
330
F401
100
AcDbXrecord
 90
        1
  0
XRECORD
  5
F403
102
{ACAD_REACTORS
330
F401
102
}
330
F401
100
AcDbXrecord
 90
       70
  0
XRECORD
  5
F41B
102
{ACAD_REACTORS
330
F401
102
}
330
F401
100
AcDbXrecord
340
0
  0
XRECORD
  5
F421
102
{ACAD_REACTORS
330
F401
102
}
330
F401
100
AcDbXrecord
 10
0.0
 20
0.0
 30
0.0
  0
XRECORD
  5
F41D
102
{ACAD_REACTORS
330
F401
102
}
330
F401
100
AcDbXrecord
 10
0.0
 20
0.0
 30
0.0
  0
XRECORD
  5
F420
102
{ACAD_REACTORS
330
F401
102
}
330
F401
100
AcDbXrecord
 10
0.0
 20
0.0
 30
0.0
  0
XRECORD
  5
F41E
102
{ACAD_REACTORS
330
F401
102
}
330
F401
100
AcDbXrecord
 10
0.0
 20
0.0
 30
0.0
  0
XRECORD
  5
F41F
102
{ACAD_REACTORS
330
F401
102
}
330
F401
100
AcDbXrecord
 10
0.0
 20
0.0
 30
0.0
  0
XRECORD
  5
F41C
102
{ACAD_REACTORS
330
F401
102
}
330
F401
100
AcDbXrecord
 10
0.0
 20
0.0
 30
0.0
  0
XRECORD
  5
F419
102
{ACAD_REACTORS
330
F401
102
}
330
F401
100
AcDbXrecord
340
0
  0
XRECORD
  5
F41A
102
{ACAD_REACTORS
330
F401
102
}
330
F401
100
AcDbXrecord
 70
     0
  0
XRECORD
  5
F40D
102
{ACAD_REACTORS
330
F401
102
}
330
F401
100
AcDbXrecord
  1
{89DF0630-6CA5-4A45-B7A7-6E9E7908409D}
  0
ENDSEC
  0
EOF
