  0
SECTION
  2
HEADER
  9
$ACADVER
  1
AC1014
  9
$ACADMAINTVER
 70
     9
  9
$DWGCODEPAGE
  3
ANSI_932
  9
$INSBASE
 10
0.0
 20
0.0
 30
0.0
  9
$EXTMIN
 10
-724.1028224453584
 20
-718.6370393285487
 30
-0.0015258207003583
  9
$EXTMAX
 10
1203.245035629355
 20
635.5688157264831
 30
0.0000000349246037
  9
$LIMMIN
 10
-881.548058905777
 20
-887.234658723857
  9
$LIMMAX
 10
1349.483524290077
 20
832.2507980278933
  9
$ORTHOMODE
 70
     1
  9
$REGENMODE
 70
     1
  9
$FILLMODE
 70
     1
  9
$QTEXTMODE
 70
     0
  9
$MIRRTEXT
 70
     0
  9
$DRAGMODE
 70
     2
  9
$LTSCALE
 40
20.0
  9
$OSMODE
 70
    39
  9
$ATTMODE
 70
     1
  9
$TEXTSIZE
 40
64.0
  9
$TRACEWID
 40
0.05
  9
$TEXTSTYLE
  7
STANDARD
  9
$CLAYER
  8
SIZE
  9
$CELTYPE
  6
BYLAYER
  9
$CECOLOR
 62
   256
  9
$CELTSCALE
 40
1.0
  9
$DELOBJ
 70
     1
  9
$DISPSILH
 70
     0
  9
$DIMSCALE
 40
0.0
  9
$DIMASZ
 40
12.0
  9
$DIMEXO
 40
20.0
  9
$DIMDLI
 40
10.0
  9
$DIMRND
 40
0.0
  9
$DIMDLE
 40
0.0
  9
$DIMEXE
 40
30.0
  9
$DIMTP
 40
0.0
  9
$DIMTM
 40
0.0
  9
$DIMTXT
 40
50.0
  9
$DIMCEN
 40
0.0
  9
$DIMTSZ
 40
0.0
  9
$DIMTOL
 70
     0
  9
$DIMLIM
 70
     0
  9
$DIMTIH
 70
     0
  9
$DIMTOH
 70
     0
  9
$DIMSE1
 70
     0
  9
$DIMSE2
 70
     0
  9
$DIMTAD
 70
     1
  9
$DIMZIN
 70
     0
  9
$DIMBLK
  1

  9
$DIMASO
 70
     1
  9
$DIMSHO
 70
     0
  9
$DIMPOST
  1

  9
$DIMAPOST
  1

  9
$DIMALT
 70
     0
  9
$DIMALTD
 70
     2
  9
$DIMALTF
 40
25.4
  9
$DIMLFAC
 40
1.0
  9
$DIMTOFL
 70
     1
  9
$DIMTVP
 40
0.0
  9
$DIMTIX
 70
     0
  9
$DIMSOXD
 70
     0
  9
$DIMSAH
 70
     1
  9
$DIMBLK1
  1
ORIGIN
  9
$DIMBLK2
  1
ORIGIN
  9
$DIMSTYLE
  2
STANDARD
  9
$DIMCLRD
 70
     0
  9
$DIMCLRE
 70
     0
  9
$DIMCLRT
 70
     0
  9
$DIMTFAC
 40
1.0
  9
$DIMGAP
 40
20.0
  9
$DIMJUST
 70
     0
  9
$DIMSD1
 70
     0
  9
$DIMSD2
 70
     0
  9
$DIMTOLJ
 70
     1
  9
$DIMTZIN
 70
     0
  9
$DIMALTZ
 70
     0
  9
$DIMALTTZ
 70
     0
  9
$DIMFIT
 70
     3
  9
$DIMUPT
 70
     0
  9
$DIMUNIT
 70
     2
  9
$DIMDEC
 70
     1
  9
$DIMTDEC
 70
     1
  9
$DIMALTU
 70
     2
  9
$DIMALTTD
 70
     2
  9
$DIMTXSTY
  7
STANDARD
  9
$DIMAUNIT
 70
     0
  9
$LUNITS
 70
     2
  9
$LUPREC
 70
     4
  9
$SKETCHINC
 40
0.1
  9
$FILLETRAD
 40
50.0
  9
$AUNITS
 70
     1
  9
$AUPREC
 70
     3
  9
$MENU
  1
ACAD
  9
$ELEVATION
 40
0.0
  9
$PELEVATION
 40
0.0
  9
$THICKNESS
 40
0.0
  9
$LIMCHECK
 70
     0
  9
$BLIPMODE
 70
     0
  9
$CHAMFERA
 40
0.0
  9
$CHAMFERB
 40
0.0
  9
$CHAMFERC
 40
0.0
  9
$CHAMFERD
 40
0.0
  9
$SKPOLY
 70
     0
  9
$TDCREATE
 40
2449761.493622685
  9
$TDUPDATE
 40
2454347.543808044
  9
$TDINDWG
 40
4.9477960995
  9
$TDUSRTIMER
 40
4.9477960995
  9
$USRTIMER
 70
     1
  9
$ANGBASE
 50
0.0
  9
$ANGDIR
 70
     0
  9
$PDMODE
 70
    35
  9
$PDSIZE
 40
20.0
  9
$PLINEWID
 40
0.0
  9
$COORDS
 70
     1
  9
$SPLFRAME
 70
     0
  9
$SPLINETYPE
 70
     6
  9
$SPLINESEGS
 70
     8
  9
$ATTDIA
 70
     0
  9
$ATTREQ
 70
     1
  9
$HANDLING
 70
-16383
  9
$HANDSEED
  5
F31F
  9
$SURFTAB1
 70
     6
  9
$SURFTAB2
 70
     6
  9
$SURFTYPE
 70
     6
  9
$SURFU
 70
     6
  9
$SURFV
 70
     6
  9
$UCSNAME
  2

  9
$UCSORG
 10
0.0
 20
0.0
 30
0.0
  9
$UCSXDIR
 10
1.0
 20
0.0
 30
0.0
  9
$UCSYDIR
 10
0.0
 20
1.0
 30
0.0
  9
$PUCSNAME
  2

  9
$PUCSORG
 10
0.0
 20
0.0
 30
0.0
  9
$PUCSXDIR
 10
1.0
 20
0.0
 30
0.0
  9
$PUCSYDIR
 10
0.0
 20
1.0
 30
0.0
  9
$USERI1
 70
     0
  9
$USERI2
 70
     0
  9
$USERI3
 70
     0
  9
$USERI4
 70
     0
  9
$USERI5
 70
     0
  9
$USERR1
 40
20.0
  9
$USERR2
 40
0.0
  9
$USERR3
 40
0.0
  9
$USERR4
 40
0.0
  9
$USERR5
 40
0.0
  9
$WORLDVIEW
 70
     1
  9
$SHADEDGE
 70
     3
  9
$SHADEDIF
 70
    70
  9
$TILEMODE
 70
     1
  9
$MAXACTVP
 70
    48
  9
$PINSBASE
 10
0.0
 20
0.0
 30
0.0
  9
$PLIMCHECK
 70
     0
  9
$PEXTMIN
 10
1.000000000000000E+20
 20
1.000000000000000E+20
 30
1.000000000000000E+20
  9
$PEXTMAX
 10
-1.000000000000000E+20
 20
-1.000000000000000E+20
 30
-1.000000000000000E+20
  9
$PLIMMIN
 10
0.0
 20
0.0
  9
$PLIMMAX
 10
12.0
 20
9.0
  9
$UNITMODE
 70
     0
  9
$VISRETAIN
 70
     1
  9
$PLINEGEN
 70
     0
  9
$PSLTSCALE
 70
     1
  9
$TREEDEPTH
 70
  3020
  9
$PICKSTYLE
 70
     1
  9
$CMLSTYLE
  2
STANDARD
  9
$CMLJUST
 70
     0
  9
$CMLSCALE
 40
1.0
  9
$PROXYGRAPHICS
 70
     1
  9
$MEASUREMENT
 70
     0
  0
ENDSEC
  0
SECTION
  2
CLASSES
  0
CLASS
  1
ACDBDICTIONARYWDFLT
  2
AcDbDictionaryWithDefault
  3
AutoCAD 2000
 90
        0
280
     0
281
     0
  0
CLASS
  1
ACDBPLACEHOLDER
  2
AcDbPlaceHolder
  3
AutoCAD 2000
 90
        0
280
     0
281
     0
  0
CLASS
  1
LAYOUT
  2
AcDbLayout
  3
AutoCAD 2000
 90
        0
280
     0
281
     0
  0
CLASS
  1
LONG_TRANSACTION
  2
AcDbLongTransaction
  3
AutoCAD 2000
 90
        0
280
     0
281
     0
  0
CLASS
  1
LWPOLYLINE
  2
AcDbPolyline
  3
AutoCAD 2000
 90
        0
280
     0
281
     1
  0
CLASS
  1
HATCH
  2
AcDbHatch
  3
AutoCAD 2000
 90
        0
280
     0
281
     1
  0
CLASS
  1
XRECORD
  2
AcDbXrecord
  3
AutoCAD 2000
 90
        0
280
     0
281
     0
  0
ENDSEC
  0
SECTION
  2
TABLES
  0
TABLE
  2
VPORT
  5
8
330
0
100
AcDbSymbolTable
 70
    10
  0
VPORT
  5
F2F9
330
8
100
AcDbSymbolTableRecord
100
AcDbViewportTableRecord
  2
*ACTIVE
 70
     0
 10
0.0
 20
0.0
 11
1.0
 21
1.0
 12
219.770267664066
 22
17.11735839406719
 13
0.0
 23
0.0
 14
50.0
 24
50.0
 15
100.0
 25
100.0
 16
0.0
 26
0.0
 36
1.0
 17
0.0
 27
0.0
 37
0.0
 40
3321.364555342447
 41
1.26283618581907
 42
50.0
 43
0.0
 44
0.0
 50
0.0
 51
0.0
 71
     0
 72
  1000
 73
     1
 74
     0
 75
     0
 76
     0
 77
     0
 78
     0
  0
ENDTAB
  0
TABLE
  2
LTYPE
  5
5
330
0
100
AcDbSymbolTable
 70
     6
  0
LTYPE
  5
12
330
5
100
AcDbSymbolTableRecord
100
AcDbLinetypeTableRecord
  2
BYBLOCK
 70
     0
  3

 72
    65
 73
     0
 40
0.0
  0
LTYPE
  5
13
330
5
100
AcDbSymbolTableRecord
100
AcDbLinetypeTableRecord
  2
BYLAYER
 70
     0
  3

 72
    65
 73
     0
 40
0.0
  0
LTYPE
  5
14
330
5
100
AcDbSymbolTableRecord
100
AcDbLinetypeTableRecord
  2
CONTINUOUS
 70
     0
  3
実線
 72
    65
 73
     0
 40
0.0
  0
LTYPE
  5
20
330
5
100
AcDbSymbolTableRecord
100
AcDbLinetypeTableRecord
  2
BYBLOCK
 70
     0
  3

 72
    65
 73
     0
 40
0.0
  0
LTYPE
  5
21
330
5
100
AcDbSymbolTableRecord
100
AcDbLinetypeTableRecord
  2
BYLAYER
 70
     0
  3

 72
    65
 73
     0
 40
0.0
  0
LTYPE
  5
22
330
5
100
AcDbSymbolTableRecord
100
AcDbLinetypeTableRecord
  2
DASHDOT
 70
     0
  3
____ _ ____ _ ____ _ ____ _ ____ _ ____ _ ____
 72
    65
 73
     4
 40
5.5
 49
4.0
 74
     0
 49
-0.6
 74
     0
 49
0.3
 74
     0
 49
-0.6
 74
     0
  0
LTYPE
  5
B04A
330
5
100
AcDbSymbolTableRecord
100
AcDbLinetypeTableRecord
  2
DASHED2
 70
     0
  3
Dashed (.5x) _ _ _ _ _ _ _ _ _ _ _ _ _ _ _ _ _
 72
    65
 73
     2
 40
0.375
 49
0.25
 74
     0
 49
-0.125
 74
     0
  0
LTYPE
  5
D53E
330
5
100
AcDbSymbolTableRecord
100
AcDbLinetypeTableRecord
  2
DASHED
 70
     0
  3
Dashed __ __ __ __ __ __ __ __ __ __ __ __ __ _
 72
    65
 73
     2
 40
0.75
 49
0.5
 74
     0
 49
-0.25
 74
     0
  0
ENDTAB
  0
TABLE
  2
LAYER
  5
2
330
0
100
AcDbSymbolTable
 70
    10
  0
LAYER
  5
E
330
2
100
AcDbSymbolTableRecord
100
AcDbLayerTableRecord
  2
0
 70
     0
 62
     7
  6
CONTINUOUS
  0
LAYER
  5
1F
330
2
100
AcDbSymbolTableRecord
100
AcDbLayerTableRecord
  2
SIZE
 70
     0
 62
    30
  6
CONTINUOUS
  0
LAYER
  5
23
330
2
100
AcDbSymbolTableRecord
100
AcDbLayerTableRecord
  2
OUTLINE
 70
     0
 62
     3
  6
CONTINUOUS
  0
LAYER
  5
24
330
2
100
AcDbSymbolTableRecord
100
AcDbLayerTableRecord
  2
DETAIL
 70
     0
 62
     5
  6
CONTINUOUS
  0
LAYER
  5
25
330
2
100
AcDbSymbolTableRecord
100
AcDbLayerTableRecord
  2
BASIS
 70
     0
 62
     6
  6
DASHDOT
  0
LAYER
  5
26
330
2
100
AcDbSymbolTableRecord
100
AcDbLayerTableRecord
  2
NOTE
 70
     0
 62
     4
  6
CONTINUOUS
  0
LAYER
  5
27
330
2
100
AcDbSymbolTableRecord
100
AcDbLayerTableRecord
  2
ARRANGE
 70
     0
 62
     1
  6
CONTINUOUS
  0
LAYER
  5
28
330
2
100
AcDbSymbolTableRecord
100
AcDbLayerTableRecord
  2
FIX
 70
     0
 62
    11
  6
CONTINUOUS
  0
LAYER
  5
2A
330
2
100
AcDbSymbolTableRecord
100
AcDbLayerTableRecord
  2
ETC
 70
     0
 62
    61
  6
CONTINUOUS
  0
LAYER
  5
2C
330
2
100
AcDbSymbolTableRecord
100
AcDbLayerTableRecord
  2
DEFPOINTS
 70
     0
 62
     7
  6
CONTINUOUS
  0
ENDTAB
  0
TABLE
  2
STYLE
  5
3
330
0
100
AcDbSymbolTable
 70
     2
  0
STYLE
  5
F
330
3
100
AcDbSymbolTableRecord
100
AcDbTextStyleTableRecord
  2
STANDARD
 70
     0
 40
0.0
 41
0.9
 50
0.0
 71
     0
 42
64.0
  3
SIMPLEX
  4
BIGFONT
  0
STYLE
  5
CBF6
330
3
100
AcDbSymbolTableRecord
100
AcDbTextStyleTableRecord
  2
ZU_SHPTB00001
 70
     0
 40
0.0
 41
1.0
 50
0.0
 71
     0
 42
0.0
  3
monotxt
  4
bigfont
  0
ENDTAB
  0
TABLE
  2
VIEW
  5
6
330
0
100
AcDbSymbolTable
 70
     1
  0
VIEW
  5
2D
330
6
100
AcDbSymbolTableRecord
100
AcDbViewTableRecord
  2
ALL
 70
     0
 40
6056.230032000001
 10
0.0
 20
58.11501599999999
 41
8400.0
 11
0.0
 21
0.0
 31
1.0
 12
0.0
 22
0.0
 32
0.0
 42
50.0
 43
0.0
 44
0.0
 50
0.0
 71
     0
  0
ENDTAB
  0
TABLE
  2
UCS
  5
7
330
0
100
AcDbSymbolTable
 70
     0
  0
ENDTAB
  0
TABLE
  2
APPID
  5
9
330
0
100
AcDbSymbolTable
 70
     1
  0
APPID
  5
10
330
9
100
AcDbSymbolTableRecord
100
AcDbRegAppTableRecord
  2
ACAD
 70
     0
  0
ENDTAB
  0
TABLE
  2
DIMSTYLE
  5
A
330
0
100
AcDbSymbolTable
 70
     1
  0
DIMSTYLE
105
15C
330
A
100
AcDbSymbolTableRecord
100
AcDbDimStyleTableRecord
  2
STANDARD
 70
     0
  3

  4

  5

  6

  7

 40
1.0
 41
0.18
 42
0.0625
 43
0.38
 44
0.18
 45
0.0
 46
0.0
 47
0.0
 48
0.0
140
0.18
141
0.09
142
0.0
143
25.4
144
1.0
145
0.0
146
1.0
147
0.09
 71
     0
 72
     0
 73
     1
 74
     1
 75
     0
 76
     0
 77
     0
 78
     0
170
     0
171
     2
172
     0
173
     0
174
     0
175
     0
176
     0
177
     0
178
     0
270
     2
271
     4
272
     4
273
     2
274
     2
340
F
275
     0
280
     0
281
     0
282
     0
283
     1
284
     0
285
     0
286
     0
287
     3
288
     0
  0
ENDTAB
  0
TABLE
  2
BLOCK_RECORD
  5
1
330
0
100
AcDbSymbolTable
 70
    67
  0
BLOCK_RECORD
  5
18
102
{ACAD_XDICTIONARY
360
F31D
102
}
330
1
100
AcDbSymbolTableRecord
100
AcDbBlockTableRecord
  2
*MODEL_SPACE
  0
BLOCK_RECORD
  5
15
102
{ACAD_XDICTIONARY
360
F31B
102
}
330
1
100
AcDbSymbolTableRecord
100
AcDbBlockTableRecord
  2
*PAPER_SPACE
  0
BLOCK_RECORD
  5
24C
330
1
100
AcDbSymbolTableRecord
100
AcDbBlockTableRecord
  2
_ORIGIN
  0
BLOCK_RECORD
  5
DE46
330
1
100
AcDbSymbolTableRecord
100
AcDbBlockTableRecord
  2
*D1
  0
BLOCK_RECORD
  5
DE5F
330
1
100
AcDbSymbolTableRecord
100
AcDbBlockTableRecord
  2
*D2
  0
BLOCK_RECORD
  5
DE89
330
1
100
AcDbSymbolTableRecord
100
AcDbBlockTableRecord
  2
*D3
  0
BLOCK_RECORD
  5
DE9A
330
1
100
AcDbSymbolTableRecord
100
AcDbBlockTableRecord
  2
*D4
  0
BLOCK_RECORD
  5
DEA9
330
1
100
AcDbSymbolTableRecord
100
AcDbBlockTableRecord
  2
*D5
  0
BLOCK_RECORD
  5
DEB6
330
1
100
AcDbSymbolTableRecord
100
AcDbBlockTableRecord
  2
*D6
  0
BLOCK_RECORD
  5
DED7
330
1
100
AcDbSymbolTableRecord
100
AcDbBlockTableRecord
  2
*D7
  0
BLOCK_RECORD
  5
DEE4
330
1
100
AcDbSymbolTableRecord
100
AcDbBlockTableRecord
  2
*D8
  0
BLOCK_RECORD
  5
DEF1
330
1
100
AcDbSymbolTableRecord
100
AcDbBlockTableRecord
  2
*D9
  0
BLOCK_RECORD
  5
DF00
330
1
100
AcDbSymbolTableRecord
100
AcDbBlockTableRecord
  2
*D10
  0
BLOCK_RECORD
  5
DF2B
330
1
100
AcDbSymbolTableRecord
100
AcDbBlockTableRecord
  2
*D11
  0
BLOCK_RECORD
  5
DF4A
330
1
100
AcDbSymbolTableRecord
100
AcDbBlockTableRecord
  2
*D12
  0
BLOCK_RECORD
  5
DF59
330
1
100
AcDbSymbolTableRecord
100
AcDbBlockTableRecord
  2
*D13
  0
BLOCK_RECORD
  5
DF66
330
1
100
AcDbSymbolTableRecord
100
AcDbBlockTableRecord
  2
*D14
  0
BLOCK_RECORD
  5
DF73
330
1
100
AcDbSymbolTableRecord
100
AcDbBlockTableRecord
  2
*D15
  0
BLOCK_RECORD
  5
DF97
330
1
100
AcDbSymbolTableRecord
100
AcDbBlockTableRecord
  2
*D16
  0
BLOCK_RECORD
  5
DFE9
330
1
100
AcDbSymbolTableRecord
100
AcDbBlockTableRecord
  2
*D17
  0
BLOCK_RECORD
  5
DFF6
330
1
100
AcDbSymbolTableRecord
100
AcDbBlockTableRecord
  2
*D18
  0
BLOCK_RECORD
  5
E006
330
1
100
AcDbSymbolTableRecord
100
AcDbBlockTableRecord
  2
*D19
  0
BLOCK_RECORD
  5
E013
330
1
100
AcDbSymbolTableRecord
100
AcDbBlockTableRecord
  2
*D20
  0
BLOCK_RECORD
  5
E023
330
1
100
AcDbSymbolTableRecord
100
AcDbBlockTableRecord
  2
*D21
  0
BLOCK_RECORD
  5
E033
330
1
100
AcDbSymbolTableRecord
100
AcDbBlockTableRecord
  2
*D22
  0
BLOCK_RECORD
  5
E040
330
1
100
AcDbSymbolTableRecord
100
AcDbBlockTableRecord
  2
*D23
  0
BLOCK_RECORD
  5
E04F
330
1
100
AcDbSymbolTableRecord
100
AcDbBlockTableRecord
  2
*D24
  0
BLOCK_RECORD
  5
E05E
330
1
100
AcDbSymbolTableRecord
100
AcDbBlockTableRecord
  2
*D25
  0
BLOCK_RECORD
  5
E06D
330
1
100
AcDbSymbolTableRecord
100
AcDbBlockTableRecord
  2
*D26
  0
BLOCK_RECORD
  5
E07C
330
1
100
AcDbSymbolTableRecord
100
AcDbBlockTableRecord
  2
*D27
  0
BLOCK_RECORD
  5
E08B
330
1
100
AcDbSymbolTableRecord
100
AcDbBlockTableRecord
  2
*D28
  0
BLOCK_RECORD
  5
E0AF
330
1
100
AcDbSymbolTableRecord
100
AcDbBlockTableRecord
  2
*D29
  0
BLOCK_RECORD
  5
E0DC
330
1
100
AcDbSymbolTableRecord
100
AcDbBlockTableRecord
  2
*D30
  0
BLOCK_RECORD
  5
E0EC
330
1
100
AcDbSymbolTableRecord
100
AcDbBlockTableRecord
  2
*D31
  0
BLOCK_RECORD
  5
E2C1
330
1
100
AcDbSymbolTableRecord
100
AcDbBlockTableRecord
  2
*D32
  0
BLOCK_RECORD
  5
E2CD
330
1
100
AcDbSymbolTableRecord
100
AcDbBlockTableRecord
  2
*D33
  0
BLOCK_RECORD
  5
E2D9
330
1
100
AcDbSymbolTableRecord
100
AcDbBlockTableRecord
  2
*D34
  0
BLOCK_RECORD
  5
E2E7
330
1
100
AcDbSymbolTableRecord
100
AcDbBlockTableRecord
  2
*D35
  0
BLOCK_RECORD
  5
E2F3
330
1
100
AcDbSymbolTableRecord
100
AcDbBlockTableRecord
  2
*D36
  0
BLOCK_RECORD
  5
E2FF
330
1
100
AcDbSymbolTableRecord
100
AcDbBlockTableRecord
  2
*D37
  0
BLOCK_RECORD
  5
E30D
330
1
100
AcDbSymbolTableRecord
100
AcDbBlockTableRecord
  2
*D38
  0
BLOCK_RECORD
  5
E319
330
1
100
AcDbSymbolTableRecord
100
AcDbBlockTableRecord
  2
*D39
  0
BLOCK_RECORD
  5
E327
330
1
100
AcDbSymbolTableRecord
100
AcDbBlockTableRecord
  2
*D40
  0
BLOCK_RECORD
  5
E335
330
1
100
AcDbSymbolTableRecord
100
AcDbBlockTableRecord
  2
*D41
  0
BLOCK_RECORD
  5
E343
330
1
100
AcDbSymbolTableRecord
100
AcDbBlockTableRecord
  2
*D42
  0
BLOCK_RECORD
  5
E351
330
1
100
AcDbSymbolTableRecord
100
AcDbBlockTableRecord
  2
*D43
  0
BLOCK_RECORD
  5
E35F
330
1
100
AcDbSymbolTableRecord
100
AcDbBlockTableRecord
  2
*D44
  0
BLOCK_RECORD
  5
E684
330
1
100
AcDbSymbolTableRecord
100
AcDbBlockTableRecord
  2
*D45
  0
BLOCK_RECORD
  5
E690
330
1
100
AcDbSymbolTableRecord
100
AcDbBlockTableRecord
  2
*D46
  0
BLOCK_RECORD
  5
E69C
330
1
100
AcDbSymbolTableRecord
100
AcDbBlockTableRecord
  2
*D47
  0
BLOCK_RECORD
  5
E6A9
330
1
100
AcDbSymbolTableRecord
100
AcDbBlockTableRecord
  2
*D48
  0
BLOCK_RECORD
  5
E6B5
330
1
100
AcDbSymbolTableRecord
100
AcDbBlockTableRecord
  2
*D49
  0
BLOCK_RECORD
  5
E6C3
330
1
100
AcDbSymbolTableRecord
100
AcDbBlockTableRecord
  2
*D50
  0
BLOCK_RECORD
  5
E95B
330
1
100
AcDbSymbolTableRecord
100
AcDbBlockTableRecord
  2
*D51
  0
BLOCK_RECORD
  5
E967
330
1
100
AcDbSymbolTableRecord
100
AcDbBlockTableRecord
  2
*D52
  0
BLOCK_RECORD
  5
E973
330
1
100
AcDbSymbolTableRecord
100
AcDbBlockTableRecord
  2
*D53
  0
BLOCK_RECORD
  5
E97F
330
1
100
AcDbSymbolTableRecord
100
AcDbBlockTableRecord
  2
*D54
  0
BLOCK_RECORD
  5
E98B
330
1
100
AcDbSymbolTableRecord
100
AcDbBlockTableRecord
  2
*D55
  0
BLOCK_RECORD
  5
E999
330
1
100
AcDbSymbolTableRecord
100
AcDbBlockTableRecord
  2
*D56
  0
BLOCK_RECORD
  5
E9A5
330
1
100
AcDbSymbolTableRecord
100
AcDbBlockTableRecord
  2
*D57
  0
BLOCK_RECORD
  5
E9B1
330
1
100
AcDbSymbolTableRecord
100
AcDbBlockTableRecord
  2
*D58
  0
BLOCK_RECORD
  5
E9BF
330
1
100
AcDbSymbolTableRecord
100
AcDbBlockTableRecord
  2
*D59
  0
BLOCK_RECORD
  5
E9CB
330
1
100
AcDbSymbolTableRecord
100
AcDbBlockTableRecord
  2
*D60
  0
BLOCK_RECORD
  5
E9D9
330
1
100
AcDbSymbolTableRecord
100
AcDbBlockTableRecord
  2
*D61
  0
BLOCK_RECORD
  5
E9E7
330
1
100
AcDbSymbolTableRecord
100
AcDbBlockTableRecord
  2
*D62
  0
BLOCK_RECORD
  5
F05D
330
1
100
AcDbSymbolTableRecord
100
AcDbBlockTableRecord
  2
*D63
  0
BLOCK_RECORD
  5
F082
330
1
100
AcDbSymbolTableRecord
100
AcDbBlockTableRecord
  2
*D64
  0
BLOCK_RECORD
  5
F0E4
330
1
100
AcDbSymbolTableRecord
100
AcDbBlockTableRecord
  2
*D65
  0
BLOCK_RECORD
  5
F15F
330
1
100
AcDbSymbolTableRecord
100
AcDbBlockTableRecord
  2
*D66
  0
ENDTAB
  0
ENDSEC
  0
SECTION
  2
BLOCKS
  0
BLOCK
  5
19
330
18
100
AcDbEntity
  8
0
100
AcDbBlockBegin
  2
*MODEL_SPACE
 70
     0
 10
0.0
 20
0.0
 30
0.0
  3
*MODEL_SPACE
  1

  0
ENDBLK
  5
1A
330
18
100
AcDbEntity
  8
0
100
AcDbBlockEnd
  0
BLOCK
  5
16
330
15
100
AcDbEntity
 67
     1
  8
0
100
AcDbBlockBegin
  2
*PAPER_SPACE
 70
     0
 10
0.0
 20
0.0
 30
0.0
  3
*PAPER_SPACE
  1

  0
ENDBLK
  5
17
330
15
100
AcDbEntity
 67
     1
  8
0
100
AcDbBlockEnd
  0
BLOCK
  5
24D
330
24C
100
AcDbEntity
  8
0
100
AcDbBlockBegin
  2
_ORIGIN
 70
     0
 10
0.0
 20
0.0
 30
0.0
  3
_ORIGIN
  1

  0
CIRCLE
  5
24E
330
24C
100
AcDbEntity
  8
0
  6
BYBLOCK
 62
     0
100
AcDbCircle
 10
0.0
 20
0.0
 30
0.0
 40
0.5
  0
LINE
  5
24F
330
24C
100
AcDbEntity
  8
0
  6
BYBLOCK
 62
     0
100
AcDbLine
 10
0.0
 20
0.0
 30
0.0
 11
-1.0
 21
0.0
 31
0.0
  0
ENDBLK
  5
250
330
24C
100
AcDbEntity
  8
0
100
AcDbBlockEnd
  0
BLOCK
  5
DE50
330
DE46
100
AcDbEntity
  8
0
100
AcDbBlockBegin
  2
*D1
 70
     1
 10
0.0
 20
0.0
 30
0.0
  3
*D1
  1

  0
LINE
  5
EFFA
330
DE46
100
AcDbEntity
  8
SIZE
 62
     0
100
AcDbLine
 10
1800.131567832491
 20
-3454.259498908264
 30
0.0
 11
1800.131567832491
 21
-3681.902612081652
 31
0.0
  0
LINE
  5
EFFB
330
DE46
100
AcDbEntity
  8
SIZE
 62
     0
100
AcDbLine
 10
2300.131597832483
 20
-3463.675950294804
 30
0.0
 11
2300.131597832483
 21
-3681.902612081652
 31
0.0
  0
LINE
  5
EFFC
330
DE46
100
AcDbEntity
  8
SIZE
 62
     0
100
AcDbLine
 10
1812.131567832492
 20
-3651.902612081652
 30
0.0
 11
2288.131597832483
 21
-3651.902612081652
 31
0.0
  0
INSERT
  5
EFFD
330
DE46
100
AcDbEntity
  8
SIZE
 62
     0
100
AcDbBlockReference
  2
_ORIGIN
 10
1800.131567832491
 20
-3651.902612081652
 30
0.0
 41
12.0
 42
12.0
 43
12.0
 50
180.0
  0
INSERT
  5
EFFE
330
DE46
100
AcDbEntity
  8
SIZE
 62
     0
100
AcDbBlockReference
  2
_ORIGIN
 10
2300.131597832483
 20
-3651.902612081652
 30
0.0
 41
12.0
 42
12.0
 43
12.0
  0
MTEXT
  5
EFFF
330
DE46
100
AcDbEntity
  8
SIZE
 62
     0
100
AcDbMText
 10
2050.131582832487
 20
-3606.902612081652
 30
0.0
 40
50.0
 41
0.0
 71
     5
 72
     1
  1
\A1;325～890
1001
ACAD
1000
MTEXTBEGIN
1070
    73
1070
     1
1070
    44
1040
1.0
1070
    74
1070
     0
1000
MTEXTEND
  0
POINT
  5
F000
330
DE46
100
AcDbEntity
  8
DEFPOINTS
 62
     0
100
AcDbPoint
 10
1800.131567832491
 20
-3434.259498908264
 30
0.0
  0
POINT
  5
F001
330
DE46
100
AcDbEntity
  8
DEFPOINTS
 62
     0
100
AcDbPoint
 10
2300.131597832483
 20
-3443.675950294804
 30
0.0
  0
POINT
  5
F002
330
DE46
100
AcDbEntity
  8
DEFPOINTS
 62
     0
100
AcDbPoint
 10
2300.131597832483
 20
-3651.902612081652
 30
0.0
  0
ENDBLK
  5
DE51
330
DE46
100
AcDbEntity
  8
0
100
AcDbBlockEnd
  0
BLOCK
  5
DE69
330
DE5F
100
AcDbEntity
  8
0
100
AcDbBlockBegin
  2
*D2
 70
     1
 10
0.0
 20
0.0
 30
0.0
  3
*D2
  1

  0
LINE
  5
F003
330
DE5F
100
AcDbEntity
  8
SIZE
 62
     0
100
AcDbLine
 10
1780.131567832492
 20
-3042.927394112743
 30
0.0
 11
1617.745223256158
 21
-3042.927394112743
 31
0.0
  0
LINE
  5
F004
330
DE5F
100
AcDbEntity
  8
SIZE
 62
     0
100
AcDbLine
 10
1780.131567832492
 20
-3342.927394112743
 30
0.0
 11
1617.745223256158
 21
-3342.927394112743
 31
0.0
  0
LINE
  5
F005
330
DE5F
100
AcDbEntity
  8
SIZE
 62
     0
100
AcDbLine
 10
1647.745223256158
 20
-3054.927394112743
 30
0.0
 11
1647.745223256158
 21
-3330.927394112743
 31
0.0
  0
INSERT
  5
F006
330
DE5F
100
AcDbEntity
  8
SIZE
 62
     0
100
AcDbBlockReference
  2
_ORIGIN
 10
1647.745223256158
 20
-3042.927394112743
 30
0.0
 41
12.0
 42
12.0
 43
12.0
 50
90.0
  0
INSERT
  5
F007
330
DE5F
100
AcDbEntity
  8
SIZE
 62
     0
100
AcDbBlockReference
  2
_ORIGIN
 10
1647.745223256158
 20
-3342.927394112743
 30
0.0
 41
12.0
 42
12.0
 43
12.0
 50
270.0
  0
MTEXT
  5
F008
330
DE5F
100
AcDbEntity
  8
SIZE
 62
     0
100
AcDbMText
 10
1602.745223256158
 20
-3192.927394112743
 30
0.0
 40
50.0
 41
0.0
 71
     5
 72
     1
  1
\A1;170～365
 11
0.0000000000000001
 21
1.0
 31
0.0
1001
ACAD
1000
MTEXTBEGIN
1070
    73
1070
     1
1070
    44
1040
1.0
1070
    74
1070
     0
1000
MTEXTEND
  0
POINT
  5
F009
330
DE5F
100
AcDbEntity
  8
DEFPOINTS
 62
     0
100
AcDbPoint
 10
1800.131567832491
 20
-3042.927394112743
 30
0.0
  0
POINT
  5
F00A
330
DE5F
100
AcDbEntity
  8
DEFPOINTS
 62
     0
100
AcDbPoint
 10
1800.131567832491
 20
-3342.927394112743
 30
0.0
  0
POINT
  5
F00B
330
DE5F
100
AcDbEntity
  8
DEFPOINTS
 62
     0
100
AcDbPoint
 10
1647.745223256158
 20
-3342.927394112743
 30
0.0
  0
ENDBLK
  5
DE6A
330
DE5F
100
AcDbEntity
  8
0
100
AcDbBlockEnd
  0
BLOCK
  5
DE93
330
DE89
100
AcDbEntity
  8
0
100
AcDbBlockBegin
  2
*D3
 70
     1
 10
0.0
 20
0.0
 30
0.0
  3
*D3
  1

  0
LINE
  5
EEAF
330
DE89
100
AcDbEntity
  8
SIZE
 62
     0
100
AcDbLine
 10
1550.131607832487
 20
-4278.749312323699
 30
0.0
 11
1550.131607832487
 21
-3906.73155301212
 31
0.0
  0
LINE
  5
EEB0
330
DE89
100
AcDbEntity
  8
SIZE
 62
     0
100
AcDbLine
 10
2550.131607832487
 20
-4277.1493123237
 30
0.0
 11
2550.131607832487
 21
-3906.73155301212
 31
0.0
  0
LINE
  5
EEB1
330
DE89
100
AcDbEntity
  8
SIZE
 62
     0
100
AcDbLine
 10
1562.131607832487
 20
-3936.731553012119
 30
0.0
 11
2538.131607832487
 21
-3936.731553012119
 31
0.0
  0
INSERT
  5
EEB2
330
DE89
100
AcDbEntity
  8
SIZE
 62
     0
100
AcDbBlockReference
  2
_ORIGIN
 10
1550.131607832487
 20
-3936.731553012119
 30
0.0
 41
12.0
 42
12.0
 43
12.0
 50
180.0
  0
INSERT
  5
EEB3
330
DE89
100
AcDbEntity
  8
SIZE
 62
     0
100
AcDbBlockReference
  2
_ORIGIN
 10
2550.131607832487
 20
-3936.731553012119
 30
0.0
 41
12.0
 42
12.0
 43
12.0
  0
MTEXT
  5
EEB4
330
DE89
100
AcDbEntity
  8
SIZE
 62
     0
100
AcDbMText
 10
2050.131607832487
 20
-3891.731553012119
 30
0.0
 40
50.0
 41
0.0
 71
     5
 72
     1
  1
\A1;1000
1001
ACAD
1000
MTEXTBEGIN
1070
    73
1070
     1
1070
    44
1040
1.0
1070
    74
1070
     0
1000
MTEXTEND
  0
POINT
  5
EEB5
330
DE89
100
AcDbEntity
  8
DEFPOINTS
 62
     0
100
AcDbPoint
 10
1550.131607832487
 20
-4298.749312323699
 30
0.0
  0
POINT
  5
EEB6
330
DE89
100
AcDbEntity
  8
DEFPOINTS
 62
     0
100
AcDbPoint
 10
2550.131607832487
 20
-4297.1493123237
 30
0.0
  0
POINT
  5
EEB7
330
DE89
100
AcDbEntity
  8
DEFPOINTS
 62
     0
100
AcDbPoint
 10
2550.131607832487
 20
-3936.731553012119
 30
0.0
  0
ENDBLK
  5
DE94
330
DE89
100
AcDbEntity
  8
0
100
AcDbBlockEnd
  0
BLOCK
  5
DEA4
330
DE9A
100
AcDbEntity
  8
0
100
AcDbBlockBegin
  2
*D4
 70
     1
 10
0.0
 20
0.0
 30
0.0
  3
*D4
  1

  0
LINE
  5
EFDF
330
DE9A
100
AcDbEntity
  8
SIZE
 62
     0
100
AcDbLine
 10
1550.131607832487
 20
-2943.488495234813
 30
0.0
 11
1550.131607832487
 21
-2609.009138974223
 31
0.0
  0
LINE
  5
EFE0
330
DE9A
100
AcDbEntity
  8
SIZE
 62
     0
100
AcDbLine
 10
2550.131607832487
 20
-2943.488495234813
 30
0.0
 11
2550.131607832487
 21
-2609.009138974223
 31
0.0
  0
LINE
  5
EFE1
330
DE9A
100
AcDbEntity
  8
SIZE
 62
     0
100
AcDbLine
 10
1562.131607832487
 20
-2639.009138974222
 30
0.0
 11
2538.131607832487
 21
-2639.009138974222
 31
0.0
  0
INSERT
  5
EFE2
330
DE9A
100
AcDbEntity
  8
SIZE
 62
     0
100
AcDbBlockReference
  2
_ORIGIN
 10
1550.131607832487
 20
-2639.009138974222
 30
0.0
 41
12.0
 42
12.0
 43
12.0
 50
180.0
  0
INSERT
  5
EFE3
330
DE9A
100
AcDbEntity
  8
SIZE
 62
     0
100
AcDbBlockReference
  2
_ORIGIN
 10
2550.131607832487
 20
-2639.009138974222
 30
0.0
 41
12.0
 42
12.0
 43
12.0
  0
MTEXT
  5
EFE4
330
DE9A
100
AcDbEntity
  8
SIZE
 62
     0
100
AcDbMText
 10
2051.665011323875
 20
-2594.009138974223
 30
0.0
 40
50.0
 41
0.0
 71
     5
 72
     1
  1
\A1;1000
1001
ACAD
1000
MTEXTBEGIN
1070
    73
1070
     1
1070
    44
1040
1.0
1070
    74
1070
     0
1000
MTEXTEND
  0
POINT
  5
EFE5
330
DE9A
100
AcDbEntity
  8
DEFPOINTS
 62
     0
100
AcDbPoint
 10
1550.131607832487
 20
-2963.488495234813
 30
0.0
  0
POINT
  5
EFE6
330
DE9A
100
AcDbEntity
  8
DEFPOINTS
 62
     0
100
AcDbPoint
 10
2550.131607832487
 20
-2963.488495234813
 30
0.0
  0
POINT
  5
EFE7
330
DE9A
100
AcDbEntity
  8
DEFPOINTS
 62
     0
100
AcDbPoint
 10
2550.131607832487
 20
-2639.009138974222
 30
0.0
  0
ENDBLK
  5
DEA5
330
DE9A
100
AcDbEntity
  8
0
100
AcDbBlockEnd
  0
BLOCK
  5
DEB3
330
DEA9
100
AcDbEntity
  8
0
100
AcDbBlockBegin
  2
*D5
 70
     1
 10
0.0
 20
0.0
 30
0.0
  3
*D5
  1

  0
LINE
  5
EEA6
330
DEA9
100
AcDbEntity
  8
SIZE
 62
     0
100
AcDbLine
 10
1800.131567832491
 20
-4272.984183113705
 30
0.0
 11
1800.131567832491
 21
-4034.028766427378
 31
0.0
  0
LINE
  5
EEA7
330
DEA9
100
AcDbEntity
  8
SIZE
 62
     0
100
AcDbLine
 10
2300.131597832483
 20
-4271.097761187394
 30
0.0
 11
2300.131597832483
 21
-4034.028766427378
 31
0.0
  0
LINE
  5
EEA8
330
DEA9
100
AcDbEntity
  8
SIZE
 62
     0
100
AcDbLine
 10
1812.131567832492
 20
-4064.028766427378
 30
0.0
 11
2288.131597832483
 21
-4064.028766427378
 31
0.0
  0
INSERT
  5
EEA9
330
DEA9
100
AcDbEntity
  8
SIZE
 62
     0
100
AcDbBlockReference
  2
_ORIGIN
 10
1800.131567832491
 20
-4064.028766427378
 30
0.0
 41
12.0
 42
12.0
 43
12.0
 50
180.0
  0
INSERT
  5
EEAA
330
DEA9
100
AcDbEntity
  8
SIZE
 62
     0
100
AcDbBlockReference
  2
_ORIGIN
 10
2300.131597832483
 20
-4064.028766427378
 30
0.0
 41
12.0
 42
12.0
 43
12.0
  0
MTEXT
  5
EEAB
330
DEA9
100
AcDbEntity
  8
SIZE
 62
     0
100
AcDbMText
 10
2050.131582832487
 20
-4019.028766427378
 30
0.0
 40
50.0
 41
0.0
 71
     5
 72
     1
  1
\A1;500
1001
ACAD
1000
MTEXTBEGIN
1070
    73
1070
     1
1070
    44
1040
1.0
1070
    74
1070
     0
1000
MTEXTEND
  0
POINT
  5
EEAC
330
DEA9
100
AcDbEntity
  8
DEFPOINTS
 62
     0
100
AcDbPoint
 10
1800.131567832491
 20
-4292.984183113705
 30
0.0
  0
POINT
  5
EEAD
330
DEA9
100
AcDbEntity
  8
DEFPOINTS
 62
     0
100
AcDbPoint
 10
2300.131597832483
 20
-4291.097761187393
 30
0.0
  0
POINT
  5
EEAE
330
DEA9
100
AcDbEntity
  8
DEFPOINTS
 62
     0
100
AcDbPoint
 10
2300.131597832483
 20
-4064.028766427378
 30
0.0
  0
ENDBLK
  5
DEB4
330
DEA9
100
AcDbEntity
  8
0
100
AcDbBlockEnd
  0
BLOCK
  5
DEC2
330
DEB6
100
AcDbEntity
  8
0
100
AcDbBlockBegin
  2
*D6
 70
     1
 10
0.0
 20
0.0
 30
0.0
  3
*D6
  1

  0
LINE
  5
EF16
330
DEB6
100
AcDbEntity
  8
SIZE
 62
     0
100
AcDbLine
 10
2490.131607832487
 20
-4287.259942323704
 30
0.0
 11
2490.131607832487
 21
-4175.243339408331
 31
0.0
  0
LINE
  5
EF17
330
DEB6
100
AcDbEntity
  8
SIZE
 62
     0
100
AcDbLine
 10
2550.131607832487
 20
-4277.1493123237
 30
0.0
 11
2550.131607832487
 21
-4175.243339408331
 31
0.0
  0
LINE
  5
EF18
330
DEB6
100
AcDbEntity
  8
SIZE
 62
     0
100
AcDbLine
 10
2478.131607832487
 20
-4205.243339408331
 30
0.0
 11
2466.131607832487
 21
-4205.243339408331
 31
0.0
  0
LINE
  5
EF19
330
DEB6
100
AcDbEntity
  8
SIZE
 62
     0
100
AcDbLine
 10
2562.131607832487
 20
-4205.243339408331
 30
0.0
 11
2686.988750689629
 21
-4205.243339408331
 31
0.0
  0
LINE
  5
EF1A
330
DEB6
100
AcDbEntity
  8
SIZE
 62
     0
100
AcDbLine
 10
2490.131607832487
 20
-4205.243339408331
 30
0.0
 11
2550.131607832487
 21
-4205.243339408331
 31
0.0
  0
INSERT
  5
EF1B
330
DEB6
100
AcDbEntity
  8
SIZE
 62
     0
100
AcDbBlockReference
  2
_ORIGIN
 10
2490.131607832487
 20
-4205.243339408331
 30
0.0
 41
12.0
 42
12.0
 43
12.0
  0
INSERT
  5
EF1C
330
DEB6
100
AcDbEntity
  8
SIZE
 62
     0
100
AcDbBlockReference
  2
_ORIGIN
 10
2550.131607832487
 20
-4205.243339408331
 30
0.0
 41
12.0
 42
12.0
 43
12.0
 50
180.0
  0
MTEXT
  5
EF1D
330
DEB6
100
AcDbEntity
  8
SIZE
 62
     0
100
AcDbMText
 10
2630.560179261058
 20
-4160.243339408331
 30
0.0
 40
50.0
 41
0.0
 71
     5
 72
     1
  1
\A1;60
1001
ACAD
1000
MTEXTBEGIN
1070
    73
1070
     1
1070
    44
1040
1.0
1070
    74
1070
     0
1000
MTEXTEND
  0
POINT
  5
EF1E
330
DEB6
100
AcDbEntity
  8
DEFPOINTS
 62
     0
100
AcDbPoint
 10
2490.131607832487
 20
-4307.259942323704
 30
0.0
  0
POINT
  5
EF1F
330
DEB6
100
AcDbEntity
  8
DEFPOINTS
 62
     0
100
AcDbPoint
 10
2550.131607832487
 20
-4297.1493123237
 30
0.0
  0
POINT
  5
EF20
330
DEB6
100
AcDbEntity
  8
DEFPOINTS
 62
     0
100
AcDbPoint
 10
2550.131607832487
 20
-4205.243339408331
 30
0.0
  0
ENDBLK
  5
DEC3
330
DEB6
100
AcDbEntity
  8
0
100
AcDbBlockEnd
  0
BLOCK
  5
DEE1
330
DED7
100
AcDbEntity
  8
0
100
AcDbBlockBegin
  2
*D7
 70
     1
 10
0.0
 20
0.0
 30
0.0
  3
*D7
  1

  0
LINE
  5
EF0D
330
DED7
100
AcDbEntity
  8
SIZE
 62
     0
100
AcDbLine
 10
2050.131607832487
 20
-4238.970280423106
 30
0.0
 11
2050.131607832487
 21
-4175.243339408331
 31
0.0
  0
LINE
  5
EF0E
330
DED7
100
AcDbEntity
  8
SIZE
 62
     0
100
AcDbLine
 10
2490.131607832487
 20
-4287.259942323704
 30
0.0
 11
2490.131607832487
 21
-4175.243339408331
 31
0.0
  0
LINE
  5
EF0F
330
DED7
100
AcDbEntity
  8
SIZE
 62
     0
100
AcDbLine
 10
2062.131607832486
 20
-4205.243339408331
 30
0.0
 11
2478.131607832487
 21
-4205.243339408331
 31
0.0
  0
INSERT
  5
EF10
330
DED7
100
AcDbEntity
  8
SIZE
 62
     0
100
AcDbBlockReference
  2
_ORIGIN
 10
2050.131607832487
 20
-4205.243339408331
 30
0.0
 41
12.0
 42
12.0
 43
12.0
 50
180.0
  0
INSERT
  5
EF11
330
DED7
100
AcDbEntity
  8
SIZE
 62
     0
100
AcDbBlockReference
  2
_ORIGIN
 10
2490.131607832487
 20
-4205.243339408331
 30
0.0
 41
12.0
 42
12.0
 43
12.0
  0
MTEXT
  5
EF12
330
DED7
100
AcDbEntity
  8
SIZE
 62
     0
100
AcDbMText
 10
2270.131607832487
 20
-4160.243339408331
 30
0.0
 40
50.0
 41
0.0
 71
     5
 72
     1
  1
\A1;440
1001
ACAD
1000
MTEXTBEGIN
1070
    73
1070
     1
1070
    44
1040
1.0
1070
    74
1070
     0
1000
MTEXTEND
  0
POINT
  5
EF13
330
DED7
100
AcDbEntity
  8
DEFPOINTS
 62
     0
100
AcDbPoint
 10
2050.131607832487
 20
-4258.970280423106
 30
0.0
  0
POINT
  5
EF14
330
DED7
100
AcDbEntity
  8
DEFPOINTS
 62
     0
100
AcDbPoint
 10
2490.131607832487
 20
-4307.259942323704
 30
0.0
  0
POINT
  5
EF15
330
DED7
100
AcDbEntity
  8
DEFPOINTS
 62
     0
100
AcDbPoint
 10
2490.131607832487
 20
-4205.243339408331
 30
0.0
  0
ENDBLK
  5
DEE2
330
DED7
100
AcDbEntity
  8
0
100
AcDbBlockEnd
  0
BLOCK
  5
DEEE
330
DEE4
100
AcDbEntity
  8
0
100
AcDbBlockBegin
  2
*D8
 70
     1
 10
0.0
 20
0.0
 30
0.0
  3
*D8
  1

  0
LINE
  5
EE9D
330
DEE4
100
AcDbEntity
  8
SIZE
 62
     0
100
AcDbLine
 10
1610.131607832487
 20
-4287.259942323704
 30
0.0
 11
1610.131607832487
 21
-4175.243339408331
 31
0.0
  0
LINE
  5
EE9E
330
DEE4
100
AcDbEntity
  8
SIZE
 62
     0
100
AcDbLine
 10
2050.131607832487
 20
-4238.970280423106
 30
0.0
 11
2050.131607832487
 21
-4175.243339408331
 31
0.0
  0
LINE
  5
EE9F
330
DEE4
100
AcDbEntity
  8
SIZE
 62
     0
100
AcDbLine
 10
1622.131607832487
 20
-4205.243339408331
 30
0.0
 11
2038.131607832487
 21
-4205.243339408331
 31
0.0
  0
INSERT
  5
EEA0
330
DEE4
100
AcDbEntity
  8
SIZE
 62
     0
100
AcDbBlockReference
  2
_ORIGIN
 10
1610.131607832487
 20
-4205.243339408331
 30
0.0
 41
12.0
 42
12.0
 43
12.0
 50
180.0
  0
INSERT
  5
EEA1
330
DEE4
100
AcDbEntity
  8
SIZE
 62
     0
100
AcDbBlockReference
  2
_ORIGIN
 10
2050.131607832487
 20
-4205.243339408331
 30
0.0
 41
12.0
 42
12.0
 43
12.0
  0
MTEXT
  5
EEA2
330
DEE4
100
AcDbEntity
  8
SIZE
 62
     0
100
AcDbMText
 10
1830.131607832487
 20
-4160.243339408331
 30
0.0
 40
50.0
 41
0.0
 71
     5
 72
     1
  1
\A1;440
1001
ACAD
1000
MTEXTBEGIN
1070
    73
1070
     1
1070
    44
1040
1.0
1070
    74
1070
     0
1000
MTEXTEND
  0
POINT
  5
EEA3
330
DEE4
100
AcDbEntity
  8
DEFPOINTS
 62
     0
100
AcDbPoint
 10
1610.131607832487
 20
-4307.259942323704
 30
0.0
  0
POINT
  5
EEA4
330
DEE4
100
AcDbEntity
  8
DEFPOINTS
 62
     0
100
AcDbPoint
 10
2050.131607832487
 20
-4258.970280423106
 30
0.0
  0
POINT
  5
EEA5
330
DEE4
100
AcDbEntity
  8
DEFPOINTS
 62
     0
100
AcDbPoint
 10
2050.131607832487
 20
-4205.243339408331
 30
0.0
  0
ENDBLK
  5
DEEF
330
DEE4
100
AcDbEntity
  8
0
100
AcDbBlockEnd
  0
BLOCK
  5
DEFD
330
DEF1
100
AcDbEntity
  8
0
100
AcDbBlockBegin
  2
*D9
 70
     1
 10
0.0
 20
0.0
 30
0.0
  3
*D9
  1

  0
LINE
  5
EEE2
330
DEF1
100
AcDbEntity
  8
SIZE
 62
     0
100
AcDbLine
 10
1610.131607832487
 20
-4287.259942323704
 30
0.0
 11
1610.131607832487
 21
-4175.243339408331
 31
0.0
  0
LINE
  5
EEE3
330
DEF1
100
AcDbEntity
  8
SIZE
 62
     0
100
AcDbLine
 10
1550.131607832487
 20
-4278.749312323699
 30
0.0
 11
1550.131607832487
 21
-4175.243339408331
 31
0.0
  0
LINE
  5
EEE4
330
DEF1
100
AcDbEntity
  8
SIZE
 62
     0
100
AcDbLine
 10
1622.131607832487
 20
-4205.243339408331
 30
0.0
 11
1634.131607832487
 21
-4205.243339408331
 31
0.0
  0
LINE
  5
EEE5
330
DEF1
100
AcDbEntity
  8
SIZE
 62
     0
100
AcDbLine
 10
1538.131607832487
 20
-4205.243339408331
 30
0.0
 11
1413.274464975344
 21
-4205.243339408331
 31
0.0
  0
LINE
  5
EEE6
330
DEF1
100
AcDbEntity
  8
SIZE
 62
     0
100
AcDbLine
 10
1610.131607832487
 20
-4205.243339408331
 30
0.0
 11
1550.131607832487
 21
-4205.243339408331
 31
0.0
  0
INSERT
  5
EEE7
330
DEF1
100
AcDbEntity
  8
SIZE
 62
     0
100
AcDbBlockReference
  2
_ORIGIN
 10
1610.131607832487
 20
-4205.243339408331
 30
0.0
 41
12.0
 42
12.0
 43
12.0
 50
180.0
  0
INSERT
  5
EEE8
330
DEF1
100
AcDbEntity
  8
SIZE
 62
     0
100
AcDbBlockReference
  2
_ORIGIN
 10
1550.131607832487
 20
-4205.243339408331
 30
0.0
 41
12.0
 42
12.0
 43
12.0
  0
MTEXT
  5
EEE9
330
DEF1
100
AcDbEntity
  8
SIZE
 62
     0
100
AcDbMText
 10
1469.703036403915
 20
-4160.243339408331
 30
0.0
 40
50.0
 41
0.0
 71
     5
 72
     1
  1
\A1;60
1001
ACAD
1000
MTEXTBEGIN
1070
    73
1070
     1
1070
    44
1040
1.0
1070
    74
1070
     0
1000
MTEXTEND
  0
POINT
  5
EEEA
330
DEF1
100
AcDbEntity
  8
DEFPOINTS
 62
     0
100
AcDbPoint
 10
1610.131607832487
 20
-4307.259942323704
 30
0.0
  0
POINT
  5
EEEB
330
DEF1
100
AcDbEntity
  8
DEFPOINTS
 62
     0
100
AcDbPoint
 10
1550.131607832487
 20
-4298.749312323699
 30
0.0
  0
POINT
  5
EEEC
330
DEF1
100
AcDbEntity
  8
DEFPOINTS
 62
     0
100
AcDbPoint
 10
1550.131607832487
 20
-4205.243339408331
 30
0.0
  0
ENDBLK
  5
DEFE
330
DEF1
100
AcDbEntity
  8
0
100
AcDbBlockEnd
  0
BLOCK
  5
DF0A
330
DF00
100
AcDbEntity
  8
0
100
AcDbBlockBegin
  2
*D10
 70
     1
 10
0.0
 20
0.0
 30
0.0
  3
*D10
  1

  0
LINE
  5
EECE
330
DF00
100
AcDbEntity
  8
SIZE
 62
     0
100
AcDbLine
 10
1530.131607832487
 20
-4297.1493123237
 30
0.0
 11
1340.841557402225
 21
-4297.1493123237
 31
0.0
  0
LINE
  5
EECF
330
DF00
100
AcDbEntity
  8
SIZE
 62
     0
100
AcDbLine
 10
1757.631607832487
 20
-4728.433212323699
 30
0.0
 11
1340.841557402225
 21
-4728.433212323699
 31
0.0
  0
LINE
  5
EED0
330
DF00
100
AcDbEntity
  8
SIZE
 62
     0
100
AcDbLine
 10
1370.841557402225
 20
-4309.1493123237
 30
0.0
 11
1370.841557402225
 21
-4716.433212323699
 31
0.0
  0
INSERT
  5
EED1
330
DF00
100
AcDbEntity
  8
SIZE
 62
     0
100
AcDbBlockReference
  2
_ORIGIN
 10
1370.841557402225
 20
-4297.1493123237
 30
0.0
 41
12.0
 42
12.0
 43
12.0
 50
90.0
  0
INSERT
  5
EED2
330
DF00
100
AcDbEntity
  8
SIZE
 62
     0
100
AcDbBlockReference
  2
_ORIGIN
 10
1370.841557402225
 20
-4728.433212323699
 30
0.0
 41
12.0
 42
12.0
 43
12.0
 50
270.0
  0
MTEXT
  5
EED3
330
DF00
100
AcDbEntity
  8
SIZE
 62
     0
100
AcDbMText
 10
1325.841557402226
 20
-4512.7912623237
 30
0.0
 40
50.0
 41
0.0
 71
     5
 72
     1
  1
\A1;431
 11
0.0000000000000001
 21
1.0
 31
0.0
1001
ACAD
1000
MTEXTBEGIN
1070
    73
1070
     1
1070
    44
1040
1.0
1070
    74
1070
     0
1000
MTEXTEND
  0
POINT
  5
EED4
330
DF00
100
AcDbEntity
  8
DEFPOINTS
 62
     0
100
AcDbPoint
 10
1550.131607832487
 20
-4297.1493123237
 30
0.0
  0
POINT
  5
EED5
330
DF00
100
AcDbEntity
  8
DEFPOINTS
 62
     0
100
AcDbPoint
 10
1777.631607832487
 20
-4728.433212323699
 30
0.0
  0
POINT
  5
EED6
330
DF00
100
AcDbEntity
  8
DEFPOINTS
 62
     0
100
AcDbPoint
 10
1370.841557402225
 20
-4728.433212323699
 30
0.0
  0
ENDBLK
  5
DF0B
330
DF00
100
AcDbEntity
  8
0
100
AcDbBlockEnd
  0
BLOCK
  5
DF35
330
DF2B
100
AcDbEntity
  8
0
100
AcDbBlockBegin
  2
*D11
 70
     1
 10
0.0
 20
0.0
 30
0.0
  3
*D11
  1

  0
LINE
  5
EFF1
330
DF2B
100
AcDbEntity
  8
SIZE
 62
     0
100
AcDbLine
 10
2300.131597832483
 20
-2924.66031423309
 30
0.0
 11
2300.131597832483
 21
-2706.520198768558
 31
0.0
  0
LINE
  5
EFF2
330
DF2B
100
AcDbEntity
  8
SIZE
 62
     0
100
AcDbLine
 10
1800.131567832491
 20
-2927.278032018675
 30
0.0
 11
1800.131567832491
 21
-2706.520198768558
 31
0.0
  0
LINE
  5
EFF3
330
DF2B
100
AcDbEntity
  8
SIZE
 62
     0
100
AcDbLine
 10
2288.131597832483
 20
-2736.520198768557
 30
0.0
 11
1812.131567832492
 21
-2736.520198768557
 31
0.0
  0
INSERT
  5
EFF4
330
DF2B
100
AcDbEntity
  8
SIZE
 62
     0
100
AcDbBlockReference
  2
_ORIGIN
 10
2300.131597832483
 20
-2736.520198768557
 30
0.0
 41
12.0
 42
12.0
 43
12.0
  0
INSERT
  5
EFF5
330
DF2B
100
AcDbEntity
  8
SIZE
 62
     0
100
AcDbBlockReference
  2
_ORIGIN
 10
1800.131567832491
 20
-2736.520198768557
 30
0.0
 41
12.0
 42
12.0
 43
12.0
 50
180.0
  0
MTEXT
  5
EFF6
330
DF2B
100
AcDbEntity
  8
SIZE
 62
     0
100
AcDbMText
 10
2047.984413688671
 20
-2691.520198768557
 30
0.0
 40
50.0
 41
0.0
 71
     5
 72
     1
  1
\A1;500
1001
ACAD
1000
MTEXTBEGIN
1070
    73
1070
     1
1070
    44
1040
1.0
1070
    74
1070
     0
1000
MTEXTEND
  0
POINT
  5
EFF7
330
DF2B
100
AcDbEntity
  8
DEFPOINTS
 62
     0
100
AcDbPoint
 10
2300.131597832483
 20
-2944.66031423309
 30
0.0
  0
POINT
  5
EFF8
330
DF2B
100
AcDbEntity
  8
DEFPOINTS
 62
     0
100
AcDbPoint
 10
1800.131567832491
 20
-2947.278032018676
 30
0.0
  0
POINT
  5
EFF9
330
DF2B
100
AcDbEntity
  8
DEFPOINTS
 62
     0
100
AcDbPoint
 10
1800.131567832491
 20
-2736.520198768557
 30
0.0
  0
ENDBLK
  5
DF36
330
DF2B
100
AcDbEntity
  8
0
100
AcDbBlockEnd
  0
BLOCK
  5
DF56
330
DF4A
100
AcDbEntity
  8
0
100
AcDbBlockBegin
  2
*D12
 70
     1
 10
0.0
 20
0.0
 30
0.0
  3
*D12
  1

  0
LINE
  5
F03F
330
DF4A
100
AcDbEntity
  8
SIZE
 62
     0
100
AcDbLine
 10
2490.131607832469
 20
-2907.488495234813
 30
0.0
 11
2490.131607832469
 21
-2830.53787649289
 31
0.0
  0
LINE
  5
F040
330
DF4A
100
AcDbEntity
  8
SIZE
 62
     0
100
AcDbLine
 10
2550.131607832487
 20
-2943.488495234813
 30
0.0
 11
2550.131607832487
 21
-2830.53787649289
 31
0.0
  0
LINE
  5
F041
330
DF4A
100
AcDbEntity
  8
SIZE
 62
     0
100
AcDbLine
 10
2478.131607832469
 20
-2860.53787649289
 30
0.0
 11
2466.131607832469
 21
-2860.53787649289
 31
0.0
  0
LINE
  5
F042
330
DF4A
100
AcDbEntity
  8
SIZE
 62
     0
100
AcDbLine
 10
2562.131607832487
 20
-2860.53787649289
 30
0.0
 11
2686.988750689629
 21
-2860.53787649289
 31
0.0
  0
LINE
  5
F043
330
DF4A
100
AcDbEntity
  8
SIZE
 62
     0
100
AcDbLine
 10
2490.131607832469
 20
-2860.53787649289
 30
0.0
 11
2550.131607832487
 21
-2860.53787649289
 31
0.0
  0
INSERT
  5
F044
330
DF4A
100
AcDbEntity
  8
SIZE
 62
     0
100
AcDbBlockReference
  2
_ORIGIN
 10
2490.131607832469
 20
-2860.53787649289
 30
0.0
 41
12.0
 42
12.0
 43
12.0
  0
INSERT
  5
F045
330
DF4A
100
AcDbEntity
  8
SIZE
 62
     0
100
AcDbBlockReference
  2
_ORIGIN
 10
2550.131607832487
 20
-2860.53787649289
 30
0.0
 41
12.0
 42
12.0
 43
12.0
 50
180.0
  0
MTEXT
  5
F046
330
DF4A
100
AcDbEntity
  8
SIZE
 62
     0
100
AcDbMText
 10
2630.560179261058
 20
-2815.53787649289
 30
0.0
 40
50.0
 41
0.0
 71
     5
 72
     1
  1
\A1;60
1001
ACAD
1000
MTEXTBEGIN
1070
    73
1070
     1
1070
    44
1040
1.0
1070
    74
1070
     0
1000
MTEXTEND
  0
POINT
  5
F047
330
DF4A
100
AcDbEntity
  8
DEFPOINTS
 62
     0
100
AcDbPoint
 10
2490.131607832469
 20
-2927.488495234813
 30
0.0
  0
POINT
  5
F048
330
DF4A
100
AcDbEntity
  8
DEFPOINTS
 62
     0
100
AcDbPoint
 10
2550.131607832487
 20
-2963.488495234813
 30
0.0
  0
POINT
  5
F049
330
DF4A
100
AcDbEntity
  8
DEFPOINTS
 62
     0
100
AcDbPoint
 10
2550.131607832487
 20
-2860.53787649289
 30
0.0
  0
ENDBLK
  5
DF57
330
DF4A
100
AcDbEntity
  8
0
100
AcDbBlockEnd
  0
BLOCK
  5
DF63
330
DF59
100
AcDbEntity
  8
0
100
AcDbBlockBegin
  2
*D13
 70
     1
 10
0.0
 20
0.0
 30
0.0
  3
*D13
  1

  0
LINE
  5
F036
330
DF59
100
AcDbEntity
  8
SIZE
 62
     0
100
AcDbLine
 10
2050.131607832487
 20
-2904.779895433254
 30
0.0
 11
2050.131607832487
 21
-2830.53787649289
 31
0.0
  0
LINE
  5
F037
330
DF59
100
AcDbEntity
  8
SIZE
 62
     0
100
AcDbLine
 10
2490.131607832469
 20
-2907.488495234813
 30
0.0
 11
2490.131607832469
 21
-2830.53787649289
 31
0.0
  0
LINE
  5
F038
330
DF59
100
AcDbEntity
  8
SIZE
 62
     0
100
AcDbLine
 10
2062.131607832486
 20
-2860.53787649289
 30
0.0
 11
2478.131607832469
 21
-2860.53787649289
 31
0.0
  0
INSERT
  5
F039
330
DF59
100
AcDbEntity
  8
SIZE
 62
     0
100
AcDbBlockReference
  2
_ORIGIN
 10
2050.131607832487
 20
-2860.53787649289
 30
0.0
 41
12.0
 42
12.0
 43
12.0
 50
180.0
  0
INSERT
  5
F03A
330
DF59
100
AcDbEntity
  8
SIZE
 62
     0
100
AcDbBlockReference
  2
_ORIGIN
 10
2490.131607832469
 20
-2860.53787649289
 30
0.0
 41
12.0
 42
12.0
 43
12.0
  0
MTEXT
  5
F03B
330
DF59
100
AcDbEntity
  8
SIZE
 62
     0
100
AcDbMText
 10
2270.131607832478
 20
-2815.53787649289
 30
0.0
 40
50.0
 41
0.0
 71
     5
 72
     1
  1
\A1;440
1001
ACAD
1000
MTEXTBEGIN
1070
    73
1070
     1
1070
    44
1040
1.0
1070
    74
1070
     0
1000
MTEXTEND
  0
POINT
  5
F03C
330
DF59
100
AcDbEntity
  8
DEFPOINTS
 62
     0
100
AcDbPoint
 10
2050.131607832487
 20
-2924.779895433253
 30
0.0
  0
POINT
  5
F03D
330
DF59
100
AcDbEntity
  8
DEFPOINTS
 62
     0
100
AcDbPoint
 10
2490.131607832469
 20
-2927.488495234813
 30
0.0
  0
POINT
  5
F03E
330
DF59
100
AcDbEntity
  8
DEFPOINTS
 62
     0
100
AcDbPoint
 10
2490.131607832469
 20
-2860.53787649289
 30
0.0
  0
ENDBLK
  5
DF64
330
DF59
100
AcDbEntity
  8
0
100
AcDbBlockEnd
  0
BLOCK
  5
DF70
330
DF66
100
AcDbEntity
  8
0
100
AcDbBlockBegin
  2
*D14
 70
     1
 10
0.0
 20
0.0
 30
0.0
  3
*D14
  1

  0
LINE
  5
EFE8
330
DF66
100
AcDbEntity
  8
SIZE
 62
     0
100
AcDbLine
 10
2050.131607832487
 20
-2907.488495234813
 30
0.0
 11
2050.131607832487
 21
-2830.53787649289
 31
0.0
  0
LINE
  5
EFE9
330
DF66
100
AcDbEntity
  8
SIZE
 62
     0
100
AcDbLine
 10
1610.131607832487
 20
-2907.488495234813
 30
0.0
 11
1610.131607832487
 21
-2830.53787649289
 31
0.0
  0
LINE
  5
EFEA
330
DF66
100
AcDbEntity
  8
SIZE
 62
     0
100
AcDbLine
 10
2038.131607832487
 20
-2860.53787649289
 30
0.0
 11
1622.131607832487
 21
-2860.53787649289
 31
0.0
  0
INSERT
  5
EFEB
330
DF66
100
AcDbEntity
  8
SIZE
 62
     0
100
AcDbBlockReference
  2
_ORIGIN
 10
2050.131607832487
 20
-2860.53787649289
 30
0.0
 41
12.0
 42
12.0
 43
12.0
  0
INSERT
  5
EFEC
330
DF66
100
AcDbEntity
  8
SIZE
 62
     0
100
AcDbBlockReference
  2
_ORIGIN
 10
1610.131607832487
 20
-2860.53787649289
 30
0.0
 41
12.0
 42
12.0
 43
12.0
 50
180.0
  0
MTEXT
  5
EFED
330
DF66
100
AcDbEntity
  8
SIZE
 62
     0
100
AcDbMText
 10
1830.131607832487
 20
-2815.53787649289
 30
0.0
 40
50.0
 41
0.0
 71
     5
 72
     1
  1
\A1;440
1001
ACAD
1000
MTEXTBEGIN
1070
    73
1070
     1
1070
    44
1040
1.0
1070
    74
1070
     0
1000
MTEXTEND
  0
POINT
  5
EFEE
330
DF66
100
AcDbEntity
  8
DEFPOINTS
 62
     0
100
AcDbPoint
 10
2050.131607832487
 20
-2927.488495234813
 30
0.0
  0
POINT
  5
EFEF
330
DF66
100
AcDbEntity
  8
DEFPOINTS
 62
     0
100
AcDbPoint
 10
1610.131607832487
 20
-2927.488495234813
 30
0.0
  0
POINT
  5
EFF0
330
DF66
100
AcDbEntity
  8
DEFPOINTS
 62
     0
100
AcDbPoint
 10
1610.131607832487
 20
-2860.53787649289
 30
0.0
  0
ENDBLK
  5
DF71
330
DF66
100
AcDbEntity
  8
0
100
AcDbBlockEnd
  0
BLOCK
  5
DF7F
330
DF73
100
AcDbEntity
  8
0
100
AcDbBlockBegin
  2
*D15
 70
     1
 10
0.0
 20
0.0
 30
0.0
  3
*D15
  1

  0
LINE
  5
F020
330
DF73
100
AcDbEntity
  8
SIZE
 62
     0
100
AcDbLine
 10
1610.131607832487
 20
-2907.488495234813
 30
0.0
 11
1610.131607832487
 21
-2830.53787649289
 31
0.0
  0
LINE
  5
F021
330
DF73
100
AcDbEntity
  8
SIZE
 62
     0
100
AcDbLine
 10
1550.131607832487
 20
-2943.488495234813
 30
0.0
 11
1550.131607832487
 21
-2830.53787649289
 31
0.0
  0
LINE
  5
F022
330
DF73
100
AcDbEntity
  8
SIZE
 62
     0
100
AcDbLine
 10
1622.131607832487
 20
-2860.53787649289
 30
0.0
 11
1634.131607832487
 21
-2860.53787649289
 31
0.0
  0
LINE
  5
F023
330
DF73
100
AcDbEntity
  8
SIZE
 62
     0
100
AcDbLine
 10
1538.131607832487
 20
-2860.53787649289
 30
0.0
 11
1413.274464975344
 21
-2860.53787649289
 31
0.0
  0
LINE
  5
F024
330
DF73
100
AcDbEntity
  8
SIZE
 62
     0
100
AcDbLine
 10
1610.131607832487
 20
-2860.53787649289
 30
0.0
 11
1550.131607832487
 21
-2860.53787649289
 31
0.0
  0
INSERT
  5
F025
330
DF73
100
AcDbEntity
  8
SIZE
 62
     0
100
AcDbBlockReference
  2
_ORIGIN
 10
1610.131607832487
 20
-2860.53787649289
 30
0.0
 41
12.0
 42
12.0
 43
12.0
 50
180.0
  0
INSERT
  5
F026
330
DF73
100
AcDbEntity
  8
SIZE
 62
     0
100
AcDbBlockReference
  2
_ORIGIN
 10
1550.131607832487
 20
-2860.53787649289
 30
0.0
 41
12.0
 42
12.0
 43
12.0
  0
MTEXT
  5
F027
330
DF73
100
AcDbEntity
  8
SIZE
 62
     0
100
AcDbMText
 10
1469.703036403915
 20
-2815.53787649289
 30
0.0
 40
50.0
 41
0.0
 71
     5
 72
     1
  1
\A1;60
1001
ACAD
1000
MTEXTBEGIN
1070
    73
1070
     1
1070
    44
1040
1.0
1070
    74
1070
     0
1000
MTEXTEND
  0
POINT
  5
F028
330
DF73
100
AcDbEntity
  8
DEFPOINTS
 62
     0
100
AcDbPoint
 10
1610.131607832487
 20
-2927.488495234813
 30
0.0
  0
POINT
  5
F029
330
DF73
100
AcDbEntity
  8
DEFPOINTS
 62
     0
100
AcDbPoint
 10
1550.131607832487
 20
-2963.488495234813
 30
0.0
  0
POINT
  5
F02A
330
DF73
100
AcDbEntity
  8
DEFPOINTS
 62
     0
100
AcDbPoint
 10
1550.131607832487
 20
-2860.53787649289
 30
0.0
  0
ENDBLK
  5
DF80
330
DF73
100
AcDbEntity
  8
0
100
AcDbBlockEnd
  0
BLOCK
  5
DFA1
330
DF97
100
AcDbEntity
  8
0
100
AcDbBlockBegin
  2
*D16
 70
     1
 10
0.0
 20
0.0
 30
0.0
  3
*D16
  1

  0
LINE
  5
EF47
330
DF97
100
AcDbEntity
  8
SIZE
 62
     0
100
AcDbLine
 10
3743.787779860287
 20
-4680.921742323699
 30
0.0
 11
3743.787779860287
 21
-4915.232300243177
 31
0.0
  0
LINE
  5
EF48
330
DF97
100
AcDbEntity
  8
SIZE
 62
     0
100
AcDbLine
 10
3324.787779860288
 20
-4694.787245750795
 30
0.0
 11
3324.787779860288
 21
-4915.232300243177
 31
0.0
  0
LINE
  5
EF49
330
DF97
100
AcDbEntity
  8
SIZE
 62
     0
100
AcDbLine
 10
3731.787779860288
 20
-4885.232300243177
 30
0.0
 11
3336.787779860287
 21
-4885.232300243177
 31
0.0
  0
INSERT
  5
EF4A
330
DF97
100
AcDbEntity
  8
SIZE
 62
     0
100
AcDbBlockReference
  2
_ORIGIN
 10
3743.787779860287
 20
-4885.232300243177
 30
0.0
 41
12.0
 42
12.0
 43
12.0
  0
INSERT
  5
EF4B
330
DF97
100
AcDbEntity
  8
SIZE
 62
     0
100
AcDbBlockReference
  2
_ORIGIN
 10
3324.787779860288
 20
-4885.232300243177
 30
0.0
 41
12.0
 42
12.0
 43
12.0
 50
180.0
  0
MTEXT
  5
EF4C
330
DF97
100
AcDbEntity
  8
SIZE
 62
     0
100
AcDbMText
 10
3534.287779860287
 20
-4840.232300243177
 30
0.0
 40
50.0
 41
0.0
 71
     5
 72
     1
  1
\A1;419
1001
ACAD
1000
MTEXTBEGIN
1070
    73
1070
     1
1070
    44
1040
1.0
1070
    74
1070
     0
1000
MTEXTEND
  0
POINT
  5
EF4D
330
DF97
100
AcDbEntity
  8
DEFPOINTS
 62
     0
100
AcDbPoint
 10
3743.787779860287
 20
-4660.9217423237
 30
0.0
  0
POINT
  5
EF4E
330
DF97
100
AcDbEntity
  8
DEFPOINTS
 62
     0
100
AcDbPoint
 10
3324.787779860288
 20
-4674.787245750795
 30
0.0
  0
POINT
  5
EF4F
330
DF97
100
AcDbEntity
  8
DEFPOINTS
 62
     0
100
AcDbPoint
 10
3324.787779860288
 20
-4885.232300243177
 30
0.0
  0
ENDBLK
  5
DFA2
330
DF97
100
AcDbEntity
  8
0
100
AcDbBlockEnd
  0
BLOCK
  5
DFF3
330
DFE9
100
AcDbEntity
  8
0
100
AcDbBlockBegin
  2
*D17
 70
     1
 10
0.0
 20
0.0
 30
0.0
  3
*D17
  1

  0
LINE
  5
EF63
330
DFE9
100
AcDbEntity
  8
SIZE
 62
     0
100
AcDbLine
 10
3767.560059860281
 20
-4297.1493123237
 30
0.0
 11
4023.735315217968
 21
-4297.1493123237
 31
0.0
  0
LINE
  5
EF64
330
DFE9
100
AcDbEntity
  8
SIZE
 62
     0
100
AcDbLine
 10
3759.762829860285
 20
-4656.473112323702
 30
0.0
 11
4023.735315217968
 21
-4656.473112323702
 31
0.0
  0
LINE
  5
EF65
330
DFE9
100
AcDbEntity
  8
SIZE
 62
     0
100
AcDbLine
 10
3993.735315217967
 20
-4309.1493123237
 30
0.0
 11
3993.735315217967
 21
-4644.473112323702
 31
0.0
  0
INSERT
  5
EF66
330
DFE9
100
AcDbEntity
  8
SIZE
 62
     0
100
AcDbBlockReference
  2
_ORIGIN
 10
3993.735315217967
 20
-4297.1493123237
 30
0.0
 41
12.0
 42
12.0
 43
12.0
 50
90.0
  0
INSERT
  5
EF67
330
DFE9
100
AcDbEntity
  8
SIZE
 62
     0
100
AcDbBlockReference
  2
_ORIGIN
 10
3993.735315217967
 20
-4656.473112323702
 30
0.0
 41
12.0
 42
12.0
 43
12.0
 50
270.0
  0
MTEXT
  5
EF68
330
DFE9
100
AcDbEntity
  8
SIZE
 62
     0
100
AcDbMText
 10
3948.735315217968
 20
-4476.811212323701
 30
0.0
 40
50.0
 41
0.0
 71
     5
 72
     1
  1
\A1;359
 11
0.0000000000000001
 21
1.0
 31
0.0
1001
ACAD
1000
MTEXTBEGIN
1070
    73
1070
     1
1070
    44
1040
1.0
1070
    74
1070
     0
1000
MTEXTEND
  0
POINT
  5
EF69
330
DFE9
100
AcDbEntity
  8
DEFPOINTS
 62
     0
100
AcDbPoint
 10
3747.560059860282
 20
-4297.1493123237
 30
0.0
  0
POINT
  5
EF6A
330
DFE9
100
AcDbEntity
  8
DEFPOINTS
 62
     0
100
AcDbPoint
 10
3739.762829860284
 20
-4656.473112323702
 30
0.0
  0
POINT
  5
EF6B
330
DFE9
100
AcDbEntity
  8
DEFPOINTS
 62
     0
100
AcDbPoint
 10
3993.735315217967
 20
-4656.473112323702
 30
0.0
  0
ENDBLK
  5
DFF4
330
DFE9
100
AcDbEntity
  8
0
100
AcDbBlockEnd
  0
BLOCK
  5
E001
330
DFF6
100
AcDbEntity
  8
0
100
AcDbBlockBegin
  2
*D18
 70
     1
 10
0.0
 20
0.0
 30
0.0
  3
*D18
  1

  0
LINE
  5
EF59
330
DFF6
100
AcDbEntity
  8
SIZE
 62
     0
100
AcDbLine
 10
3759.762829860285
 20
-4656.473112323702
 30
0.0
 11
4023.735315217968
 21
-4656.473112323702
 31
0.0
  0
LINE
  5
EF5A
330
DFF6
100
AcDbEntity
  8
SIZE
 62
     0
100
AcDbLine
 10
3756.167319860289
 20
-4728.1493123237
 30
0.0
 11
4023.735315217968
 21
-4728.1493123237
 31
0.0
  0
LINE
  5
EF5B
330
DFF6
100
AcDbEntity
  8
SIZE
 62
     0
100
AcDbLine
 10
3993.735315217967
 20
-4668.473112323702
 30
0.0
 11
3993.735315217967
 21
-4716.1493123237
 31
0.0
  0
LINE
  5
EF5C
330
DFF6
100
AcDbEntity
  8
SIZE
 62
     0
100
AcDbLine
 10
3993.735315217967
 20
-4728.1493123237
 30
0.0
 11
3993.735315217967
 21
-4853.006455180843
 31
0.0
  0
INSERT
  5
EF5D
330
DFF6
100
AcDbEntity
  8
SIZE
 62
     0
100
AcDbBlockReference
  2
_ORIGIN
 10
3993.735315217967
 20
-4656.473112323702
 30
0.0
 41
12.0
 42
12.0
 43
12.0
 50
90.0
  0
INSERT
  5
EF5E
330
DFF6
100
AcDbEntity
  8
SIZE
 62
     0
100
AcDbBlockReference
  2
_ORIGIN
 10
3993.735315217967
 20
-4728.1493123237
 30
0.0
 41
12.0
 42
12.0
 43
12.0
 50
270.0
  0
MTEXT
  5
EF5F
330
DFF6
100
AcDbEntity
  8
SIZE
 62
     0
100
AcDbMText
 10
3948.735315217968
 20
-4796.577883752271
 30
0.0
 40
50.0
 41
0.0
 71
     5
 72
     1
  1
\A1;72
 11
0.0000000000000001
 21
1.0
 31
0.0
1001
ACAD
1000
MTEXTBEGIN
1070
    73
1070
     1
1070
    44
1040
1.0
1070
    74
1070
     0
1000
MTEXTEND
  0
POINT
  5
EF60
330
DFF6
100
AcDbEntity
  8
DEFPOINTS
 62
     0
100
AcDbPoint
 10
3739.762829860284
 20
-4656.473112323702
 30
0.0
  0
POINT
  5
EF61
330
DFF6
100
AcDbEntity
  8
DEFPOINTS
 62
     0
100
AcDbPoint
 10
3736.167319860289
 20
-4728.1493123237
 30
0.0
  0
POINT
  5
EF62
330
DFF6
100
AcDbEntity
  8
DEFPOINTS
 62
     0
100
AcDbPoint
 10
3993.735315217967
 20
-4728.1493123237
 30
0.0
  0
ENDBLK
  5
E002
330
DFF6
100
AcDbEntity
  8
0
100
AcDbBlockEnd
  0
BLOCK
  5
E010
330
E006
100
AcDbEntity
  8
0
100
AcDbBlockBegin
  2
*D19
 70
     1
 10
0.0
 20
0.0
 30
0.0
  3
*D19
  1

  0
LINE
  5
EF50
330
E006
100
AcDbEntity
  8
SIZE
 62
     0
100
AcDbLine
 10
3747.560059860282
 20
-4277.1493123237
 30
0.0
 11
3747.560059860282
 21
-4165.609582133748
 31
0.0
  0
LINE
  5
EF51
330
E006
100
AcDbEntity
  8
SIZE
 62
     0
100
AcDbLine
 10
3324.787779860284
 20
-4654.787245750795
 30
0.0
 11
3324.787779860284
 21
-4165.609582133748
 31
0.0
  0
LINE
  5
EF52
330
E006
100
AcDbEntity
  8
SIZE
 62
     0
100
AcDbLine
 10
3735.560059860281
 20
-4195.609582133747
 30
0.0
 11
3336.787779860284
 21
-4195.609582133747
 31
0.0
  0
INSERT
  5
EF53
330
E006
100
AcDbEntity
  8
SIZE
 62
     0
100
AcDbBlockReference
  2
_ORIGIN
 10
3747.560059860282
 20
-4195.609582133747
 30
0.0
 41
12.0
 42
12.0
 43
12.0
  0
INSERT
  5
EF54
330
E006
100
AcDbEntity
  8
SIZE
 62
     0
100
AcDbBlockReference
  2
_ORIGIN
 10
3324.787779860284
 20
-4195.609582133747
 30
0.0
 41
12.0
 42
12.0
 43
12.0
 50
180.0
  0
MTEXT
  5
EF55
330
E006
100
AcDbEntity
  8
SIZE
 62
     0
100
AcDbMText
 10
3536.173919860282
 20
-4150.609582133747
 30
0.0
 40
50.0
 41
0.0
 71
     5
 72
     1
  1
\A1;423
1001
ACAD
1000
MTEXTBEGIN
1070
    73
1070
     1
1070
    44
1040
1.0
1070
    74
1070
     0
1000
MTEXTEND
  0
POINT
  5
EF56
330
E006
100
AcDbEntity
  8
DEFPOINTS
 62
     0
100
AcDbPoint
 10
3747.560059860282
 20
-4297.1493123237
 30
0.0
  0
POINT
  5
EF57
330
E006
100
AcDbEntity
  8
DEFPOINTS
 62
     0
100
AcDbPoint
 10
3324.787779860284
 20
-4674.787245750795
 30
0.0
  0
POINT
  5
EF58
330
E006
100
AcDbEntity
  8
DEFPOINTS
 62
     0
100
AcDbPoint
 10
3324.787779860284
 20
-4195.609582133747
 30
0.0
  0
ENDBLK
  5
E011
330
E006
100
AcDbEntity
  8
0
100
AcDbBlockEnd
  0
BLOCK
  5
E01F
330
E013
100
AcDbEntity
  8
0
100
AcDbBlockBegin
  2
*D20
 70
     1
 10
0.0
 20
0.0
 30
0.0
  3
*D20
  1

  0
LINE
  5
EEC3
330
E013
100
AcDbEntity
  8
SIZE
 62
     0
100
AcDbLine
 10
1530.131607832487
 20
-4297.1493123237
 30
0.0
 11
1443.749004574743
 21
-4297.1493123237
 31
0.0
  0
LINE
  5
EEC4
330
E013
100
AcDbEntity
  8
SIZE
 62
     0
100
AcDbLine
 10
1541.592749864412
 20
-4317.1493123237
 30
0.0
 11
1443.749004574743
 21
-4317.1493123237
 31
0.0
  0
LINE
  5
EEC5
330
E013
100
AcDbEntity
  8
SIZE
 62
     0
100
AcDbLine
 10
1473.749004574743
 20
-4285.1493123237
 30
0.0
 11
1473.749004574743
 21
-4273.149312323701
 31
0.0
  0
LINE
  5
EEC6
330
E013
100
AcDbEntity
  8
SIZE
 62
     0
100
AcDbLine
 10
1473.749004574743
 20
-4329.1493123237
 30
0.0
 11
1473.749004574743
 21
-4454.006455180843
 31
0.0
  0
LINE
  5
EEC7
330
E013
100
AcDbEntity
  8
SIZE
 62
     0
100
AcDbLine
 10
1473.749004574743
 20
-4297.1493123237
 30
0.0
 11
1473.749004574743
 21
-4317.1493123237
 31
0.0
  0
INSERT
  5
EEC8
330
E013
100
AcDbEntity
  8
SIZE
 62
     0
100
AcDbBlockReference
  2
_ORIGIN
 10
1473.749004574743
 20
-4297.1493123237
 30
0.0
 41
12.0
 42
12.0
 43
12.0
 50
270.0
  0
INSERT
  5
EEC9
330
E013
100
AcDbEntity
  8
SIZE
 62
     0
100
AcDbBlockReference
  2
_ORIGIN
 10
1473.749004574743
 20
-4317.1493123237
 30
0.0
 41
12.0
 42
12.0
 43
12.0
 50
90.0
  0
MTEXT
  5
EECA
330
E013
100
AcDbEntity
  8
SIZE
 62
     0
100
AcDbMText
 10
1428.749004574744
 20
-4397.577883752272
 30
0.0
 40
50.0
 41
0.0
 71
     5
 72
     1
  1
\A1;20
 11
0.0000000000000001
 21
1.0
 31
0.0
1001
ACAD
1000
MTEXTBEGIN
1070
    73
1070
     1
1070
    44
1040
1.0
1070
    74
1070
     0
1000
MTEXTEND
  0
POINT
  5
EECB
330
E013
100
AcDbEntity
  8
DEFPOINTS
 62
     0
100
AcDbPoint
 10
1550.131607832487
 20
-4297.1493123237
 30
0.0
  0
POINT
  5
EECC
330
E013
100
AcDbEntity
  8
DEFPOINTS
 62
     0
100
AcDbPoint
 10
1561.592749864412
 20
-4317.1493123237
 30
0.0
  0
POINT
  5
EECD
330
E013
100
AcDbEntity
  8
DEFPOINTS
 62
     0
100
AcDbPoint
 10
1473.749004574743
 20
-4317.1493123237
 30
0.0
  0
ENDBLK
  5
E020
330
E013
100
AcDbEntity
  8
0
100
AcDbBlockEnd
  0
BLOCK
  5
E02F
330
E023
100
AcDbEntity
  8
0
100
AcDbBlockBegin
  2
*D21
 70
     1
 10
0.0
 20
0.0
 30
0.0
  3
*D21
  1

  0
LINE
  5
EF6C
330
E023
100
AcDbEntity
  8
SIZE
 62
     0
100
AcDbLine
 10
3772.560059860281
 20
-4317.1493123237
 30
0.0
 11
3950.415146612355
 21
-4317.1493123237
 31
0.0
  0
LINE
  5
EF6D
330
E023
100
AcDbEntity
  8
SIZE
 62
     0
100
AcDbLine
 10
3767.560059860281
 20
-4297.1493123237
 30
0.0
 11
3950.415146612355
 21
-4297.1493123237
 31
0.0
  0
LINE
  5
EF6E
330
E023
100
AcDbEntity
  8
SIZE
 62
     0
100
AcDbLine
 10
3920.415146612354
 20
-4329.1493123237
 30
0.0
 11
3920.415146612354
 21
-4341.1493123237
 31
0.0
  0
LINE
  5
EF6F
330
E023
100
AcDbEntity
  8
SIZE
 62
     0
100
AcDbLine
 10
3920.415146612354
 20
-4285.1493123237
 30
0.0
 11
3920.415146612354
 21
-4160.292169466557
 31
0.0
  0
LINE
  5
EF70
330
E023
100
AcDbEntity
  8
SIZE
 62
     0
100
AcDbLine
 10
3920.415146612354
 20
-4317.1493123237
 30
0.0
 11
3920.415146612354
 21
-4297.1493123237
 31
0.0
  0
INSERT
  5
EF71
330
E023
100
AcDbEntity
  8
SIZE
 62
     0
100
AcDbBlockReference
  2
_ORIGIN
 10
3920.415146612354
 20
-4317.1493123237
 30
0.0
 41
12.0
 42
12.0
 43
12.0
 50
90.0
  0
INSERT
  5
EF72
330
E023
100
AcDbEntity
  8
SIZE
 62
     0
100
AcDbBlockReference
  2
_ORIGIN
 10
3920.415146612354
 20
-4297.1493123237
 30
0.0
 41
12.0
 42
12.0
 43
12.0
 50
270.0
  0
MTEXT
  5
EF73
330
E023
100
AcDbEntity
  8
SIZE
 62
     0
100
AcDbMText
 10
3875.415146612355
 20
-4216.720740895128
 30
0.0
 40
50.0
 41
0.0
 71
     5
 72
     1
  1
\A1;20
 11
0.0000000000000001
 21
1.0
 31
0.0
1001
ACAD
1000
MTEXTBEGIN
1070
    73
1070
     1
1070
    44
1040
1.0
1070
    74
1070
     0
1000
MTEXTEND
  0
POINT
  5
EF74
330
E023
100
AcDbEntity
  8
DEFPOINTS
 62
     0
100
AcDbPoint
 10
3752.560059860281
 20
-4317.1493123237
 30
0.0
  0
POINT
  5
EF75
330
E023
100
AcDbEntity
  8
DEFPOINTS
 62
     0
100
AcDbPoint
 10
3747.560059860282
 20
-4297.1493123237
 30
0.0
  0
POINT
  5
EF76
330
E023
100
AcDbEntity
  8
DEFPOINTS
 62
     0
100
AcDbPoint
 10
3920.415146612354
 20
-4297.1493123237
 30
0.0
  0
ENDBLK
  5
E030
330
E023
100
AcDbEntity
  8
0
100
AcDbBlockEnd
  0
BLOCK
  5
E03D
330
E033
100
AcDbEntity
  8
0
100
AcDbBlockBegin
  2
*D22
 70
     1
 10
0.0
 20
0.0
 30
0.0
  3
*D22
  1

  0
LINE
  5
F00C
330
E033
100
AcDbEntity
  8
SIZE
 62
     0
100
AcDbLine
 10
1530.131607832487
 20
-2963.488495234813
 30
0.0
 11
1366.335214511
 21
-2963.488495234813
 31
0.0
  0
LINE
  5
F00D
330
E033
100
AcDbEntity
  8
SIZE
 62
     0
100
AcDbLine
 10
1757.631607832487
 20
-3386.488495234814
 30
0.0
 11
1366.335214511
 21
-3386.488495234814
 31
0.0
  0
LINE
  5
F00E
330
E033
100
AcDbEntity
  8
SIZE
 62
     0
100
AcDbLine
 10
1396.335214511
 20
-2975.488495234813
 30
0.0
 11
1396.335214511
 21
-3374.488495234813
 31
0.0
  0
INSERT
  5
F00F
330
E033
100
AcDbEntity
  8
SIZE
 62
     0
100
AcDbBlockReference
  2
_ORIGIN
 10
1396.335214511
 20
-2963.488495234813
 30
0.0
 41
12.0
 42
12.0
 43
12.0
 50
90.0
  0
INSERT
  5
F010
330
E033
100
AcDbEntity
  8
SIZE
 62
     0
100
AcDbBlockReference
  2
_ORIGIN
 10
1396.335214511
 20
-3386.488495234814
 30
0.0
 41
12.0
 42
12.0
 43
12.0
 50
270.0
  0
MTEXT
  5
F011
330
E033
100
AcDbEntity
  8
SIZE
 62
     0
100
AcDbMText
 10
1351.335214511
 20
-3174.988495234813
 30
0.0
 40
50.0
 41
0.0
 71
     5
 72
     1
  1
\A1;423
 11
0.0000000000000001
 21
1.0
 31
0.0
1001
ACAD
1000
MTEXTBEGIN
1070
    73
1070
     1
1070
    44
1040
1.0
1070
    74
1070
     0
1000
MTEXTEND
  0
POINT
  5
F012
330
E033
100
AcDbEntity
  8
DEFPOINTS
 62
     0
100
AcDbPoint
 10
1550.131607832487
 20
-2963.488495234813
 30
0.0
  0
POINT
  5
F013
330
E033
100
AcDbEntity
  8
DEFPOINTS
 62
     0
100
AcDbPoint
 10
1777.631607832487
 20
-3386.488495234814
 30
0.0
  0
POINT
  5
F014
330
E033
100
AcDbEntity
  8
DEFPOINTS
 62
     0
100
AcDbPoint
 10
1396.335214511
 20
-3386.488495234814
 30
0.0
  0
ENDBLK
  5
E03E
330
E033
100
AcDbEntity
  8
0
100
AcDbBlockEnd
  0
BLOCK
  5
E04C
330
E040
100
AcDbEntity
  8
0
100
AcDbBlockBegin
  2
*D23
 70
     1
 10
0.0
 20
0.0
 30
0.0
  3
*D23
  1

  0
LINE
  5
EF02
330
E040
100
AcDbEntity
  8
SIZE
 62
     0
100
AcDbLine
 10
2277.631607832487
 20
-4748.149312323699
 30
0.0
 11
2277.631607832487
 21
-4851.026445091942
 31
0.0
  0
LINE
  5
EF03
330
E040
100
AcDbEntity
  8
SIZE
 62
     0
100
AcDbLine
 10
2322.631607832487
 20
-4748.149312323699
 30
0.0
 11
2322.631607832487
 21
-4851.026445091942
 31
0.0
  0
LINE
  5
EF04
330
E040
100
AcDbEntity
  8
SIZE
 62
     0
100
AcDbLine
 10
2265.631607832486
 20
-4821.026445091942
 30
0.0
 11
2253.631607832487
 21
-4821.026445091942
 31
0.0
  0
LINE
  5
EF05
330
E040
100
AcDbEntity
  8
SIZE
 62
     0
100
AcDbLine
 10
2334.631607832487
 20
-4821.026445091942
 30
0.0
 11
2459.488750689629
 21
-4821.026445091942
 31
0.0
  0
LINE
  5
EF06
330
E040
100
AcDbEntity
  8
SIZE
 62
     0
100
AcDbLine
 10
2277.631607832487
 20
-4821.026445091942
 30
0.0
 11
2322.631607832487
 21
-4821.026445091942
 31
0.0
  0
INSERT
  5
EF07
330
E040
100
AcDbEntity
  8
SIZE
 62
     0
100
AcDbBlockReference
  2
_ORIGIN
 10
2277.631607832487
 20
-4821.026445091942
 30
0.0
 41
12.0
 42
12.0
 43
12.0
  0
INSERT
  5
EF08
330
E040
100
AcDbEntity
  8
SIZE
 62
     0
100
AcDbBlockReference
  2
_ORIGIN
 10
2322.631607832487
 20
-4821.026445091942
 30
0.0
 41
12.0
 42
12.0
 43
12.0
 50
180.0
  0
MTEXT
  5
EF09
330
E040
100
AcDbEntity
  8
SIZE
 62
     0
100
AcDbMText
 10
2403.060179261058
 20
-4776.026445091942
 30
0.0
 40
50.0
 41
0.0
 71
     5
 72
     1
  1
\A1;45
1001
ACAD
1000
MTEXTBEGIN
1070
    73
1070
     1
1070
    44
1040
1.0
1070
    74
1070
     0
1000
MTEXTEND
  0
POINT
  5
EF0A
330
E040
100
AcDbEntity
  8
DEFPOINTS
 62
     0
100
AcDbPoint
 10
2277.631607832487
 20
-4728.1493123237
 30
0.0
  0
POINT
  5
EF0B
330
E040
100
AcDbEntity
  8
DEFPOINTS
 62
     0
100
AcDbPoint
 10
2322.631607832487
 20
-4728.1493123237
 30
0.0
  0
POINT
  5
EF0C
330
E040
100
AcDbEntity
  8
DEFPOINTS
 62
     0
100
AcDbPoint
 10
2322.631607832487
 20
-4821.026445091942
 30
0.0
  0
ENDBLK
  5
E04D
330
E040
100
AcDbEntity
  8
0
100
AcDbBlockEnd
  0
BLOCK
  5
E05B
330
E04F
100
AcDbEntity
  8
0
100
AcDbBlockBegin
  2
*D24
 70
     1
 10
0.0
 20
0.0
 30
0.0
  3
*D24
  1

  0
LINE
  5
EEF7
330
E04F
100
AcDbEntity
  8
SIZE
 62
     0
100
AcDbLine
 10
2279.131607832483
 20
-4348.049312323701
 30
0.0
 11
2279.131607832483
 21
-4531.136754668074
 31
0.0
  0
LINE
  5
EEF8
330
E04F
100
AcDbEntity
  8
SIZE
 62
     0
100
AcDbLine
 10
2321.13160783249
 20
-4348.049312323701
 30
0.0
 11
2321.13160783249
 21
-4531.136754668074
 31
0.0
  0
LINE
  5
EEF9
330
E04F
100
AcDbEntity
  8
SIZE
 62
     0
100
AcDbLine
 10
2267.131607832483
 20
-4501.136754668073
 30
0.0
 11
2255.131607832483
 21
-4501.136754668073
 31
0.0
  0
LINE
  5
EEFA
330
E04F
100
AcDbEntity
  8
SIZE
 62
     0
100
AcDbLine
 10
2333.13160783249
 20
-4501.136754668073
 30
0.0
 11
2457.988750689633
 21
-4501.136754668073
 31
0.0
  0
LINE
  5
EEFB
330
E04F
100
AcDbEntity
  8
SIZE
 62
     0
100
AcDbLine
 10
2279.131607832483
 20
-4501.136754668073
 30
0.0
 11
2321.13160783249
 21
-4501.136754668073
 31
0.0
  0
INSERT
  5
EEFC
330
E04F
100
AcDbEntity
  8
SIZE
 62
     0
100
AcDbBlockReference
  2
_ORIGIN
 10
2279.131607832483
 20
-4501.136754668073
 30
0.0
 41
12.0
 42
12.0
 43
12.0
  0
INSERT
  5
EEFD
330
E04F
100
AcDbEntity
  8
SIZE
 62
     0
100
AcDbBlockReference
  2
_ORIGIN
 10
2321.13160783249
 20
-4501.136754668073
 30
0.0
 41
12.0
 42
12.0
 43
12.0
 50
180.0
  0
MTEXT
  5
EEFE
330
E04F
100
AcDbEntity
  8
SIZE
 62
     0
100
AcDbMText
 10
2401.560179261062
 20
-4456.136754668074
 30
0.0
 40
50.0
 41
0.0
 71
     5
 72
     1
  1
\A1;42
1001
ACAD
1000
MTEXTBEGIN
1070
    73
1070
     1
1070
    44
1040
1.0
1070
    74
1070
     0
1000
MTEXTEND
  0
POINT
  5
EEFF
330
E04F
100
AcDbEntity
  8
DEFPOINTS
 62
     0
100
AcDbPoint
 10
2279.131607832483
 20
-4328.049312323702
 30
0.0
  0
POINT
  5
EF00
330
E04F
100
AcDbEntity
  8
DEFPOINTS
 62
     0
100
AcDbPoint
 10
2321.13160783249
 20
-4328.049312323702
 30
0.0
  0
POINT
  5
EF01
330
E04F
100
AcDbEntity
  8
DEFPOINTS
 62
     0
100
AcDbPoint
 10
2321.13160783249
 20
-4501.136754668073
 30
0.0
  0
ENDBLK
  5
E05C
330
E04F
100
AcDbEntity
  8
0
100
AcDbBlockEnd
  0
BLOCK
  5
E06A
330
E05E
100
AcDbEntity
  8
0
100
AcDbBlockBegin
  2
*D25
 70
     1
 10
0.0
 20
0.0
 30
0.0
  3
*D25
  1

  0
LINE
  5
EEB8
330
E05E
100
AcDbEntity
  8
SIZE
 62
     0
100
AcDbLine
 10
1779.131607832483
 20
-4348.049312323701
 30
0.0
 11
1779.131607832483
 21
-4529.386967821567
 31
0.0
  0
LINE
  5
EEB9
330
E05E
100
AcDbEntity
  8
SIZE
 62
     0
100
AcDbLine
 10
1821.131607832491
 20
-4348.049312323701
 30
0.0
 11
1821.131607832491
 21
-4529.386967821567
 31
0.0
  0
LINE
  5
EEBA
330
E05E
100
AcDbEntity
  8
SIZE
 62
     0
100
AcDbLine
 10
1767.131607832483
 20
-4499.386967821567
 30
0.0
 11
1755.131607832483
 21
-4499.386967821567
 31
0.0
  0
LINE
  5
EEBB
330
E05E
100
AcDbEntity
  8
SIZE
 62
     0
100
AcDbLine
 10
1833.13160783249
 20
-4499.386967821567
 30
0.0
 11
1957.988750689633
 21
-4499.386967821567
 31
0.0
  0
LINE
  5
EEBC
330
E05E
100
AcDbEntity
  8
SIZE
 62
     0
100
AcDbLine
 10
1779.131607832483
 20
-4499.386967821567
 30
0.0
 11
1821.131607832491
 21
-4499.386967821567
 31
0.0
  0
INSERT
  5
EEBD
330
E05E
100
AcDbEntity
  8
SIZE
 62
     0
100
AcDbBlockReference
  2
_ORIGIN
 10
1779.131607832483
 20
-4499.386967821567
 30
0.0
 41
12.0
 42
12.0
 43
12.0
  0
INSERT
  5
EEBE
330
E05E
100
AcDbEntity
  8
SIZE
 62
     0
100
AcDbBlockReference
  2
_ORIGIN
 10
1821.131607832491
 20
-4499.386967821567
 30
0.0
 41
12.0
 42
12.0
 43
12.0
 50
180.0
  0
MTEXT
  5
EEBF
330
E05E
100
AcDbEntity
  8
SIZE
 62
     0
100
AcDbMText
 10
1901.560179261062
 20
-4454.386967821567
 30
0.0
 40
50.0
 41
0.0
 71
     5
 72
     1
  1
\A1;42
1001
ACAD
1000
MTEXTBEGIN
1070
    73
1070
     1
1070
    44
1040
1.0
1070
    74
1070
     0
1000
MTEXTEND
  0
POINT
  5
EEC0
330
E05E
100
AcDbEntity
  8
DEFPOINTS
 62
     0
100
AcDbPoint
 10
1779.131607832483
 20
-4328.049312323702
 30
0.0
  0
POINT
  5
EEC1
330
E05E
100
AcDbEntity
  8
DEFPOINTS
 62
     0
100
AcDbPoint
 10
1821.131607832491
 20
-4328.049312323702
 30
0.0
  0
POINT
  5
EEC2
330
E05E
100
AcDbEntity
  8
DEFPOINTS
 62
     0
100
AcDbPoint
 10
1821.131607832491
 20
-4499.386967821567
 30
0.0
  0
ENDBLK
  5
E06B
330
E05E
100
AcDbEntity
  8
0
100
AcDbBlockEnd
  0
BLOCK
  5
E079
330
E06D
100
AcDbEntity
  8
0
100
AcDbBlockBegin
  2
*D26
 70
     1
 10
0.0
 20
0.0
 30
0.0
  3
*D26
  1

  0
LINE
  5
EED7
330
E06D
100
AcDbEntity
  8
SIZE
 62
     0
100
AcDbLine
 10
1777.631607832487
 20
-4748.433212323699
 30
0.0
 11
1777.631607832487
 21
-4860.557792156207
 31
0.0
  0
LINE
  5
EED8
330
E06D
100
AcDbEntity
  8
SIZE
 62
     0
100
AcDbLine
 10
1822.631607832487
 20
-4748.433212323699
 30
0.0
 11
1822.631607832487
 21
-4860.557792156207
 31
0.0
  0
LINE
  5
EED9
330
E06D
100
AcDbEntity
  8
SIZE
 62
     0
100
AcDbLine
 10
1765.631607832487
 20
-4830.557792156207
 30
0.0
 11
1753.631607832487
 21
-4830.557792156207
 31
0.0
  0
LINE
  5
EEDA
330
E06D
100
AcDbEntity
  8
SIZE
 62
     0
100
AcDbLine
 10
1834.631607832487
 20
-4830.557792156207
 30
0.0
 11
1959.488750689629
 21
-4830.557792156207
 31
0.0
  0
LINE
  5
EEDB
330
E06D
100
AcDbEntity
  8
SIZE
 62
     0
100
AcDbLine
 10
1777.631607832487
 20
-4830.557792156207
 30
0.0
 11
1822.631607832487
 21
-4830.557792156207
 31
0.0
  0
INSERT
  5
EEDC
330
E06D
100
AcDbEntity
  8
SIZE
 62
     0
100
AcDbBlockReference
  2
_ORIGIN
 10
1777.631607832487
 20
-4830.557792156207
 30
0.0
 41
12.0
 42
12.0
 43
12.0
  0
INSERT
  5
EEDD
330
E06D
100
AcDbEntity
  8
SIZE
 62
     0
100
AcDbBlockReference
  2
_ORIGIN
 10
1822.631607832487
 20
-4830.557792156207
 30
0.0
 41
12.0
 42
12.0
 43
12.0
 50
180.0
  0
MTEXT
  5
EEDE
330
E06D
100
AcDbEntity
  8
SIZE
 62
     0
100
AcDbMText
 10
1903.060179261058
 20
-4785.557792156207
 30
0.0
 40
50.0
 41
0.0
 71
     5
 72
     1
  1
\A1;45
1001
ACAD
1000
MTEXTBEGIN
1070
    73
1070
     1
1070
    44
1040
1.0
1070
    74
1070
     0
1000
MTEXTEND
  0
POINT
  5
EEDF
330
E06D
100
AcDbEntity
  8
DEFPOINTS
 62
     0
100
AcDbPoint
 10
1777.631607832487
 20
-4728.433212323699
 30
0.0
  0
POINT
  5
EEE0
330
E06D
100
AcDbEntity
  8
DEFPOINTS
 62
     0
100
AcDbPoint
 10
1822.631607832487
 20
-4728.433212323699
 30
0.0
  0
POINT
  5
EEE1
330
E06D
100
AcDbEntity
  8
DEFPOINTS
 62
     0
100
AcDbPoint
 10
1822.631607832487
 20
-4830.557792156207
 30
0.0
  0
ENDBLK
  5
E07A
330
E06D
100
AcDbEntity
  8
0
100
AcDbBlockEnd
  0
BLOCK
  5
E088
330
E07C
100
AcDbEntity
  8
0
100
AcDbBlockBegin
  2
*D27
 70
     1
 10
0.0
 20
0.0
 30
0.0
  3
*D27
  1

  0
LINE
  5
F015
330
E07C
100
AcDbEntity
  8
SIZE
 62
     0
100
AcDbLine
 10
1777.631607832487
 20
-3406.488495234814
 30
0.0
 11
1777.631607832487
 21
-3489.192331015852
 31
0.0
  0
LINE
  5
F016
330
E07C
100
AcDbEntity
  8
SIZE
 62
     0
100
AcDbLine
 10
1822.631607832487
 20
-3406.488495234814
 30
0.0
 11
1822.631607832487
 21
-3489.192331015852
 31
0.0
  0
LINE
  5
F017
330
E07C
100
AcDbEntity
  8
SIZE
 62
     0
100
AcDbLine
 10
1765.631607832487
 20
-3459.192331015852
 30
0.0
 11
1753.631607832487
 21
-3459.192331015852
 31
0.0
  0
LINE
  5
F018
330
E07C
100
AcDbEntity
  8
SIZE
 62
     0
100
AcDbLine
 10
1834.631607832487
 20
-3459.192331015852
 30
0.0
 11
1959.488750689629
 21
-3459.192331015852
 31
0.0
  0
LINE
  5
F019
330
E07C
100
AcDbEntity
  8
SIZE
 62
     0
100
AcDbLine
 10
1777.631607832487
 20
-3459.192331015852
 30
0.0
 11
1822.631607832487
 21
-3459.192331015852
 31
0.0
  0
INSERT
  5
F01A
330
E07C
100
AcDbEntity
  8
SIZE
 62
     0
100
AcDbBlockReference
  2
_ORIGIN
 10
1777.631607832487
 20
-3459.192331015852
 30
0.0
 41
12.0
 42
12.0
 43
12.0
  0
INSERT
  5
F01B
330
E07C
100
AcDbEntity
  8
SIZE
 62
     0
100
AcDbBlockReference
  2
_ORIGIN
 10
1822.631607832487
 20
-3459.192331015852
 30
0.0
 41
12.0
 42
12.0
 43
12.0
 50
180.0
  0
MTEXT
  5
F01C
330
E07C
100
AcDbEntity
  8
SIZE
 62
     0
100
AcDbMText
 10
1903.060179261058
 20
-3414.192331015852
 30
0.0
 40
50.0
 41
0.0
 71
     5
 72
     1
  1
\A1;45
1001
ACAD
1000
MTEXTBEGIN
1070
    73
1070
     1
1070
    44
1040
1.0
1070
    74
1070
     0
1000
MTEXTEND
  0
POINT
  5
F01D
330
E07C
100
AcDbEntity
  8
DEFPOINTS
 62
     0
100
AcDbPoint
 10
1777.631607832487
 20
-3386.488495234814
 30
0.0
  0
POINT
  5
F01E
330
E07C
100
AcDbEntity
  8
DEFPOINTS
 62
     0
100
AcDbPoint
 10
1822.631607832487
 20
-3386.488495234813
 30
0.0
  0
POINT
  5
F01F
330
E07C
100
AcDbEntity
  8
DEFPOINTS
 62
     0
100
AcDbPoint
 10
1822.631607832487
 20
-3459.192331015852
 30
0.0
  0
ENDBLK
  5
E089
330
E07C
100
AcDbEntity
  8
0
100
AcDbBlockEnd
  0
BLOCK
  5
E097
330
E08B
100
AcDbEntity
  8
0
100
AcDbBlockBegin
  2
*D28
 70
     1
 10
0.0
 20
0.0
 30
0.0
  3
*D28
  1

  0
LINE
  5
F02B
330
E08B
100
AcDbEntity
  8
SIZE
 62
     0
100
AcDbLine
 10
2277.631607832487
 20
-3406.488495234814
 30
0.0
 11
2277.631607832487
 21
-3485.317223840768
 31
0.0
  0
LINE
  5
F02C
330
E08B
100
AcDbEntity
  8
SIZE
 62
     0
100
AcDbLine
 10
2322.631607832489
 20
-3406.488495234814
 30
0.0
 11
2322.631607832489
 21
-3485.317223840768
 31
0.0
  0
LINE
  5
F02D
330
E08B
100
AcDbEntity
  8
SIZE
 62
     0
100
AcDbLine
 10
2265.631607832486
 20
-3455.317223840767
 30
0.0
 11
2253.631607832487
 21
-3455.317223840767
 31
0.0
  0
LINE
  5
F02E
330
E08B
100
AcDbEntity
  8
SIZE
 62
     0
100
AcDbLine
 10
2334.631607832489
 20
-3455.317223840767
 30
0.0
 11
2459.488750689631
 21
-3455.317223840767
 31
0.0
  0
LINE
  5
F02F
330
E08B
100
AcDbEntity
  8
SIZE
 62
     0
100
AcDbLine
 10
2277.631607832487
 20
-3455.317223840767
 30
0.0
 11
2322.631607832489
 21
-3455.317223840767
 31
0.0
  0
INSERT
  5
F030
330
E08B
100
AcDbEntity
  8
SIZE
 62
     0
100
AcDbBlockReference
  2
_ORIGIN
 10
2277.631607832487
 20
-3455.317223840767
 30
0.0
 41
12.0
 42
12.0
 43
12.0
  0
INSERT
  5
F031
330
E08B
100
AcDbEntity
  8
SIZE
 62
     0
100
AcDbBlockReference
  2
_ORIGIN
 10
2322.631607832489
 20
-3455.317223840767
 30
0.0
 41
12.0
 42
12.0
 43
12.0
 50
180.0
  0
MTEXT
  5
F032
330
E08B
100
AcDbEntity
  8
SIZE
 62
     0
100
AcDbMText
 10
2403.060179261061
 20
-3410.317223840768
 30
0.0
 40
50.0
 41
0.0
 71
     5
 72
     1
  1
\A1;45
1001
ACAD
1000
MTEXTBEGIN
1070
    73
1070
     1
1070
    44
1040
1.0
1070
    74
1070
     0
1000
MTEXTEND
  0
POINT
  5
F033
330
E08B
100
AcDbEntity
  8
DEFPOINTS
 62
     0
100
AcDbPoint
 10
2277.631607832487
 20
-3386.488495234813
 30
0.0
  0
POINT
  5
F034
330
E08B
100
AcDbEntity
  8
DEFPOINTS
 62
     0
100
AcDbPoint
 10
2322.631607832489
 20
-3386.488495234814
 30
0.0
  0
POINT
  5
F035
330
E08B
100
AcDbEntity
  8
DEFPOINTS
 62
     0
100
AcDbPoint
 10
2322.631607832489
 20
-3455.317223840767
 30
0.0
  0
ENDBLK
  5
E098
330
E08B
100
AcDbEntity
  8
0
100
AcDbBlockEnd
  0
BLOCK
  5
E0BA
330
E0AF
100
AcDbEntity
  8
0
100
AcDbBlockBegin
  2
*D29
 70
     1
 10
0.0
 20
0.0
 30
0.0
  3
*D29
  1

  0
LINE
  5
EEED
330
E0AF
100
AcDbEntity
  8
SIZE
 62
     0
100
AcDbLine
 10
2570.131607832487
 20
-4297.1493123237
 30
0.0
 11
2687.931043025015
 21
-4297.1493123237
 31
0.0
  0
LINE
  5
EEEE
330
E0AF
100
AcDbEntity
  8
SIZE
 62
     0
100
AcDbLine
 10
2570.131607832487
 20
-4367.1493123237
 30
0.0
 11
2687.931043025015
 21
-4367.1493123237
 31
0.0
  0
LINE
  5
EEEF
330
E0AF
100
AcDbEntity
  8
SIZE
 62
     0
100
AcDbLine
 10
2657.931043025015
 20
-4309.1493123237
 30
0.0
 11
2657.931043025015
 21
-4355.149312323701
 31
0.0
  0
LINE
  5
EEF0
330
E0AF
100
AcDbEntity
  8
SIZE
 62
     0
100
AcDbLine
 10
2657.931043025015
 20
-4367.1493123237
 30
0.0
 11
2657.931043025015
 21
-4492.006455180844
 31
0.0
  0
INSERT
  5
EEF1
330
E0AF
100
AcDbEntity
  8
SIZE
 62
     0
100
AcDbBlockReference
  2
_ORIGIN
 10
2657.931043025015
 20
-4297.1493123237
 30
0.0
 41
12.0
 42
12.0
 43
12.0
 50
90.0
  0
INSERT
  5
EEF2
330
E0AF
100
AcDbEntity
  8
SIZE
 62
     0
100
AcDbBlockReference
  2
_ORIGIN
 10
2657.931043025015
 20
-4367.1493123237
 30
0.0
 41
12.0
 42
12.0
 43
12.0
 50
270.0
  0
MTEXT
  5
EEF3
330
E0AF
100
AcDbEntity
  8
SIZE
 62
     0
100
AcDbMText
 10
2612.931043025016
 20
-4435.577883752271
 30
0.0
 40
50.0
 41
0.0
 71
     5
 72
     1
  1
\A1;70
 11
0.0000000000000001
 21
1.0
 31
0.0
1001
ACAD
1000
MTEXTBEGIN
1070
    73
1070
     1
1070
    44
1040
1.0
1070
    74
1070
     0
1000
MTEXTEND
  0
POINT
  5
EEF4
330
E0AF
100
AcDbEntity
  8
DEFPOINTS
 62
     0
100
AcDbPoint
 10
2550.131607832487
 20
-4297.1493123237
 30
0.0
  0
POINT
  5
EEF5
330
E0AF
100
AcDbEntity
  8
DEFPOINTS
 62
     0
100
AcDbPoint
 10
2550.131607832487
 20
-4367.1493123237
 30
0.0
  0
POINT
  5
EEF6
330
E0AF
100
AcDbEntity
  8
DEFPOINTS
 62
     0
100
AcDbPoint
 10
2657.931043025015
 20
-4367.1493123237
 30
0.0
  0
ENDBLK
  5
E0BB
330
E0AF
100
AcDbEntity
  8
0
100
AcDbBlockEnd
  0
BLOCK
  5
E0E7
330
E0DC
100
AcDbEntity
  8
0
100
AcDbBlockBegin
  2
*D30
 70
     1
 10
0.0
 20
0.0
 30
0.0
  3
*D30
  1

  0
LINE
  5
EF77
330
E0DC
100
AcDbEntity
  8
SIZE
 62
     0
100
AcDbLine
 10
3767.560059860281
 20
-4297.1493123237
 30
0.0
 11
3895.723380064726
 21
-4297.1493123237
 31
0.0
  0
LINE
  5
EF78
330
E0DC
100
AcDbEntity
  8
SIZE
 62
     0
100
AcDbLine
 10
3767.560059860281
 20
-4367.1493123237
 30
0.0
 11
3895.723380064726
 21
-4367.1493123237
 31
0.0
  0
LINE
  5
EF79
330
E0DC
100
AcDbEntity
  8
SIZE
 62
     0
100
AcDbLine
 10
3865.723380064726
 20
-4309.1493123237
 30
0.0
 11
3865.723380064726
 21
-4355.149312323701
 31
0.0
  0
LINE
  5
EF7A
330
E0DC
100
AcDbEntity
  8
SIZE
 62
     0
100
AcDbLine
 10
3865.723380064726
 20
-4367.1493123237
 30
0.0
 11
3865.723380064726
 21
-4492.006455180844
 31
0.0
  0
INSERT
  5
EF7B
330
E0DC
100
AcDbEntity
  8
SIZE
 62
     0
100
AcDbBlockReference
  2
_ORIGIN
 10
3865.723380064726
 20
-4297.1493123237
 30
0.0
 41
12.0
 42
12.0
 43
12.0
 50
90.0
  0
INSERT
  5
EF7C
330
E0DC
100
AcDbEntity
  8
SIZE
 62
     0
100
AcDbBlockReference
  2
_ORIGIN
 10
3865.723380064726
 20
-4367.1493123237
 30
0.0
 41
12.0
 42
12.0
 43
12.0
 50
270.0
  0
MTEXT
  5
EF7D
330
E0DC
100
AcDbEntity
  8
SIZE
 62
     0
100
AcDbMText
 10
3820.723380064726
 20
-4435.577883752271
 30
0.0
 40
50.0
 41
0.0
 71
     5
 72
     1
  1
\A1;70
 11
0.0000000000000001
 21
1.0
 31
0.0
1001
ACAD
1000
MTEXTBEGIN
1070
    73
1070
     1
1070
    44
1040
1.0
1070
    74
1070
     0
1000
MTEXTEND
  0
POINT
  5
EF7E
330
E0DC
100
AcDbEntity
  8
DEFPOINTS
 62
     0
100
AcDbPoint
 10
3747.560059860282
 20
-4297.1493123237
 30
0.0
  0
POINT
  5
EF7F
330
E0DC
100
AcDbEntity
  8
DEFPOINTS
 62
     0
100
AcDbPoint
 10
3747.560059860282
 20
-4367.1493123237
 30
0.0
  0
POINT
  5
EF80
330
E0DC
100
AcDbEntity
  8
DEFPOINTS
 62
     0
100
AcDbPoint
 10
3865.723380064726
 20
-4367.1493123237
 30
0.0
  0
ENDBLK
  5
E0E8
330
E0DC
100
AcDbEntity
  8
0
100
AcDbBlockEnd
  0
BLOCK
  5
E0F8
330
E0EC
100
AcDbEntity
  8
0
100
AcDbBlockBegin
  2
*D31
 70
     1
 10
0.0
 20
0.0
 30
0.0
  3
*D31
  1

  0
LINE
  5
F04A
330
E0EC
100
AcDbEntity
  8
SIZE
 62
     0
100
AcDbLine
 10
2570.131607832487
 20
-2963.488495234813
 30
0.0
 11
2685.825485936151
 21
-2963.488495234813
 31
0.0
  0
LINE
  5
F04B
330
E0EC
100
AcDbEntity
  8
SIZE
 62
     0
100
AcDbLine
 10
2560.131607832488
 20
-2987.370775234817
 30
0.0
 11
2685.825485936151
 21
-2987.370775234817
 31
0.0
  0
LINE
  5
F04C
330
E0EC
100
AcDbEntity
  8
SIZE
 62
     0
100
AcDbLine
 10
2655.825485936151
 20
-2951.488495234814
 30
0.0
 11
2655.825485936151
 21
-2939.488495234813
 31
0.0
  0
LINE
  5
F04D
330
E0EC
100
AcDbEntity
  8
SIZE
 62
     0
100
AcDbLine
 10
2655.825485936151
 20
-2999.370775234817
 30
0.0
 11
2655.825485936151
 21
-3126.370775234818
 31
0.0
  0
LINE
  5
F04E
330
E0EC
100
AcDbEntity
  8
SIZE
 62
     0
100
AcDbLine
 10
2655.825485936151
 20
-2963.488495234813
 30
0.0
 11
2655.825485936151
 21
-2987.370775234817
 31
0.0
  0
INSERT
  5
F04F
330
E0EC
100
AcDbEntity
  8
SIZE
 62
     0
100
AcDbBlockReference
  2
_ORIGIN
 10
2655.825485936151
 20
-2963.488495234813
 30
0.0
 41
12.0
 42
12.0
 43
12.0
 50
270.0
  0
INSERT
  5
F050
330
E0EC
100
AcDbEntity
  8
SIZE
 62
     0
100
AcDbBlockReference
  2
_ORIGIN
 10
2655.825485936151
 20
-2987.370775234817
 30
0.0
 41
12.0
 42
12.0
 43
12.0
 50
90.0
  0
MTEXT
  5
F051
330
E0EC
100
AcDbEntity
  8
SIZE
 62
     0
100
AcDbMText
 10
2610.825485936151
 20
-3068.870775234817
 30
0.0
 40
50.0
 41
0.0
 71
     5
 72
     1
  1
\A1;24
 11
0.0000000000000001
 21
1.0
 31
0.0
1001
ACAD
1000
MTEXTBEGIN
1070
    73
1070
     1
1070
    44
1040
1.0
1070
    74
1070
     0
1000
MTEXTEND
  0
POINT
  5
F052
330
E0EC
100
AcDbEntity
  8
DEFPOINTS
 62
     0
100
AcDbPoint
 10
2550.131607832487
 20
-2963.488495234813
 30
0.0
  0
POINT
  5
F053
330
E0EC
100
AcDbEntity
  8
DEFPOINTS
 62
     0
100
AcDbPoint
 10
2540.131607832488
 20
-2987.370775234817
 30
0.0
  0
POINT
  5
F054
330
E0EC
100
AcDbEntity
  8
DEFPOINTS
 62
     0
100
AcDbPoint
 10
2655.825485936151
 20
-2987.370775234817
 30
0.0
  0
ENDBLK
  5
E0F9
330
E0EC
100
AcDbEntity
  8
0
100
AcDbBlockEnd
  0
BLOCK
  5
E2CB
330
E2C1
100
AcDbEntity
  8
0
100
AcDbBlockBegin
  2
*D32
 70
     1
 10
0.0
 20
0.0
 30
0.0
  3
*D32
  1

  0
LINE
  5
EF3E
330
E2C1
100
AcDbEntity
  8
SIZE
 62
     0
100
AcDbLine
 10
6370.676471009346
 20
-4278.749312323699
 30
0.0
 11
6370.676471009346
 21
-3906.73155301212
 31
0.0
  0
LINE
  5
EF3F
330
E2C1
100
AcDbEntity
  8
SIZE
 62
     0
100
AcDbLine
 10
5370.676471009346
 20
-4277.1493123237
 30
0.0
 11
5370.676471009346
 21
-3906.73155301212
 31
0.0
  0
LINE
  5
EF40
330
E2C1
100
AcDbEntity
  8
SIZE
 62
     0
100
AcDbLine
 10
6358.676471009347
 20
-3936.731553012119
 30
0.0
 11
5382.676471009347
 21
-3936.731553012119
 31
0.0
  0
INSERT
  5
EF41
330
E2C1
100
AcDbEntity
  8
SIZE
 62
     0
100
AcDbBlockReference
  2
_ORIGIN
 10
6370.676471009346
 20
-3936.731553012119
 30
0.0
 41
12.0
 42
12.0
 43
12.0
  0
INSERT
  5
EF42
330
E2C1
100
AcDbEntity
  8
SIZE
 62
     0
100
AcDbBlockReference
  2
_ORIGIN
 10
5370.676471009346
 20
-3936.731553012119
 30
0.0
 41
12.0
 42
12.0
 43
12.0
 50
180.0
  0
MTEXT
  5
EF43
330
E2C1
100
AcDbEntity
  8
SIZE
 62
     0
100
AcDbMText
 10
5870.676471009346
 20
-3891.731553012119
 30
0.0
 40
50.0
 41
0.0
 71
     5
 72
     1
  1
\A1;1000
1001
ACAD
1000
MTEXTBEGIN
1070
    73
1070
     1
1070
    44
1040
1.0
1070
    74
1070
     0
1000
MTEXTEND
  0
POINT
  5
EF44
330
E2C1
100
AcDbEntity
  8
DEFPOINTS
 62
     0
100
AcDbPoint
 10
6370.676471009346
 20
-4298.749312323699
 30
0.0
  0
POINT
  5
EF45
330
E2C1
100
AcDbEntity
  8
DEFPOINTS
 62
     0
100
AcDbPoint
 10
5370.676471009346
 20
-4297.1493123237
 30
0.0
  0
POINT
  5
EF46
330
E2C1
100
AcDbEntity
  8
DEFPOINTS
 62
     0
100
AcDbPoint
 10
5370.676471009346
 20
-3936.731553012119
 30
0.0
  0
ENDBLK
  5
E2CC
330
E2C1
100
AcDbEntity
  8
0
100
AcDbBlockEnd
  0
BLOCK
  5
E2D7
330
E2CD
100
AcDbEntity
  8
0
100
AcDbBlockBegin
  2
*D33
 70
     1
 10
0.0
 20
0.0
 30
0.0
  3
*D33
  1

  0
LINE
  5
EFCB
330
E2CD
100
AcDbEntity
  8
SIZE
 62
     0
100
AcDbLine
 10
6120.676511009342
 20
-4272.984183113705
 30
0.0
 11
6120.676511009342
 21
-4034.028766427378
 31
0.0
  0
LINE
  5
EFCC
330
E2CD
100
AcDbEntity
  8
SIZE
 62
     0
100
AcDbLine
 10
5620.676481009351
 20
-4271.097761187394
 30
0.0
 11
5620.676481009351
 21
-4034.028766427378
 31
0.0
  0
LINE
  5
EFCD
330
E2CD
100
AcDbEntity
  8
SIZE
 62
     0
100
AcDbLine
 10
6108.676511009342
 20
-4064.028766427378
 30
0.0
 11
5632.67648100935
 21
-4064.028766427378
 31
0.0
  0
INSERT
  5
EFCE
330
E2CD
100
AcDbEntity
  8
SIZE
 62
     0
100
AcDbBlockReference
  2
_ORIGIN
 10
6120.676511009342
 20
-4064.028766427378
 30
0.0
 41
12.0
 42
12.0
 43
12.0
  0
INSERT
  5
EFCF
330
E2CD
100
AcDbEntity
  8
SIZE
 62
     0
100
AcDbBlockReference
  2
_ORIGIN
 10
5620.676481009351
 20
-4064.028766427378
 30
0.0
 41
12.0
 42
12.0
 43
12.0
 50
180.0
  0
MTEXT
  5
EFD0
330
E2CD
100
AcDbEntity
  8
SIZE
 62
     0
100
AcDbMText
 10
5870.676496009346
 20
-4019.028766427378
 30
0.0
 40
50.0
 41
0.0
 71
     5
 72
     1
  1
\A1;500
1001
ACAD
1000
MTEXTBEGIN
1070
    73
1070
     1
1070
    44
1040
1.0
1070
    74
1070
     0
1000
MTEXTEND
  0
POINT
  5
EFD1
330
E2CD
100
AcDbEntity
  8
DEFPOINTS
 62
     0
100
AcDbPoint
 10
6120.676511009342
 20
-4292.984183113705
 30
0.0
  0
POINT
  5
EFD2
330
E2CD
100
AcDbEntity
  8
DEFPOINTS
 62
     0
100
AcDbPoint
 10
5620.676481009351
 20
-4291.097761187393
 30
0.0
  0
POINT
  5
EFD3
330
E2CD
100
AcDbEntity
  8
DEFPOINTS
 62
     0
100
AcDbPoint
 10
5620.676481009351
 20
-4064.028766427378
 30
0.0
  0
ENDBLK
  5
E2D8
330
E2CD
100
AcDbEntity
  8
0
100
AcDbBlockEnd
  0
BLOCK
  5
E2E5
330
E2D9
100
AcDbEntity
  8
0
100
AcDbBlockBegin
  2
*D34
 70
     1
 10
0.0
 20
0.0
 30
0.0
  3
*D34
  1

  0
LINE
  5
EF8A
330
E2D9
100
AcDbEntity
  8
SIZE
 62
     0
100
AcDbLine
 10
5430.676471009347
 20
-4287.259942323704
 30
0.0
 11
5430.676471009347
 21
-4175.243339408331
 31
0.0
  0
LINE
  5
EF8B
330
E2D9
100
AcDbEntity
  8
SIZE
 62
     0
100
AcDbLine
 10
5370.676471009346
 20
-4277.1493123237
 30
0.0
 11
5370.676471009346
 21
-4175.243339408331
 31
0.0
  0
LINE
  5
EF8C
330
E2D9
100
AcDbEntity
  8
SIZE
 62
     0
100
AcDbLine
 10
5442.676471009346
 20
-4205.243339408331
 30
0.0
 11
5454.676471009347
 21
-4205.243339408331
 31
0.0
  0
LINE
  5
EF8D
330
E2D9
100
AcDbEntity
  8
SIZE
 62
     0
100
AcDbLine
 10
5358.676471009347
 20
-4205.243339408331
 30
0.0
 11
5233.819328152204
 21
-4205.243339408331
 31
0.0
  0
LINE
  5
EF8E
330
E2D9
100
AcDbEntity
  8
SIZE
 62
     0
100
AcDbLine
 10
5430.676471009347
 20
-4205.243339408331
 30
0.0
 11
5370.676471009346
 21
-4205.243339408331
 31
0.0
  0
INSERT
  5
EF8F
330
E2D9
100
AcDbEntity
  8
SIZE
 62
     0
100
AcDbBlockReference
  2
_ORIGIN
 10
5430.676471009347
 20
-4205.243339408331
 30
0.0
 41
12.0
 42
12.0
 43
12.0
 50
180.0
  0
INSERT
  5
EF90
330
E2D9
100
AcDbEntity
  8
SIZE
 62
     0
100
AcDbBlockReference
  2
_ORIGIN
 10
5370.676471009346
 20
-4205.243339408331
 30
0.0
 41
12.0
 42
12.0
 43
12.0
  0
MTEXT
  5
EF91
330
E2D9
100
AcDbEntity
  8
SIZE
 62
     0
100
AcDbMText
 10
5290.247899580776
 20
-4160.243339408331
 30
0.0
 40
50.0
 41
0.0
 71
     5
 72
     1
  1
\A1;60
1001
ACAD
1000
MTEXTBEGIN
1070
    73
1070
     1
1070
    44
1040
1.0
1070
    74
1070
     0
1000
MTEXTEND
  0
POINT
  5
EF92
330
E2D9
100
AcDbEntity
  8
DEFPOINTS
 62
     0
100
AcDbPoint
 10
5430.676471009347
 20
-4307.259942323704
 30
0.0
  0
POINT
  5
EF93
330
E2D9
100
AcDbEntity
  8
DEFPOINTS
 62
     0
100
AcDbPoint
 10
5370.676471009346
 20
-4297.1493123237
 30
0.0
  0
POINT
  5
EF94
330
E2D9
100
AcDbEntity
  8
DEFPOINTS
 62
     0
100
AcDbPoint
 10
5370.676471009346
 20
-4205.243339408331
 30
0.0
  0
ENDBLK
  5
E2E6
330
E2D9
100
AcDbEntity
  8
0
100
AcDbBlockEnd
  0
BLOCK
  5
E2F1
330
E2E7
100
AcDbEntity
  8
0
100
AcDbBlockBegin
  2
*D35
 70
     1
 10
0.0
 20
0.0
 30
0.0
  3
*D35
  1

  0
LINE
  5
EF81
330
E2E7
100
AcDbEntity
  8
SIZE
 62
     0
100
AcDbLine
 10
5870.676471009346
 20
-4238.970280423106
 30
0.0
 11
5870.676471009346
 21
-4175.243339408331
 31
0.0
  0
LINE
  5
EF82
330
E2E7
100
AcDbEntity
  8
SIZE
 62
     0
100
AcDbLine
 10
5430.676471009347
 20
-4287.259942323704
 30
0.0
 11
5430.676471009347
 21
-4175.243339408331
 31
0.0
  0
LINE
  5
EF83
330
E2E7
100
AcDbEntity
  8
SIZE
 62
     0
100
AcDbLine
 10
5858.676471009347
 20
-4205.243339408331
 30
0.0
 11
5442.676471009346
 21
-4205.243339408331
 31
0.0
  0
INSERT
  5
EF84
330
E2E7
100
AcDbEntity
  8
SIZE
 62
     0
100
AcDbBlockReference
  2
_ORIGIN
 10
5870.676471009346
 20
-4205.243339408331
 30
0.0
 41
12.0
 42
12.0
 43
12.0
  0
INSERT
  5
EF85
330
E2E7
100
AcDbEntity
  8
SIZE
 62
     0
100
AcDbBlockReference
  2
_ORIGIN
 10
5430.676471009347
 20
-4205.243339408331
 30
0.0
 41
12.0
 42
12.0
 43
12.0
 50
180.0
  0
MTEXT
  5
EF86
330
E2E7
100
AcDbEntity
  8
SIZE
 62
     0
100
AcDbMText
 10
5650.676471009347
 20
-4160.243339408331
 30
0.0
 40
50.0
 41
0.0
 71
     5
 72
     1
  1
\A1;440
1001
ACAD
1000
MTEXTBEGIN
1070
    73
1070
     1
1070
    44
1040
1.0
1070
    74
1070
     0
1000
MTEXTEND
  0
POINT
  5
EF87
330
E2E7
100
AcDbEntity
  8
DEFPOINTS
 62
     0
100
AcDbPoint
 10
5870.676471009346
 20
-4258.970280423106
 30
0.0
  0
POINT
  5
EF88
330
E2E7
100
AcDbEntity
  8
DEFPOINTS
 62
     0
100
AcDbPoint
 10
5430.676471009347
 20
-4307.259942323704
 30
0.0
  0
POINT
  5
EF89
330
E2E7
100
AcDbEntity
  8
DEFPOINTS
 62
     0
100
AcDbPoint
 10
5430.676471009347
 20
-4205.243339408331
 30
0.0
  0
ENDBLK
  5
E2F2
330
E2E7
100
AcDbEntity
  8
0
100
AcDbBlockEnd
  0
BLOCK
  5
E2FD
330
E2F3
100
AcDbEntity
  8
0
100
AcDbBlockBegin
  2
*D36
 70
     1
 10
0.0
 20
0.0
 30
0.0
  3
*D36
  1

  0
LINE
  5
EF35
330
E2F3
100
AcDbEntity
  8
SIZE
 62
     0
100
AcDbLine
 10
6310.676471009347
 20
-4287.259942323704
 30
0.0
 11
6310.676471009347
 21
-4175.243339408331
 31
0.0
  0
LINE
  5
EF36
330
E2F3
100
AcDbEntity
  8
SIZE
 62
     0
100
AcDbLine
 10
5870.676471009346
 20
-4238.970280423106
 30
0.0
 11
5870.676471009346
 21
-4175.243339408331
 31
0.0
  0
LINE
  5
EF37
330
E2F3
100
AcDbEntity
  8
SIZE
 62
     0
100
AcDbLine
 10
6298.676471009347
 20
-4205.243339408331
 30
0.0
 11
5882.676471009347
 21
-4205.243339408331
 31
0.0
  0
INSERT
  5
EF38
330
E2F3
100
AcDbEntity
  8
SIZE
 62
     0
100
AcDbBlockReference
  2
_ORIGIN
 10
6310.676471009347
 20
-4205.243339408331
 30
0.0
 41
12.0
 42
12.0
 43
12.0
  0
INSERT
  5
EF39
330
E2F3
100
AcDbEntity
  8
SIZE
 62
     0
100
AcDbBlockReference
  2
_ORIGIN
 10
5870.676471009346
 20
-4205.243339408331
 30
0.0
 41
12.0
 42
12.0
 43
12.0
 50
180.0
  0
MTEXT
  5
EF3A
330
E2F3
100
AcDbEntity
  8
SIZE
 62
     0
100
AcDbMText
 10
6090.676471009347
 20
-4160.243339408331
 30
0.0
 40
50.0
 41
0.0
 71
     5
 72
     1
  1
\A1;440
1001
ACAD
1000
MTEXTBEGIN
1070
    73
1070
     1
1070
    44
1040
1.0
1070
    74
1070
     0
1000
MTEXTEND
  0
POINT
  5
EF3B
330
E2F3
100
AcDbEntity
  8
DEFPOINTS
 62
     0
100
AcDbPoint
 10
6310.676471009347
 20
-4307.259942323704
 30
0.0
  0
POINT
  5
EF3C
330
E2F3
100
AcDbEntity
  8
DEFPOINTS
 62
     0
100
AcDbPoint
 10
5870.676471009346
 20
-4258.970280423106
 30
0.0
  0
POINT
  5
EF3D
330
E2F3
100
AcDbEntity
  8
DEFPOINTS
 62
     0
100
AcDbPoint
 10
5870.676471009346
 20
-4205.243339408331
 30
0.0
  0
ENDBLK
  5
E2FE
330
E2F3
100
AcDbEntity
  8
0
100
AcDbBlockEnd
  0
BLOCK
  5
E30B
330
E2FF
100
AcDbEntity
  8
0
100
AcDbBlockBegin
  2
*D37
 70
     1
 10
0.0
 20
0.0
 30
0.0
  3
*D37
  1

  0
LINE
  5
EF21
330
E2FF
100
AcDbEntity
  8
SIZE
 62
     0
100
AcDbLine
 10
6310.676471009347
 20
-4287.259942323704
 30
0.0
 11
6310.676471009347
 21
-4175.243339408331
 31
0.0
  0
LINE
  5
EF22
330
E2FF
100
AcDbEntity
  8
SIZE
 62
     0
100
AcDbLine
 10
6370.676471009346
 20
-4278.749312323699
 30
0.0
 11
6370.676471009346
 21
-4175.243339408331
 31
0.0
  0
LINE
  5
EF23
330
E2FF
100
AcDbEntity
  8
SIZE
 62
     0
100
AcDbLine
 10
6298.676471009347
 20
-4205.243339408331
 30
0.0
 11
6286.676471009347
 21
-4205.243339408331
 31
0.0
  0
LINE
  5
EF24
330
E2FF
100
AcDbEntity
  8
SIZE
 62
     0
100
AcDbLine
 10
6382.676471009347
 20
-4205.243339408331
 30
0.0
 11
6507.533613866489
 21
-4205.243339408331
 31
0.0
  0
LINE
  5
EF25
330
E2FF
100
AcDbEntity
  8
SIZE
 62
     0
100
AcDbLine
 10
6310.676471009347
 20
-4205.243339408331
 30
0.0
 11
6370.676471009346
 21
-4205.243339408331
 31
0.0
  0
INSERT
  5
EF26
330
E2FF
100
AcDbEntity
  8
SIZE
 62
     0
100
AcDbBlockReference
  2
_ORIGIN
 10
6310.676471009347
 20
-4205.243339408331
 30
0.0
 41
12.0
 42
12.0
 43
12.0
  0
INSERT
  5
EF27
330
E2FF
100
AcDbEntity
  8
SIZE
 62
     0
100
AcDbBlockReference
  2
_ORIGIN
 10
6370.676471009346
 20
-4205.243339408331
 30
0.0
 41
12.0
 42
12.0
 43
12.0
 50
180.0
  0
MTEXT
  5
EF28
330
E2FF
100
AcDbEntity
  8
SIZE
 62
     0
100
AcDbMText
 10
6451.105042437918
 20
-4160.243339408331
 30
0.0
 40
50.0
 41
0.0
 71
     5
 72
     1
  1
\A1;60
1001
ACAD
1000
MTEXTBEGIN
1070
    73
1070
     1
1070
    44
1040
1.0
1070
    74
1070
     0
1000
MTEXTEND
  0
POINT
  5
EF29
330
E2FF
100
AcDbEntity
  8
DEFPOINTS
 62
     0
100
AcDbPoint
 10
6310.676471009347
 20
-4307.259942323704
 30
0.0
  0
POINT
  5
EF2A
330
E2FF
100
AcDbEntity
  8
DEFPOINTS
 62
     0
100
AcDbPoint
 10
6370.676471009346
 20
-4298.749312323699
 30
0.0
  0
POINT
  5
EF2B
330
E2FF
100
AcDbEntity
  8
DEFPOINTS
 62
     0
100
AcDbPoint
 10
6370.676471009346
 20
-4205.243339408331
 30
0.0
  0
ENDBLK
  5
E30C
330
E2FF
100
AcDbEntity
  8
0
100
AcDbBlockEnd
  0
BLOCK
  5
E317
330
E30D
100
AcDbEntity
  8
0
100
AcDbBlockBegin
  2
*D38
 70
     1
 10
0.0
 20
0.0
 30
0.0
  3
*D38
  1

  0
LINE
  5
EF2C
330
E30D
100
AcDbEntity
  8
SIZE
 62
     0
100
AcDbLine
 10
6390.676471009347
 20
-4297.1493123237
 30
0.0
 11
6579.966521439608
 21
-4297.1493123237
 31
0.0
  0
LINE
  5
EF2D
330
E30D
100
AcDbEntity
  8
SIZE
 62
     0
100
AcDbLine
 10
6163.176471009347
 20
-4728.433212323699
 30
0.0
 11
6579.966521439608
 21
-4728.433212323699
 31
0.0
  0
LINE
  5
EF2E
330
E30D
100
AcDbEntity
  8
SIZE
 62
     0
100
AcDbLine
 10
6549.966521439609
 20
-4309.1493123237
 30
0.0
 11
6549.966521439609
 21
-4716.4332123237
 31
0.0
  0
INSERT
  5
EF2F
330
E30D
100
AcDbEntity
  8
SIZE
 62
     0
100
AcDbBlockReference
  2
_ORIGIN
 10
6549.966521439609
 20
-4297.1493123237
 30
0.0
 41
12.0
 42
12.0
 43
12.0
 50
90.0
  0
INSERT
  5
EF30
330
E30D
100
AcDbEntity
  8
SIZE
 62
     0
100
AcDbBlockReference
  2
_ORIGIN
 10
6549.966521439609
 20
-4728.433212323699
 30
0.0
 41
12.0
 42
12.0
 43
12.0
 50
270.0
  0
MTEXT
  5
EF31
330
E30D
100
AcDbEntity
  8
SIZE
 62
     0
100
AcDbMText
 10
6504.966521439609
 20
-4512.791262323698
 30
0.0
 40
50.0
 41
0.0
 71
     5
 72
     1
  1
\A1;431
 11
0.0000000000000001
 21
1.0
 31
0.0
1001
ACAD
1000
MTEXTBEGIN
1070
    73
1070
     1
1070
    44
1040
1.0
1070
    74
1070
     0
1000
MTEXTEND
  0
POINT
  5
EF32
330
E30D
100
AcDbEntity
  8
DEFPOINTS
 62
     0
100
AcDbPoint
 10
6370.676471009346
 20
-4297.1493123237
 30
0.0
  0
POINT
  5
EF33
330
E30D
100
AcDbEntity
  8
DEFPOINTS
 62
     0
100
AcDbPoint
 10
6143.176471009347
 20
-4728.433212323699
 30
0.0
  0
POINT
  5
EF34
330
E30D
100
AcDbEntity
  8
DEFPOINTS
 62
     0
100
AcDbPoint
 10
6549.966521439609
 20
-4728.433212323699
 30
0.0
  0
ENDBLK
  5
E318
330
E30D
100
AcDbEntity
  8
0
100
AcDbBlockEnd
  0
BLOCK
  5
E325
330
E319
100
AcDbEntity
  8
0
100
AcDbBlockBegin
  2
*D39
 70
     1
 10
0.0
 20
0.0
 30
0.0
  3
*D39
  1

  0
LINE
  5
EFD4
330
E319
100
AcDbEntity
  8
SIZE
 62
     0
100
AcDbLine
 10
6390.676471009347
 20
-4297.1493123237
 30
0.0
 11
6477.05907426709
 21
-4297.1493123237
 31
0.0
  0
LINE
  5
EFD5
330
E319
100
AcDbEntity
  8
SIZE
 62
     0
100
AcDbLine
 10
6379.215328977421
 20
-4317.1493123237
 30
0.0
 11
6477.05907426709
 21
-4317.1493123237
 31
0.0
  0
LINE
  5
EFD6
330
E319
100
AcDbEntity
  8
SIZE
 62
     0
100
AcDbLine
 10
6447.059074267091
 20
-4285.1493123237
 30
0.0
 11
6447.059074267091
 21
-4273.149312323701
 31
0.0
  0
LINE
  5
EFD7
330
E319
100
AcDbEntity
  8
SIZE
 62
     0
100
AcDbLine
 10
6447.059074267091
 20
-4329.1493123237
 30
0.0
 11
6447.059074267091
 21
-4454.006455180843
 31
0.0
  0
LINE
  5
EFD8
330
E319
100
AcDbEntity
  8
SIZE
 62
     0
100
AcDbLine
 10
6447.059074267091
 20
-4297.1493123237
 30
0.0
 11
6447.059074267091
 21
-4317.1493123237
 31
0.0
  0
INSERT
  5
EFD9
330
E319
100
AcDbEntity
  8
SIZE
 62
     0
100
AcDbBlockReference
  2
_ORIGIN
 10
6447.059074267091
 20
-4297.1493123237
 30
0.0
 41
12.0
 42
12.0
 43
12.0
 50
270.0
  0
INSERT
  5
EFDA
330
E319
100
AcDbEntity
  8
SIZE
 62
     0
100
AcDbBlockReference
  2
_ORIGIN
 10
6447.059074267091
 20
-4317.1493123237
 30
0.0
 41
12.0
 42
12.0
 43
12.0
 50
90.0
  0
MTEXT
  5
EFDB
330
E319
100
AcDbEntity
  8
SIZE
 62
     0
100
AcDbMText
 10
6402.059074267092
 20
-4397.57788375227
 30
0.0
 40
50.0
 41
0.0
 71
     5
 72
     1
  1
\A1;20
 11
0.0000000000000001
 21
1.0
 31
0.0
1001
ACAD
1000
MTEXTBEGIN
1070
    73
1070
     1
1070
    44
1040
1.0
1070
    74
1070
     0
1000
MTEXTEND
  0
POINT
  5
EFDC
330
E319
100
AcDbEntity
  8
DEFPOINTS
 62
     0
100
AcDbPoint
 10
6370.676471009346
 20
-4297.1493123237
 30
0.0
  0
POINT
  5
EFDD
330
E319
100
AcDbEntity
  8
DEFPOINTS
 62
     0
100
AcDbPoint
 10
6359.215328977422
 20
-4317.1493123237
 30
0.0
  0
POINT
  5
EFDE
330
E319
100
AcDbEntity
  8
DEFPOINTS
 62
     0
100
AcDbPoint
 10
6447.059074267091
 20
-4317.1493123237
 30
0.0
  0
ENDBLK
  5
E326
330
E319
100
AcDbEntity
  8
0
100
AcDbBlockEnd
  0
BLOCK
  5
E333
330
E327
100
AcDbEntity
  8
0
100
AcDbBlockBegin
  2
*D40
 70
     1
 10
0.0
 20
0.0
 30
0.0
  3
*D40
  1

  0
LINE
  5
EF9F
330
E327
100
AcDbEntity
  8
SIZE
 62
     0
100
AcDbLine
 10
5643.176471009347
 20
-4748.149312323699
 30
0.0
 11
5643.176471009347
 21
-4851.026445091942
 31
0.0
  0
LINE
  5
EFA0
330
E327
100
AcDbEntity
  8
SIZE
 62
     0
100
AcDbLine
 10
5598.176471009346
 20
-4748.149312323699
 30
0.0
 11
5598.176471009346
 21
-4851.026445091942
 31
0.0
  0
LINE
  5
EFA1
330
E327
100
AcDbEntity
  8
SIZE
 62
     0
100
AcDbLine
 10
5655.176471009347
 20
-4821.026445091942
 30
0.0
 11
5667.176471009347
 21
-4821.026445091942
 31
0.0
  0
LINE
  5
EFA2
330
E327
100
AcDbEntity
  8
SIZE
 62
     0
100
AcDbLine
 10
5586.176471009347
 20
-4821.026445091942
 30
0.0
 11
5461.319328152203
 21
-4821.026445091942
 31
0.0
  0
LINE
  5
EFA3
330
E327
100
AcDbEntity
  8
SIZE
 62
     0
100
AcDbLine
 10
5643.176471009347
 20
-4821.026445091942
 30
0.0
 11
5598.176471009346
 21
-4821.026445091942
 31
0.0
  0
INSERT
  5
EFA4
330
E327
100
AcDbEntity
  8
SIZE
 62
     0
100
AcDbBlockReference
  2
_ORIGIN
 10
5643.176471009347
 20
-4821.026445091942
 30
0.0
 41
12.0
 42
12.0
 43
12.0
 50
180.0
  0
INSERT
  5
EFA5
330
E327
100
AcDbEntity
  8
SIZE
 62
     0
100
AcDbBlockReference
  2
_ORIGIN
 10
5598.176471009346
 20
-4821.026445091942
 30
0.0
 41
12.0
 42
12.0
 43
12.0
  0
MTEXT
  5
EFA6
330
E327
100
AcDbEntity
  8
SIZE
 62
     0
100
AcDbMText
 10
5517.747899580776
 20
-4776.026445091942
 30
0.0
 40
50.0
 41
0.0
 71
     5
 72
     1
  1
\A1;45
1001
ACAD
1000
MTEXTBEGIN
1070
    73
1070
     1
1070
    44
1040
1.0
1070
    74
1070
     0
1000
MTEXTEND
  0
POINT
  5
EFA7
330
E327
100
AcDbEntity
  8
DEFPOINTS
 62
     0
100
AcDbPoint
 10
5643.176471009347
 20
-4728.1493123237
 30
0.0
  0
POINT
  5
EFA8
330
E327
100
AcDbEntity
  8
DEFPOINTS
 62
     0
100
AcDbPoint
 10
5598.176471009346
 20
-4728.1493123237
 30
0.0
  0
POINT
  5
EFA9
330
E327
100
AcDbEntity
  8
DEFPOINTS
 62
     0
100
AcDbPoint
 10
5598.176471009346
 20
-4821.026445091942
 30
0.0
  0
ENDBLK
  5
E334
330
E327
100
AcDbEntity
  8
0
100
AcDbBlockEnd
  0
BLOCK
  5
E341
330
E335
100
AcDbEntity
  8
0
100
AcDbBlockBegin
  2
*D41
 70
     1
 10
0.0
 20
0.0
 30
0.0
  3
*D41
  1

  0
LINE
  5
EFAA
330
E335
100
AcDbEntity
  8
SIZE
 62
     0
100
AcDbLine
 10
5641.67647100935
 20
-4387.149312323699
 30
0.0
 11
5641.67647100935
 21
-4531.136754668074
 31
0.0
  0
LINE
  5
EFAB
330
E335
100
AcDbEntity
  8
SIZE
 62
     0
100
AcDbLine
 10
5599.676471009343
 20
-4387.149312323701
 30
0.0
 11
5599.676471009343
 21
-4531.136754668074
 31
0.0
  0
LINE
  5
EFAC
330
E335
100
AcDbEntity
  8
SIZE
 62
     0
100
AcDbLine
 10
5653.676471009351
 20
-4501.136754668073
 30
0.0
 11
5665.676471009351
 21
-4501.136754668073
 31
0.0
  0
LINE
  5
EFAD
330
E335
100
AcDbEntity
  8
SIZE
 62
     0
100
AcDbLine
 10
5587.676471009343
 20
-4501.136754668073
 30
0.0
 11
5462.8193281522
 21
-4501.136754668073
 31
0.0
  0
LINE
  5
EFAE
330
E335
100
AcDbEntity
  8
SIZE
 62
     0
100
AcDbLine
 10
5641.67647100935
 20
-4501.136754668073
 30
0.0
 11
5599.676471009343
 21
-4501.136754668073
 31
0.0
  0
INSERT
  5
EFAF
330
E335
100
AcDbEntity
  8
SIZE
 62
     0
100
AcDbBlockReference
  2
_ORIGIN
 10
5641.67647100935
 20
-4501.136754668073
 30
0.0
 41
12.0
 42
12.0
 43
12.0
 50
180.0
  0
INSERT
  5
EFB0
330
E335
100
AcDbEntity
  8
SIZE
 62
     0
100
AcDbBlockReference
  2
_ORIGIN
 10
5599.676471009343
 20
-4501.136754668073
 30
0.0
 41
12.0
 42
12.0
 43
12.0
  0
MTEXT
  5
EFB1
330
E335
100
AcDbEntity
  8
SIZE
 62
     0
100
AcDbMText
 10
5519.247899580772
 20
-4456.136754668074
 30
0.0
 40
50.0
 41
0.0
 71
     5
 72
     1
  1
\A1;42
1001
ACAD
1000
MTEXTBEGIN
1070
    73
1070
     1
1070
    44
1040
1.0
1070
    74
1070
     0
1000
MTEXTEND
  0
POINT
  5
EFB2
330
E335
100
AcDbEntity
  8
DEFPOINTS
 62
     0
100
AcDbPoint
 10
5641.67647100935
 20
-4367.149312323699
 30
0.0
  0
POINT
  5
EFB3
330
E335
100
AcDbEntity
  8
DEFPOINTS
 62
     0
100
AcDbPoint
 10
5599.676471009343
 20
-4367.1493123237
 30
0.0
  0
POINT
  5
EFB4
330
E335
100
AcDbEntity
  8
DEFPOINTS
 62
     0
100
AcDbPoint
 10
5599.676471009343
 20
-4501.136754668073
 30
0.0
  0
ENDBLK
  5
E342
330
E335
100
AcDbEntity
  8
0
100
AcDbBlockEnd
  0
BLOCK
  5
E34F
330
E343
100
AcDbEntity
  8
0
100
AcDbBlockBegin
  2
*D42
 70
     1
 10
0.0
 20
0.0
 30
0.0
  3
*D42
  1

  0
LINE
  5
EFC0
330
E343
100
AcDbEntity
  8
SIZE
 62
     0
100
AcDbLine
 10
6141.67647100935
 20
-4387.149312323701
 30
0.0
 11
6141.67647100935
 21
-4529.386967821567
 31
0.0
  0
LINE
  5
EFC1
330
E343
100
AcDbEntity
  8
SIZE
 62
     0
100
AcDbLine
 10
6099.676471009343
 20
-4387.149312323701
 30
0.0
 11
6099.676471009343
 21
-4529.386967821567
 31
0.0
  0
LINE
  5
EFC2
330
E343
100
AcDbEntity
  8
SIZE
 62
     0
100
AcDbLine
 10
6153.676471009351
 20
-4499.386967821567
 30
0.0
 11
6165.676471009351
 21
-4499.386967821567
 31
0.0
  0
LINE
  5
EFC3
330
E343
100
AcDbEntity
  8
SIZE
 62
     0
100
AcDbLine
 10
6087.676471009343
 20
-4499.386967821567
 30
0.0
 11
5962.8193281522
 21
-4499.386967821567
 31
0.0
  0
LINE
  5
EFC4
330
E343
100
AcDbEntity
  8
SIZE
 62
     0
100
AcDbLine
 10
6141.67647100935
 20
-4499.386967821567
 30
0.0
 11
6099.676471009343
 21
-4499.386967821567
 31
0.0
  0
INSERT
  5
EFC5
330
E343
100
AcDbEntity
  8
SIZE
 62
     0
100
AcDbBlockReference
  2
_ORIGIN
 10
6141.67647100935
 20
-4499.386967821567
 30
0.0
 41
12.0
 42
12.0
 43
12.0
 50
180.0
  0
INSERT
  5
EFC6
330
E343
100
AcDbEntity
  8
SIZE
 62
     0
100
AcDbBlockReference
  2
_ORIGIN
 10
6099.676471009343
 20
-4499.386967821567
 30
0.0
 41
12.0
 42
12.0
 43
12.0
  0
MTEXT
  5
EFC7
330
E343
100
AcDbEntity
  8
SIZE
 62
     0
100
AcDbMText
 10
6019.247899580772
 20
-4454.386967821567
 30
0.0
 40
50.0
 41
0.0
 71
     5
 72
     1
  1
\A1;42
1001
ACAD
1000
MTEXTBEGIN
1070
    73
1070
     1
1070
    44
1040
1.0
1070
    74
1070
     0
1000
MTEXTEND
  0
POINT
  5
EFC8
330
E343
100
AcDbEntity
  8
DEFPOINTS
 62
     0
100
AcDbPoint
 10
6141.67647100935
 20
-4367.1493123237
 30
0.0
  0
POINT
  5
EFC9
330
E343
100
AcDbEntity
  8
DEFPOINTS
 62
     0
100
AcDbPoint
 10
6099.676471009343
 20
-4367.1493123237
 30
0.0
  0
POINT
  5
EFCA
330
E343
100
AcDbEntity
  8
DEFPOINTS
 62
     0
100
AcDbPoint
 10
6099.676471009343
 20
-4499.386967821567
 30
0.0
  0
ENDBLK
  5
E350
330
E343
100
AcDbEntity
  8
0
100
AcDbBlockEnd
  0
BLOCK
  5
E35D
330
E351
100
AcDbEntity
  8
0
100
AcDbBlockBegin
  2
*D43
 70
     1
 10
0.0
 20
0.0
 30
0.0
  3
*D43
  1

  0
LINE
  5
EFB5
330
E351
100
AcDbEntity
  8
SIZE
 62
     0
100
AcDbLine
 10
6143.176471009347
 20
-4748.433212323699
 30
0.0
 11
6143.176471009347
 21
-4860.557792156207
 31
0.0
  0
LINE
  5
EFB6
330
E351
100
AcDbEntity
  8
SIZE
 62
     0
100
AcDbLine
 10
6098.176471009346
 20
-4748.433212323699
 30
0.0
 11
6098.176471009346
 21
-4860.557792156207
 31
0.0
  0
LINE
  5
EFB7
330
E351
100
AcDbEntity
  8
SIZE
 62
     0
100
AcDbLine
 10
6155.176471009347
 20
-4830.557792156207
 30
0.0
 11
6167.176471009347
 21
-4830.557792156207
 31
0.0
  0
LINE
  5
EFB8
330
E351
100
AcDbEntity
  8
SIZE
 62
     0
100
AcDbLine
 10
6086.176471009347
 20
-4830.557792156207
 30
0.0
 11
5961.319328152203
 21
-4830.557792156207
 31
0.0
  0
LINE
  5
EFB9
330
E351
100
AcDbEntity
  8
SIZE
 62
     0
100
AcDbLine
 10
6143.176471009347
 20
-4830.557792156207
 30
0.0
 11
6098.176471009346
 21
-4830.557792156207
 31
0.0
  0
INSERT
  5
EFBA
330
E351
100
AcDbEntity
  8
SIZE
 62
     0
100
AcDbBlockReference
  2
_ORIGIN
 10
6143.176471009347
 20
-4830.557792156207
 30
0.0
 41
12.0
 42
12.0
 43
12.0
 50
180.0
  0
INSERT
  5
EFBB
330
E351
100
AcDbEntity
  8
SIZE
 62
     0
100
AcDbBlockReference
  2
_ORIGIN
 10
6098.176471009346
 20
-4830.557792156207
 30
0.0
 41
12.0
 42
12.0
 43
12.0
  0
MTEXT
  5
EFBC
330
E351
100
AcDbEntity
  8
SIZE
 62
     0
100
AcDbMText
 10
6017.747899580776
 20
-4785.557792156207
 30
0.0
 40
50.0
 41
0.0
 71
     5
 72
     1
  1
\A1;45
1001
ACAD
1000
MTEXTBEGIN
1070
    73
1070
     1
1070
    44
1040
1.0
1070
    74
1070
     0
1000
MTEXTEND
  0
POINT
  5
EFBD
330
E351
100
AcDbEntity
  8
DEFPOINTS
 62
     0
100
AcDbPoint
 10
6143.176471009347
 20
-4728.433212323699
 30
0.0
  0
POINT
  5
EFBE
330
E351
100
AcDbEntity
  8
DEFPOINTS
 62
     0
100
AcDbPoint
 10
6098.176471009346
 20
-4728.433212323699
 30
0.0
  0
POINT
  5
EFBF
330
E351
100
AcDbEntity
  8
DEFPOINTS
 62
     0
100
AcDbPoint
 10
6098.176471009346
 20
-4830.557792156207
 30
0.0
  0
ENDBLK
  5
E35E
330
E351
100
AcDbEntity
  8
0
100
AcDbBlockEnd
  0
BLOCK
  5
E36A
330
E35F
100
AcDbEntity
  8
0
100
AcDbBlockBegin
  2
*D44
 70
     1
 10
0.0
 20
0.0
 30
0.0
  3
*D44
  1

  0
LINE
  5
EF95
330
E35F
100
AcDbEntity
  8
SIZE
 62
     0
100
AcDbLine
 10
5350.676471009347
 20
-4297.1493123237
 30
0.0
 11
5232.877035816819
 21
-4297.1493123237
 31
0.0
  0
LINE
  5
EF96
330
E35F
100
AcDbEntity
  8
SIZE
 62
     0
100
AcDbLine
 10
5350.676471009347
 20
-4367.1493123237
 30
0.0
 11
5232.877035816819
 21
-4367.1493123237
 31
0.0
  0
LINE
  5
EF97
330
E35F
100
AcDbEntity
  8
SIZE
 62
     0
100
AcDbLine
 10
5262.877035816819
 20
-4309.1493123237
 30
0.0
 11
5262.877035816819
 21
-4355.149312323701
 31
0.0
  0
LINE
  5
EF98
330
E35F
100
AcDbEntity
  8
SIZE
 62
     0
100
AcDbLine
 10
5262.877035816819
 20
-4367.1493123237
 30
0.0
 11
5262.877035816819
 21
-4492.006455180844
 31
0.0
  0
INSERT
  5
EF99
330
E35F
100
AcDbEntity
  8
SIZE
 62
     0
100
AcDbBlockReference
  2
_ORIGIN
 10
5262.877035816819
 20
-4297.1493123237
 30
0.0
 41
12.0
 42
12.0
 43
12.0
 50
90.0
  0
INSERT
  5
EF9A
330
E35F
100
AcDbEntity
  8
SIZE
 62
     0
100
AcDbBlockReference
  2
_ORIGIN
 10
5262.877035816819
 20
-4367.1493123237
 30
0.0
 41
12.0
 42
12.0
 43
12.0
 50
270.0
  0
MTEXT
  5
EF9B
330
E35F
100
AcDbEntity
  8
SIZE
 62
     0
100
AcDbMText
 10
5217.877035816819
 20
-4435.577883752271
 30
0.0
 40
50.0
 41
0.0
 71
     5
 72
     1
  1
\A1;70
 11
0.0000000000000001
 21
1.0
 31
0.0
1001
ACAD
1000
MTEXTBEGIN
1070
    73
1070
     1
1070
    44
1040
1.0
1070
    74
1070
     0
1000
MTEXTEND
  0
POINT
  5
EF9C
330
E35F
100
AcDbEntity
  8
DEFPOINTS
 62
     0
100
AcDbPoint
 10
5370.676471009346
 20
-4297.1493123237
 30
0.0
  0
POINT
  5
EF9D
330
E35F
100
AcDbEntity
  8
DEFPOINTS
 62
     0
100
AcDbPoint
 10
5370.676471009346
 20
-4367.1493123237
 30
0.0
  0
POINT
  5
EF9E
330
E35F
100
AcDbEntity
  8
DEFPOINTS
 62
     0
100
AcDbPoint
 10
5262.877035816819
 20
-4367.1493123237
 30
0.0
  0
ENDBLK
  5
E36B
330
E35F
100
AcDbEntity
  8
0
100
AcDbBlockEnd
  0
BLOCK
  5
E68E
330
E684
100
AcDbEntity
  8
0
100
AcDbBlockBegin
  2
*D45
 70
     1
 10
0.0
 20
0.0
 30
0.0
  3
*D45
  1

  0
LINE
  5
EE1E
330
E684
100
AcDbEntity
  8
SIZE
 62
     0
100
AcDbLine
 10
567.7834357242191
 20
-4680.921742323699
 30
0.0
 11
567.7834357242191
 21
-4915.232300243177
 31
0.0
  0
LINE
  5
EE1F
330
E684
100
AcDbEntity
  8
SIZE
 62
     0
100
AcDbLine
 10
986.7834357242191
 20
-4694.787245750795
 30
0.0
 11
986.7834357242191
 21
-4915.232300243177
 31
0.0
  0
LINE
  5
EE20
330
E684
100
AcDbEntity
  8
SIZE
 62
     0
100
AcDbLine
 10
579.7834357242191
 20
-4885.232300243177
 30
0.0
 11
974.783435724219
 21
-4885.232300243177
 31
0.0
  0
INSERT
  5
EE21
330
E684
100
AcDbEntity
  8
SIZE
 62
     0
100
AcDbBlockReference
  2
_ORIGIN
 10
567.7834357242191
 20
-4885.232300243177
 30
0.0
 41
12.0
 42
12.0
 43
12.0
 50
180.0
  0
INSERT
  5
EE22
330
E684
100
AcDbEntity
  8
SIZE
 62
     0
100
AcDbBlockReference
  2
_ORIGIN
 10
986.7834357242191
 20
-4885.232300243177
 30
0.0
 41
12.0
 42
12.0
 43
12.0
  0
MTEXT
  5
EE23
330
E684
100
AcDbEntity
  8
SIZE
 62
     0
100
AcDbMText
 10
777.283435724219
 20
-4840.232300243177
 30
0.0
 40
50.0
 41
0.0
 71
     5
 72
     1
  1
\A1;419
1001
ACAD
1000
MTEXTBEGIN
1070
    73
1070
     1
1070
    44
1040
1.0
1070
    74
1070
     0
1000
MTEXTEND
  0
POINT
  5
EE24
330
E684
100
AcDbEntity
  8
DEFPOINTS
 62
     0
100
AcDbPoint
 10
567.7834357242191
 20
-4660.9217423237
 30
0.0
  0
POINT
  5
EE25
330
E684
100
AcDbEntity
  8
DEFPOINTS
 62
     0
100
AcDbPoint
 10
986.7834357242191
 20
-4674.787245750795
 30
0.0
  0
POINT
  5
EE26
330
E684
100
AcDbEntity
  8
DEFPOINTS
 62
     0
100
AcDbPoint
 10
986.7834357242191
 20
-4885.232300243177
 30
0.0
  0
ENDBLK
  5
E68F
330
E684
100
AcDbEntity
  8
0
100
AcDbBlockEnd
  0
BLOCK
  5
E69A
330
E690
100
AcDbEntity
  8
0
100
AcDbBlockBegin
  2
*D46
 70
     1
 10
0.0
 20
0.0
 30
0.0
  3
*D46
  1

  0
LINE
  5
EE3C
330
E690
100
AcDbEntity
  8
SIZE
 62
     0
100
AcDbLine
 10
544.0111557242253
 20
-4297.1493123237
 30
0.0
 11
287.8359003665392
 21
-4297.1493123237
 31
0.0
  0
LINE
  5
EE3D
330
E690
100
AcDbEntity
  8
SIZE
 62
     0
100
AcDbLine
 10
551.8083857242218
 20
-4656.473112323702
 30
0.0
 11
287.8359003665391
 21
-4656.473112323702
 31
0.0
  0
LINE
  5
EE3E
330
E690
100
AcDbEntity
  8
SIZE
 62
     0
100
AcDbLine
 10
317.8359003665391
 20
-4309.1493123237
 30
0.0
 11
317.8359003665391
 21
-4644.473112323702
 31
0.0
  0
INSERT
  5
EE3F
330
E690
100
AcDbEntity
  8
SIZE
 62
     0
100
AcDbBlockReference
  2
_ORIGIN
 10
317.8359003665391
 20
-4297.1493123237
 30
0.0
 41
12.0
 42
12.0
 43
12.0
 50
90.0
  0
INSERT
  5
EE40
330
E690
100
AcDbEntity
  8
SIZE
 62
     0
100
AcDbBlockReference
  2
_ORIGIN
 10
317.8359003665391
 20
-4656.473112323702
 30
0.0
 41
12.0
 42
12.0
 43
12.0
 50
270.0
  0
MTEXT
  5
EE41
330
E690
100
AcDbEntity
  8
SIZE
 62
     0
100
AcDbMText
 10
272.8359003665398
 20
-4476.811212323702
 30
0.0
 40
50.0
 41
0.0
 71
     5
 72
     1
  1
\A1;359
 11
0.0000000000000001
 21
1.0
 31
0.0
1001
ACAD
1000
MTEXTBEGIN
1070
    73
1070
     1
1070
    44
1040
1.0
1070
    74
1070
     0
1000
MTEXTEND
  0
POINT
  5
EE42
330
E690
100
AcDbEntity
  8
DEFPOINTS
 62
     0
100
AcDbPoint
 10
564.0111557242253
 20
-4297.1493123237
 30
0.0
  0
POINT
  5
EE43
330
E690
100
AcDbEntity
  8
DEFPOINTS
 62
     0
100
AcDbPoint
 10
571.8083857242218
 20
-4656.473112323702
 30
0.0
  0
POINT
  5
EE44
330
E690
100
AcDbEntity
  8
DEFPOINTS
 62
     0
100
AcDbPoint
 10
317.8359003665391
 20
-4656.473112323702
 30
0.0
  0
ENDBLK
  5
E69B
330
E690
100
AcDbEntity
  8
0
100
AcDbBlockEnd
  0
BLOCK
  5
E6A7
330
E69C
100
AcDbEntity
  8
0
100
AcDbBlockBegin
  2
*D47
 70
     1
 10
0.0
 20
0.0
 30
0.0
  3
*D47
  1

  0
LINE
  5
EE27
330
E69C
100
AcDbEntity
  8
SIZE
 62
     0
100
AcDbLine
 10
551.8083857242218
 20
-4656.473112323702
 30
0.0
 11
287.8359003665391
 21
-4656.473112323702
 31
0.0
  0
LINE
  5
EE28
330
E69C
100
AcDbEntity
  8
SIZE
 62
     0
100
AcDbLine
 10
555.4038957242173
 20
-4728.1493123237
 30
0.0
 11
287.8359003665391
 21
-4728.1493123237
 31
0.0
  0
LINE
  5
EE29
330
E69C
100
AcDbEntity
  8
SIZE
 62
     0
100
AcDbLine
 10
317.8359003665391
 20
-4668.473112323702
 30
0.0
 11
317.8359003665391
 21
-4716.1493123237
 31
0.0
  0
LINE
  5
EE2A
330
E69C
100
AcDbEntity
  8
SIZE
 62
     0
100
AcDbLine
 10
317.8359003665391
 20
-4728.1493123237
 30
0.0
 11
317.8359003665391
 21
-4853.006455180843
 31
0.0
  0
INSERT
  5
EE2B
330
E69C
100
AcDbEntity
  8
SIZE
 62
     0
100
AcDbBlockReference
  2
_ORIGIN
 10
317.8359003665391
 20
-4656.473112323702
 30
0.0
 41
12.0
 42
12.0
 43
12.0
 50
90.0
  0
INSERT
  5
EE2C
330
E69C
100
AcDbEntity
  8
SIZE
 62
     0
100
AcDbBlockReference
  2
_ORIGIN
 10
317.8359003665391
 20
-4728.1493123237
 30
0.0
 41
12.0
 42
12.0
 43
12.0
 50
270.0
  0
MTEXT
  5
EE2D
330
E69C
100
AcDbEntity
  8
SIZE
 62
     0
100
AcDbMText
 10
272.8359003665398
 20
-4796.577883752272
 30
0.0
 40
50.0
 41
0.0
 71
     5
 72
     1
  1
\A1;72
 11
0.0000000000000001
 21
1.0
 31
0.0
1001
ACAD
1000
MTEXTBEGIN
1070
    73
1070
     1
1070
    44
1040
1.0
1070
    74
1070
     0
1000
MTEXTEND
  0
POINT
  5
EE2E
330
E69C
100
AcDbEntity
  8
DEFPOINTS
 62
     0
100
AcDbPoint
 10
571.8083857242218
 20
-4656.473112323702
 30
0.0
  0
POINT
  5
EE2F
330
E69C
100
AcDbEntity
  8
DEFPOINTS
 62
     0
100
AcDbPoint
 10
575.4038957242173
 20
-4728.1493123237
 30
0.0
  0
POINT
  5
EE30
330
E69C
100
AcDbEntity
  8
DEFPOINTS
 62
     0
100
AcDbPoint
 10
317.8359003665391
 20
-4728.1493123237
 30
0.0
  0
ENDBLK
  5
E6A8
330
E69C
100
AcDbEntity
  8
0
100
AcDbBlockEnd
  0
BLOCK
  5
E6B3
330
E6A9
100
AcDbEntity
  8
0
100
AcDbBlockBegin
  2
*D48
 70
     1
 10
0.0
 20
0.0
 30
0.0
  3
*D48
  1

  0
LINE
  5
EE4F
330
E6A9
100
AcDbEntity
  8
SIZE
 62
     0
100
AcDbLine
 10
564.0111557242253
 20
-4277.1493123237
 30
0.0
 11
564.0111557242253
 21
-4165.609582133748
 31
0.0
  0
LINE
  5
EE50
330
E6A9
100
AcDbEntity
  8
SIZE
 62
     0
100
AcDbLine
 10
986.7834357242227
 20
-4654.787245750795
 30
0.0
 11
986.7834357242227
 21
-4165.609582133748
 31
0.0
  0
LINE
  5
EE51
330
E6A9
100
AcDbEntity
  8
SIZE
 62
     0
100
AcDbLine
 10
576.0111557242253
 20
-4195.609582133747
 30
0.0
 11
974.7834357242227
 21
-4195.609582133747
 31
0.0
  0
INSERT
  5
EE52
330
E6A9
100
AcDbEntity
  8
SIZE
 62
     0
100
AcDbBlockReference
  2
_ORIGIN
 10
564.0111557242253
 20
-4195.609582133747
 30
0.0
 41
12.0
 42
12.0
 43
12.0
 50
180.0
  0
INSERT
  5
EE53
330
E6A9
100
AcDbEntity
  8
SIZE
 62
     0
100
AcDbBlockReference
  2
_ORIGIN
 10
986.7834357242227
 20
-4195.609582133747
 30
0.0
 41
12.0
 42
12.0
 43
12.0
  0
MTEXT
  5
EE54
330
E6A9
100
AcDbEntity
  8
SIZE
 62
     0
100
AcDbMText
 10
775.397295724224
 20
-4150.609582133747
 30
0.0
 40
50.0
 41
0.0
 71
     5
 72
     1
  1
\A1;423
1001
ACAD
1000
MTEXTBEGIN
1070
    73
1070
     1
1070
    44
1040
1.0
1070
    74
1070
     0
1000
MTEXTEND
  0
POINT
  5
EE55
330
E6A9
100
AcDbEntity
  8
DEFPOINTS
 62
     0
100
AcDbPoint
 10
564.0111557242253
 20
-4297.1493123237
 30
0.0
  0
POINT
  5
EE56
330
E6A9
100
AcDbEntity
  8
DEFPOINTS
 62
     0
100
AcDbPoint
 10
986.7834357242227
 20
-4674.787245750795
 30
0.0
  0
POINT
  5
EE57
330
E6A9
100
AcDbEntity
  8
DEFPOINTS
 62
     0
100
AcDbPoint
 10
986.7834357242227
 20
-4195.609582133747
 30
0.0
  0
ENDBLK
  5
E6B4
330
E6A9
100
AcDbEntity
  8
0
100
AcDbBlockEnd
  0
BLOCK
  5
E6C1
330
E6B5
100
AcDbEntity
  8
0
100
AcDbBlockBegin
  2
*D49
 70
     1
 10
0.0
 20
0.0
 30
0.0
  3
*D49
  1

  0
LINE
  5
EE31
330
E6B5
100
AcDbEntity
  8
SIZE
 62
     0
100
AcDbLine
 10
539.0111557242253
 20
-4317.1493123237
 30
0.0
 11
361.1560689721518
 21
-4317.1493123237
 31
0.0
  0
LINE
  5
EE32
330
E6B5
100
AcDbEntity
  8
SIZE
 62
     0
100
AcDbLine
 10
544.0111557242253
 20
-4297.1493123237
 30
0.0
 11
361.1560689721518
 21
-4297.1493123237
 31
0.0
  0
LINE
  5
EE33
330
E6B5
100
AcDbEntity
  8
SIZE
 62
     0
100
AcDbLine
 10
391.1560689721518
 20
-4329.1493123237
 30
0.0
 11
391.1560689721518
 21
-4341.1493123237
 31
0.0
  0
LINE
  5
EE34
330
E6B5
100
AcDbEntity
  8
SIZE
 62
     0
100
AcDbLine
 10
391.1560689721518
 20
-4285.1493123237
 30
0.0
 11
391.1560689721519
 21
-4160.292169466557
 31
0.0
  0
LINE
  5
EE35
330
E6B5
100
AcDbEntity
  8
SIZE
 62
     0
100
AcDbLine
 10
391.1560689721518
 20
-4317.1493123237
 30
0.0
 11
391.1560689721518
 21
-4297.1493123237
 31
0.0
  0
INSERT
  5
EE36
330
E6B5
100
AcDbEntity
  8
SIZE
 62
     0
100
AcDbBlockReference
  2
_ORIGIN
 10
391.1560689721518
 20
-4317.1493123237
 30
0.0
 41
12.0
 42
12.0
 43
12.0
 50
90.0
  0
INSERT
  5
EE37
330
E6B5
100
AcDbEntity
  8
SIZE
 62
     0
100
AcDbBlockReference
  2
_ORIGIN
 10
391.1560689721518
 20
-4297.1493123237
 30
0.0
 41
12.0
 42
12.0
 43
12.0
 50
270.0
  0
MTEXT
  5
EE38
330
E6B5
100
AcDbEntity
  8
SIZE
 62
     0
100
AcDbMText
 10
346.1560689721525
 20
-4216.720740895129
 30
0.0
 40
50.0
 41
0.0
 71
     5
 72
     1
  1
\A1;20
 11
0.0000000000000001
 21
1.0
 31
0.0
1001
ACAD
1000
MTEXTBEGIN
1070
    73
1070
     1
1070
    44
1040
1.0
1070
    74
1070
     0
1000
MTEXTEND
  0
POINT
  5
EE39
330
E6B5
100
AcDbEntity
  8
DEFPOINTS
 62
     0
100
AcDbPoint
 10
559.0111557242253
 20
-4317.1493123237
 30
0.0
  0
POINT
  5
EE3A
330
E6B5
100
AcDbEntity
  8
DEFPOINTS
 62
     0
100
AcDbPoint
 10
564.0111557242253
 20
-4297.1493123237
 30
0.0
  0
POINT
  5
EE3B
330
E6B5
100
AcDbEntity
  8
DEFPOINTS
 62
     0
100
AcDbPoint
 10
391.1560689721518
 20
-4297.1493123237
 30
0.0
  0
ENDBLK
  5
E6C2
330
E6B5
100
AcDbEntity
  8
0
100
AcDbBlockEnd
  0
BLOCK
  5
E6CE
330
E6C3
100
AcDbEntity
  8
0
100
AcDbBlockBegin
  2
*D50
 70
     1
 10
0.0
 20
0.0
 30
0.0
  3
*D50
  1

  0
LINE
  5
EE45
330
E6C3
100
AcDbEntity
  8
SIZE
 62
     0
100
AcDbLine
 10
544.0111557242253
 20
-4297.1493123237
 30
0.0
 11
415.8478355197803
 21
-4297.1493123237
 31
0.0
  0
LINE
  5
EE46
330
E6C3
100
AcDbEntity
  8
SIZE
 62
     0
100
AcDbLine
 10
544.0111557242253
 20
-4367.1493123237
 30
0.0
 11
415.8478355197803
 21
-4367.1493123237
 31
0.0
  0
LINE
  5
EE47
330
E6C3
100
AcDbEntity
  8
SIZE
 62
     0
100
AcDbLine
 10
445.8478355197803
 20
-4309.1493123237
 30
0.0
 11
445.8478355197803
 21
-4355.149312323701
 31
0.0
  0
LINE
  5
EE48
330
E6C3
100
AcDbEntity
  8
SIZE
 62
     0
100
AcDbLine
 10
445.8478355197803
 20
-4367.1493123237
 30
0.0
 11
445.8478355197803
 21
-4492.006455180844
 31
0.0
  0
INSERT
  5
EE49
330
E6C3
100
AcDbEntity
  8
SIZE
 62
     0
100
AcDbBlockReference
  2
_ORIGIN
 10
445.8478355197803
 20
-4297.1493123237
 30
0.0
 41
12.0
 42
12.0
 43
12.0
 50
90.0
  0
INSERT
  5
EE4A
330
E6C3
100
AcDbEntity
  8
SIZE
 62
     0
100
AcDbBlockReference
  2
_ORIGIN
 10
445.8478355197803
 20
-4367.1493123237
 30
0.0
 41
12.0
 42
12.0
 43
12.0
 50
270.0
  0
MTEXT
  5
EE4B
330
E6C3
100
AcDbEntity
  8
SIZE
 62
     0
100
AcDbMText
 10
400.847835519781
 20
-4435.577883752272
 30
0.0
 40
50.0
 41
0.0
 71
     5
 72
     1
  1
\A1;70
 11
0.0000000000000001
 21
1.0
 31
0.0
1001
ACAD
1000
MTEXTBEGIN
1070
    73
1070
     1
1070
    44
1040
1.0
1070
    74
1070
     0
1000
MTEXTEND
  0
POINT
  5
EE4C
330
E6C3
100
AcDbEntity
  8
DEFPOINTS
 62
     0
100
AcDbPoint
 10
564.0111557242253
 20
-4297.1493123237
 30
0.0
  0
POINT
  5
EE4D
330
E6C3
100
AcDbEntity
  8
DEFPOINTS
 62
     0
100
AcDbPoint
 10
564.0111557242253
 20
-4367.1493123237
 30
0.0
  0
POINT
  5
EE4E
330
E6C3
100
AcDbEntity
  8
DEFPOINTS
 62
     0
100
AcDbPoint
 10
445.8478355197803
 20
-4367.1493123237
 30
0.0
  0
ENDBLK
  5
E6CF
330
E6C3
100
AcDbEntity
  8
0
100
AcDbBlockEnd
  0
BLOCK
  5
E965
330
E95B
100
AcDbEntity
  8
0
100
AcDbBlockBegin
  2
*D51
 70
     1
 10
0.0
 20
0.0
 30
0.0
  3
*D51
  1

  0
LINE
  5
F1A0
330
E95B
100
AcDbEntity
  8
SIZE
 62
     0
100
AcDbLine
 10
-250.0000399999953
 20
-490.7710036734506
 30
0.0
 11
-250.0000399999954
 21
-718.4141168468386
 31
0.0
  0
LINE
  5
F1A1
330
E95B
100
AcDbEntity
  8
SIZE
 62
     0
100
AcDbLine
 10
249.9999899999966
 20
-500.1874550599905
 30
0.0
 11
249.9999899999965
 21
-718.4141168468386
 31
0.0
  0
LINE
  5
F1A2
330
E95B
100
AcDbEntity
  8
SIZE
 62
     0
100
AcDbLine
 10
-238.0000399999953
 20
-688.4141168468386
 30
0.0
 11
237.9999899999966
 21
-688.4141168468386
 31
0.0
  0
INSERT
  5
F1A3
330
E95B
100
AcDbEntity
  8
SIZE
 62
     0
100
AcDbBlockReference
  2
_ORIGIN
 10
-250.0000399999953
 20
-688.4141168468386
 30
0.0
 41
12.0
 42
12.0
 43
12.0
 50
180.0
  0
INSERT
  5
F1A4
330
E95B
100
AcDbEntity
  8
SIZE
 62
     0
100
AcDbBlockReference
  2
_ORIGIN
 10
249.9999899999966
 20
-688.4141168468386
 30
0.0
 41
12.0
 42
12.0
 43
12.0
  0
MTEXT
  5
F1A5
330
E95B
100
AcDbEntity
  8
SIZE
 62
     0
100
AcDbMText
 10
-0.0000249999993657
 20
-643.4141168468386
 30
0.0
 40
50.0
 41
0.0
 71
     5
 72
     1
  1
\A1;325～890
1001
ACAD
1000
MTEXTBEGIN
1070
    73
1070
     1
1070
    44
1040
1.0
1070
    74
1070
     0
1000
MTEXTEND
  0
POINT
  5
F1A6
330
E95B
100
AcDbEntity
  8
DEFPOINTS
 62
     0
100
AcDbPoint
 10
-250.0000399999953
 20
-470.7710036734506
 30
0.0
  0
POINT
  5
F1A7
330
E95B
100
AcDbEntity
  8
DEFPOINTS
 62
     0
100
AcDbPoint
 10
249.9999899999966
 20
-480.1874550599904
 30
0.0
  0
POINT
  5
F1A8
330
E95B
100
AcDbEntity
  8
DEFPOINTS
 62
     0
100
AcDbPoint
 10
249.9999899999966
 20
-688.4141168468386
 30
0.0
  0
ENDBLK
  5
E966
330
E95B
100
AcDbEntity
  8
0
100
AcDbBlockEnd
  0
BLOCK
  5
E971
330
E967
100
AcDbEntity
  8
0
100
AcDbBlockBegin
  2
*D52
 70
     1
 10
0.0
 20
0.0
 30
0.0
  3
*D52
  1

  0
LINE
  5
F197
330
E967
100
AcDbEntity
  8
SIZE
 62
     0
100
AcDbLine
 10
-270.0000399999953
 20
-79.4388988779292
 30
0.0
 11
-432.386384576328
 21
-79.43889887792915
 31
0.0
  0
LINE
  5
F198
330
E967
100
AcDbEntity
  8
SIZE
 62
     0
100
AcDbLine
 10
-270.0000399999952
 20
-379.4388988779292
 30
0.0
 11
-432.386384576328
 21
-379.4388988779291
 31
0.0
  0
LINE
  5
F199
330
E967
100
AcDbEntity
  8
SIZE
 62
     0
100
AcDbLine
 10
-402.386384576328
 20
-91.43889887792916
 30
0.0
 11
-402.3863845763281
 21
-367.4388988779291
 31
0.0
  0
INSERT
  5
F19A
330
E967
100
AcDbEntity
  8
SIZE
 62
     0
100
AcDbBlockReference
  2
_ORIGIN
 10
-402.386384576328
 20
-79.43889887792916
 30
0.0
 41
12.0
 42
12.0
 43
12.0
 50
90.0
  0
INSERT
  5
F19B
330
E967
100
AcDbEntity
  8
SIZE
 62
     0
100
AcDbBlockReference
  2
_ORIGIN
 10
-402.3863845763281
 20
-379.4388988779291
 30
0.0
 41
12.0
 42
12.0
 43
12.0
 50
270.0
  0
MTEXT
  5
F19C
330
E967
100
AcDbEntity
  8
SIZE
 62
     0
100
AcDbMText
 10
-447.386384576328
 20
-229.4388988779292
 30
0.0
 40
50.0
 41
0.0
 71
     5
 72
     1
  1
\A1;170～365
 11
0.0000000000000001
 21
1.0
 31
0.0
1001
ACAD
1000
MTEXTBEGIN
1070
    73
1070
     1
1070
    44
1040
1.0
1070
    74
1070
     0
1000
MTEXTEND
  0
POINT
  5
F19D
330
E967
100
AcDbEntity
  8
DEFPOINTS
 62
     0
100
AcDbPoint
 10
-250.0000399999953
 20
-79.4388988779292
 30
0.0
  0
POINT
  5
F19E
330
E967
100
AcDbEntity
  8
DEFPOINTS
 62
     0
100
AcDbPoint
 10
-250.0000399999953
 20
-379.4388988779292
 30
0.0
  0
POINT
  5
F19F
330
E967
100
AcDbEntity
  8
DEFPOINTS
 62
     0
100
AcDbPoint
 10
-402.3863845763281
 20
-379.4388988779291
 30
0.0
  0
ENDBLK
  5
E972
330
E967
100
AcDbEntity
  8
0
100
AcDbBlockEnd
  0
BLOCK
  5
E97D
330
E973
100
AcDbEntity
  8
0
100
AcDbBlockBegin
  2
*D53
 70
     1
 10
0.0
 20
0.0
 30
0.0
  3
*D53
  1

  0
LINE
  5
F1D1
330
E973
100
AcDbEntity
  8
SIZE
 62
     0
100
AcDbLine
 10
-500.0
 20
20.0
 30
0.0
 11
-500.0
 21
354.4793562605909
 31
0.0
  0
LINE
  5
F1D2
330
E973
100
AcDbEntity
  8
SIZE
 62
     0
100
AcDbLine
 10
500.0
 20
20.0
 30
0.0
 11
500.0
 21
354.4793562605909
 31
0.0
  0
LINE
  5
F1D3
330
E973
100
AcDbEntity
  8
SIZE
 62
     0
100
AcDbLine
 10
-488.0
 20
324.4793562605909
 30
0.0
 11
488.0
 21
324.4793562605909
 31
0.0
  0
INSERT
  5
F1D4
330
E973
100
AcDbEntity
  8
SIZE
 62
     0
100
AcDbBlockReference
  2
_ORIGIN
 10
-500.0
 20
324.4793562605909
 30
0.0
 41
12.0
 42
12.0
 43
12.0
 50
180.0
  0
INSERT
  5
F1D5
330
E973
100
AcDbEntity
  8
SIZE
 62
     0
100
AcDbBlockReference
  2
_ORIGIN
 10
500.0
 20
324.4793562605909
 30
0.0
 41
12.0
 42
12.0
 43
12.0
  0
MTEXT
  5
F1D6
330
E973
100
AcDbEntity
  8
SIZE
 62
     0
100
AcDbMText
 10
1.533403491388528
 20
369.4793562605909
 30
0.0
 40
50.0
 41
0.0
 71
     5
 72
     1
  1
\A1;1000
1001
ACAD
1000
MTEXTBEGIN
1070
    73
1070
     1
1070
    44
1040
1.0
1070
    74
1070
     0
1000
MTEXTEND
  0
POINT
  5
F1D7
330
E973
100
AcDbEntity
  8
DEFPOINTS
 62
     0
100
AcDbPoint
 10
-500.0
 20
0.0
 30
0.0
  0
POINT
  5
F1D8
330
E973
100
AcDbEntity
  8
DEFPOINTS
 62
     0
100
AcDbPoint
 10
500.0
 20
0.0
 30
0.0
  0
POINT
  5
F1D9
330
E973
100
AcDbEntity
  8
DEFPOINTS
 62
     0
100
AcDbPoint
 10
500.0
 20
324.4793562605909
 30
0.0
  0
ENDBLK
  5
E97E
330
E973
100
AcDbEntity
  8
0
100
AcDbBlockEnd
  0
BLOCK
  5
E989
330
E97F
100
AcDbEntity
  8
0
100
AcDbBlockBegin
  2
*D54
 70
     1
 10
0.0
 20
0.0
 30
0.0
  3
*D54
  1

  0
LINE
  5
F1C8
330
E97F
100
AcDbEntity
  8
SIZE
 62
     0
100
AcDbLine
 10
249.9999899999966
 20
38.82818100172426
 30
0.0
 11
249.9999899999966
 21
256.9682964662561
 31
0.0
  0
LINE
  5
F1C9
330
E97F
100
AcDbEntity
  8
SIZE
 62
     0
100
AcDbLine
 10
-250.0000399999953
 20
36.21046321613812
 30
0.0
 11
-250.0000399999953
 21
256.9682964662561
 31
0.0
  0
LINE
  5
F1CA
330
E97F
100
AcDbEntity
  8
SIZE
 62
     0
100
AcDbLine
 10
237.9999899999966
 20
226.968296466256
 30
0.0
 11
-238.0000399999953
 21
226.968296466256
 31
0.0
  0
INSERT
  5
F1CB
330
E97F
100
AcDbEntity
  8
SIZE
 62
     0
100
AcDbBlockReference
  2
_ORIGIN
 10
249.9999899999966
 20
226.968296466256
 30
0.0
 41
12.0
 42
12.0
 43
12.0
  0
INSERT
  5
F1CC
330
E97F
100
AcDbEntity
  8
SIZE
 62
     0
100
AcDbBlockReference
  2
_ORIGIN
 10
-250.0000399999953
 20
226.968296466256
 30
0.0
 41
12.0
 42
12.0
 43
12.0
 50
180.0
  0
MTEXT
  5
F1CD
330
E97F
100
AcDbEntity
  8
SIZE
 62
     0
100
AcDbMText
 10
-2.147194143815792
 20
271.9682964662561
 30
0.0
 40
50.0
 41
0.0
 71
     5
 72
     1
  1
\A1;500
1001
ACAD
1000
MTEXTBEGIN
1070
    73
1070
     1
1070
    44
1040
1.0
1070
    74
1070
     0
1000
MTEXTEND
  0
POINT
  5
F1CE
330
E97F
100
AcDbEntity
  8
DEFPOINTS
 62
     0
100
AcDbPoint
 10
249.9999899999966
 20
18.82818100172426
 30
0.0
  0
POINT
  5
F1CF
330
E97F
100
AcDbEntity
  8
DEFPOINTS
 62
     0
100
AcDbPoint
 10
-250.0000399999953
 20
16.21046321613812
 30
0.0
  0
POINT
  5
F1D0
330
E97F
100
AcDbEntity
  8
DEFPOINTS
 62
     0
100
AcDbPoint
 10
-250.0000399999953
 20
226.968296466256
 30
0.0
  0
ENDBLK
  5
E98A
330
E97F
100
AcDbEntity
  8
0
100
AcDbBlockEnd
  0
BLOCK
  5
E997
330
E98B
100
AcDbEntity
  8
0
100
AcDbBlockBegin
  2
*D55
 70
     1
 10
0.0
 20
0.0
 30
0.0
  3
*D55
  1

  0
LINE
  5
F1EE
330
E98B
100
AcDbEntity
  8
SIZE
 62
     0
100
AcDbLine
 10
439.9999999999818
 20
56.0
 30
0.0
 11
439.9999999999818
 21
132.9506187419237
 31
0.0
  0
LINE
  5
F1EF
330
E98B
100
AcDbEntity
  8
SIZE
 62
     0
100
AcDbLine
 10
500.0
 20
20.0
 30
0.0
 11
500.0
 21
132.9506187419237
 31
0.0
  0
LINE
  5
F1F0
330
E98B
100
AcDbEntity
  8
SIZE
 62
     0
100
AcDbLine
 10
427.9999999999818
 20
102.9506187419237
 30
0.0
 11
415.9999999999818
 21
102.9506187419237
 31
0.0
  0
LINE
  5
F1F1
330
E98B
100
AcDbEntity
  8
SIZE
 62
     0
100
AcDbLine
 10
512.0
 20
102.9506187419237
 30
0.0
 11
636.8571428571429
 21
102.9506187419237
 31
0.0
  0
LINE
  5
F1F2
330
E98B
100
AcDbEntity
  8
SIZE
 62
     0
100
AcDbLine
 10
439.9999999999818
 20
102.9506187419237
 30
0.0
 11
500.0
 21
102.9506187419237
 31
0.0
  0
INSERT
  5
F1F3
330
E98B
100
AcDbEntity
  8
SIZE
 62
     0
100
AcDbBlockReference
  2
_ORIGIN
 10
439.9999999999818
 20
102.9506187419237
 30
0.0
 41
12.0
 42
12.0
 43
12.0
  0
INSERT
  5
F1F4
330
E98B
100
AcDbEntity
  8
SIZE
 62
     0
100
AcDbBlockReference
  2
_ORIGIN
 10
500.0
 20
102.9506187419237
 30
0.0
 41
12.0
 42
12.0
 43
12.0
 50
180.0
  0
MTEXT
  5
F1F5
330
E98B
100
AcDbEntity
  8
SIZE
 62
     0
100
AcDbMText
 10
580.4285714285714
 20
147.9506187419237
 30
0.0
 40
50.0
 41
0.0
 71
     5
 72
     1
  1
\A1;60
1001
ACAD
1000
MTEXTBEGIN
1070
    73
1070
     1
1070
    44
1040
1.0
1070
    74
1070
     0
1000
MTEXTEND
  0
POINT
  5
F1F6
330
E98B
100
AcDbEntity
  8
DEFPOINTS
 62
     0
100
AcDbPoint
 10
439.9999999999818
 20
36.0
 30
0.0
  0
POINT
  5
F1F7
330
E98B
100
AcDbEntity
  8
DEFPOINTS
 62
     0
100
AcDbPoint
 10
500.0
 20
0.0
 30
0.0
  0
POINT
  5
F1F8
330
E98B
100
AcDbEntity
  8
DEFPOINTS
 62
     0
100
AcDbPoint
 10
500.0
 20
102.9506187419237
 30
0.0
  0
ENDBLK
  5
E998
330
E98B
100
AcDbEntity
  8
0
100
AcDbBlockEnd
  0
BLOCK
  5
E9A3
330
E999
100
AcDbEntity
  8
0
100
AcDbBlockBegin
  2
*D56
 70
     1
 10
0.0
 20
0.0
 30
0.0
  3
*D56
  1

  0
LINE
  5
F1BF
330
E999
100
AcDbEntity
  8
SIZE
 62
     0
100
AcDbLine
 10
0.0000000000000012
 20
58.70859980156001
 30
0.0
 11
0.0000000000000058
 21
132.9506187419237
 31
0.0
  0
LINE
  5
F1C0
330
E999
100
AcDbEntity
  8
SIZE
 62
     0
100
AcDbLine
 10
439.9999999999818
 20
56.0
 30
0.0
 11
439.9999999999818
 21
132.9506187419237
 31
0.0
  0
LINE
  5
F1C1
330
E999
100
AcDbEntity
  8
SIZE
 62
     0
100
AcDbLine
 10
12.0
 20
102.9506187419237
 30
0.0
 11
427.9999999999818
 21
102.9506187419237
 31
0.0
  0
INSERT
  5
F1C2
330
E999
100
AcDbEntity
  8
SIZE
 62
     0
100
AcDbBlockReference
  2
_ORIGIN
 10
0.0000000000000039
 20
102.9506187419237
 30
0.0
 41
12.0
 42
12.0
 43
12.0
 50
180.0
  0
INSERT
  5
F1C3
330
E999
100
AcDbEntity
  8
SIZE
 62
     0
100
AcDbBlockReference
  2
_ORIGIN
 10
439.9999999999818
 20
102.9506187419237
 30
0.0
 41
12.0
 42
12.0
 43
12.0
  0
MTEXT
  5
F1C4
330
E999
100
AcDbEntity
  8
SIZE
 62
     0
100
AcDbMText
 10
219.9999999999909
 20
147.9506187419237
 30
0.0
 40
50.0
 41
0.0
 71
     5
 72
     1
  1
\A1;440
1001
ACAD
1000
MTEXTBEGIN
1070
    73
1070
     1
1070
    44
1040
1.0
1070
    74
1070
     0
1000
MTEXTEND
  0
POINT
  5
F1C5
330
E999
100
AcDbEntity
  8
DEFPOINTS
 62
     0
100
AcDbPoint
 10
0.0
 20
38.70859980156001
 30
0.0
  0
POINT
  5
F1C6
330
E999
100
AcDbEntity
  8
DEFPOINTS
 62
     0
100
AcDbPoint
 10
439.9999999999818
 20
36.0
 30
0.0
  0
POINT
  5
F1C7
330
E999
100
AcDbEntity
  8
DEFPOINTS
 62
     0
100
AcDbPoint
 10
439.9999999999818
 20
102.9506187419237
 30
0.0
  0
ENDBLK
  5
E9A4
330
E999
100
AcDbEntity
  8
0
100
AcDbBlockEnd
  0
BLOCK
  5
E9AF
330
E9A5
100
AcDbEntity
  8
0
100
AcDbBlockBegin
  2
*D57
 70
     1
 10
0.0
 20
0.0
 30
0.0
  3
*D57
  1

  0
LINE
  5
F1DA
330
E9A5
100
AcDbEntity
  8
SIZE
 62
     0
100
AcDbLine
 10
0.0000000000000012
 20
56.0
 30
0.0
 11
0.0000000000000059
 21
132.9506187419237
 31
0.0
  0
LINE
  5
F1DB
330
E9A5
100
AcDbEntity
  8
SIZE
 62
     0
100
AcDbLine
 10
-440.0
 20
56.0
 30
0.0
 11
-440.0
 21
132.9506187419237
 31
0.0
  0
LINE
  5
F1DC
330
E9A5
100
AcDbEntity
  8
SIZE
 62
     0
100
AcDbLine
 10
-11.99999999999999
 20
102.9506187419237
 30
0.0
 11
-428.0
 21
102.9506187419237
 31
0.0
  0
INSERT
  5
F1DD
330
E9A5
100
AcDbEntity
  8
SIZE
 62
     0
100
AcDbBlockReference
  2
_ORIGIN
 10
0.0000000000000041
 20
102.9506187419237
 30
0.0
 41
12.0
 42
12.0
 43
12.0
  0
INSERT
  5
F1DE
330
E9A5
100
AcDbEntity
  8
SIZE
 62
     0
100
AcDbBlockReference
  2
_ORIGIN
 10
-440.0
 20
102.9506187419237
 30
0.0
 41
12.0
 42
12.0
 43
12.0
 50
180.0
  0
MTEXT
  5
F1DF
330
E9A5
100
AcDbEntity
  8
SIZE
 62
     0
100
AcDbMText
 10
-220.0
 20
147.9506187419237
 30
0.0
 40
50.0
 41
0.0
 71
     5
 72
     1
  1
\A1;440
1001
ACAD
1000
MTEXTBEGIN
1070
    73
1070
     1
1070
    44
1040
1.0
1070
    74
1070
     0
1000
MTEXTEND
  0
POINT
  5
F1E0
330
E9A5
100
AcDbEntity
  8
DEFPOINTS
 62
     0
100
AcDbPoint
 10
0.0
 20
36.0
 30
0.0
  0
POINT
  5
F1E1
330
E9A5
100
AcDbEntity
  8
DEFPOINTS
 62
     0
100
AcDbPoint
 10
-440.0
 20
36.0
 30
0.0
  0
POINT
  5
F1E2
330
E9A5
100
AcDbEntity
  8
DEFPOINTS
 62
     0
100
AcDbPoint
 10
-440.0
 20
102.9506187419237
 30
0.0
  0
ENDBLK
  5
E9B0
330
E9A5
100
AcDbEntity
  8
0
100
AcDbBlockEnd
  0
BLOCK
  5
E9BD
330
E9B1
100
AcDbEntity
  8
0
100
AcDbBlockBegin
  2
*D58
 70
     1
 10
0.0
 20
0.0
 30
0.0
  3
*D58
  1

  0
LINE
  5
F1E3
330
E9B1
100
AcDbEntity
  8
SIZE
 62
     0
100
AcDbLine
 10
-440.0
 20
56.0
 30
0.0
 11
-440.0
 21
132.9506187419237
 31
0.0
  0
LINE
  5
F1E4
330
E9B1
100
AcDbEntity
  8
SIZE
 62
     0
100
AcDbLine
 10
-500.0
 20
20.0
 30
0.0
 11
-500.0
 21
132.9506187419237
 31
0.0
  0
LINE
  5
F1E5
330
E9B1
100
AcDbEntity
  8
SIZE
 62
     0
100
AcDbLine
 10
-428.0
 20
102.9506187419237
 30
0.0
 11
-416.0
 21
102.9506187419237
 31
0.0
  0
LINE
  5
F1E6
330
E9B1
100
AcDbEntity
  8
SIZE
 62
     0
100
AcDbLine
 10
-512.0
 20
102.9506187419237
 30
0.0
 11
-636.8571428571429
 21
102.9506187419237
 31
0.0
  0
LINE
  5
F1E7
330
E9B1
100
AcDbEntity
  8
SIZE
 62
     0
100
AcDbLine
 10
-440.0
 20
102.9506187419237
 30
0.0
 11
-500.0
 21
102.9506187419237
 31
0.0
  0
INSERT
  5
F1E8
330
E9B1
100
AcDbEntity
  8
SIZE
 62
     0
100
AcDbBlockReference
  2
_ORIGIN
 10
-440.0
 20
102.9506187419237
 30
0.0
 41
12.0
 42
12.0
 43
12.0
 50
180.0
  0
INSERT
  5
F1E9
330
E9B1
100
AcDbEntity
  8
SIZE
 62
     0
100
AcDbBlockReference
  2
_ORIGIN
 10
-500.0
 20
102.9506187419237
 30
0.0
 41
12.0
 42
12.0
 43
12.0
  0
MTEXT
  5
F1EA
330
E9B1
100
AcDbEntity
  8
SIZE
 62
     0
100
AcDbMText
 10
-580.4285714285714
 20
147.9506187419237
 30
0.0
 40
50.0
 41
0.0
 71
     5
 72
     1
  1
\A1;60
1001
ACAD
1000
MTEXTBEGIN
1070
    73
1070
     1
1070
    44
1040
1.0
1070
    74
1070
     0
1000
MTEXTEND
  0
POINT
  5
F1EB
330
E9B1
100
AcDbEntity
  8
DEFPOINTS
 62
     0
100
AcDbPoint
 10
-440.0
 20
36.0
 30
0.0
  0
POINT
  5
F1EC
330
E9B1
100
AcDbEntity
  8
DEFPOINTS
 62
     0
100
AcDbPoint
 10
-500.0
 20
0.0
 30
0.0
  0
POINT
  5
F1ED
330
E9B1
100
AcDbEntity
  8
DEFPOINTS
 62
     0
100
AcDbPoint
 10
-500.0
 20
102.9506187419237
 30
0.0
  0
ENDBLK
  5
E9BE
330
E9B1
100
AcDbEntity
  8
0
100
AcDbBlockEnd
  0
BLOCK
  5
E9C9
330
E9BF
100
AcDbEntity
  8
0
100
AcDbBlockBegin
  2
*D59
 70
     1
 10
0.0
 20
0.0
 30
0.0
  3
*D59
  1

  0
LINE
  5
F18E
330
E9BF
100
AcDbEntity
  8
SIZE
 62
     0
100
AcDbLine
 10
-520.0
 20
0.0000000000000057
 30
0.0
 11
-683.7963933214868
 21
0.0000000000000521
 31
0.0
  0
LINE
  5
F18F
330
E9BF
100
AcDbEntity
  8
SIZE
 62
     0
100
AcDbLine
 10
-292.5
 20
-423.0
 30
0.0
 11
-683.7963933214869
 21
-422.9999999999998
 31
0.0
  0
LINE
  5
F190
330
E9BF
100
AcDbEntity
  8
SIZE
 62
     0
100
AcDbLine
 10
-653.7963933214868
 20
-11.99999999999995
 30
0.0
 11
-653.7963933214869
 21
-410.9999999999998
 31
0.0
  0
INSERT
  5
F191
330
E9BF
100
AcDbEntity
  8
SIZE
 62
     0
100
AcDbBlockReference
  2
_ORIGIN
 10
-653.7963933214868
 20
0.0000000000000436
 30
0.0
 41
12.0
 42
12.0
 43
12.0
 50
90.0
  0
INSERT
  5
F192
330
E9BF
100
AcDbEntity
  8
SIZE
 62
     0
100
AcDbBlockReference
  2
_ORIGIN
 10
-653.7963933214869
 20
-422.9999999999998
 30
0.0
 41
12.0
 42
12.0
 43
12.0
 50
270.0
  0
MTEXT
  5
F193
330
E9BF
100
AcDbEntity
  8
SIZE
 62
     0
100
AcDbMText
 10
-698.7963933214867
 20
-211.5
 30
0.0
 40
50.0
 41
0.0
 71
     5
 72
     1
  1
\A1;423
 11
0.0000000000000001
 21
1.0
 31
0.0
1001
ACAD
1000
MTEXTBEGIN
1070
    73
1070
     1
1070
    44
1040
1.0
1070
    74
1070
     0
1000
MTEXTEND
  0
POINT
  5
F194
330
E9BF
100
AcDbEntity
  8
DEFPOINTS
 62
     0
100
AcDbPoint
 10
-500.0
 20
0.0
 30
0.0
  0
POINT
  5
F195
330
E9BF
100
AcDbEntity
  8
DEFPOINTS
 62
     0
100
AcDbPoint
 10
-272.5
 20
-423.0
 30
0.0
  0
POINT
  5
F196
330
E9BF
100
AcDbEntity
  8
DEFPOINTS
 62
     0
100
AcDbPoint
 10
-653.7963933214869
 20
-422.9999999999998
 30
0.0
  0
ENDBLK
  5
E9CA
330
E9BF
100
AcDbEntity
  8
0
100
AcDbBlockEnd
  0
BLOCK
  5
E9D7
330
E9CB
100
AcDbEntity
  8
0
100
AcDbBlockBegin
  2
*D60
 70
     1
 10
0.0
 20
0.0
 30
0.0
  3
*D60
  1

  0
LINE
  5
F1A9
330
E9CB
100
AcDbEntity
  8
SIZE
 62
     0
100
AcDbLine
 10
-272.5
 20
-443.0
 30
0.0
 11
-272.5
 21
-525.7038357810388
 31
0.0
  0
LINE
  5
F1AA
330
E9CB
100
AcDbEntity
  8
SIZE
 62
     0
100
AcDbLine
 10
-227.4999999999999
 20
-442.999999999999
 30
0.0
 11
-227.4999999999999
 21
-525.7038357810388
 31
0.0
  0
LINE
  5
F1AB
330
E9CB
100
AcDbEntity
  8
SIZE
 62
     0
100
AcDbLine
 10
-284.5
 20
-495.7038357810388
 30
0.0
 11
-296.4999999999999
 21
-495.7038357810388
 31
0.0
  0
LINE
  5
F1AC
330
E9CB
100
AcDbEntity
  8
SIZE
 62
     0
100
AcDbLine
 10
-215.5
 20
-495.7038357810388
 30
0.0
 11
-90.64285714285716
 21
-495.7038357810388
 31
0.0
  0
LINE
  5
F1AD
330
E9CB
100
AcDbEntity
  8
SIZE
 62
     0
100
AcDbLine
 10
-272.5
 20
-495.7038357810388
 30
0.0
 11
-227.4999999999999
 21
-495.7038357810388
 31
0.0
  0
INSERT
  5
F1AE
330
E9CB
100
AcDbEntity
  8
SIZE
 62
     0
100
AcDbBlockReference
  2
_ORIGIN
 10
-272.5
 20
-495.7038357810388
 30
0.0
 41
12.0
 42
12.0
 43
12.0
  0
INSERT
  5
F1AF
330
E9CB
100
AcDbEntity
  8
SIZE
 62
     0
100
AcDbBlockReference
  2
_ORIGIN
 10
-227.4999999999999
 20
-495.7038357810388
 30
0.0
 41
12.0
 42
12.0
 43
12.0
 50
180.0
  0
MTEXT
  5
F1B0
330
E9CB
100
AcDbEntity
  8
SIZE
 62
     0
100
AcDbMText
 10
-147.0714285714285
 20
-450.7038357810388
 30
0.0
 40
50.0
 41
0.0
 71
     5
 72
     1
  1
\A1;45
1001
ACAD
1000
MTEXTBEGIN
1070
    73
1070
     1
1070
    44
1040
1.0
1070
    74
1070
     0
1000
MTEXTEND
  0
POINT
  5
F1B1
330
E9CB
100
AcDbEntity
  8
DEFPOINTS
 62
     0
100
AcDbPoint
 10
-272.5
 20
-423.0
 30
0.0
  0
POINT
  5
F1B2
330
E9CB
100
AcDbEntity
  8
DEFPOINTS
 62
     0
100
AcDbPoint
 10
-227.4999999999999
 20
-422.999999999999
 30
0.0
  0
POINT
  5
F1B3
330
E9CB
100
AcDbEntity
  8
DEFPOINTS
 62
     0
100
AcDbPoint
 10
-227.4999999999999
 20
-495.7038357810388
 30
0.0
  0
ENDBLK
  5
E9D8
330
E9CB
100
AcDbEntity
  8
0
100
AcDbBlockEnd
  0
BLOCK
  5
E9E5
330
E9D9
100
AcDbEntity
  8
0
100
AcDbBlockBegin
  2
*D61
 70
     1
 10
0.0
 20
0.0
 30
0.0
  3
*D61
  1

  0
LINE
  5
F1B4
330
E9D9
100
AcDbEntity
  8
SIZE
 62
     0
100
AcDbLine
 10
227.4999999999999
 20
-442.999999999999
 30
0.0
 11
227.4999999999999
 21
-521.8287286059539
 31
0.0
  0
LINE
  5
F1B5
330
E9D9
100
AcDbEntity
  8
SIZE
 62
     0
100
AcDbLine
 10
272.5000000000018
 20
-443.0
 30
0.0
 11
272.5000000000018
 21
-521.8287286059539
 31
0.0
  0
LINE
  5
F1B6
330
E9D9
100
AcDbEntity
  8
SIZE
 62
     0
100
AcDbLine
 10
215.5
 20
-491.8287286059539
 30
0.0
 11
203.5
 21
-491.8287286059539
 31
0.0
  0
LINE
  5
F1B7
330
E9D9
100
AcDbEntity
  8
SIZE
 62
     0
100
AcDbLine
 10
284.5000000000018
 20
-491.8287286059539
 30
0.0
 11
409.3571428571446
 21
-491.8287286059539
 31
0.0
  0
LINE
  5
F1B8
330
E9D9
100
AcDbEntity
  8
SIZE
 62
     0
100
AcDbLine
 10
227.4999999999999
 20
-491.8287286059539
 30
0.0
 11
272.5000000000018
 21
-491.8287286059539
 31
0.0
  0
INSERT
  5
F1B9
330
E9D9
100
AcDbEntity
  8
SIZE
 62
     0
100
AcDbBlockReference
  2
_ORIGIN
 10
227.4999999999999
 20
-491.8287286059539
 30
0.0
 41
12.0
 42
12.0
 43
12.0
  0
INSERT
  5
F1BA
330
E9D9
100
AcDbEntity
  8
SIZE
 62
     0
100
AcDbBlockReference
  2
_ORIGIN
 10
272.5000000000018
 20
-491.8287286059539
 30
0.0
 41
12.0
 42
12.0
 43
12.0
 50
180.0
  0
MTEXT
  5
F1BB
330
E9D9
100
AcDbEntity
  8
SIZE
 62
     0
100
AcDbMText
 10
352.9285714285732
 20
-446.8287286059539
 30
0.0
 40
50.0
 41
0.0
 71
     5
 72
     1
  1
\A1;45
1001
ACAD
1000
MTEXTBEGIN
1070
    73
1070
     1
1070
    44
1040
1.0
1070
    74
1070
     0
1000
MTEXTEND
  0
POINT
  5
F1BC
330
E9D9
100
AcDbEntity
  8
DEFPOINTS
 62
     0
100
AcDbPoint
 10
227.4999999999999
 20
-422.999999999999
 30
0.0
  0
POINT
  5
F1BD
330
E9D9
100
AcDbEntity
  8
DEFPOINTS
 62
     0
100
AcDbPoint
 10
272.5000000000018
 20
-423.0
 30
0.0
  0
POINT
  5
F1BE
330
E9D9
100
AcDbEntity
  8
DEFPOINTS
 62
     0
100
AcDbPoint
 10
272.5000000000018
 20
-491.8287286059539
 30
0.0
  0
ENDBLK
  5
E9E6
330
E9D9
100
AcDbEntity
  8
0
100
AcDbBlockEnd
  0
BLOCK
  5
E9F3
330
E9E7
100
AcDbEntity
  8
0
100
AcDbBlockBegin
  2
*D62
 70
     1
 10
0.0
 20
0.0
 30
0.0
  3
*D62
  1

  0
LINE
  5
F183
330
E9E7
100
AcDbEntity
  8
SIZE
 62
     0
100
AcDbLine
 10
520.0
 20
-0.0000000000000057
 30
0.0
 11
635.6938781036642
 21
-0.0000000000000384
 31
0.0
  0
LINE
  5
F184
330
E9E7
100
AcDbEntity
  8
SIZE
 62
     0
100
AcDbLine
 10
510.0000000000018
 20
-23.88228000000436
 30
0.0
 11
635.6938781036642
 21
-23.88228000000439
 31
0.0
  0
LINE
  5
F185
330
E9E7
100
AcDbEntity
  8
SIZE
 62
     0
100
AcDbLine
 10
605.6938781036642
 20
11.99999999999997
 30
0.0
 11
605.6938781036642
 21
23.99999999999996
 31
0.0
  0
LINE
  5
F186
330
E9E7
100
AcDbEntity
  8
SIZE
 62
     0
100
AcDbLine
 10
605.6938781036642
 20
-35.88228000000439
 30
0.0
 11
605.6938781036642
 21
-162.8822800000043
 31
0.0
  0
LINE
  5
F187
330
E9E7
100
AcDbEntity
  8
SIZE
 62
     0
100
AcDbLine
 10
605.6938781036642
 20
-0.0000000000000299
 30
0.0
 11
605.6938781036642
 21
-23.88228000000438
 31
0.0
  0
INSERT
  5
F188
330
E9E7
100
AcDbEntity
  8
SIZE
 62
     0
100
AcDbBlockReference
  2
_ORIGIN
 10
605.6938781036642
 20
-0.0000000000000299
 30
0.0
 41
12.0
 42
12.0
 43
12.0
 50
270.0
  0
INSERT
  5
F189
330
E9E7
100
AcDbEntity
  8
SIZE
 62
     0
100
AcDbBlockReference
  2
_ORIGIN
 10
605.6938781036642
 20
-23.88228000000438
 30
0.0
 41
12.0
 42
12.0
 43
12.0
 50
90.0
  0
MTEXT
  5
F18A
330
E9E7
100
AcDbEntity
  8
SIZE
 62
     0
100
AcDbMText
 10
560.6938781036642
 20
-105.3822800000042
 30
0.0
 40
50.0
 41
0.0
 71
     5
 72
     1
  1
\A1;24
 11
0.0000000000000001
 21
1.0
 31
0.0
1001
ACAD
1000
MTEXTBEGIN
1070
    73
1070
     1
1070
    44
1040
1.0
1070
    74
1070
     0
1000
MTEXTEND
  0
POINT
  5
F18B
330
E9E7
100
AcDbEntity
  8
DEFPOINTS
 62
     0
100
AcDbPoint
 10
500.0
 20
0.0
 30
0.0
  0
POINT
  5
F18C
330
E9E7
100
AcDbEntity
  8
DEFPOINTS
 62
     0
100
AcDbPoint
 10
490.0000000000018
 20
-23.88228000000435
 30
0.0
  0
POINT
  5
F18D
330
E9E7
100
AcDbEntity
  8
DEFPOINTS
 62
     0
100
AcDbPoint
 10
605.6938781036642
 20
-23.88228000000438
 30
0.0
  0
ENDBLK
  5
E9F4
330
E9E7
100
AcDbEntity
  8
0
100
AcDbBlockEnd
  0
BLOCK
  5
F067
330
F05D
100
AcDbEntity
  8
0
100
AcDbBlockBegin
  2
*D63
 70
     1
 10
0.0
 20
0.0
 30
0.0
  3
*D63
  1

  0
LINE
  5
F072
330
F05D
100
AcDbEntity
  8
SIZE
 62
     0
100
AcDbLine
 10
1800.131567832491
 20
-4775.026987928383
 30
0.0
 11
1800.131567832491
 21
-5031.804170580301
 31
0.0
  0
LINE
  5
F073
330
F05D
100
AcDbEntity
  8
SIZE
 62
     0
100
AcDbLine
 10
2300.131597832483
 20
-4784.443439314924
 30
0.0
 11
2300.131597832483
 21
-5031.804170580301
 31
0.0
  0
LINE
  5
F074
330
F05D
100
AcDbEntity
  8
SIZE
 62
     0
100
AcDbLine
 10
1812.131567832492
 20
-5001.8041705803
 30
0.0
 11
2288.131597832483
 21
-5001.8041705803
 31
0.0
  0
INSERT
  5
F075
330
F05D
100
AcDbEntity
  8
SIZE
 62
     0
100
AcDbBlockReference
  2
_ORIGIN
 10
1800.131567832491
 20
-5001.8041705803
 30
0.0
 41
12.0
 42
12.0
 43
12.0
 50
180.0
  0
INSERT
  5
F076
330
F05D
100
AcDbEntity
  8
SIZE
 62
     0
100
AcDbBlockReference
  2
_ORIGIN
 10
2300.131597832483
 20
-5001.8041705803
 30
0.0
 41
12.0
 42
12.0
 43
12.0
  0
MTEXT
  5
F077
330
F05D
100
AcDbEntity
  8
SIZE
 62
     0
100
AcDbMText
 10
2038.661141470496
 20
-4956.804170580301
 30
0.0
 40
50.0
 41
0.0
 71
     5
 72
     1
  1
\A1;325～890
1001
ACAD
1000
MTEXTBEGIN
1070
    73
1070
     1
1070
    44
1040
1.0
1070
    74
1070
     0
1000
MTEXTEND
  0
POINT
  5
F078
330
F05D
100
AcDbEntity
  8
DEFPOINTS
 62
     0
100
AcDbPoint
 10
1800.131567832491
 20
-4755.026987928384
 30
0.0
  0
POINT
  5
F079
330
F05D
100
AcDbEntity
  8
DEFPOINTS
 62
     0
100
AcDbPoint
 10
2300.131597832483
 20
-4764.443439314923
 30
0.0
  0
POINT
  5
F07A
330
F05D
100
AcDbEntity
  8
DEFPOINTS
 62
     0
100
AcDbPoint
 10
2300.131597832483
 20
-5001.8041705803
 30
0.0
  0
ENDBLK
  5
F068
330
F05D
100
AcDbEntity
  8
0
100
AcDbBlockEnd
  0
BLOCK
  5
F08C
330
F082
100
AcDbEntity
  8
0
100
AcDbBlockBegin
  2
*D64
 70
     1
 10
0.0
 20
0.0
 30
0.0
  3
*D64
  1

  0
LINE
  5
F0BB
330
F082
100
AcDbEntity
  8
SIZE
 62
     0
100
AcDbLine
 10
3668.348880982357
 20
-4655.667236453777
 30
0.0
 11
3668.348880982357
 21
-4521.596808525409
 31
0.0
  0
LINE
  5
F0BC
330
F082
100
AcDbEntity
  8
SIZE
 62
     0
100
AcDbLine
 10
3368.348880982357
 20
-4634.673164891545
 30
0.0
 11
3368.348880982357
 21
-4521.596808525409
 31
0.0
  0
LINE
  5
F0BD
330
F082
100
AcDbEntity
  8
SIZE
 62
     0
100
AcDbLine
 10
3656.348880982357
 20
-4551.59680852541
 30
0.0
 11
3380.348880982356
 21
-4551.59680852541
 31
0.0
  0
INSERT
  5
F0BE
330
F082
100
AcDbEntity
  8
SIZE
 62
     0
100
AcDbBlockReference
  2
_ORIGIN
 10
3668.348880982357
 20
-4551.59680852541
 30
0.0
 41
12.0
 42
12.0
 43
12.0
  0
INSERT
  5
F0BF
330
F082
100
AcDbEntity
  8
SIZE
 62
     0
100
AcDbBlockReference
  2
_ORIGIN
 10
3368.348880982357
 20
-4551.59680852541
 30
0.0
 41
12.0
 42
12.0
 43
12.0
 50
180.0
  0
MTEXT
  5
F0C0
330
F082
100
AcDbEntity
  8
SIZE
 62
     0
100
AcDbMText
 10
3518.348880982357
 20
-4506.59680852541
 30
0.0
 40
50.0
 41
0.0
 71
     5
 72
     1
  1
\A1;170～365
1001
ACAD
1000
MTEXTBEGIN
1070
    73
1070
     1
1070
    44
1040
1.0
1070
    74
1070
     0
1000
MTEXTEND
  0
POINT
  5
F0C1
330
F082
100
AcDbEntity
  8
DEFPOINTS
 62
     0
100
AcDbPoint
 10
3668.348880982357
 20
-4675.667236453777
 30
0.0
  0
POINT
  5
F0C2
330
F082
100
AcDbEntity
  8
DEFPOINTS
 62
     0
100
AcDbPoint
 10
3368.348880982357
 20
-4654.673164891544
 30
0.0
  0
POINT
  5
F0C3
330
F082
100
AcDbEntity
  8
DEFPOINTS
 62
     0
100
AcDbPoint
 10
3368.348880982357
 20
-4551.59680852541
 30
0.0
  0
ENDBLK
  5
F08D
330
F082
100
AcDbEntity
  8
0
100
AcDbBlockEnd
  0
BLOCK
  5
F0EE
330
F0E4
100
AcDbEntity
  8
0
100
AcDbBlockBegin
  2
*D65
 70
     1
 10
0.0
 20
0.0
 30
0.0
  3
*D65
  1

  0
LINE
  5
F142
330
F0E4
100
AcDbEntity
  8
SIZE
 62
     0
100
AcDbLine
 10
643.2223346021532
 20
-4655.667236453775
 30
0.0
 11
643.2223346021532
 21
-4521.596808525409
 31
0.0
  0
LINE
  5
F143
330
F0E4
100
AcDbEntity
  8
SIZE
 62
     0
100
AcDbLine
 10
943.2223346021533
 20
-4634.673164891544
 30
0.0
 11
943.2223346021533
 21
-4521.596808525409
 31
0.0
  0
LINE
  5
F144
330
F0E4
100
AcDbEntity
  8
SIZE
 62
     0
100
AcDbLine
 10
655.2223346021532
 20
-4551.596808525409
 30
0.0
 11
931.2223346021532
 21
-4551.596808525409
 31
0.0
  0
INSERT
  5
F145
330
F0E4
100
AcDbEntity
  8
SIZE
 62
     0
100
AcDbBlockReference
  2
_ORIGIN
 10
643.2223346021532
 20
-4551.596808525409
 30
0.0
 41
12.0
 42
12.0
 43
12.0
 50
180.0
  0
INSERT
  5
F146
330
F0E4
100
AcDbEntity
  8
SIZE
 62
     0
100
AcDbBlockReference
  2
_ORIGIN
 10
943.2223346021533
 20
-4551.596808525409
 30
0.0
 41
12.0
 42
12.0
 43
12.0
  0
MTEXT
  5
F147
330
F0E4
100
AcDbEntity
  8
SIZE
 62
     0
100
AcDbMText
 10
793.2223346021532
 20
-4506.596808525409
 30
0.0
 40
50.0
 41
0.0
 71
     5
 72
     1
  1
\A1;170～365
1001
ACAD
1000
MTEXTBEGIN
1070
    73
1070
     1
1070
    44
1040
1.0
1070
    74
1070
     0
1000
MTEXTEND
  0
POINT
  5
F148
330
F0E4
100
AcDbEntity
  8
DEFPOINTS
 62
     0
100
AcDbPoint
 10
643.2223346021532
 20
-4675.667236453776
 30
0.0
  0
POINT
  5
F149
330
F0E4
100
AcDbEntity
  8
DEFPOINTS
 62
     0
100
AcDbPoint
 10
943.2223346021533
 20
-4654.673164891543
 30
0.0
  0
POINT
  5
F14A
330
F0E4
100
AcDbEntity
  8
DEFPOINTS
 62
     0
100
AcDbPoint
 10
943.2223346021533
 20
-4551.596808525409
 30
0.0
  0
ENDBLK
  5
F0EF
330
F0E4
100
AcDbEntity
  8
0
100
AcDbBlockEnd
  0
BLOCK
  5
F169
330
F15F
100
AcDbEntity
  8
0
100
AcDbBlockBegin
  2
*D66
 70
     1
 10
0.0
 20
0.0
 30
0.0
  3
*D66
  1

  0
LINE
  5
F16B
330
F15F
100
AcDbEntity
  8
SIZE
 62
     0
100
AcDbLine
 10
5620.676481009351
 20
-4768.25589670708
 30
0.0
 11
5620.676481009351
 21
-5025.033079358997
 31
0.0
  0
LINE
  5
F16C
330
F15F
100
AcDbEntity
  8
SIZE
 62
     0
100
AcDbLine
 10
6120.676511009342
 20
-4777.672348093619
 30
0.0
 11
6120.676511009342
 21
-5025.033079358997
 31
0.0
  0
LINE
  5
F16D
330
F15F
100
AcDbEntity
  8
SIZE
 62
     0
100
AcDbLine
 10
5632.67648100935
 20
-4995.033079358996
 30
0.0
 11
6108.676511009342
 21
-4995.033079358996
 31
0.0
  0
INSERT
  5
F16E
330
F15F
100
AcDbEntity
  8
SIZE
 62
     0
100
AcDbBlockReference
  2
_ORIGIN
 10
5620.676481009351
 20
-4995.033079358996
 30
0.0
 41
12.0
 42
12.0
 43
12.0
 50
180.0
  0
INSERT
  5
F16F
330
F15F
100
AcDbEntity
  8
SIZE
 62
     0
100
AcDbBlockReference
  2
_ORIGIN
 10
6120.676511009342
 20
-4995.033079358996
 30
0.0
 41
12.0
 42
12.0
 43
12.0
  0
MTEXT
  5
F170
330
F15F
100
AcDbEntity
  8
SIZE
 62
     0
100
AcDbMText
 10
5859.206054647355
 20
-4950.033079358997
 30
0.0
 40
50.0
 41
0.0
 71
     5
 72
     1
  1
\A1;325～890
1001
ACAD
1000
MTEXTBEGIN
1070
    73
1070
     1
1070
    44
1040
1.0
1070
    74
1070
     0
1000
MTEXTEND
  0
POINT
  5
F171
330
F15F
100
AcDbEntity
  8
DEFPOINTS
 62
     0
100
AcDbPoint
 10
5620.676481009351
 20
-4748.25589670708
 30
0.0
  0
POINT
  5
F172
330
F15F
100
AcDbEntity
  8
DEFPOINTS
 62
     0
100
AcDbPoint
 10
6120.676511009342
 20
-4757.67234809362
 30
0.0
  0
POINT
  5
F173
330
F15F
100
AcDbEntity
  8
DEFPOINTS
 62
     0
100
AcDbPoint
 10
6120.676511009342
 20
-4995.033079358996
 30
0.0
  0
ENDBLK
  5
F16A
330
F15F
100
AcDbEntity
  8
0
100
AcDbBlockEnd
  0
ENDSEC
  0
SECTION
  2
ENTITIES
  0
TEXT
  5
E88D
330
18
100
AcDbEntity
  8
NOTE
  6
CONTINUOUS
100
AcDbText
 10
536.5773868310188
 20
403.4929688507354
 30
0.0
 40
50.0
  1
2-10×20
 41
0.9
100
AcDbText
  0
LINE
  5
E88E
330
18
100
AcDbEntity
  8
NOTE
  6
CONTINUOUS
100
AcDbLine
 10
503.2452144152666
 20
383.233775395659
 30
0.0
 11
847.8623414427929
 21
383.2337753956571
 31
0.0
  0
TEXT
  5
E88F
330
18
100
AcDbEntity
  8
NOTE
  6
CONTINUOUS
100
AcDbText
 10
775.5997214441995
 20
169.7816951727709
 30
0.0
 40
50.0
  1
AH 3-10×70
 41
0.9
100
AcDbText
  0
LINE
  5
E890
330
18
100
AcDbEntity
  8
NOTE
  6
CONTINUOUS
100
AcDbLine
 10
762.5320567316339
 20
150.6241312290821
 30
0.0
 11
1202.933486175796
 21
150.6241312290803
 31
0.0
  0
LINE
  5
E891
330
18
100
AcDbEntity
  8
NOTE
  6
CONTINUOUS
100
AcDbLine
 10
249.9999899999966
 20
0.0000000000009095
 30
0.0
 11
503.2452144152666
 21
383.233775395659
 31
0.0
  0
LINE
  5
E893
330
18
100
AcDbEntity
  8
NOTE
  6
CONTINUOUS
100
AcDbLine
 10
-36.0
 20
0.0
 30
0.0
 11
36.0
 21
0.0
 31
0.0
  0
LINE
  5
E898
330
18
100
AcDbEntity
  8
DETAIL
  6
CONTINUOUS
100
AcDbLine
 10
-231.299999999992
 20
-23.88227999999799
 30
0.0
 11
231.299999999992
 21
-23.88227999999799
 31
0.0
  0
LINE
  5
E89A
330
18
100
AcDbEntity
  8
DETAIL
  6
CONTINUOUS
100
AcDbLine
 10
-500.0
 20
0.0
 30
0.0
 11
500.0
 21
0.0
 31
0.0
  0
TEXT
  5
E89C
330
18
100
AcDbEntity
  8
NOTE
  6
CONTINUOUS
100
AcDbText
 10
-488.784696112696
 20
-407.6563715972797
 30
0.0
 40
50.0
  1
ユニット足寸法
 50
90.0
 41
0.9
100
AcDbText
  0
LINE
  5
E89D
330
18
100
AcDbEntity
  8
BASIS
100
AcDbLine
 10
-250.0000399999953
 20
-75.33786049732317
 30
0.0
 11
-250.0000399999953
 21
-470.7710036734506
 31
0.0
  0
LINE
  5
E8A1
330
18
100
AcDbEntity
  8
DETAIL
  6
CONTINUOUS
100
AcDbLine
 10
-272.5
 20
-423.0
 30
0.0
 11
-272.4999999999981
 21
-23.8822799999989
 31
0.0
  0
LINE
  5
E8A2
330
18
100
AcDbEntity
  8
DETAIL
  6
CONTINUOUS
100
AcDbLine
 10
-227.4999999999999
 20
-422.999999999999
 30
0.0
 11
-227.4999999999999
 21
-23.88227999999799
 31
0.0
  0
LINE
  5
E8AC
330
18
100
AcDbEntity
  8
DETAIL
  6
CONTINUOUS
100
AcDbLine
 10
-227.4999999999999
 20
-422.999999999999
 30
0.0
 11
-272.5
 21
-423.0
 31
0.0
  0
LINE
  5
E8AD
330
18
100
AcDbEntity
  8
NOTE
  6
CONTINUOUS
100
AcDbLine
 10
-476.0
 20
0.0
 30
0.0
 11
-404.0
 21
0.0
 31
0.0
  0
CIRCLE
  5
E8AE
330
18
100
AcDbEntity
  8
FIX
  6
CONTINUOUS
100
AcDbCircle
 10
-440.0
 20
0.0
 30
0.0
 40
8.0
  0
LINE
  5
E8AF
330
18
100
AcDbEntity
  8
DETAIL
  6
CONTINUOUS
100
AcDbLine
 10
-490.0
 20
-23.88227999999799
 30
0.0
 11
-271.0000000000036
 21
-23.88227999999799
 31
0.0
  0
ELLIPSE
  5
E8B5
330
18
100
AcDbEntity
  8
DETAIL
  6
CONTINUOUS
100
AcDbEllipse
 10
-489.9999999999981
 20
-21.29409000000396
 30
0.0
 11
10.0
 21
0.0
 31
0.0
210
0.0
220
0.0
230
1.0
 40
0.258819
 41
3.141592653589791
 42
4.712388980384688
  0
LINE
  5
E8B6
330
18
100
AcDbEntity
  8
DETAIL
  6
CONTINUOUS
100
AcDbLine
 10
-500.0
 20
-21.29409000000123
 30
0.0
 11
-500.0
 21
0.0
 31
0.0
  0
LINE
  5
E8B7
330
18
100
AcDbEntity
  8
NOTE
  6
CONTINUOUS
100
AcDbLine
 10
-440.0
 20
36.0
 30
0.0
 11
-440.0
 21
-36.0
 31
0.0
  0
LINE
  5
E8B8
330
18
100
AcDbEntity
  8
DETAIL
  6
CONTINUOUS
100
AcDbLine
 10
-227.4999999999999
 20
-34.17539000000033
 30
0.0
 11
-225.9000000000014
 21
-34.17539000000033
 31
0.0
  0
LINE
  5
E8B9
330
18
100
AcDbEntity
  8
DETAIL
  6
CONTINUOUS
100
AcDbLine
 10
-227.4999999999999
 20
-36.67226999999911
 30
0.0
 11
-225.9000000000014
 21
-36.67226999999911
 31
0.0
  0
LINE
  5
E8BC
330
18
100
AcDbEntity
  8
DETAIL
  6
CONTINUOUS
100
AcDbLine
 10
-229.0999999999985
 20
-41.8496800000048
 30
0.0
 11
-229.0999999999985
 21
-23.88227999999799
 31
0.0
  0
LINE
  5
E8BF
330
18
100
AcDbEntity
  8
DETAIL
  6
CONTINUOUS
100
AcDbLine
 10
-242.9999999999927
 20
-34.9319000000014
 30
0.0
 11
-242.9999999999927
 21
-30.25144000000182
 31
0.0
  0
LINE
  5
E8C0
330
18
100
AcDbEntity
  8
DETAIL
  6
CONTINUOUS
100
AcDbLine
 10
-241.3799599999947
 20
-36.47227000000384
 30
0.0
 11
-242.9999999999927
 21
-34.9319000000014
 31
0.0
  0
LINE
  5
E8C1
330
18
100
AcDbEntity
  8
DETAIL
  6
CONTINUOUS
100
AcDbLine
 10
-242.9999999999927
 20
-34.9319000000014
 30
0.0
 11
-244.8181999999906
 21
-34.9319000000014
 31
0.0
  0
LINE
  5
E8C2
330
18
100
AcDbEntity
  8
DETAIL
  6
CONTINUOUS
100
AcDbLine
 10
-244.8181999999906
 20
-34.9319000000014
 30
0.0
 11
-243.1981500000074
 21
-36.47227000000384
 31
0.0
  0
LINE
  5
E8C3
330
18
100
AcDbEntity
  8
DETAIL
  6
CONTINUOUS
100
AcDbLine
 10
-231.299999999992
 20
-23.88227999999708
 30
0.0
 11
-231.299999999992
 21
-36.47227000000384
 31
0.0
  0
LINE
  5
E8C4
330
18
100
AcDbEntity
  8
DETAIL
  6
CONTINUOUS
100
AcDbLine
 10
-228.9999999999963
 20
-23.88227999999708
 30
0.0
 11
-228.9999999999963
 21
-38.77226999999948
 31
0.0
  0
LINE
  5
E8C5
330
18
100
AcDbEntity
  8
DETAIL
  6
CONTINUOUS
100
AcDbLine
 10
-253.9999999999963
 20
-29.70803000000159
 30
0.0
 11
-253.9999999999963
 21
-23.88227999999799
 31
0.0
  0
LINE
  5
E8C6
330
18
100
AcDbEntity
  8
DETAIL
  6
CONTINUOUS
100
AcDbLine
 10
-246.0000000000036
 20
-29.70803000000159
 30
0.0
 11
-246.0000000000036
 21
-23.88227999999799
 31
0.0
  0
LINE
  5
E8CB
330
18
100
AcDbEntity
  8
DETAIL
  6
CONTINUOUS
100
AcDbLine
 10
-253.9999999999963
 20
-29.70803000000159
 30
0.0
 11
-246.0000000000036
 21
-29.70803000000159
 31
0.0
  0
LINE
  5
E8CC
330
18
100
AcDbEntity
  8
DETAIL
  6
CONTINUOUS
100
AcDbLine
 10
-253.9999999999963
 20
-36.47227000000384
 30
0.0
 11
-253.9999999999963
 21
-29.70803000000159
 31
0.0
  0
LINE
  5
E8CD
330
18
100
AcDbEntity
  8
DETAIL
  6
CONTINUOUS
100
AcDbLine
 10
-253.9999999999963
 20
-29.70803000000159
 30
0.0
 11
-257.0000000000072
 21
-30.24556000000302
 31
0.0
  0
LINE
  5
E8CE
330
18
100
AcDbEntity
  8
DETAIL
  6
CONTINUOUS
100
AcDbLine
 10
-258.6200499999904
 20
-36.47227000000384
 30
0.0
 11
-257.0000000000072
 21
-34.9319000000014
 31
0.0
  0
LINE
  5
E8CF
330
18
100
AcDbEntity
  8
DETAIL
  6
CONTINUOUS
100
AcDbLine
 10
-257.0000000000072
 20
-34.9319000000014
 30
0.0
 11
-255.1818099999946
 21
-34.9319000000014
 31
0.0
  0
LINE
  5
E8D0
330
18
100
AcDbEntity
  8
DETAIL
  6
CONTINUOUS
100
AcDbLine
 10
-255.1818099999946
 20
-34.9319000000014
 30
0.0
 11
-256.8018599999959
 21
-36.47227000000384
 31
0.0
  0
LINE
  5
E8D1
330
18
100
AcDbEntity
  8
DETAIL
  6
CONTINUOUS
100
AcDbLine
 10
-257.0000000000072
 20
-34.9319000000014
 30
0.0
 11
-257.0000000000072
 21
-30.24556000000302
 31
0.0
  0
LINE
  5
E8D2
330
18
100
AcDbEntity
  8
DETAIL
  6
CONTINUOUS
100
AcDbLine
 10
-246.0000000000036
 20
-29.70803000000159
 30
0.0
 11
-246.0000000000036
 21
-36.47227000000384
 31
0.0
  0
LINE
  5
E8D3
330
18
100
AcDbEntity
  8
DETAIL
  6
CONTINUOUS
100
AcDbLine
 10
-270.9000000000014
 20
-41.8496800000048
 30
0.0
 11
-270.9000000000014
 21
-23.88227999999799
 31
0.0
  0
LINE
  5
E8D4
330
18
100
AcDbEntity
  8
DETAIL
  6
CONTINUOUS
100
AcDbLine
 10
-279.2642399999931
 20
-31.77539000000251
 30
0.0
 11
-279.2642399999931
 21
-23.88227999999799
 31
0.0
  0
LINE
  5
E8D5
330
18
100
AcDbEntity
  8
DETAIL
  6
CONTINUOUS
100
AcDbLine
 10
-280.9000000000014
 20
-23.88227999999799
 30
0.0
 11
-280.9000000000014
 21
-31.77227000000129
 31
0.0
  0
LINE
  5
E8D6
330
18
100
AcDbEntity
  8
DETAIL
  6
CONTINUOUS
100
AcDbLine
 10
-279.2642399999931
 20
-31.77539000000251
 30
0.0
 11
-278.7267199999951
 21
-34.77539000000433
 31
0.0
  0
LINE
  5
E8D7
330
18
100
AcDbEntity
  8
DETAIL
  6
CONTINUOUS
100
AcDbLine
 10
-279.2642399999931
 20
-29.27539000000251
 30
0.0
 11
-278.7267199999951
 21
-32.27539000000433
 31
0.0
  0
LINE
  5
E8D8
330
18
100
AcDbEntity
  8
DETAIL
  6
CONTINUOUS
100
AcDbLine
 10
-278.8163100000019
 20
-31.77539000000251
 30
0.0
 11
-279.2642399999931
 21
-31.77539000000251
 31
0.0
  0
LINE
  5
E8D9
330
18
100
AcDbEntity
  8
DETAIL
  6
CONTINUOUS
100
AcDbLine
 10
-274.0403800000058
 20
-34.77539000000433
 30
0.0
 11
-278.7267199999951
 21
-34.77539000000433
 31
0.0
  0
LINE
  5
E8DA
330
18
100
AcDbEntity
  8
DETAIL
  6
CONTINUOUS
100
AcDbLine
 10
-274.0403800000058
 20
-32.95718999999735
 30
0.0
 11
-272.5
 21
-34.57723999999871
 31
0.0
  0
LINE
  5
E8DB
330
18
100
AcDbEntity
  8
DETAIL
  6
CONTINUOUS
100
AcDbLine
 10
-274.0403800000058
 20
-34.77539000000433
 30
0.0
 11
-274.0403800000058
 21
-32.95718999999735
 31
0.0
  0
LINE
  5
E8DC
330
18
100
AcDbEntity
  8
DETAIL
  6
CONTINUOUS
100
AcDbLine
 10
-272.5
 20
-36.39544000000569
 30
0.0
 11
-274.0403800000058
 21
-34.77539000000433
 31
0.0
  0
LINE
  5
E8DD
330
18
100
AcDbEntity
  8
DETAIL
  6
CONTINUOUS
100
AcDbLine
 10
-279.2642399999931
 20
-29.27539000000251
 30
0.0
 11
-280.9000000000014
 21
-29.27539000000251
 31
0.0
  0
LINE
  5
E8DE
330
18
100
AcDbEntity
  8
DETAIL
  6
CONTINUOUS
100
AcDbLine
 10
-279.2642399999931
 20
-31.77227000000129
 30
0.0
 11
-280.9000000000014
 21
-31.77227000000129
 31
0.0
  0
LINE
  5
E8DF
330
18
100
AcDbEntity
  8
DETAIL
  6
CONTINUOUS
100
AcDbLine
 10
-274.0403800000058
 20
-32.27539000000433
 30
0.0
 11
-278.7267199999951
 21
-32.27539000000433
 31
0.0
  0
LINE
  5
E8E0
330
18
100
AcDbEntity
  8
DETAIL
  6
CONTINUOUS
100
AcDbLine
 10
-274.0403800000058
 20
-30.45718999999735
 30
0.0
 11
-272.5
 21
-32.07723999999871
 31
0.0
  0
LINE
  5
E8E1
330
18
100
AcDbEntity
  8
DETAIL
  6
CONTINUOUS
100
AcDbLine
 10
-274.0403800000058
 20
-32.27539000000433
 30
0.0
 11
-274.0403800000058
 21
-30.45718999999735
 31
0.0
  0
LINE
  5
E8E2
330
18
100
AcDbEntity
  8
DETAIL
  6
CONTINUOUS
100
AcDbLine
 10
-272.5
 20
-33.89544000000569
 30
0.0
 11
-274.0403800000058
 21
-32.27539000000433
 31
0.0
  0
LINE
  5
E8E3
330
18
100
AcDbEntity
  8
DETAIL
  6
CONTINUOUS
100
AcDbLine
 10
-272.5
 20
-29.27539000000251
 30
0.0
 11
-279.2642399999931
 21
-29.27539000000251
 31
0.0
  0
LINE
  5
E8E5
330
18
100
AcDbEntity
  8
DETAIL
  6
CONTINUOUS
100
AcDbLine
 10
-271.0000000000036
 20
-38.77226999999948
 30
0.0
 11
-271.0000000000036
 21
-23.88227999999799
 31
0.0
  0
LINE
  5
E8E6
330
18
100
AcDbEntity
  8
DETAIL
  6
CONTINUOUS
100
AcDbLine
 10
-268.700000000008
 20
-36.47227000000384
 30
0.0
 11
-268.700000000008
 21
-23.88227999999799
 31
0.0
  0
LINE
  5
E8E7
330
18
100
AcDbEntity
  8
BASIS
  6
CONTINUOUS
100
AcDbLine
 10
-250.0000399999953
 20
16.21046321613812
 30
0.0
 11
-250.0000399999953
 21
-55.99672575680688
 31
0.0
  0
LINE
  5
E8EB
330
18
100
AcDbEntity
  8
DETAIL
  6
CONTINUOUS
100
AcDbLine
 10
-271.0000000000036
 20
-38.77226999999948
 30
0.0
 11
-228.9999999999963
 21
-38.77226999999948
 31
0.0
  0
LINE
  5
E8EC
330
18
100
AcDbEntity
  8
DETAIL
  6
CONTINUOUS
100
AcDbLine
 10
-268.700000000008
 20
-36.47227000000384
 30
0.0
 11
-231.299999999992
 21
-36.47227000000384
 31
0.0
  0
LINE
  5
E8ED
330
18
100
AcDbEntity
  8
DETAIL
  6
CONTINUOUS
100
AcDbLine
 10
-246.0000000000036
 20
-29.70803000000159
 30
0.0
 11
-242.9999999999927
 21
-30.25144000000182
 31
0.0
  0
LINE
  5
E8F0
330
18
100
AcDbEntity
  8
DETAIL
  6
CONTINUOUS
100
AcDbLine
 10
-271.0000000000036
 20
-23.88227999999799
 30
0.0
 11
-231.299999999992
 21
-23.88227999999799
 31
0.0
  0
LINE
  5
E8F1
330
18
100
AcDbEntity
  8
DETAIL
  6
CONTINUOUS
100
AcDbLine
 10
-220.3999999999905
 20
-35.27783000000454
 30
0.0
 11
-220.3999999999905
 21
-23.88227999999799
 31
0.0
  0
LINE
  5
E8F2
330
18
100
AcDbEntity
  8
DETAIL
  6
CONTINUOUS
100
AcDbLine
 10
-225.9000000000014
 20
-23.88227999999799
 30
0.0
 11
-225.9000000000014
 21
-36.67226999999911
 31
0.0
  0
LINE
  5
E8F3
330
18
100
AcDbEntity
  8
DETAIL
  6
CONTINUOUS
100
AcDbLine
 10
-225.9000000000014
 20
-29.0281700000014
 30
0.0
 11
-220.3999999999905
 21
-29.0281700000014
 31
0.0
  0
LINE
  5
E8F4
330
18
100
AcDbEntity
  8
DETAIL
  6
CONTINUOUS
100
AcDbLine
 10
-225.9000000000014
 20
-32.78095000000575
 30
0.0
 11
-220.3999999999905
 21
-32.78095000000575
 31
0.0
  0
LINE
  5
E8F5
330
18
100
AcDbEntity
  8
DETAIL
  6
CONTINUOUS
100
AcDbLine
 10
-225.9000000000014
 20
-35.27783000000454
 30
0.0
 11
-220.3999999999905
 21
-35.27783000000454
 31
0.0
  0
LINE
  5
E8F6
330
18
100
AcDbEntity
  8
BASIS
100
AcDbLine
 10
249.9999899999966
 20
-52.62235926871745
 30
0.0
 11
249.9999899999966
 21
-480.1874550599904
 31
0.0
  0
LINE
  5
E8F9
330
18
100
AcDbEntity
  8
DETAIL
  6
CONTINUOUS
100
AcDbLine
 10
227.4999999999999
 20
-422.999999999999
 30
0.0
 11
227.4999999999999
 21
-23.88227999999799
 31
0.0
  0
LINE
  5
E8FA
330
18
100
AcDbEntity
  8
DETAIL
  6
CONTINUOUS
100
AcDbLine
 10
272.5000000000018
 20
-423.0
 30
0.0
 11
272.5
 21
-23.8822799999989
 31
0.0
  0
LINE
  5
E8FB
330
18
100
AcDbEntity
  8
BASIS
100
AcDbLine
 10
0.0
 20
-446.6979355403755
 30
0.0
 11
0.0
 21
38.70859980156001
 31
0.0
  0
LINE
  5
E8FF
330
18
100
AcDbEntity
  8
DETAIL
  6
DASHED2
100
AcDbLine
 10
229.0999999999985
 20
-41.8496800000048
 30
0.0
 11
229.0999999999985
 21
-423.0
 31
0.0
  0
LINE
  5
E903
330
18
100
AcDbEntity
  8
DETAIL
  6
CONTINUOUS
100
AcDbLine
 10
272.5000000000018
 20
-423.0
 30
0.0
 11
227.4999999999999
 21
-422.999999999999
 31
0.0
  0
LINE
  5
E905
330
18
100
AcDbEntity
  8
NOTE
  6
CONTINUOUS
100
AcDbLine
 10
403.9999999999817
 20
0.0
 30
0.0
 11
475.9999999999818
 21
0.0
 31
0.0
  0
LINE
  5
E906
330
18
100
AcDbEntity
  8
DETAIL
  6
CONTINUOUS
100
AcDbLine
 10
268.700000000008
 20
-23.88227999999799
 30
0.0
 11
490.0
 21
-23.88227999999799
 31
0.0
  0
LINE
  5
E90A
330
18
100
AcDbEntity
  8
NOTE
  6
CONTINUOUS
100
AcDbLine
 10
249.9999900000002
 20
0.000000000007276
 30
0.0
 11
295.2931786593471
 21
42.09185627679562
 31
0.0
  0
LINE
  5
E90B
330
18
100
AcDbEntity
  8
NOTE
  6
CONTINUOUS
100
AcDbLine
 10
249.9999899999984
 20
0.0000000000063665
 30
0.0
 11
268.6115689183643
 21
58.96445059461166
 31
0.0
  0
LINE
  5
E90C
330
18
100
AcDbEntity
  8
NOTE
  6
CONTINUOUS
100
AcDbLine
 10
0.0
 20
36.0
 30
0.0
 11
0.0
 21
-36.0
 31
0.0
  0
CIRCLE
  5
E90D
330
18
100
AcDbEntity
  8
FIX
  6
CONTINUOUS
100
AcDbCircle
 10
0.0
 20
0.0
 30
0.0
 40
8.0
  0
POINT
  5
E90E
330
18
100
AcDbEntity
  8
ARRANGE
  6
CONTINUOUS
100
AcDbPoint
 10
0.0
 20
-0.0000000000009095
 30
0.0
  0
LINE
  5
E90F
330
18
100
AcDbEntity
  8
DETAIL
  6
CONTINUOUS
100
AcDbLine
 10
279.6000000000094
 20
-35.27783000000454
 30
0.0
 11
279.6000000000094
 21
-23.88227999999799
 31
0.0
  0
LINE
  5
E910
330
18
100
AcDbEntity
  8
DETAIL
  6
CONTINUOUS
100
AcDbLine
 10
270.9000000000014
 20
-41.8496800000048
 30
0.0
 11
270.9000000000014
 21
-23.88227999999799
 31
0.0
  0
LINE
  5
E911
330
18
100
AcDbEntity
  8
DETAIL
  6
CONTINUOUS
100
AcDbLine
 10
274.0999999999985
 20
-23.88227999999799
 30
0.0
 11
274.0999999999985
 21
-36.67226999999911
 31
0.0
  0
LINE
  5
E912
330
18
100
AcDbEntity
  8
DETAIL
  6
CONTINUOUS
100
AcDbLine
 10
274.0999999999985
 20
-29.0281700000014
 30
0.0
 11
279.6000000000094
 21
-29.0281700000014
 31
0.0
  0
LINE
  5
E913
330
18
100
AcDbEntity
  8
DETAIL
  6
CONTINUOUS
100
AcDbLine
 10
274.0999999999985
 20
-32.78095000000575
 30
0.0
 11
279.6000000000094
 21
-32.78095000000575
 31
0.0
  0
LINE
  5
E914
330
18
100
AcDbEntity
  8
DETAIL
  6
CONTINUOUS
100
AcDbLine
 10
274.0999999999985
 20
-35.27783000000454
 30
0.0
 11
279.6000000000094
 21
-35.27783000000454
 31
0.0
  0
LINE
  5
E915
330
18
100
AcDbEntity
  8
DETAIL
  6
CONTINUOUS
100
AcDbLine
 10
272.5
 20
-34.17539000000033
 30
0.0
 11
274.0999999999985
 21
-34.17539000000033
 31
0.0
  0
LINE
  5
E916
330
18
100
AcDbEntity
  8
DETAIL
  6
CONTINUOUS
100
AcDbLine
 10
272.5
 20
-36.67226999999911
 30
0.0
 11
274.0999999999985
 21
-36.67226999999911
 31
0.0
  0
LINE
  5
E917
330
18
100
AcDbEntity
  8
DETAIL
  6
CONTINUOUS
100
AcDbLine
 10
268.700000000008
 20
-23.88227999999799
 30
0.0
 11
268.700000000008
 21
-36.47227000000384
 31
0.0
  0
LINE
  5
E918
330
18
100
AcDbEntity
  8
DETAIL
  6
CONTINUOUS
100
AcDbLine
 10
271.0000000000036
 20
-23.88227999999799
 30
0.0
 11
271.0000000000036
 21
-38.77226999999948
 31
0.0
  0
LINE
  5
E919
330
18
100
AcDbEntity
  8
DETAIL
  6
CONTINUOUS
100
AcDbLine
 10
246.0000000000036
 20
-29.70803000000159
 30
0.0
 11
246.0000000000036
 21
-23.88227999999799
 31
0.0
  0
LINE
  5
E91A
330
18
100
AcDbEntity
  8
DETAIL
  6
CONTINUOUS
100
AcDbLine
 10
253.9999999999963
 20
-29.70803000000159
 30
0.0
 11
253.9999999999963
 21
-23.88227999999799
 31
0.0
  0
LINE
  5
E91F
330
18
100
AcDbEntity
  8
DETAIL
  6
CONTINUOUS
100
AcDbLine
 10
246.0000000000036
 20
-29.70803000000159
 30
0.0
 11
253.9999999999963
 21
-29.70803000000159
 31
0.0
  0
LINE
  5
E920
330
18
100
AcDbEntity
  8
DETAIL
  6
CONTINUOUS
100
AcDbLine
 10
246.0000000000036
 20
-36.47227000000384
 30
0.0
 11
246.0000000000036
 21
-29.70803000000159
 31
0.0
  0
LINE
  5
E921
330
18
100
AcDbEntity
  8
DETAIL
  6
CONTINUOUS
100
AcDbLine
 10
253.9999999999963
 20
-29.70803000000159
 30
0.0
 11
257.0000000000072
 21
-30.25144000000182
 31
0.0
  0
LINE
  5
E922
330
18
100
AcDbEntity
  8
DETAIL
  6
CONTINUOUS
100
AcDbLine
 10
253.9999999999963
 20
-29.70803000000159
 30
0.0
 11
253.9999999999963
 21
-36.47227000000384
 31
0.0
  0
LINE
  5
E923
330
18
100
AcDbEntity
  8
DETAIL
  6
CONTINUOUS
100
AcDbLine
 10
257.0000000000072
 20
-34.9319000000014
 30
0.0
 11
257.0000000000072
 21
-30.25144000000182
 31
0.0
  0
LINE
  5
E924
330
18
100
AcDbEntity
  8
DETAIL
  6
CONTINUOUS
100
AcDbLine
 10
258.6200400000052
 20
-36.47227000000384
 30
0.0
 11
257.0000000000072
 21
-34.9319000000014
 31
0.0
  0
LINE
  5
E925
330
18
100
AcDbEntity
  8
DETAIL
  6
CONTINUOUS
100
AcDbLine
 10
257.0000000000072
 20
-34.9319000000014
 30
0.0
 11
255.1818000000094
 21
-34.9319000000014
 31
0.0
  0
LINE
  5
E926
330
18
100
AcDbEntity
  8
DETAIL
  6
CONTINUOUS
100
AcDbLine
 10
255.1818000000094
 20
-34.9319000000014
 30
0.0
 11
256.8018499999925
 21
-36.47227000000384
 31
0.0
  0
LINE
  5
E928
330
18
100
AcDbEntity
  8
DETAIL
  6
CONTINUOUS
100
AcDbLine
 10
229.0999999999985
 20
-41.8496800000048
 30
0.0
 11
229.0999999999985
 21
-23.88227999999799
 31
0.0
  0
LINE
  5
E92B
330
18
100
AcDbEntity
  8
DETAIL
  6
CONTINUOUS
100
AcDbLine
 10
225.9596199999941
 20
-32.95718999999735
 30
0.0
 11
227.4999999999999
 21
-34.57723999999871
 31
0.0
  0
LINE
  5
E92C
330
18
100
AcDbEntity
  8
DETAIL
  6
CONTINUOUS
100
AcDbLine
 10
225.9596199999941
 20
-34.77539000000433
 30
0.0
 11
225.9596199999941
 21
-32.95718999999735
 31
0.0
  0
LINE
  5
E92D
330
18
100
AcDbEntity
  8
DETAIL
  6
CONTINUOUS
100
AcDbLine
 10
227.4999999999999
 20
-36.39544000000569
 30
0.0
 11
225.9596199999941
 21
-34.77539000000433
 31
0.0
  0
LINE
  5
E92E
330
18
100
AcDbEntity
  8
DETAIL
  6
CONTINUOUS
100
AcDbLine
 10
225.9596199999941
 20
-30.45718999999735
 30
0.0
 11
227.4999999999999
 21
-32.07723999999871
 31
0.0
  0
LINE
  5
E92F
330
18
100
AcDbEntity
  8
DETAIL
  6
CONTINUOUS
100
AcDbLine
 10
225.9596199999941
 20
-32.27539000000433
 30
0.0
 11
225.9596199999941
 21
-30.45718999999735
 31
0.0
  0
LINE
  5
E930
330
18
100
AcDbEntity
  8
DETAIL
  6
CONTINUOUS
100
AcDbLine
 10
227.4999999999999
 20
-33.89544000000569
 30
0.0
 11
225.9596199999941
 21
-32.27539000000433
 31
0.0
  0
LINE
  5
E931
330
18
100
AcDbEntity
  8
DETAIL
  6
CONTINUOUS
100
AcDbLine
 10
241.3799500000095
 20
-36.47227000000384
 30
0.0
 11
242.9999999999927
 21
-34.9319000000014
 31
0.0
  0
LINE
  5
E932
330
18
100
AcDbEntity
  8
DETAIL
  6
CONTINUOUS
100
AcDbLine
 10
242.9999999999927
 20
-34.9319000000014
 30
0.0
 11
242.9999999999927
 21
-30.24556000000302
 31
0.0
  0
LINE
  5
E936
330
18
100
AcDbEntity
  8
DETAIL
  6
CONTINUOUS
100
AcDbLine
 10
246.0000000000036
 20
-29.70803000000159
 30
0.0
 11
242.9999999999927
 21
-30.24556000000302
 31
0.0
  0
LINE
  5
E937
330
18
100
AcDbEntity
  8
DETAIL
  6
CONTINUOUS
100
AcDbLine
 10
242.9999999999927
 20
-34.9319000000014
 30
0.0
 11
244.8181900000054
 21
-34.9319000000014
 31
0.0
  0
LINE
  5
E938
330
18
100
AcDbEntity
  8
DETAIL
  6
CONTINUOUS
100
AcDbLine
 10
244.8181900000054
 20
-34.9319000000014
 30
0.0
 11
243.198140000004
 21
-36.47227000000384
 31
0.0
  0
LINE
  5
E939
330
18
100
AcDbEntity
  8
DETAIL
  6
CONTINUOUS
100
AcDbLine
 10
228.9999999999963
 20
-38.77226999999948
 30
0.0
 11
228.9999999999963
 21
-23.88227999999799
 31
0.0
  0
LINE
  5
E93A
330
18
100
AcDbEntity
  8
DETAIL
  6
CONTINUOUS
100
AcDbLine
 10
231.299999999992
 20
-36.47227000000384
 30
0.0
 11
231.299999999992
 21
-23.88227999999799
 31
0.0
  0
LINE
  5
E93C
330
18
100
AcDbEntity
  8
DETAIL
  6
CONTINUOUS
100
AcDbLine
 10
231.299999999992
 20
-23.88227999999799
 30
0.0
 11
268.700000000008
 21
-23.88227999999799
 31
0.0
  0
LINE
  5
E93D
330
18
100
AcDbEntity
  8
DETAIL
  6
CONTINUOUS
100
AcDbLine
 10
228.9999999999963
 20
-38.77226999999948
 30
0.0
 11
271.0000000000036
 21
-38.77226999999948
 31
0.0
  0
LINE
  5
E93E
330
18
100
AcDbEntity
  8
DETAIL
  6
CONTINUOUS
100
AcDbLine
 10
231.299999999992
 20
-36.47227000000384
 30
0.0
 11
268.700000000008
 21
-36.47227000000384
 31
0.0
  0
LINE
  5
E941
330
18
100
AcDbEntity
  8
DETAIL
  6
CONTINUOUS
100
AcDbLine
 10
220.7357600000068
 20
-31.77539000000251
 30
0.0
 11
220.7357600000068
 21
-23.88227999999799
 31
0.0
  0
LINE
  5
E942
330
18
100
AcDbEntity
  8
DETAIL
  6
CONTINUOUS
100
AcDbLine
 10
219.0999999999985
 20
-23.88227999999799
 30
0.0
 11
219.0999999999985
 21
-31.77227000000129
 31
0.0
  0
LINE
  5
E943
330
18
100
AcDbEntity
  8
DETAIL
  6
CONTINUOUS
100
AcDbLine
 10
220.7357600000068
 20
-31.77539000000251
 30
0.0
 11
221.2732800000048
 21
-34.77539000000433
 31
0.0
  0
LINE
  5
E944
330
18
100
AcDbEntity
  8
DETAIL
  6
CONTINUOUS
100
AcDbLine
 10
220.7357600000068
 20
-29.27539000000251
 30
0.0
 11
221.2732800000048
 21
-32.27539000000433
 31
0.0
  0
LINE
  5
E945
330
18
100
AcDbEntity
  8
DETAIL
  6
CONTINUOUS
100
AcDbLine
 10
221.183689999998
 20
-31.77539000000251
 30
0.0
 11
220.7357600000068
 21
-31.77539000000251
 31
0.0
  0
LINE
  5
E946
330
18
100
AcDbEntity
  8
DETAIL
  6
CONTINUOUS
100
AcDbLine
 10
220.7357600000068
 20
-29.27539000000251
 30
0.0
 11
219.0999999999985
 21
-29.27539000000251
 31
0.0
  0
LINE
  5
E947
330
18
100
AcDbEntity
  8
DETAIL
  6
CONTINUOUS
100
AcDbLine
 10
220.7357600000068
 20
-31.77227000000129
 30
0.0
 11
219.0999999999985
 21
-31.77227000000129
 31
0.0
  0
LINE
  5
E949
330
18
100
AcDbEntity
  8
DETAIL
  6
CONTINUOUS
100
AcDbLine
 10
225.9596199999941
 20
-34.77539000000433
 30
0.0
 11
221.2732800000048
 21
-34.77539000000433
 31
0.0
  0
LINE
  5
E94A
330
18
100
AcDbEntity
  8
DETAIL
  6
CONTINUOUS
100
AcDbLine
 10
225.9596199999941
 20
-32.27539000000433
 30
0.0
 11
221.2732800000048
 21
-32.27539000000433
 31
0.0
  0
LINE
  5
E94B
330
18
100
AcDbEntity
  8
DETAIL
  6
CONTINUOUS
100
AcDbLine
 10
227.4999999999999
 20
-29.27539000000251
 30
0.0
 11
220.7357600000068
 21
-29.27539000000251
 31
0.0
  0
LINE
  5
E94C
330
18
100
AcDbEntity
  8
BASIS
  6
CONTINUOUS
100
AcDbLine
 10
249.9999899999966
 20
18.82818100172426
 30
0.0
 11
249.9999899999966
 21
-32.79396814600568
 31
0.0
  0
LINE
  5
E94D
330
18
100
AcDbEntity
  8
NOTE
  6
CONTINUOUS
100
AcDbLine
 10
439.9999999999636
 20
-0.0000000000027285
 30
0.0
 11
487.6181760413674
 21
39.44244685929425
 31
0.0
  0
LINE
  5
E94E
330
18
100
AcDbEntity
  8
NOTE
  6
CONTINUOUS
100
AcDbLine
 10
439.9999999999818
 20
36.0
 30
0.0
 11
439.9999999999818
 21
-36.0
 31
0.0
  0
LINE
  5
E94F
330
18
100
AcDbEntity
  8
NOTE
  6
CONTINUOUS
100
AcDbLine
 10
439.9999999999636
 20
-0.0000000000045475
 30
0.0
 11
762.5320567316339
 21
150.6241312290821
 31
0.0
  0
LINE
  5
E952
330
18
100
AcDbEntity
  8
NOTE
  6
CONTINUOUS
100
AcDbLine
 10
439.9999999999672
 20
-0.0000000000027285
 30
0.0
 11
500.882323649108
 21
10.79536802699385
 31
0.0
  0
CIRCLE
  5
E953
330
18
100
AcDbEntity
  8
FIX
  6
CONTINUOUS
100
AcDbCircle
 10
439.9999999999818
 20
0.0
 30
0.0
 40
8.0
  0
LINE
  5
E954
330
18
100
AcDbEntity
  8
DETAIL
  6
CONTINUOUS
100
AcDbLine
 10
500.0
 20
-21.29409000000123
 30
0.0
 11
500.0
 21
0.0
 31
0.0
  0
ELLIPSE
  5
E956
330
18
100
AcDbEntity
  8
DETAIL
  6
CONTINUOUS
100
AcDbEllipse
 10
490.0000000000018
 20
-21.29409000000396
 30
0.0
 11
10.0
 21
0.0
 31
0.0
210
0.0
220
0.0
230
1.0
 40
0.258819
 41
4.712388980384688
 42
6.283185307179585
  0
TEXT
  5
E958
330
18
100
AcDbEntity
  8
ETC
  6
CONTINUOUS
100
AcDbText
 10
492.1251522062357
 20
587.4641302506379
 30
0.0
 40
48.0
  1
SMAC4546
 41
0.9
100
AcDbText
  0
TEXT
  5
E959
330
18
100
AcDbEntity
  8
NOTE
  6
CONTINUOUS
100
AcDbText
 10
842.3459445627667
 20
88.62347935073557
 30
0.0
 40
50.0
  1
アンカ－穴
 41
0.9
100
AcDbText
  0
TEXT
  5
E95A
330
18
100
AcDbEntity
  8
NOTE
  6
CONTINUOUS
100
AcDbText
 10
-197.9903545863726
 20
-597.6508551742745
 30
0.0
 40
50.0
  1
ユニット足寸法
 41
0.9
100
AcDbText
  0
LINE
  5
EA6C
330
18
100
AcDbEntity
  8
DETAIL
  6
DASHED2
100
AcDbLine
 10
270.9000000000014
 20
-41.8496800000048
 30
0.0
 11
270.9000000000051
 21
-423.0
 31
0.0
  0
LINE
  5
EA6D
330
18
100
AcDbEntity
  8
DETAIL
  6
DASHED2
100
AcDbLine
 10
-229.0999899999951
 20
-41.8496800000048
 30
0.0
 11
-229.0999899999915
 21
-423.0
 31
0.0
  0
LINE
  5
EA6E
330
18
100
AcDbEntity
  8
DETAIL
  6
DASHED2
100
AcDbLine
 10
-270.899989999998
 20
-41.8496800000048
 30
0.0
 11
-270.899989999998
 21
-423.0
 31
0.0
  0
LINE
  5
F1F9
330
18
100
AcDbEntity
  8
SIZE
100
AcDbLine
 10
-520.0
 20
0.0000000000000057
 30
0.0
 11
-683.7963933214868
 21
0.0000000000000521
 31
0.0
  0
LINE
  5
F1FA
330
18
100
AcDbEntity
  8
SIZE
100
AcDbLine
 10
-292.5
 20
-423.0
 30
0.0
 11
-683.7963933214869
 21
-422.9999999999998
 31
0.0
  0
LINE
  5
F1FB
330
18
100
AcDbEntity
  8
SIZE
100
AcDbLine
 10
-653.7963933214868
 20
-11.99999999999995
 30
0.0
 11
-653.7963933214869
 21
-410.9999999999998
 31
0.0
  0
LINE
  5
F1FF
330
18
100
AcDbEntity
  8
SIZE
100
AcDbLine
 10
520.0
 20
-0.0000000000000057
 30
0.0
 11
635.6938781036642
 21
-0.0000000000000384
 31
0.0
  0
LINE
  5
F200
330
18
100
AcDbEntity
  8
SIZE
100
AcDbLine
 10
510.0000000000018
 20
-23.88228000000436
 30
0.0
 11
635.6938781036642
 21
-23.88228000000439
 31
0.0
  0
LINE
  5
F201
330
18
100
AcDbEntity
  8
SIZE
100
AcDbLine
 10
605.6938781036642
 20
11.99999999999997
 30
0.0
 11
605.6938781036642
 21
23.99999999999996
 31
0.0
  0
LINE
  5
F202
330
18
100
AcDbEntity
  8
SIZE
100
AcDbLine
 10
605.6938781036642
 20
-35.88228000000439
 30
0.0
 11
605.6938781036642
 21
-162.8822800000043
 31
0.0
  0
LINE
  5
F203
330
18
100
AcDbEntity
  8
SIZE
100
AcDbLine
 10
605.6938781036642
 20
-0.0000000000000299
 30
0.0
 11
605.6938781036642
 21
-23.88228000000438
 31
0.0
  0
LINE
  5
F207
330
18
100
AcDbEntity
  8
SIZE
100
AcDbLine
 10
-250.0000399999953
 20
-490.7710036734506
 30
0.0
 11
-250.0000399999954
 21
-718.4141168468386
 31
0.0
  0
LINE
  5
F208
330
18
100
AcDbEntity
  8
SIZE
100
AcDbLine
 10
249.9999899999966
 20
-500.1874550599905
 30
0.0
 11
249.9999899999965
 21
-718.4141168468386
 31
0.0
  0
LINE
  5
F209
330
18
100
AcDbEntity
  8
SIZE
100
AcDbLine
 10
-238.0000399999953
 20
-688.4141168468386
 30
0.0
 11
237.9999899999966
 21
-688.4141168468386
 31
0.0
  0
LINE
  5
F20D
330
18
100
AcDbEntity
  8
SIZE
100
AcDbLine
 10
-272.5
 20
-443.0
 30
0.0
 11
-272.5
 21
-525.7038357810388
 31
0.0
  0
LINE
  5
F20E
330
18
100
AcDbEntity
  8
SIZE
100
AcDbLine
 10
-227.4999999999999
 20
-442.999999999999
 30
0.0
 11
-227.4999999999999
 21
-525.7038357810388
 31
0.0
  0
LINE
  5
F20F
330
18
100
AcDbEntity
  8
SIZE
100
AcDbLine
 10
-284.5
 20
-495.7038357810388
 30
0.0
 11
-296.4999999999999
 21
-495.7038357810388
 31
0.0
  0
LINE
  5
F210
330
18
100
AcDbEntity
  8
SIZE
100
AcDbLine
 10
-215.5
 20
-495.7038357810388
 30
0.0
 11
-90.64285714285716
 21
-495.7038357810388
 31
0.0
  0
LINE
  5
F211
330
18
100
AcDbEntity
  8
SIZE
100
AcDbLine
 10
-272.5
 20
-495.7038357810388
 30
0.0
 11
-227.4999999999999
 21
-495.7038357810388
 31
0.0
  0
LINE
  5
F215
330
18
100
AcDbEntity
  8
SIZE
100
AcDbLine
 10
-270.0000399999953
 20
-79.4388988779292
 30
0.0
 11
-432.386384576328
 21
-79.43889887792915
 31
0.0
  0
LINE
  5
F216
330
18
100
AcDbEntity
  8
SIZE
100
AcDbLine
 10
-270.0000399999952
 20
-379.4388988779292
 30
0.0
 11
-432.386384576328
 21
-379.4388988779291
 31
0.0
  0
LINE
  5
F217
330
18
100
AcDbEntity
  8
SIZE
100
AcDbLine
 10
-402.386384576328
 20
-91.43889887792916
 30
0.0
 11
-402.3863845763281
 21
-367.4388988779291
 31
0.0
  0
LINE
  5
F21B
330
18
100
AcDbEntity
  8
SIZE
100
AcDbLine
 10
227.4999999999999
 20
-442.999999999999
 30
0.0
 11
227.4999999999999
 21
-521.8287286059539
 31
0.0
  0
LINE
  5
F21C
330
18
100
AcDbEntity
  8
SIZE
100
AcDbLine
 10
272.5000000000018
 20
-443.0
 30
0.0
 11
272.5000000000018
 21
-521.8287286059539
 31
0.0
  0
LINE
  5
F21D
330
18
100
AcDbEntity
  8
SIZE
100
AcDbLine
 10
215.5
 20
-491.8287286059539
 30
0.0
 11
203.5
 21
-491.8287286059539
 31
0.0
  0
LINE
  5
F21E
330
18
100
AcDbEntity
  8
SIZE
100
AcDbLine
 10
284.5000000000018
 20
-491.8287286059539
 30
0.0
 11
409.3571428571446
 21
-491.8287286059539
 31
0.0
  0
LINE
  5
F21F
330
18
100
AcDbEntity
  8
SIZE
100
AcDbLine
 10
227.4999999999999
 20
-491.8287286059539
 30
0.0
 11
272.5000000000018
 21
-491.8287286059539
 31
0.0
  0
LINE
  5
F223
330
18
100
AcDbEntity
  8
SIZE
100
AcDbLine
 10
0.0000000000000012
 20
56.0
 30
0.0
 11
0.0000000000000059
 21
132.9506187419237
 31
0.0
  0
LINE
  5
F224
330
18
100
AcDbEntity
  8
SIZE
100
AcDbLine
 10
-440.0
 20
56.0
 30
0.0
 11
-440.0
 21
132.9506187419237
 31
0.0
  0
LINE
  5
F225
330
18
100
AcDbEntity
  8
SIZE
100
AcDbLine
 10
-11.99999999999999
 20
102.9506187419237
 30
0.0
 11
-428.0
 21
102.9506187419237
 31
0.0
  0
LINE
  5
F229
330
18
100
AcDbEntity
  8
SIZE
100
AcDbLine
 10
-500.0
 20
20.0
 30
0.0
 11
-500.0
 21
354.4793562605909
 31
0.0
  0
LINE
  5
F22A
330
18
100
AcDbEntity
  8
SIZE
100
AcDbLine
 10
500.0
 20
20.0
 30
0.0
 11
500.0
 21
354.4793562605909
 31
0.0
  0
LINE
  5
F22B
330
18
100
AcDbEntity
  8
SIZE
100
AcDbLine
 10
-488.0
 20
324.4793562605909
 30
0.0
 11
488.0
 21
324.4793562605909
 31
0.0
  0
LINE
  5
F22F
330
18
100
AcDbEntity
  8
SIZE
100
AcDbLine
 10
249.9999899999966
 20
38.82818100172426
 30
0.0
 11
249.9999899999966
 21
256.9682964662561
 31
0.0
  0
LINE
  5
F230
330
18
100
AcDbEntity
  8
SIZE
100
AcDbLine
 10
-250.0000399999953
 20
36.21046321613812
 30
0.0
 11
-250.0000399999953
 21
256.9682964662561
 31
0.0
  0
LINE
  5
F231
330
18
100
AcDbEntity
  8
SIZE
100
AcDbLine
 10
237.9999899999966
 20
226.968296466256
 30
0.0
 11
-238.0000399999953
 21
226.968296466256
 31
0.0
  0
LINE
  5
F235
330
18
100
AcDbEntity
  8
SIZE
100
AcDbLine
 10
-440.0
 20
56.0
 30
0.0
 11
-440.0
 21
132.9506187419237
 31
0.0
  0
LINE
  5
F236
330
18
100
AcDbEntity
  8
SIZE
100
AcDbLine
 10
-500.0
 20
20.0
 30
0.0
 11
-500.0
 21
132.9506187419237
 31
0.0
  0
LINE
  5
F237
330
18
100
AcDbEntity
  8
SIZE
100
AcDbLine
 10
-428.0
 20
102.9506187419237
 30
0.0
 11
-416.0
 21
102.9506187419237
 31
0.0
  0
LINE
  5
F238
330
18
100
AcDbEntity
  8
SIZE
100
AcDbLine
 10
-512.0
 20
102.9506187419237
 30
0.0
 11
-636.8571428571429
 21
102.9506187419237
 31
0.0
  0
LINE
  5
F239
330
18
100
AcDbEntity
  8
SIZE
100
AcDbLine
 10
-440.0
 20
102.9506187419237
 30
0.0
 11
-500.0
 21
102.9506187419237
 31
0.0
  0
LINE
  5
F23D
330
18
100
AcDbEntity
  8
SIZE
100
AcDbLine
 10
439.9999999999818
 20
56.0
 30
0.0
 11
439.9999999999818
 21
132.9506187419237
 31
0.0
  0
LINE
  5
F23E
330
18
100
AcDbEntity
  8
SIZE
100
AcDbLine
 10
500.0
 20
20.0
 30
0.0
 11
500.0
 21
132.9506187419237
 31
0.0
  0
LINE
  5
F23F
330
18
100
AcDbEntity
  8
SIZE
100
AcDbLine
 10
427.9999999999818
 20
102.9506187419237
 30
0.0
 11
415.9999999999818
 21
102.9506187419237
 31
0.0
  0
LINE
  5
F240
330
18
100
AcDbEntity
  8
SIZE
100
AcDbLine
 10
512.0
 20
102.9506187419237
 30
0.0
 11
636.8571428571429
 21
102.9506187419237
 31
0.0
  0
LINE
  5
F241
330
18
100
AcDbEntity
  8
SIZE
100
AcDbLine
 10
439.9999999999818
 20
102.9506187419237
 30
0.0
 11
500.0
 21
102.9506187419237
 31
0.0
  0
LINE
  5
F245
330
18
100
AcDbEntity
  8
SIZE
100
AcDbLine
 10
0.0000000000000012
 20
58.70859980156001
 30
0.0
 11
0.0000000000000058
 21
132.9506187419237
 31
0.0
  0
LINE
  5
F246
330
18
100
AcDbEntity
  8
SIZE
100
AcDbLine
 10
439.9999999999818
 20
56.0
 30
0.0
 11
439.9999999999818
 21
132.9506187419237
 31
0.0
  0
LINE
  5
F247
330
18
100
AcDbEntity
  8
SIZE
100
AcDbLine
 10
12.0
 20
102.9506187419237
 30
0.0
 11
427.9999999999818
 21
102.9506187419237
 31
0.0
  0
TEXT
  5
F24B
330
18
100
AcDbEntity
  8
SIZE
100
AcDbText
 10
-149.1428821428565
 20
-668.4141168468386
 30
0.0
 40
50.0
  1
325～890
 41
0.9
100
AcDbText
  0
CIRCLE
  5
F24C
330
18
100
AcDbEntity
  8
SIZE
100
AcDbCircle
 10
-653.7963933214869
 20
-422.9999999999998
 30
0.0
 40
6.0
  0
LINE
  5
F24D
330
18
100
AcDbEntity
  8
SIZE
100
AcDbLine
 10
-653.7963933214869
 20
-422.9999999999998
 30
0.0
 11
-653.7963933214869
 21
-410.9999999999998
 31
0.0
  0
TEXT
  5
F24E
330
18
100
AcDbEntity
  8
SIZE
100
AcDbText
 10
-673.7963933214867
 20
-269.3571428571428
 30
0.0
 40
50.0
  1
423
 50
90.0
 41
0.9
100
AcDbText
  0
CIRCLE
  5
F24F
330
18
100
AcDbEntity
  8
SIZE
100
AcDbCircle
 10
-250.0000399999953
 20
-688.4141168468386
 30
0.0
 40
6.0
  0
LINE
  5
F250
330
18
100
AcDbEntity
  8
SIZE
100
AcDbLine
 10
-250.0000399999953
 20
-688.4141168468386
 30
0.0
 11
-238.0000399999953
 21
-688.4141168468386
 31
0.0
  0
CIRCLE
  5
F251
330
18
100
AcDbEntity
  8
SIZE
100
AcDbCircle
 10
-227.4999999999999
 20
-495.7038357810388
 30
0.0
 40
6.0
  0
LINE
  5
F252
330
18
100
AcDbEntity
  8
SIZE
100
AcDbLine
 10
-227.4999999999999
 20
-495.7038357810388
 30
0.0
 11
-215.5
 21
-495.7038357810388
 31
0.0
  0
CIRCLE
  5
F253
330
18
100
AcDbEntity
  8
SIZE
100
AcDbCircle
 10
-272.5
 20
-495.7038357810388
 30
0.0
 40
6.0
  0
LINE
  5
F254
330
18
100
AcDbEntity
  8
SIZE
100
AcDbLine
 10
-272.5
 20
-495.7038357810388
 30
0.0
 11
-284.5
 21
-495.7038357810388
 31
0.0
  0
TEXT
  5
F255
330
18
100
AcDbEntity
  8
SIZE
100
AcDbText
 10
-183.4999999999999
 20
-475.7038357810388
 30
0.0
 40
50.0
  1
45
 41
0.9
100
AcDbText
  0
TEXT
  5
F256
330
18
100
AcDbEntity
  8
SIZE
100
AcDbText
 10
-422.386384576328
 20
-374.2960417350721
 30
0.0
 40
50.0
  1
170～365
 50
90.0
 41
0.9
100
AcDbText
  0
CIRCLE
  5
F257
330
18
100
AcDbEntity
  8
SIZE
100
AcDbCircle
 10
-402.3863845763281
 20
-379.4388988779291
 30
0.0
 40
6.0
  0
LINE
  5
F258
330
18
100
AcDbEntity
  8
SIZE
100
AcDbLine
 10
-402.3863845763281
 20
-379.4388988779291
 30
0.0
 11
-402.3863845763281
 21
-367.4388988779291
 31
0.0
  0
CIRCLE
  5
F259
330
18
100
AcDbEntity
  8
SIZE
100
AcDbCircle
 10
-402.386384576328
 20
-79.43889887792916
 30
0.0
 40
6.0
  0
LINE
  5
F25A
330
18
100
AcDbEntity
  8
SIZE
100
AcDbLine
 10
-402.386384576328
 20
-79.43889887792916
 30
0.0
 11
-402.386384576328
 21
-91.43889887792916
 31
0.0
  0
CIRCLE
  5
F25B
330
18
100
AcDbEntity
  8
SIZE
100
AcDbCircle
 10
227.4999999999999
 20
-491.8287286059539
 30
0.0
 40
6.0
  0
LINE
  5
F25C
330
18
100
AcDbEntity
  8
SIZE
100
AcDbLine
 10
227.4999999999999
 20
-491.8287286059539
 30
0.0
 11
215.5
 21
-491.8287286059539
 31
0.0
  0
CIRCLE
  5
F25D
330
18
100
AcDbEntity
  8
SIZE
100
AcDbCircle
 10
249.9999899999966
 20
-688.4141168468386
 30
0.0
 40
6.0
  0
LINE
  5
F25E
330
18
100
AcDbEntity
  8
SIZE
100
AcDbLine
 10
249.9999899999966
 20
-688.4141168468386
 30
0.0
 11
237.9999899999966
 21
-688.4141168468386
 31
0.0
  0
TEXT
  5
F25F
330
18
100
AcDbEntity
  8
SIZE
100
AcDbText
 10
316.5000000000018
 20
-471.8287286059539
 30
0.0
 40
50.0
  1
45
 41
0.9
100
AcDbText
  0
CIRCLE
  5
F260
330
18
100
AcDbEntity
  8
SIZE
100
AcDbCircle
 10
272.5000000000018
 20
-491.8287286059539
 30
0.0
 40
6.0
  0
LINE
  5
F261
330
18
100
AcDbEntity
  8
SIZE
100
AcDbLine
 10
272.5000000000018
 20
-491.8287286059539
 30
0.0
 11
284.5000000000018
 21
-491.8287286059539
 31
0.0
  0
TEXT
  5
F262
330
18
100
AcDbEntity
  8
SIZE
100
AcDbText
 10
585.6938781036642
 20
-142.8822800000043
 30
0.0
 40
50.0
  1
24
 50
90.0
 41
0.9
100
AcDbText
  0
TEXT
  5
F263
330
18
100
AcDbEntity
  8
SIZE
100
AcDbText
 10
-60.00433700095864
 20
246.9682964662561
 30
0.0
 40
50.0
  1
500
 41
0.9
100
AcDbText
  0
TEXT
  5
F264
330
18
100
AcDbEntity
  8
SIZE
100
AcDbText
 10
-73.46659650861147
 20
344.4793562605909
 30
0.0
 40
50.0
  1
1000
 41
0.9
100
AcDbText
  0
CIRCLE
  5
F265
330
18
100
AcDbEntity
  8
SIZE
100
AcDbCircle
 10
-653.7963933214868
 20
0.0000000000000436
 30
0.0
 40
6.0
  0
LINE
  5
F266
330
18
100
AcDbEntity
  8
SIZE
100
AcDbLine
 10
-653.7963933214868
 20
0.0000000000000436
 30
0.0
 11
-653.7963933214868
 21
-11.99999999999995
 31
0.0
  0
CIRCLE
  5
F267
330
18
100
AcDbEntity
  8
SIZE
100
AcDbCircle
 10
-500.0
 20
324.4793562605909
 30
0.0
 40
6.0
  0
LINE
  5
F268
330
18
100
AcDbEntity
  8
SIZE
100
AcDbLine
 10
-500.0
 20
324.4793562605909
 30
0.0
 11
-488.0
 21
324.4793562605909
 31
0.0
  0
TEXT
  5
F269
330
18
100
AcDbEntity
  8
SIZE
100
AcDbText
 10
-616.8571428571429
 20
122.9506187419237
 30
0.0
 40
50.0
  1
60
 41
0.9
100
AcDbText
  0
CIRCLE
  5
F26A
330
18
100
AcDbEntity
  8
SIZE
100
AcDbCircle
 10
-500.0
 20
102.9506187419237
 30
0.0
 40
6.0
  0
LINE
  5
F26B
330
18
100
AcDbEntity
  8
SIZE
100
AcDbLine
 10
-500.0
 20
102.9506187419237
 30
0.0
 11
-512.0
 21
102.9506187419237
 31
0.0
  0
CIRCLE
  5
F26C
330
18
100
AcDbEntity
  8
SIZE
100
AcDbCircle
 10
-440.0
 20
102.9506187419237
 30
0.0
 40
6.0
  0
LINE
  5
F26D
330
18
100
AcDbEntity
  8
SIZE
100
AcDbLine
 10
-440.0
 20
102.9506187419237
 30
0.0
 11
-428.0
 21
102.9506187419237
 31
0.0
  0
CIRCLE
  5
F26E
330
18
100
AcDbEntity
  8
SIZE
100
AcDbCircle
 10
-440.0
 20
102.9506187419237
 30
0.0
 40
6.0
  0
LINE
  5
F26F
330
18
100
AcDbEntity
  8
SIZE
100
AcDbLine
 10
-440.0
 20
102.9506187419237
 30
0.0
 11
-428.0
 21
102.9506187419237
 31
0.0
  0
TEXT
  5
F270
330
18
100
AcDbEntity
  8
SIZE
100
AcDbText
 10
-277.8571428571428
 20
122.9506187419237
 30
0.0
 40
50.0
  1
440
 41
0.9
100
AcDbText
  0
CIRCLE
  5
F271
330
18
100
AcDbEntity
  8
SIZE
100
AcDbCircle
 10
-250.0000399999953
 20
226.968296466256
 30
0.0
 40
6.0
  0
LINE
  5
F272
330
18
100
AcDbEntity
  8
SIZE
100
AcDbLine
 10
-250.0000399999953
 20
226.968296466256
 30
0.0
 11
-238.0000399999953
 21
226.968296466256
 31
0.0
  0
CIRCLE
  5
F273
330
18
100
AcDbEntity
  8
SIZE
100
AcDbCircle
 10
500.0
 20
324.4793562605909
 30
0.0
 40
6.0
  0
LINE
  5
F274
330
18
100
AcDbEntity
  8
SIZE
100
AcDbLine
 10
500.0
 20
324.4793562605909
 30
0.0
 11
488.0
 21
324.4793562605909
 31
0.0
  0
TEXT
  5
F275
330
18
100
AcDbEntity
  8
SIZE
100
AcDbText
 10
162.142857142848
 20
122.9506187419237
 30
0.0
 40
50.0
  1
440
 41
0.9
100
AcDbText
  0
CIRCLE
  5
F276
330
18
100
AcDbEntity
  8
SIZE
100
AcDbCircle
 10
0.0000000000000039
 20
102.9506187419237
 30
0.0
 40
6.0
  0
LINE
  5
F277
330
18
100
AcDbEntity
  8
SIZE
100
AcDbLine
 10
0.0000000000000039
 20
102.9506187419237
 30
0.0
 11
12.0
 21
102.9506187419237
 31
0.0
  0
CIRCLE
  5
F278
330
18
100
AcDbEntity
  8
SIZE
100
AcDbCircle
 10
0.0000000000000041
 20
102.9506187419237
 30
0.0
 40
6.0
  0
LINE
  5
F279
330
18
100
AcDbEntity
  8
SIZE
100
AcDbLine
 10
0.0000000000000041
 20
102.9506187419237
 30
0.0
 11
-11.99999999999999
 21
102.9506187419237
 31
0.0
  0
CIRCLE
  5
F27A
330
18
100
AcDbEntity
  8
SIZE
100
AcDbCircle
 10
439.9999999999818
 20
102.9506187419237
 30
0.0
 40
6.0
  0
LINE
  5
F27B
330
18
100
AcDbEntity
  8
SIZE
100
AcDbLine
 10
439.9999999999818
 20
102.9506187419237
 30
0.0
 11
427.9999999999818
 21
102.9506187419237
 31
0.0
  0
CIRCLE
  5
F27C
330
18
100
AcDbEntity
  8
SIZE
100
AcDbCircle
 10
439.9999999999818
 20
102.9506187419237
 30
0.0
 40
6.0
  0
LINE
  5
F27D
330
18
100
AcDbEntity
  8
SIZE
100
AcDbLine
 10
439.9999999999818
 20
102.9506187419237
 30
0.0
 11
427.9999999999818
 21
102.9506187419237
 31
0.0
  0
CIRCLE
  5
F27E
330
18
100
AcDbEntity
  8
SIZE
100
AcDbCircle
 10
500.0
 20
102.9506187419237
 30
0.0
 40
6.0
  0
LINE
  5
F27F
330
18
100
AcDbEntity
  8
SIZE
100
AcDbLine
 10
500.0
 20
102.9506187419237
 30
0.0
 11
512.0
 21
102.9506187419237
 31
0.0
  0
CIRCLE
  5
F280
330
18
100
AcDbEntity
  8
SIZE
100
AcDbCircle
 10
249.9999899999966
 20
226.968296466256
 30
0.0
 40
6.0
  0
LINE
  5
F281
330
18
100
AcDbEntity
  8
SIZE
100
AcDbLine
 10
249.9999899999966
 20
226.968296466256
 30
0.0
 11
237.9999899999966
 21
226.968296466256
 31
0.0
  0
TEXT
  5
F282
330
18
100
AcDbEntity
  8
SIZE
100
AcDbText
 10
544.0
 20
122.9506187419237
 30
0.0
 40
50.0
  1
60
 41
0.9
100
AcDbText
  0
CIRCLE
  5
F283
330
18
100
AcDbEntity
  8
SIZE
100
AcDbCircle
 10
605.6938781036642
 20
-23.88228000000438
 30
0.0
 40
6.0
  0
LINE
  5
F284
330
18
100
AcDbEntity
  8
SIZE
100
AcDbLine
 10
605.6938781036642
 20
-23.88228000000438
 30
0.0
 11
605.6938781036642
 21
-35.88228000000438
 31
0.0
  0
CIRCLE
  5
F285
330
18
100
AcDbEntity
  8
SIZE
100
AcDbCircle
 10
605.6938781036642
 20
-0.0000000000000299
 30
0.0
 40
6.0
  0
LINE
  5
F286
330
18
100
AcDbEntity
  8
SIZE
100
AcDbLine
 10
605.6938781036642
 20
-0.0000000000000299
 30
0.0
 11
605.6938781036642
 21
11.99999999999997
 31
0.0
  0
LINE
  5
F287
330
18
100
AcDbEntity
  8
OUTLINE
  6
CONTINUOUS
100
AcDbLine
 10
270.9000000000014
 20
-41.8496800000048
 30
0.0
 11
270.9000000000014
 21
-23.88227999999799
 31
0.0
  0
LINE
  5
F288
330
18
100
AcDbEntity
  8
OUTLINE
  6
CONTINUOUS
100
AcDbLine
 10
274.0999999999985
 20
-23.88227999999799
 30
0.0
 11
274.0999999999985
 21
-36.67226999999911
 31
0.0
  0
LINE
  5
F289
330
18
100
AcDbEntity
  8
OUTLINE
  6
CONTINUOUS
100
AcDbLine
 10
268.700000000008
 20
-23.88227999999799
 30
0.0
 11
268.700000000008
 21
-36.47227000000384
 31
0.0
  0
LINE
  5
F28A
330
18
100
AcDbEntity
  8
OUTLINE
  6
CONTINUOUS
100
AcDbLine
 10
271.0000000000036
 20
-23.88227999999799
 30
0.0
 11
271.0000000000036
 21
-38.77226999999948
 31
0.0
  0
LINE
  5
F28B
330
18
100
AcDbEntity
  8
OUTLINE
  6
CONTINUOUS
100
AcDbLine
 10
258.6200400000052
 20
-36.47227000000384
 30
0.0
 11
257.0000000000072
 21
-34.9319000000014
 31
0.0
  0
LINE
  5
F28C
330
18
100
AcDbEntity
  8
OUTLINE
  6
CONTINUOUS
100
AcDbLine
 10
246.0000000000036
 20
-36.47227000000384
 30
0.0
 11
246.0000000000036
 21
-29.70803000000159
 31
0.0
  0
LINE
  5
F28D
330
18
100
AcDbEntity
  8
OUTLINE
  6
CONTINUOUS
100
AcDbLine
 10
253.9999999999963
 20
-29.70803000000159
 30
0.0
 11
253.9999999999963
 21
-36.47227000000384
 31
0.0
  0
LINE
  5
F28E
330
18
100
AcDbEntity
  8
OUTLINE
  6
CONTINUOUS
100
AcDbLine
 10
229.0999999999985
 20
-41.8496800000048
 30
0.0
 11
229.0999999999985
 21
-23.88227999999799
 31
0.0
  0
LINE
  5
F28F
330
18
100
AcDbEntity
  8
OUTLINE
  6
CONTINUOUS
100
AcDbLine
 10
227.4999999999999
 20
-36.39544000000569
 30
0.0
 11
225.9596199999941
 21
-34.77539000000433
 31
0.0
  0
LINE
  5
F290
330
18
100
AcDbEntity
  8
OUTLINE
  6
CONTINUOUS
100
AcDbLine
 10
241.3799500000095
 20
-36.47227000000384
 30
0.0
 11
242.9999999999927
 21
-34.9319000000014
 31
0.0
  0
LINE
  5
F291
330
18
100
AcDbEntity
  8
OUTLINE
  6
CONTINUOUS
100
AcDbLine
 10
244.8181900000054
 20
-34.9319000000014
 30
0.0
 11
243.198140000004
 21
-36.47227000000384
 31
0.0
  0
LINE
  5
F292
330
18
100
AcDbEntity
  8
OUTLINE
  6
CONTINUOUS
100
AcDbLine
 10
228.9999999999963
 20
-38.77226999999948
 30
0.0
 11
228.9999999999963
 21
-23.88227999999799
 31
0.0
  0
LINE
  5
F293
330
18
100
AcDbEntity
  8
OUTLINE
  6
CONTINUOUS
100
AcDbLine
 10
231.299999999992
 20
-36.47227000000384
 30
0.0
 11
231.299999999992
 21
-23.88227999999799
 31
0.0
  0
LINE
  5
F294
330
18
100
AcDbEntity
  8
OUTLINE
  6
CONTINUOUS
100
AcDbLine
 10
255.1818000000094
 20
-34.9319000000014
 30
0.0
 11
256.8018499999925
 21
-36.47227000000384
 31
0.0
  0
LINE
  5
F295
330
18
100
AcDbEntity
  8
OUTLINE
  6
CONTINUOUS
100
AcDbLine
 10
-229.0999999999985
 20
-41.8496800000048
 30
0.0
 11
-229.0999999999985
 21
-23.88227999999799
 31
0.0
  0
LINE
  5
F296
330
18
100
AcDbEntity
  8
OUTLINE
  6
CONTINUOUS
100
AcDbLine
 10
-241.3799599999947
 20
-36.47227000000384
 30
0.0
 11
-242.9999999999927
 21
-34.9319000000014
 31
0.0
  0
LINE
  5
F297
330
18
100
AcDbEntity
  8
OUTLINE
  6
CONTINUOUS
100
AcDbLine
 10
-244.8181999999906
 20
-34.9319000000014
 30
0.0
 11
-243.1981500000074
 21
-36.47227000000384
 31
0.0
  0
LINE
  5
F298
330
18
100
AcDbEntity
  8
OUTLINE
  6
CONTINUOUS
100
AcDbLine
 10
-231.299999999992
 20
-23.88227999999708
 30
0.0
 11
-231.299999999992
 21
-36.47227000000384
 31
0.0
  0
LINE
  5
F299
330
18
100
AcDbEntity
  8
OUTLINE
  6
CONTINUOUS
100
AcDbLine
 10
-228.9999999999963
 20
-23.88227999999708
 30
0.0
 11
-228.9999999999963
 21
-38.77226999999948
 31
0.0
  0
LINE
  5
F29A
330
18
100
AcDbEntity
  8
OUTLINE
  6
CONTINUOUS
100
AcDbLine
 10
-225.9000000000014
 20
-23.88227999999799
 30
0.0
 11
-225.9000000000014
 21
-36.67226999999911
 31
0.0
  0
LINE
  5
F29B
330
18
100
AcDbEntity
  8
OUTLINE
  6
CONTINUOUS
100
AcDbLine
 10
-253.9999999999963
 20
-36.47227000000384
 30
0.0
 11
-253.9999999999963
 21
-29.70803000000159
 31
0.0
  0
LINE
  5
F29C
330
18
100
AcDbEntity
  8
OUTLINE
  6
CONTINUOUS
100
AcDbLine
 10
-258.6200499999904
 20
-36.47227000000384
 30
0.0
 11
-257.0000000000072
 21
-34.9319000000014
 31
0.0
  0
LINE
  5
F29D
330
18
100
AcDbEntity
  8
OUTLINE
  6
CONTINUOUS
100
AcDbLine
 10
-255.1818099999946
 20
-34.9319000000014
 30
0.0
 11
-256.8018599999959
 21
-36.47227000000384
 31
0.0
  0
LINE
  5
F29E
330
18
100
AcDbEntity
  8
OUTLINE
  6
CONTINUOUS
100
AcDbLine
 10
-246.0000000000036
 20
-29.70803000000159
 30
0.0
 11
-246.0000000000036
 21
-36.47227000000384
 31
0.0
  0
LINE
  5
F29F
330
18
100
AcDbEntity
  8
OUTLINE
  6
CONTINUOUS
100
AcDbLine
 10
-270.9000000000014
 20
-41.8496800000048
 30
0.0
 11
-270.9000000000014
 21
-23.88227999999799
 31
0.0
  0
LINE
  5
F2A0
330
18
100
AcDbEntity
  8
OUTLINE
  6
CONTINUOUS
100
AcDbLine
 10
-272.5
 20
-36.39544000000569
 30
0.0
 11
-274.0403800000058
 21
-34.77539000000433
 31
0.0
  0
LINE
  5
F2A1
330
18
100
AcDbEntity
  8
OUTLINE
  6
CONTINUOUS
100
AcDbLine
 10
-271.0000000000036
 20
-38.77226999999948
 30
0.0
 11
-271.0000000000036
 21
-23.88227999999799
 31
0.0
  0
LINE
  5
F2A2
330
18
100
AcDbEntity
  8
OUTLINE
  6
CONTINUOUS
100
AcDbLine
 10
-268.700000000008
 20
-36.47227000000384
 30
0.0
 11
-268.700000000008
 21
-23.88227999999799
 31
0.0
  0
LINE
  5
F2A3
330
18
100
AcDbEntity
  8
OUTLINE
  6
CONTINUOUS
100
AcDbLine
 10
-272.5
 20
-423.0
 30
0.0
 11
-272.4999999999981
 21
-23.8822799999989
 31
0.0
  0
LINE
  5
F2A4
330
18
100
AcDbEntity
  8
OUTLINE
  6
CONTINUOUS
100
AcDbLine
 10
-227.4999999999999
 20
-422.999999999999
 30
0.0
 11
-227.4999999999999
 21
-23.88227999999799
 31
0.0
  0
LINE
  5
F2A5
330
18
100
AcDbEntity
  8
OUTLINE
  6
CONTINUOUS
100
AcDbLine
 10
227.4999999999999
 20
-422.999999999999
 30
0.0
 11
227.4999999999999
 21
-23.88227999999799
 31
0.0
  0
LINE
  5
F2A6
330
18
100
AcDbEntity
  8
OUTLINE
  6
CONTINUOUS
100
AcDbLine
 10
272.5000000000018
 20
-423.0
 30
0.0
 11
272.5
 21
-23.8822799999989
 31
0.0
  0
LINE
  5
F2A7
330
18
100
AcDbEntity
  8
OUTLINE
  6
DASHED2
100
AcDbLine
 10
-229.0999899999951
 20
-41.8496800000048
 30
0.0
 11
-229.0999899999915
 21
-423.0
 31
0.0
  0
LINE
  5
F2A8
330
18
100
AcDbEntity
  8
OUTLINE
  6
DASHED2
100
AcDbLine
 10
-270.899989999998
 20
-41.8496800000048
 30
0.0
 11
-270.899989999998
 21
-423.0
 31
0.0
  0
LINE
  5
F2A9
330
18
100
AcDbEntity
  8
OUTLINE
  6
CONTINUOUS
100
AcDbLine
 10
-227.4999999999999
 20
-422.999999999999
 30
0.0
 11
-272.5
 21
-423.0
 31
0.0
  0
LINE
  5
F2AA
330
18
100
AcDbEntity
  8
OUTLINE
  6
CONTINUOUS
100
AcDbLine
 10
-227.4999999999999
 20
-36.67226999999911
 30
0.0
 11
-225.9000000000014
 21
-36.67226999999911
 31
0.0
  0
LINE
  5
F2AB
330
18
100
AcDbEntity
  8
OUTLINE
  6
CONTINUOUS
100
AcDbLine
 10
-271.0000000000036
 20
-38.77226999999948
 30
0.0
 11
-228.9999999999963
 21
-38.77226999999948
 31
0.0
  0
LINE
  5
F2AC
330
18
100
AcDbEntity
  8
OUTLINE
  6
CONTINUOUS
100
AcDbLine
 10
-268.700000000008
 20
-36.47227000000384
 30
0.0
 11
-231.299999999992
 21
-36.47227000000384
 31
0.0
  0
LINE
  5
F2AD
330
18
100
AcDbEntity
  8
OUTLINE
  6
DASHED2
100
AcDbLine
 10
229.0999999999985
 20
-41.8496800000048
 30
0.0
 11
229.0999999999985
 21
-423.0
 31
0.0
  0
LINE
  5
F2AE
330
18
100
AcDbEntity
  8
OUTLINE
  6
DASHED2
100
AcDbLine
 10
270.9000000000014
 20
-41.8496800000048
 30
0.0
 11
270.9000000000051
 21
-423.0
 31
0.0
  0
LINE
  5
F2AF
330
18
100
AcDbEntity
  8
OUTLINE
  6
CONTINUOUS
100
AcDbLine
 10
272.5000000000018
 20
-423.0
 30
0.0
 11
227.4999999999999
 21
-422.999999999999
 31
0.0
  0
LINE
  5
F2B0
330
18
100
AcDbEntity
  8
OUTLINE
  6
CONTINUOUS
100
AcDbLine
 10
272.5
 20
-36.67226999999911
 30
0.0
 11
274.0999999999985
 21
-36.67226999999911
 31
0.0
  0
LINE
  5
F2B1
330
18
100
AcDbEntity
  8
OUTLINE
  6
CONTINUOUS
100
AcDbLine
 10
228.9999999999963
 20
-38.77226999999948
 30
0.0
 11
271.0000000000036
 21
-38.77226999999948
 31
0.0
  0
LINE
  5
F2B2
330
18
100
AcDbEntity
  8
OUTLINE
  6
CONTINUOUS
100
AcDbLine
 10
231.299999999992
 20
-36.47227000000384
 30
0.0
 11
268.700000000008
 21
-36.47227000000384
 31
0.0
  0
LINE
  5
F2B3
330
18
100
AcDbEntity
  8
OUTLINE
  6
CONTINUOUS
100
AcDbLine
 10
-231.299999999992
 20
-23.88227999999799
 30
0.0
 11
231.299999999992
 21
-23.88227999999799
 31
0.0
  0
LINE
  5
F2B4
330
18
100
AcDbEntity
  8
OUTLINE
  6
CONTINUOUS
100
AcDbLine
 10
-500.0
 20
0.0
 30
0.0
 11
500.0
 21
0.0
 31
0.0
  0
LINE
  5
F2B5
330
18
100
AcDbEntity
  8
OUTLINE
  6
CONTINUOUS
100
AcDbLine
 10
-490.0
 20
-23.88227999999799
 30
0.0
 11
-271.0000000000036
 21
-23.88227999999799
 31
0.0
  0
ELLIPSE
  5
F2B6
330
18
100
AcDbEntity
  8
OUTLINE
  6
CONTINUOUS
100
AcDbEllipse
 10
-489.9999999999981
 20
-21.29409000000396
 30
0.0
 11
10.0
 21
0.0
 31
0.0
210
0.0
220
0.0
230
1.0
 40
0.258819
 41
3.141592653589791
 42
4.712388980384688
  0
LINE
  5
F2B7
330
18
100
AcDbEntity
  8
OUTLINE
  6
CONTINUOUS
100
AcDbLine
 10
-500.0
 20
-21.29409000000123
 30
0.0
 11
-500.0
 21
0.0
 31
0.0
  0
LINE
  5
F2B8
330
18
100
AcDbEntity
  8
OUTLINE
  6
CONTINUOUS
100
AcDbLine
 10
-274.0403800000058
 20
-34.77539000000433
 30
0.0
 11
-278.7267199999951
 21
-34.77539000000433
 31
0.0
  0
LINE
  5
F2B9
330
18
100
AcDbEntity
  8
OUTLINE
  6
CONTINUOUS
100
AcDbLine
 10
-274.0403800000058
 20
-32.27539000000433
 30
0.0
 11
-278.7267199999951
 21
-32.27539000000433
 31
0.0
  0
LINE
  5
F2BA
330
18
100
AcDbEntity
  8
OUTLINE
  6
CONTINUOUS
100
AcDbLine
 10
-272.5
 20
-29.27539000000251
 30
0.0
 11
-279.2642399999931
 21
-29.27539000000251
 31
0.0
  0
LINE
  5
F2BB
330
18
100
AcDbEntity
  8
OUTLINE
  6
CONTINUOUS
100
AcDbLine
 10
-279.2642399999931
 20
-31.77539000000251
 30
0.0
 11
-279.2642399999931
 21
-23.88227999999799
 31
0.0
  0
LINE
  5
F2BC
330
18
100
AcDbEntity
  8
OUTLINE
  6
CONTINUOUS
100
AcDbLine
 10
-280.9000000000014
 20
-23.88227999999799
 30
0.0
 11
-280.9000000000014
 21
-31.77227000000129
 31
0.0
  0
LINE
  5
F2BD
330
18
100
AcDbEntity
  8
OUTLINE
  6
CONTINUOUS
100
AcDbLine
 10
-279.2642399999931
 20
-31.77539000000251
 30
0.0
 11
-278.7267199999951
 21
-34.77539000000433
 31
0.0
  0
LINE
  5
F2BE
330
18
100
AcDbEntity
  8
OUTLINE
  6
CONTINUOUS
100
AcDbLine
 10
-279.2642399999931
 20
-29.27539000000251
 30
0.0
 11
-278.7267199999951
 21
-32.27539000000433
 31
0.0
  0
LINE
  5
F2BF
330
18
100
AcDbEntity
  8
OUTLINE
  6
CONTINUOUS
100
AcDbLine
 10
-278.8163100000019
 20
-31.77539000000251
 30
0.0
 11
-279.2642399999931
 21
-31.77539000000251
 31
0.0
  0
LINE
  5
F2C0
330
18
100
AcDbEntity
  8
OUTLINE
  6
CONTINUOUS
100
AcDbLine
 10
-279.2642399999931
 20
-29.27539000000251
 30
0.0
 11
-280.9000000000014
 21
-29.27539000000251
 31
0.0
  0
LINE
  5
F2C1
330
18
100
AcDbEntity
  8
OUTLINE
  6
CONTINUOUS
100
AcDbLine
 10
-279.2642399999931
 20
-31.77227000000129
 30
0.0
 11
-280.9000000000014
 21
-31.77227000000129
 31
0.0
  0
LINE
  5
F2C2
330
18
100
AcDbEntity
  8
OUTLINE
  6
CONTINUOUS
100
AcDbLine
 10
-227.4999999999999
 20
-34.17539000000033
 30
0.0
 11
-225.9000000000014
 21
-34.17539000000033
 31
0.0
  0
LINE
  5
F2C3
330
18
100
AcDbEntity
  8
OUTLINE
  6
CONTINUOUS
100
AcDbLine
 10
-242.9999999999927
 20
-34.9319000000014
 30
0.0
 11
-242.9999999999927
 21
-30.25144000000182
 31
0.0
  0
LINE
  5
F2C4
330
18
100
AcDbEntity
  8
OUTLINE
  6
CONTINUOUS
100
AcDbLine
 10
-242.9999999999927
 20
-34.9319000000014
 30
0.0
 11
-244.8181999999906
 21
-34.9319000000014
 31
0.0
  0
LINE
  5
F2C5
330
18
100
AcDbEntity
  8
OUTLINE
  6
CONTINUOUS
100
AcDbLine
 10
-220.3999999999905
 20
-35.27783000000454
 30
0.0
 11
-220.3999999999905
 21
-23.88227999999799
 31
0.0
  0
LINE
  5
F2C6
330
18
100
AcDbEntity
  8
OUTLINE
  6
CONTINUOUS
100
AcDbLine
 10
-225.9000000000014
 20
-29.0281700000014
 30
0.0
 11
-220.3999999999905
 21
-29.0281700000014
 31
0.0
  0
LINE
  5
F2C7
330
18
100
AcDbEntity
  8
OUTLINE
  6
CONTINUOUS
100
AcDbLine
 10
-225.9000000000014
 20
-32.78095000000575
 30
0.0
 11
-220.3999999999905
 21
-32.78095000000575
 31
0.0
  0
LINE
  5
F2C8
330
18
100
AcDbEntity
  8
OUTLINE
  6
CONTINUOUS
100
AcDbLine
 10
-225.9000000000014
 20
-35.27783000000454
 30
0.0
 11
-220.3999999999905
 21
-35.27783000000454
 31
0.0
  0
LINE
  5
F2C9
330
18
100
AcDbEntity
  8
OUTLINE
  6
CONTINUOUS
100
AcDbLine
 10
-253.9999999999963
 20
-29.70803000000159
 30
0.0
 11
-253.9999999999963
 21
-23.88227999999799
 31
0.0
  0
LINE
  5
F2CA
330
18
100
AcDbEntity
  8
OUTLINE
  6
CONTINUOUS
100
AcDbLine
 10
-246.0000000000036
 20
-29.70803000000159
 30
0.0
 11
-246.0000000000036
 21
-23.88227999999799
 31
0.0
  0
LINE
  5
F2CB
330
18
100
AcDbEntity
  8
OUTLINE
  6
CONTINUOUS
100
AcDbLine
 10
-253.9999999999963
 20
-29.70803000000159
 30
0.0
 11
-246.0000000000036
 21
-29.70803000000159
 31
0.0
  0
LINE
  5
F2CC
330
18
100
AcDbEntity
  8
OUTLINE
  6
CONTINUOUS
100
AcDbLine
 10
-253.9999999999963
 20
-29.70803000000159
 30
0.0
 11
-257.0000000000072
 21
-30.24556000000302
 31
0.0
  0
LINE
  5
F2CD
330
18
100
AcDbEntity
  8
OUTLINE
  6
CONTINUOUS
100
AcDbLine
 10
-257.0000000000072
 20
-34.9319000000014
 30
0.0
 11
-255.1818099999946
 21
-34.9319000000014
 31
0.0
  0
LINE
  5
F2CE
330
18
100
AcDbEntity
  8
OUTLINE
  6
CONTINUOUS
100
AcDbLine
 10
-257.0000000000072
 20
-34.9319000000014
 30
0.0
 11
-257.0000000000072
 21
-30.24556000000302
 31
0.0
  0
LINE
  5
F2CF
330
18
100
AcDbEntity
  8
OUTLINE
  6
CONTINUOUS
100
AcDbLine
 10
-274.0403800000058
 20
-32.95718999999735
 30
0.0
 11
-272.5
 21
-34.57723999999871
 31
0.0
  0
LINE
  5
F2D0
330
18
100
AcDbEntity
  8
OUTLINE
  6
CONTINUOUS
100
AcDbLine
 10
-274.0403800000058
 20
-34.77539000000433
 30
0.0
 11
-274.0403800000058
 21
-32.95718999999735
 31
0.0
  0
LINE
  5
F2D1
330
18
100
AcDbEntity
  8
OUTLINE
  6
CONTINUOUS
100
AcDbLine
 10
-274.0403800000058
 20
-30.45718999999735
 30
0.0
 11
-272.5
 21
-32.07723999999871
 31
0.0
  0
LINE
  5
F2D2
330
18
100
AcDbEntity
  8
OUTLINE
  6
CONTINUOUS
100
AcDbLine
 10
-274.0403800000058
 20
-32.27539000000433
 30
0.0
 11
-274.0403800000058
 21
-30.45718999999735
 31
0.0
  0
LINE
  5
F2D3
330
18
100
AcDbEntity
  8
OUTLINE
  6
CONTINUOUS
100
AcDbLine
 10
-272.5
 20
-33.89544000000569
 30
0.0
 11
-274.0403800000058
 21
-32.27539000000433
 31
0.0
  0
LINE
  5
F2D4
330
18
100
AcDbEntity
  8
OUTLINE
  6
CONTINUOUS
100
AcDbLine
 10
-246.0000000000036
 20
-29.70803000000159
 30
0.0
 11
-242.9999999999927
 21
-30.25144000000182
 31
0.0
  0
LINE
  5
F2D5
330
18
100
AcDbEntity
  8
OUTLINE
  6
CONTINUOUS
100
AcDbLine
 10
-271.0000000000036
 20
-23.88227999999799
 30
0.0
 11
-231.299999999992
 21
-23.88227999999799
 31
0.0
  0
LINE
  5
F2D6
330
18
100
AcDbEntity
  8
OUTLINE
  6
CONTINUOUS
100
AcDbLine
 10
225.9596199999941
 20
-32.95718999999735
 30
0.0
 11
227.4999999999999
 21
-34.57723999999871
 31
0.0
  0
LINE
  5
F2D7
330
18
100
AcDbEntity
  8
OUTLINE
  6
CONTINUOUS
100
AcDbLine
 10
225.9596199999941
 20
-34.77539000000433
 30
0.0
 11
225.9596199999941
 21
-32.95718999999735
 31
0.0
  0
LINE
  5
F2D8
330
18
100
AcDbEntity
  8
OUTLINE
  6
CONTINUOUS
100
AcDbLine
 10
225.9596199999941
 20
-30.45718999999735
 30
0.0
 11
227.4999999999999
 21
-32.07723999999871
 31
0.0
  0
LINE
  5
F2D9
330
18
100
AcDbEntity
  8
OUTLINE
  6
CONTINUOUS
100
AcDbLine
 10
225.9596199999941
 20
-32.27539000000433
 30
0.0
 11
225.9596199999941
 21
-30.45718999999735
 31
0.0
  0
LINE
  5
F2DA
330
18
100
AcDbEntity
  8
OUTLINE
  6
CONTINUOUS
100
AcDbLine
 10
227.4999999999999
 20
-33.89544000000569
 30
0.0
 11
225.9596199999941
 21
-32.27539000000433
 31
0.0
  0
LINE
  5
F2DB
330
18
100
AcDbEntity
  8
OUTLINE
  6
CONTINUOUS
100
AcDbLine
 10
220.7357600000068
 20
-31.77539000000251
 30
0.0
 11
220.7357600000068
 21
-23.88227999999799
 31
0.0
  0
LINE
  5
F2DC
330
18
100
AcDbEntity
  8
OUTLINE
  6
CONTINUOUS
100
AcDbLine
 10
219.0999999999985
 20
-23.88227999999799
 30
0.0
 11
219.0999999999985
 21
-31.77227000000129
 31
0.0
  0
LINE
  5
F2DD
330
18
100
AcDbEntity
  8
OUTLINE
  6
CONTINUOUS
100
AcDbLine
 10
220.7357600000068
 20
-31.77539000000251
 30
0.0
 11
221.2732800000048
 21
-34.77539000000433
 31
0.0
  0
LINE
  5
F2DE
330
18
100
AcDbEntity
  8
OUTLINE
  6
CONTINUOUS
100
AcDbLine
 10
220.7357600000068
 20
-29.27539000000251
 30
0.0
 11
221.2732800000048
 21
-32.27539000000433
 31
0.0
  0
LINE
  5
F2DF
330
18
100
AcDbEntity
  8
OUTLINE
  6
CONTINUOUS
100
AcDbLine
 10
221.183689999998
 20
-31.77539000000251
 30
0.0
 11
220.7357600000068
 21
-31.77539000000251
 31
0.0
  0
LINE
  5
F2E0
330
18
100
AcDbEntity
  8
OUTLINE
  6
CONTINUOUS
100
AcDbLine
 10
220.7357600000068
 20
-29.27539000000251
 30
0.0
 11
219.0999999999985
 21
-29.27539000000251
 31
0.0
  0
LINE
  5
F2E1
330
18
100
AcDbEntity
  8
OUTLINE
  6
CONTINUOUS
100
AcDbLine
 10
220.7357600000068
 20
-31.77227000000129
 30
0.0
 11
219.0999999999985
 21
-31.77227000000129
 31
0.0
  0
LINE
  5
F2E2
330
18
100
AcDbEntity
  8
OUTLINE
  6
CONTINUOUS
100
AcDbLine
 10
225.9596199999941
 20
-34.77539000000433
 30
0.0
 11
221.2732800000048
 21
-34.77539000000433
 31
0.0
  0
LINE
  5
F2E3
330
18
100
AcDbEntity
  8
OUTLINE
  6
CONTINUOUS
100
AcDbLine
 10
225.9596199999941
 20
-32.27539000000433
 30
0.0
 11
221.2732800000048
 21
-32.27539000000433
 31
0.0
  0
LINE
  5
F2E4
330
18
100
AcDbEntity
  8
OUTLINE
  6
CONTINUOUS
100
AcDbLine
 10
227.4999999999999
 20
-29.27539000000251
 30
0.0
 11
220.7357600000068
 21
-29.27539000000251
 31
0.0
  0
LINE
  5
F2E5
330
18
100
AcDbEntity
  8
OUTLINE
  6
CONTINUOUS
100
AcDbLine
 10
268.700000000008
 20
-23.88227999999799
 30
0.0
 11
490.0
 21
-23.88227999999799
 31
0.0
  0
LINE
  5
F2E6
330
18
100
AcDbEntity
  8
OUTLINE
  6
CONTINUOUS
100
AcDbLine
 10
279.6000000000094
 20
-35.27783000000454
 30
0.0
 11
279.6000000000094
 21
-23.88227999999799
 31
0.0
  0
LINE
  5
F2E7
330
18
100
AcDbEntity
  8
OUTLINE
  6
CONTINUOUS
100
AcDbLine
 10
274.0999999999985
 20
-29.0281700000014
 30
0.0
 11
279.6000000000094
 21
-29.0281700000014
 31
0.0
  0
LINE
  5
F2E8
330
18
100
AcDbEntity
  8
OUTLINE
  6
CONTINUOUS
100
AcDbLine
 10
274.0999999999985
 20
-32.78095000000575
 30
0.0
 11
279.6000000000094
 21
-32.78095000000575
 31
0.0
  0
LINE
  5
F2E9
330
18
100
AcDbEntity
  8
OUTLINE
  6
CONTINUOUS
100
AcDbLine
 10
274.0999999999985
 20
-35.27783000000454
 30
0.0
 11
279.6000000000094
 21
-35.27783000000454
 31
0.0
  0
LINE
  5
F2EA
330
18
100
AcDbEntity
  8
OUTLINE
  6
CONTINUOUS
100
AcDbLine
 10
272.5
 20
-34.17539000000033
 30
0.0
 11
274.0999999999985
 21
-34.17539000000033
 31
0.0
  0
LINE
  5
F2EB
330
18
100
AcDbEntity
  8
OUTLINE
  6
CONTINUOUS
100
AcDbLine
 10
257.0000000000072
 20
-34.9319000000014
 30
0.0
 11
257.0000000000072
 21
-30.25144000000182
 31
0.0
  0
LINE
  5
F2EC
330
18
100
AcDbEntity
  8
OUTLINE
  6
CONTINUOUS
100
AcDbLine
 10
246.0000000000036
 20
-29.70803000000159
 30
0.0
 11
246.0000000000036
 21
-23.88227999999799
 31
0.0
  0
LINE
  5
F2ED
330
18
100
AcDbEntity
  8
OUTLINE
  6
CONTINUOUS
100
AcDbLine
 10
253.9999999999963
 20
-29.70803000000159
 30
0.0
 11
253.9999999999963
 21
-23.88227999999799
 31
0.0
  0
LINE
  5
F2EE
330
18
100
AcDbEntity
  8
OUTLINE
  6
CONTINUOUS
100
AcDbLine
 10
246.0000000000036
 20
-29.70803000000159
 30
0.0
 11
253.9999999999963
 21
-29.70803000000159
 31
0.0
  0
LINE
  5
F2EF
330
18
100
AcDbEntity
  8
OUTLINE
  6
CONTINUOUS
100
AcDbLine
 10
242.9999999999927
 20
-34.9319000000014
 30
0.0
 11
242.9999999999927
 21
-30.24556000000302
 31
0.0
  0
LINE
  5
F2F0
330
18
100
AcDbEntity
  8
OUTLINE
  6
CONTINUOUS
100
AcDbLine
 10
246.0000000000036
 20
-29.70803000000159
 30
0.0
 11
242.9999999999927
 21
-30.24556000000302
 31
0.0
  0
LINE
  5
F2F1
330
18
100
AcDbEntity
  8
OUTLINE
  6
CONTINUOUS
100
AcDbLine
 10
242.9999999999927
 20
-34.9319000000014
 30
0.0
 11
244.8181900000054
 21
-34.9319000000014
 31
0.0
  0
LINE
  5
F2F2
330
18
100
AcDbEntity
  8
OUTLINE
  6
CONTINUOUS
100
AcDbLine
 10
253.9999999999963
 20
-29.70803000000159
 30
0.0
 11
257.0000000000072
 21
-30.25144000000182
 31
0.0
  0
LINE
  5
F2F3
330
18
100
AcDbEntity
  8
OUTLINE
  6
CONTINUOUS
100
AcDbLine
 10
257.0000000000072
 20
-34.9319000000014
 30
0.0
 11
255.1818000000094
 21
-34.9319000000014
 31
0.0
  0
LINE
  5
F2F4
330
18
100
AcDbEntity
  8
OUTLINE
  6
CONTINUOUS
100
AcDbLine
 10
231.299999999992
 20
-23.88227999999799
 30
0.0
 11
268.700000000008
 21
-23.88227999999799
 31
0.0
  0
ELLIPSE
  5
F2F5
330
18
100
AcDbEntity
  8
OUTLINE
  6
CONTINUOUS
100
AcDbEllipse
 10
490.0000000000018
 20
-21.29409000000396
 30
0.0
 11
10.0
 21
0.0
 31
0.0
210
0.0
220
0.0
230
1.0
 40
0.258819
 41
4.712388980384688
 42
6.283185307179585
  0
LINE
  5
F2F6
330
18
100
AcDbEntity
  8
OUTLINE
  6
CONTINUOUS
100
AcDbLine
 10
500.0
 20
-21.29409000000123
 30
0.0
 11
500.0
 21
0.0
 31
0.0
  0
ENDSEC
  0
SECTION
  2
OBJECTS
  0
DICTIONARY
  5
C
330
0
100
AcDbDictionary
  3
ACAD_GROUP
350
D
  3
ACAD_LAYOUT
350
FD9
  3
ACAD_MLINESTYLE
350
1B
  3
ACAD_PLOTSETTINGS
350
FDA
  3
ACAD_PLOTSTYLENAME
350
FD7
  3
ACDBHEADERROUNDTRIPXREC
350
F2FA
  0
DICTIONARY
  5
F31D
330
18
100
AcDbDictionary
280
     1
  3
ACAD_LAYOUTSELFREF
360
F31E
  0
DICTIONARY
  5
F31B
330
15
100
AcDbDictionary
280
     1
  3
ACAD_LAYOUTSELFREF
360
F31C
  0
DICTIONARY
  5
D
102
{ACAD_REACTORS
330
C
102
}
330
C
100
AcDbDictionary
  0
DICTIONARY
  5
FD9
102
{ACAD_REACTORS
330
C
102
}
330
C
100
AcDbDictionary
  0
DICTIONARY
  5
1B
102
{ACAD_REACTORS
330
C
102
}
330
C
100
AcDbDictionary
  3
STANDARD
350
1C
  0
DICTIONARY
  5
FDA
102
{ACAD_REACTORS
330
C
102
}
330
C
100
AcDbDictionary
  0
ACDBDICTIONARYWDFLT
  5
FD7
102
{ACAD_REACTORS
330
C
102
}
330
C
100
AcDbDictionary
281
     1
  3
Normal
350
FD8
100
AcDbDictionaryWithDefault
340
FD8
  0
DICTIONARY
  5
F2FA
102
{ACAD_REACTORS
330
C
102
}
330
C
100
AcDbDictionary
  3
CEPSNTYPE
350
F304
  3
DIMSTYLEDATA
350
F308
  3
FINGERPRINTGUID
350
F305
  3
HYPERLINKBASE
350
F2FD
  3
INSUNITS
350
F303
  3
LAYOUTDICT
350
F2FF
  3
LWETCUNION
350
F302
  3
PLOTSETDICT
350
F300
  3
PLOTSTYLNAMDICT
350
F301
  3
PSVPSCALE
350
F307
  3
PUCSBASE
350
F30B
  3
PUCSORGBACK
350
F311
  3
PUCSORGBOTTOM
350
F30D
  3
PUCSORGFRONT
350
F310
  3
PUCSORGLEFT
350
F30E
  3
PUCSORGRIGHT
350
F30F
  3
PUCSORGTOP
350
F30C
  3
PUCSORTHOREF
350
F309
  3
PUCSORTHOVIEW
350
F30A
  3
STYLESHEET
350
F2FE
  3
TSTACKALIGN
350
F2FB
  3
TSTACKSIZE
350
F2FC
  3
UCSBASE
350
F314
  3
UCSORGBACK
350
F31A
  3
UCSORGBOTTOM
350
F316
  3
UCSORGFRONT
350
F319
  3
UCSORGLEFT
350
F317
  3
UCSORGRIGHT
350
F318
  3
UCSORGTOP
350
F315
  3
UCSORTHOREF
350
F312
  3
UCSORTHOVIEW
350
F313
  3
VERSIONGUID
350
F306
  0
XRECORD
  5
F31E
102
{ACAD_REACTORS
330
F31D
102
}
330
F31D
100
AcDbXrecord
340
18
  0
XRECORD
  5
F31C
102
{ACAD_REACTORS
330
F31B
102
}
330
F31B
100
AcDbXrecord
340
15
  0
MLINESTYLE
  5
1C
102
{ACAD_REACTORS
330
1B
102
}
330
1B
100
AcDbMlineStyle
  2
STANDARD
 70
     0
  3

 62
   256
 51
90.0
 52
90.0
 71
     2
 49
0.5
 62
   256
  6
BYLAYER
 49
-0.5
 62
   256
  6
BYLAYER
  0
ACDBPLACEHOLDER
  5
FD8
102
{ACAD_REACTORS
330
FD7
102
}
330
FD7
100
AcDbPlaceHolder
280
     0
  0
XRECORD
  5
F304
102
{ACAD_REACTORS
330
F2FA
102
}
330
F2FA
100
AcDbXrecord
 90
        0
  0
XRECORD
  5
F308
102
{ACAD_REACTORS
330
F2FA
102
}
330
F2FA
100
AcDbXrecord
1000
DSTYLE
1002
{
1070
   341
340
24C
1070
   343
340
24C
1070
   344
340
24C
1002
}
  0
XRECORD
  5
F305
102
{ACAD_REACTORS
330
F2FA
102
}
330
F2FA
100
AcDbXrecord
  1
{A4E2D666-79C1-40CA-A6AF-C72AE7BABF3A}
  0
XRECORD
  5
F2FD
102
{ACAD_REACTORS
330
F2FA
102
}
330
F2FA
100
AcDbXrecord
  1

  0
XRECORD
  5
F303
102
{ACAD_REACTORS
330
F2FA
102
}
330
F2FA
100
AcDbXrecord
 90
        0
  0
XRECORD
  5
F2FF
102
{ACAD_REACTORS
330
F2FA
102
}
330
F2FA
100
AcDbXrecord
340
FD9
  0
XRECORD
  5
F302
102
{ACAD_REACTORS
330
F2FA
102
}
330
F2FA
100
AcDbXrecord
 90
    14877
  0
XRECORD
  5
F300
102
{ACAD_REACTORS
330
F2FA
102
}
330
F2FA
100
AcDbXrecord
340
FDA
  0
XRECORD
  5
F301
102
{ACAD_REACTORS
330
F2FA
102
}
330
F2FA
100
AcDbXrecord
340
FD7
  0
XRECORD
  5
F307
102
{ACAD_REACTORS
330
F2FA
102
}
330
F2FA
100
AcDbXrecord
 40
0.0
  0
XRECORD
  5
F30B
102
{ACAD_REACTORS
330
F2FA
102
}
330
F2FA
100
AcDbXrecord
340
0
  0
XRECORD
  5
F311
102
{ACAD_REACTORS
330
F2FA
102
}
330
F2FA
100
AcDbXrecord
 10
0.0
 20
0.0
 30
0.0
  0
XRECORD
  5
F30D
102
{ACAD_REACTORS
330
F2FA
102
}
330
F2FA
100
AcDbXrecord
 10
0.0
 20
0.0
 30
0.0
  0
XRECORD
  5
F310
102
{ACAD_REACTORS
330
F2FA
102
}
330
F2FA
100
AcDbXrecord
 10
0.0
 20
0.0
 30
0.0
  0
XRECORD
  5
F30E
102
{ACAD_REACTORS
330
F2FA
102
}
330
F2FA
100
AcDbXrecord
 10
0.0
 20
0.0
 30
0.0
  0
XRECORD
  5
F30F
102
{ACAD_REACTORS
330
F2FA
102
}
330
F2FA
100
AcDbXrecord
 10
0.0
 20
0.0
 30
0.0
  0
XRECORD
  5
F30C
102
{ACAD_REACTORS
330
F2FA
102
}
330
F2FA
100
AcDbXrecord
 10
0.0
 20
0.0
 30
0.0
  0
XRECORD
  5
F309
102
{ACAD_REACTORS
330
F2FA
102
}
330
F2FA
100
AcDbXrecord
340
0
  0
XRECORD
  5
F30A
102
{ACAD_REACTORS
330
F2FA
102
}
330
F2FA
100
AcDbXrecord
 70
     0
  0
XRECORD
  5
F2FE
102
{ACAD_REACTORS
330
F2FA
102
}
330
F2FA
100
AcDbXrecord
  1

  0
XRECORD
  5
F2FB
102
{ACAD_REACTORS
330
F2FA
102
}
330
F2FA
100
AcDbXrecord
 90
        1
  0
XRECORD
  5
F2FC
102
{ACAD_REACTORS
330
F2FA
102
}
330
F2FA
100
AcDbXrecord
 90
       70
  0
XRECORD
  5
F314
102
{ACAD_REACTORS
330
F2FA
102
}
330
F2FA
100
AcDbXrecord
340
0
  0
XRECORD
  5
F31A
102
{ACAD_REACTORS
330
F2FA
102
}
330
F2FA
100
AcDbXrecord
 10
0.0
 20
0.0
 30
0.0
  0
XRECORD
  5
F316
102
{ACAD_REACTORS
330
F2FA
102
}
330
F2FA
100
AcDbXrecord
 10
0.0
 20
0.0
 30
0.0
  0
XRECORD
  5
F319
102
{ACAD_REACTORS
330
F2FA
102
}
330
F2FA
100
AcDbXrecord
 10
0.0
 20
0.0
 30
0.0
  0
XRECORD
  5
F317
102
{ACAD_REACTORS
330
F2FA
102
}
330
F2FA
100
AcDbXrecord
 10
0.0
 20
0.0
 30
0.0
  0
XRECORD
  5
F318
102
{ACAD_REACTORS
330
F2FA
102
}
330
F2FA
100
AcDbXrecord
 10
0.0
 20
0.0
 30
0.0
  0
XRECORD
  5
F315
102
{ACAD_REACTORS
330
F2FA
102
}
330
F2FA
100
AcDbXrecord
 10
0.0
 20
0.0
 30
0.0
  0
XRECORD
  5
F312
102
{ACAD_REACTORS
330
F2FA
102
}
330
F2FA
100
AcDbXrecord
340
0
  0
XRECORD
  5
F313
102
{ACAD_REACTORS
330
F2FA
102
}
330
F2FA
100
AcDbXrecord
 70
     0
  0
XRECORD
  5
F306
102
{ACAD_REACTORS
330
F2FA
102
}
330
F2FA
100
AcDbXrecord
  1
{AC325D0E-A62E-45A6-AC7C-9E31BACC4FFD}
  0
ENDSEC
  0
EOF
