  0
SECTION
  2
HEADER
  9
$ACADVER
  1
AC1014
  9
$ACADMAINTVER
 70
     9
  9
$DWGCODEPAGE
  3
ANSI_932
  9
$INSBASE
 10
0.0
 20
0.0
 30
0.0
  9
$EXTMIN
 10
-813.1774631238513
 20
-898.3674991181286
 30
-0.0015258207003583
  9
$EXTMAX
 10
773.9646245789263
 20
835.6254363612242
 30
0.0000000349246037
  9
$LIMMIN
 10
-1058.483319139341
 20
-1095.543377178211
  9
$LIMMAX
 10
1138.638795134684
 20
982.8640873930126
  9
$ORTHOMODE
 70
     0
  9
$REGENMODE
 70
     1
  9
$FILLMODE
 70
     1
  9
$QTEXTMODE
 70
     0
  9
$MIRRTEXT
 70
     0
  9
$DRAGMODE
 70
     2
  9
$LTSCALE
 40
20.0
  9
$OSMODE
 70
    39
  9
$ATTMODE
 70
     1
  9
$TEXTSIZE
 40
64.0
  9
$TRACEWID
 40
0.05
  9
$TEXTSTYLE
  7
STANDARD
  9
$CLAYER
  8
SIZE
  9
$CELTYPE
  6
BYLAYER
  9
$CECOLOR
 62
   256
  9
$CELTSCALE
 40
1.0
  9
$DELOBJ
 70
     1
  9
$DISPSILH
 70
     0
  9
$DIMSCALE
 40
0.0
  9
$DIMASZ
 40
12.0
  9
$DIMEXO
 40
10.0
  9
$DIMDLI
 40
10.0
  9
$DIMRND
 40
0.0
  9
$DIMDLE
 40
0.0
  9
$DIMEXE
 40
30.0
  9
$DIMTP
 40
0.0
  9
$DIMTM
 40
0.0
  9
$DIMTXT
 40
64.0
  9
$DIMCEN
 40
0.0
  9
$DIMTSZ
 40
0.0
  9
$DIMTOL
 70
     0
  9
$DIMLIM
 70
     0
  9
$DIMTIH
 70
     0
  9
$DIMTOH
 70
     0
  9
$DIMSE1
 70
     0
  9
$DIMSE2
 70
     0
  9
$DIMTAD
 70
     1
  9
$DIMZIN
 70
     0
  9
$DIMBLK
  1
ORIGIN
  9
$DIMASO
 70
     1
  9
$DIMSHO
 70
     0
  9
$DIMPOST
  1

  9
$DIMAPOST
  1

  9
$DIMALT
 70
     0
  9
$DIMALTD
 70
     2
  9
$DIMALTF
 40
25.4
  9
$DIMLFAC
 40
1.0
  9
$DIMTOFL
 70
     1
  9
$DIMTVP
 40
0.0
  9
$DIMTIX
 70
     0
  9
$DIMSOXD
 70
     0
  9
$DIMSAH
 70
     0
  9
$DIMBLK1
  1

  9
$DIMBLK2
  1

  9
$DIMSTYLE
  2
STANDARD
  9
$DIMCLRD
 70
     0
  9
$DIMCLRE
 70
     0
  9
$DIMCLRT
 70
     0
  9
$DIMTFAC
 40
1.0
  9
$DIMGAP
 40
20.0
  9
$DIMJUST
 70
     0
  9
$DIMSD1
 70
     0
  9
$DIMSD2
 70
     0
  9
$DIMTOLJ
 70
     1
  9
$DIMTZIN
 70
     0
  9
$DIMALTZ
 70
     0
  9
$DIMALTTZ
 70
     0
  9
$DIMFIT
 70
     3
  9
$DIMUPT
 70
     0
  9
$DIMUNIT
 70
     2
  9
$DIMDEC
 70
     0
  9
$DIMTDEC
 70
     0
  9
$DIMALTU
 70
     2
  9
$DIMALTTD
 70
     2
  9
$DIMTXSTY
  7
STANDARD
  9
$DIMAUNIT
 70
     0
  9
$LUNITS
 70
     2
  9
$LUPREC
 70
     4
  9
$SKETCHINC
 40
0.1
  9
$FILLETRAD
 40
10.0
  9
$AUNITS
 70
     1
  9
$AUPREC
 70
     3
  9
$MENU
  1
ACAD
  9
$ELEVATION
 40
0.0
  9
$PELEVATION
 40
0.0
  9
$THICKNESS
 40
0.0
  9
$LIMCHECK
 70
     1
  9
$BLIPMODE
 70
     0
  9
$CHAMFERA
 40
0.0
  9
$CHAMFERB
 40
0.0
  9
$CHAMFERC
 40
0.0
  9
$CHAMFERD
 40
0.0
  9
$SKPOLY
 70
     0
  9
$TDCREATE
 40
2450877.489177997
  9
$TDUPDATE
 40
2455716.567557870
  9
$TDINDWG
 40
0.7817328819
  9
$TDUSRTIMER
 40
0.7817327083
  9
$USRTIMER
 70
     1
  9
$ANGBASE
 50
0.0
  9
$ANGDIR
 70
     0
  9
$PDMODE
 70
     3
  9
$PDSIZE
 40
-2.0
  9
$PLINEWID
 40
0.0
  9
$COORDS
 70
     1
  9
$SPLFRAME
 70
     0
  9
$SPLINETYPE
 70
     6
  9
$SPLINESEGS
 70
     8
  9
$ATTDIA
 70
     0
  9
$ATTREQ
 70
     1
  9
$HANDLING
 70
-16383
  9
$HANDSEED
  5
2617
  9
$SURFTAB1
 70
     6
  9
$SURFTAB2
 70
     6
  9
$SURFTYPE
 70
     6
  9
$SURFU
 70
     6
  9
$SURFV
 70
     6
  9
$UCSNAME
  2

  9
$UCSORG
 10
0.0
 20
0.0
 30
0.0
  9
$UCSXDIR
 10
1.0
 20
0.0
 30
0.0
  9
$UCSYDIR
 10
0.0
 20
1.0
 30
0.0
  9
$PUCSNAME
  2

  9
$PUCSORG
 10
0.0
 20
0.0
 30
0.0
  9
$PUCSXDIR
 10
1.0
 20
0.0
 30
0.0
  9
$PUCSYDIR
 10
0.0
 20
1.0
 30
0.0
  9
$USERI1
 70
     0
  9
$USERI2
 70
     0
  9
$USERI3
 70
     0
  9
$USERI4
 70
     0
  9
$USERI5
 70
     0
  9
$USERR1
 40
20.0
  9
$USERR2
 40
0.0
  9
$USERR3
 40
0.0
  9
$USERR4
 40
0.0
  9
$USERR5
 40
0.0
  9
$WORLDVIEW
 70
     1
  9
$SHADEDGE
 70
     3
  9
$SHADEDIF
 70
    70
  9
$TILEMODE
 70
     1
  9
$MAXACTVP
 70
    64
  9
$PINSBASE
 10
0.0
 20
0.0
 30
0.0
  9
$PLIMCHECK
 70
     0
  9
$PEXTMIN
 10
1.000000000000000E+20
 20
1.000000000000000E+20
 30
1.000000000000000E+20
  9
$PEXTMAX
 10
-1.000000000000000E+20
 20
-1.000000000000000E+20
 30
-1.000000000000000E+20
  9
$PLIMMIN
 10
0.0
 20
0.0
  9
$PLIMMAX
 10
12.0
 20
9.0
  9
$UNITMODE
 70
     0
  9
$VISRETAIN
 70
     1
  9
$PLINEGEN
 70
     0
  9
$PSLTSCALE
 70
     1
  9
$TREEDEPTH
 70
  3020
  9
$PICKSTYLE
 70
     1
  9
$CMLSTYLE
  2
STANDARD
  9
$CMLJUST
 70
     0
  9
$CMLSCALE
 40
1.0
  9
$PROXYGRAPHICS
 70
     1
  9
$MEASUREMENT
 70
     0
  0
ENDSEC
  0
SECTION
  2
CLASSES
  0
CLASS
  1
ACDBDICTIONARYWDFLT
  2
AcDbDictionaryWithDefault
  3
AutoCAD 2000
 90
        0
280
     0
281
     0
  0
CLASS
  1
ACDBPLACEHOLDER
  2
AcDbPlaceHolder
  3
AutoCAD 2000
 90
        0
280
     0
281
     0
  0
CLASS
  1
LAYOUT
  2
AcDbLayout
  3
AutoCAD 2000
 90
        0
280
     0
281
     0
  0
CLASS
  1
DICTIONARYVAR
  2
AcDbDictionaryVar
  3
AutoCAD 2000
 90
        0
280
     0
281
     0
  0
CLASS
  1
LONG_TRANSACTION
  2
AcDbLongTransaction
  3
AutoCAD 2000
 90
        0
280
     0
281
     0
  0
CLASS
  1
LWPOLYLINE
  2
AcDbPolyline
  3
AutoCAD 2000
 90
        0
280
     0
281
     1
  0
CLASS
  1
HATCH
  2
AcDbHatch
  3
AutoCAD 2000
 90
        0
280
     0
281
     1
  0
CLASS
  1
XRECORD
  2
AcDbXrecord
  3
AutoCAD 2000
 90
        0
280
     0
281
     0
  0
ENDSEC
  0
SECTION
  2
TABLES
  0
TABLE
  2
VPORT
  5
8
330
0
100
AcDbSymbolTable
 70
     8
  0
VPORT
  5
25F1
330
8
100
AcDbSymbolTableRecord
100
AcDbViewportTableRecord
  2
*ACTIVE
 70
     0
 10
0.0
 20
0.0
 11
1.0
 21
1.0
 12
222.5918458117849
 22
-58.07744018283779
 13
0.0
 23
0.0
 14
400.0
 24
400.0
 15
400.0
 25
400.0
 16
0.0
 26
0.0
 36
1.0
 17
0.0
 27
0.0
 37
0.0
 40
2745.722221609574
 41
1.243346007604562
 42
50.0
 43
0.0
 44
0.0
 50
0.0
 51
0.0
 71
     0
 72
  1000
 73
     1
 74
     0
 75
     0
 76
     0
 77
     0
 78
     1
  0
ENDTAB
  0
TABLE
  2
LTYPE
  5
5
330
0
100
AcDbSymbolTable
 70
     8
  0
LTYPE
  5
13
330
5
100
AcDbSymbolTableRecord
100
AcDbLinetypeTableRecord
  2
BYBLOCK
 70
     0
  3

 72
    65
 73
     0
 40
0.0
  0
LTYPE
  5
14
330
5
100
AcDbSymbolTableRecord
100
AcDbLinetypeTableRecord
  2
BYLAYER
 70
     0
  3

 72
    65
 73
     0
 40
0.0
  0
LTYPE
  5
15
330
5
100
AcDbSymbolTableRecord
100
AcDbLinetypeTableRecord
  2
CONTINUOUS
 70
     0
  3
実線
 72
    65
 73
     0
 40
0.0
  0
LTYPE
  5
23
330
5
100
AcDbSymbolTableRecord
100
AcDbLinetypeTableRecord
  2
DASHDOT
 70
     0
  3
____ _ ____ _ ____ _ ____ _ ____ _ ____ _ ____
 72
    65
 73
     4
 40
5.5
 49
4.0
 74
     0
 49
-0.6
 74
     0
 49
0.3
 74
     0
 49
-0.6
 74
     0
  0
LTYPE
  5
24
330
5
100
AcDbSymbolTableRecord
100
AcDbLinetypeTableRecord
  2
DASHED
 70
     0
  3
_ _ _ _ _ _ _ _ _ _ _ _ _ _ _ _ _ _ _ _ _ _ _
 72
    65
 73
     2
 40
2.0
 49
1.199999999999999
 74
     0
 49
-0.8
 74
     0
  0
ENDTAB
  0
TABLE
  2
LAYER
  5
2
330
0
100
AcDbSymbolTable
 70
    13
  0
LAYER
  5
10
330
2
100
AcDbSymbolTableRecord
100
AcDbLayerTableRecord
  2
0
 70
     0
 62
     7
  6
CONTINUOUS
  0
LAYER
  5
22
330
2
100
AcDbSymbolTableRecord
100
AcDbLayerTableRecord
  2
DETAIL
 70
     0
 62
     5
  6
CONTINUOUS
  0
LAYER
  5
29
330
2
100
AcDbSymbolTableRecord
100
AcDbLayerTableRecord
  2
OUTLINE
 70
     0
 62
     3
  6
CONTINUOUS
  0
LAYER
  5
2A
330
2
100
AcDbSymbolTableRecord
100
AcDbLayerTableRecord
  2
BASIS
 70
     0
 62
     6
  6
CONTINUOUS
  0
LAYER
  5
2B
330
2
100
AcDbSymbolTableRecord
100
AcDbLayerTableRecord
  2
NOTE
 70
     0
 62
     4
  6
CONTINUOUS
  0
LAYER
  5
2C
330
2
100
AcDbSymbolTableRecord
100
AcDbLayerTableRecord
  2
DEFPOINTS
 70
     0
 62
     7
  6
CONTINUOUS
  0
LAYER
  5
2D
330
2
100
AcDbSymbolTableRecord
100
AcDbLayerTableRecord
  2
SIZE
 70
     0
 62
    32
  6
CONTINUOUS
  0
LAYER
  5
2E
330
2
100
AcDbSymbolTableRecord
100
AcDbLayerTableRecord
  2
ARRANGE
 70
     0
 62
     1
  6
CONTINUOUS
  0
LAYER
  5
2F
330
2
100
AcDbSymbolTableRecord
100
AcDbLayerTableRecord
  2
FIX
 70
     0
 62
   241
  6
CONTINUOUS
  0
LAYER
  5
30
330
2
100
AcDbSymbolTableRecord
100
AcDbLayerTableRecord
  2
SERVICESPACE
 70
     0
 62
     2
  6
CONTINUOUS
  0
LAYER
  5
31
330
2
100
AcDbSymbolTableRecord
100
AcDbLayerTableRecord
  2
ETC
 70
     0
 62
    83
  6
CONTINUOUS
  0
ENDTAB
  0
TABLE
  2
STYLE
  5
3
330
0
100
AcDbSymbolTable
 70
     2
  0
STYLE
  5
11
330
3
100
AcDbSymbolTableRecord
100
AcDbTextStyleTableRecord
  2
STANDARD
 70
     0
 40
0.0
 41
0.9
 50
0.0
 71
     0
 42
64.0
  3
SIMPLEX
  4
BIGFONT
  0
ENDTAB
  0
TABLE
  2
VIEW
  5
6
330
0
100
AcDbSymbolTable
 70
     1
  0
VIEW
  5
33
330
6
100
AcDbSymbolTableRecord
100
AcDbViewTableRecord
  2
ALL
 70
     0
 40
4508.021
 10
0.0
 20
41.30990399999999
 41
6252.632
 11
0.0
 21
0.0
 31
1.0
 12
0.0
 22
0.0
 32
0.0
 42
50.0
 43
0.0
 44
0.0
 50
0.0
 71
     0
  0
ENDTAB
  0
TABLE
  2
UCS
  5
7
330
0
100
AcDbSymbolTable
 70
     0
  0
ENDTAB
  0
TABLE
  2
APPID
  5
9
330
0
100
AcDbSymbolTable
 70
     1
  0
APPID
  5
12
330
9
100
AcDbSymbolTableRecord
100
AcDbRegAppTableRecord
  2
ACAD
 70
     0
  0
ENDTAB
  0
TABLE
  2
DIMSTYLE
  5
A
330
0
100
AcDbSymbolTable
 70
     2
  0
DIMSTYLE
105
1B2
330
A
100
AcDbSymbolTableRecord
100
AcDbDimStyleTableRecord
  2
STANDARD
 70
     0
  3

  4

  5
ORIGIN
  6

  7

 40
0.0
 41
12.0
 42
10.0
 43
10.0
 44
30.0
 45
0.0
 46
0.0
 47
0.0
 48
0.0
140
64.0
141
0.0
142
0.0
143
25.4
144
1.0
145
0.0
146
1.0
147
20.0
 71
     0
 72
     0
 73
     0
 74
     0
 75
     0
 76
     0
 77
     1
 78
     0
170
     0
171
     2
172
     1
173
     0
174
     0
175
     0
176
     0
177
     0
178
     0
270
     2
271
     0
272
     0
273
     2
274
     2
340
11
275
     0
280
     0
281
     0
282
     0
283
     1
284
     0
285
     0
286
     0
287
     3
288
     0
  0
ENDTAB
  0
TABLE
  2
BLOCK_RECORD
  5
1
330
0
100
AcDbSymbolTable
 70
    34
  0
BLOCK_RECORD
  5
1E
102
{ACAD_XDICTIONARY
360
2615
102
}
330
1
100
AcDbSymbolTableRecord
100
AcDbBlockTableRecord
  2
*MODEL_SPACE
  0
BLOCK_RECORD
  5
1A
102
{ACAD_XDICTIONARY
360
2613
102
}
330
1
100
AcDbSymbolTableRecord
100
AcDbBlockTableRecord
  2
*PAPER_SPACE
  0
BLOCK_RECORD
  5
1136
330
1
100
AcDbSymbolTableRecord
100
AcDbBlockTableRecord
  2
_ORIGIN
  0
ENDTAB
  0
ENDSEC
  0
SECTION
  2
BLOCKS
  0
BLOCK
  5
1F
330
1E
100
AcDbEntity
  8
0
100
AcDbBlockBegin
  2
*MODEL_SPACE
 70
     0
 10
0.0
 20
0.0
 30
0.0
  3
*MODEL_SPACE
  1

  0
ENDBLK
  5
20
330
1E
100
AcDbEntity
  8
0
100
AcDbBlockEnd
  0
BLOCK
  5
1B
330
1A
100
AcDbEntity
 67
     1
  8
0
100
AcDbBlockBegin
  2
*PAPER_SPACE
 70
     0
 10
0.0
 20
0.0
 30
0.0
  3
*PAPER_SPACE
  1

  0
ENDBLK
  5
1C
330
1A
100
AcDbEntity
 67
     1
  8
0
100
AcDbBlockEnd
  0
BLOCK
  5
1139
330
1136
100
AcDbEntity
  8
0
100
AcDbBlockBegin
  2
_ORIGIN
 70
     0
 10
0.0
 20
0.0
 30
0.0
  3
_ORIGIN
  1

  0
CIRCLE
  5
1137
330
1136
100
AcDbEntity
  8
0
  6
BYBLOCK
 62
     0
100
AcDbCircle
 10
0.0
 20
0.0
 30
0.0
 40
0.5
  0
LINE
  5
1138
330
1136
100
AcDbEntity
  8
0
  6
BYBLOCK
 62
     0
100
AcDbLine
 10
0.0
 20
0.0
 30
0.0
 11
-1.0
 21
0.0
 31
0.0
  0
ENDBLK
  5
113A
330
1136
100
AcDbEntity
  8
0
100
AcDbBlockEnd
  0
ENDSEC
  0
SECTION
  2
ENTITIES
  0
TEXT
  5
369
330
1E
100
AcDbEntity
  8
ETC
  6
CONTINUOUS
100
AcDbText
 10
348.4696926619326
 20
771.5172658254624
 30
0.0
 40
64.0
  1
HAC
 41
0.9
100
AcDbText
  0
TEXT
  5
37B
330
1E
100
AcDbEntity
  8
ETC
  6
CONTINUOUS
100
AcDbText
 10
348.4696926619326
 20
651.0073108254623
 30
0.0
 40
64.0
  1
SMLZ0843
 41
0.9
100
AcDbText
  0
TEXT
  5
159F
330
1E
100
AcDbEntity
  8
NOTE
  6
CONTINUOUS
100
AcDbText
 10
-27.74117899409429
 20
-360.1653678775819
 30
0.0
 40
64.0
  1
ピッチ
 41
0.9
100
AcDbText
  0
TEXT
  5
15A0
330
1E
100
AcDbEntity
  8
NOTE
  6
CONTINUOUS
100
AcDbText
 10
-159.9903611109439
 20
-278.0551324736206
 30
0.0
 40
64.0
  1
吊りボルト
 41
0.9
100
AcDbText
  0
LINE
  5
15A1
330
1E
100
AcDbEntity
  8
SIZE
  6
BYBLOCK
100
AcDbLine
 10
-153.9999999999963
 20
-451.2179960869743
 30
0.0
 11
154.0000000000036
 21
-451.2179960869743
 31
0.0
  0
TEXT
  5
15A2
330
1E
100
AcDbEntity
  8
SIZE
  6
BYBLOCK
100
AcDbText
 10
-25.9177821133544
 20
-433.5581300071043
 30
0.0
 40
64.0
  1
308
 41
0.9
100
AcDbText
  0
TEXT
  5
15A3
330
1E
100
AcDbEntity
  8
NOTE
  6
CONTINUOUS
100
AcDbText
 10
-156.8010855178426
 20
-558.7173551413634
 30
0.0
 40
64.0
  1
天井開口穴
 41
0.9
100
AcDbText
  0
TEXT
  5
15A5
330
1E
100
AcDbEntity
  8
NOTE
  6
CONTINUOUS
100
AcDbText
 10
-168.4216647898356
 20
-768.8358337813606
 30
0.0
 40
64.0
  1
化粧パネル
 41
0.9
100
AcDbText
  0
TEXT
  5
15A7
330
1E
100
AcDbEntity
  8
SIZE
  6
BYBLOCK
100
AcDbText
 10
-82.4436927142824
 20
568.2048447129782
 30
0.0
 40
64.0
  1
360
 41
0.9
100
AcDbText
  0
LINE
  5
15A8
330
1E
100
AcDbEntity
  8
SIZE
  6
BYBLOCK
100
AcDbLine
 10
178.0000000000036
 20
554.2417597129788
 30
0.0
 11
-17.49999999999636
 21
554.2417597129788
 31
0.0
  0
LINE
  5
15B3
330
1E
100
AcDbEntity
  8
DETAIL
  6
CONTINUOUS
100
AcDbLine
 10
-180.0
 20
175.0
 30
0.0
 11
180.0
 21
175.0
 31
0.0
  0
LINE
  5
15B4
330
1E
100
AcDbEntity
  8
DETAIL
  6
CONTINUOUS
100
AcDbLine
 10
-180.0
 20
0.0
 30
0.0
 11
180.0
 21
0.0
 31
0.0
  0
ARC
  5
15B5
330
1E
100
AcDbEntity
  8
DETAIL
  6
CONTINUOUS
100
AcDbCircle
 10
0.0
 20
4566.000000000004
 30
0.0
 40
4600.0
100
AcDbArc
 50
268.1777000000017
 51
271.8222999999981
  0
LINE
  5
15B6
330
1E
100
AcDbEntity
  8
DETAIL
  6
CONTINUOUS
100
AcDbLine
 10
-187.5
 20
0.0
 30
0.0
 11
187.5
 21
0.0
 31
0.0
  0
LINE
  5
15BD
330
1E
100
AcDbEntity
  8
SIZE
  6
BYBLOCK
100
AcDbLine
 10
180.0000000000036
 20
195.3000799999999
 30
0.0
 11
180.0000000000036
 21
583.8497881229414
 31
0.0
  0
LINE
  5
15BE
330
1E
100
AcDbEntity
  8
SIZE
  6
BYBLOCK
100
AcDbLine
 10
180.0000000000036
 20
-31.69992000000002
 30
0.0
 11
180.0000000000036
 21
-474.9496127036036
 31
0.0
  0
LINE
  5
15BF
330
1E
100
AcDbEntity
  8
SIZE
  6
BYBLOCK
100
AcDbLine
 10
154.0000000000036
 20
72.30007999999997
 30
0.0
 11
154.0000000000036
 21
-475.6164904289689
 31
0.0
  0
LINE
  5
15C0
330
1E
100
AcDbEntity
  8
SIZE
  6
CONTINUOUS
100
AcDbLine
 10
323.4477070000039
 20
-451.2179960869743
 30
0.0
 11
180.0000000000036
 21
-451.2179960869743
 31
0.0
  0
TEXT
  5
15C1
330
1E
100
AcDbEntity
  8
SIZE
  6
BYBLOCK
100
AcDbText
 10
215.5246042857179
 20
-434.1266857755308
 30
0.0
 40
64.0
  1
26
 41
0.9
100
AcDbText
  0
CIRCLE
  5
15C2
330
1E
100
AcDbEntity
  8
SIZE
  6
CONTINUOUS
100
AcDbCircle
 10
180.0000000000036
 20
-451.2179960869743
 30
0.0
 40
6.0
  0
CIRCLE
  5
15C3
330
1E
100
AcDbEntity
  8
SIZE
  6
CONTINUOUS
100
AcDbCircle
 10
154.0000000000036
 20
-451.2179960869743
 30
0.0
 40
6.0
  0
LINE
  5
15C4
330
1E
100
AcDbEntity
  8
SIZE
  6
BYBLOCK
100
AcDbLine
 10
180.0000000000036
 20
-451.2179960869743
 30
0.0
 11
154.0000000000036
 21
-451.2179960869743
 31
0.0
  0
TEXT
  5
15C5
330
1E
100
AcDbEntity
  8
NOTE
  6
CONTINUOUS
100
AcDbText
 10
59.44865511178159
 20
-175.3320477751822
 30
0.0
 40
50.0
  1
EA
 41
0.9
100
AcDbText
  0
LINE
  5
15C6
330
1E
100
AcDbEntity
  8
NOTE
  6
CONTINUOUS
100
AcDbLine
 10
762.8729233896519
 20
313.8492580543679
 30
0.0
 11
268.5756583865486
 21
313.8492580543688
 31
0.0
  0
TEXT
  5
15C7
330
1E
100
AcDbEntity
  8
NOTE
  6
CONTINUOUS
100
AcDbText
 10
271.8771844833136
 20
328.4362282842885
 30
0.0
 40
64.0
  1
吊りボルトM10
 41
0.9
100
AcDbText
  0
LINE
  5
15C9
330
1E
100
AcDbEntity
  8
NOTE
  6
CONTINUOUS
100
AcDbLine
 10
159.0000000000145
 20
146.1500400000004
 30
0.0
 11
268.5756583865486
 21
313.8492580543688
 31
0.0
  0
LWPOLYLINE
  5
15CA
330
1E
100
AcDbEntity
  8
NOTE
  6
CONTINUOUS
100
AcDbPolyline
 90
        3
 70
     0
 43
0.0
 10
189.0839850000147
 20
172.5120160000005
 10
159.0000000000145
 20
146.1500400000004
 10
171.8725080000149
 20
184.0221739999997
  0
LINE
  5
15CB
330
1E
100
AcDbEntity
  8
DETAIL
  6
CONTINUOUS
100
AcDbLine
 10
149.0000000000145
 20
74.50552000000062
 30
0.0
 11
159.0000000000145
 21
74.50552000000062
 31
0.0
  0
LINE
  5
15CC
330
1E
100
AcDbEntity
  8
DETAIL
  6
CONTINUOUS
100
AcDbLine
 10
159.0000000000145
 20
74.50552000000062
 30
0.0
 11
159.0000000000145
 21
110.0000799999998
 31
0.0
  0
LINE
  5
15CD
330
1E
100
AcDbEntity
  8
DETAIL
  6
CONTINUOUS
100
AcDbLine
 10
149.0000000000145
 20
74.50552000000062
 30
0.0
 11
149.0000000000145
 21
110.0000799999998
 31
0.0
  0
LINE
  5
15CE
330
1E
100
AcDbEntity
  8
DETAIL
  6
CONTINUOUS
100
AcDbLine
 10
159.0000000000145
 20
112.3000799999999
 30
0.0
 11
159.0000000000145
 21
180.0
 31
0.0
  0
LINE
  5
15CF
330
1E
100
AcDbEntity
  8
DETAIL
  6
CONTINUOUS
100
AcDbLine
 10
149.0000000000145
 20
112.3000799999999
 30
0.0
 11
149.0000000000145
 21
180.0
 31
0.0
  0
LINE
  5
15D0
330
1E
100
AcDbEntity
  8
NOTE
  6
CONTINUOUS
100
AcDbLine
 10
89.59089838097042
 20
-41.44828908083036
 30
0.0
 11
64.58933838098346
 21
-66.44982908083694
 31
0.0
  0
LINE
  5
15D1
330
1E
100
AcDbEntity
  8
NOTE
  6
CONTINUOUS
100
AcDbLine
 10
64.58933838098346
 20
-66.44982908083694
 30
0.0
 11
99.11687175641418
 21
-100.9773624562676
 31
0.0
  0
LINE
  5
15D2
330
1E
100
AcDbEntity
  8
NOTE
  6
CONTINUOUS
100
AcDbLine
 10
99.11687175641418
 20
-100.9773624562676
 30
0.0
 11
87.25340175640667
 21
-112.840832456266
 31
0.0
  0
LINE
  5
15D3
330
1E
100
AcDbEntity
  8
NOTE
  6
CONTINUOUS
100
AcDbLine
 10
87.25340175640667
 20
-112.840832456266
 30
0.0
 11
133.0241217564071
 21
-109.8830624562669
 31
0.0
  0
LINE
  5
15D4
330
1E
100
AcDbEntity
  8
NOTE
  6
CONTINUOUS
100
AcDbLine
 10
124.1184217564114
 20
-75.97581245626497
 30
0.0
 11
135.9818917564189
 21
-64.11235245626631
 31
0.0
  0
LINE
  5
15D5
330
1E
100
AcDbEntity
  8
NOTE
  6
CONTINUOUS
100
AcDbLine
 10
89.59089838097042
 20
-41.44828908083036
 30
0.0
 11
124.1184217564114
 21
-75.97581245626497
 31
0.0
  0
LINE
  5
15D6
330
1E
100
AcDbEntity
  8
NOTE
  6
CONTINUOUS
100
AcDbLine
 10
135.9818917564189
 20
-64.11235245626631
 30
0.0
 11
133.0241217564071
 21
-109.8830624562669
 31
0.0
  0
LINE
  5
15E3
330
1E
100
AcDbEntity
  8
DETAIL
  6
CONTINUOUS
100
AcDbLine
 10
178.0000000000109
 20
105.300079999999
 30
0.0
 11
178.0000000000109
 21
112.3000799999999
 31
0.0
  0
LINE
  5
15E4
330
1E
100
AcDbEntity
  8
DETAIL
  6
CONTINUOUS
100
AcDbLine
 10
130.0
 20
112.3000799999999
 30
0.0
 11
178.0000000000109
 21
112.3000799999999
 31
0.0
  0
LINE
  5
15E5
330
1E
100
AcDbEntity
  8
DETAIL
  6
CONTINUOUS
100
AcDbLine
 10
160.0
 20
110.0000799999998
 30
0.0
 11
148.0000000000109
 21
110.0000799999998
 31
0.0
  0
LINE
  5
15E6
330
1E
100
AcDbEntity
  8
DETAIL
  6
CONTINUOUS
100
AcDbLine
 10
130.0
 20
105.300079999999
 30
0.0
 11
130.0
 21
112.3000799999999
 31
0.0
  0
ARC
  5
15E7
330
1E
100
AcDbEntity
  8
DETAIL
  6
CONTINUOUS
100
AcDbCircle
 10
133.0000000000109
 20
105.300079999999
 30
0.0
 40
3.0
100
AcDbArc
 50
180.0
 51
270.0
  0
ARC
  5
15E8
330
1E
100
AcDbEntity
  8
DETAIL
  6
CONTINUOUS
100
AcDbCircle
 10
145.0
 20
105.300079999999
 30
0.0
 40
3.0
100
AcDbArc
 50
270.0
 51
0.000000000000007
  0
ARC
  5
15E9
330
1E
100
AcDbEntity
  8
DETAIL
  6
CONTINUOUS
100
AcDbCircle
 10
163.0000000000109
 20
105.300079999999
 30
0.0
 40
3.0
100
AcDbArc
 50
180.0
 51
270.0
  0
LINE
  5
15EA
330
1E
100
AcDbEntity
  8
DETAIL
  6
CONTINUOUS
100
AcDbLine
 10
163.0000000000109
 20
102.3000799999999
 30
0.0
 11
175.0
 21
102.3000799999999
 31
0.0
  0
LINE
  5
15EB
330
1E
100
AcDbEntity
  8
DETAIL
  6
CONTINUOUS
100
AcDbLine
 10
133.0000000000109
 20
102.3000799999999
 30
0.0
 11
145.0
 21
102.3000799999999
 31
0.0
  0
LINE
  5
15EC
330
1E
100
AcDbEntity
  8
DETAIL
  6
CONTINUOUS
100
AcDbLine
 10
160.0
 20
105.300079999999
 30
0.0
 11
160.0
 21
112.3000799999999
 31
0.0
  0
LINE
  5
15ED
330
1E
100
AcDbEntity
  8
DETAIL
  6
CONTINUOUS
100
AcDbLine
 10
148.0000000000109
 20
105.300079999999
 30
0.0
 11
148.0000000000109
 21
112.3000799999999
 31
0.0
  0
ARC
  5
15EE
330
1E
100
AcDbEntity
  8
DETAIL
  6
CONTINUOUS
100
AcDbCircle
 10
175.0
 20
105.300079999999
 30
0.0
 40
3.0
100
AcDbArc
 50
270.0
 51
0.000000000000007
  0
LINE
  5
15F0
330
1E
100
AcDbEntity
  8
DETAIL
  6
CONTINUOUS
100
AcDbLine
 10
180.0
 20
175.0
 30
0.0
 11
180.0
 21
0.0
 31
0.0
  0
LINE
  5
15F1
330
1E
100
AcDbEntity
  8
DETAIL
  6
CONTINUOUS
100
AcDbLine
 10
207.0000000000009
 20
0.0
 30
0.0
 11
204.6790500000006
 21
-8.661929999998392
 31
0.0
  0
ARC
  5
15F2
330
1E
100
AcDbEntity
  8
DETAIL
  6
CONTINUOUS
100
AcDbCircle
 10
143.0989500000014
 20
68.27583000000231
 30
0.0
 40
100.0
100
AcDbArc
 50
271.8222999999981
 51
306.1178079999878
  0
ARC
  5
15F3
330
1E
100
AcDbEntity
  8
DETAIL
  6
CONTINUOUS
100
AcDbCircle
 10
197.9175699999996
 20
-6.850199999989854
 30
0.0
 40
7.0
100
AcDbArc
 50
306.1178079999878
 51
345.0000000000055
  0
LINE
  5
15F4
330
1E
100
AcDbEntity
  8
DETAIL
  6
CONTINUOUS
100
AcDbLine
 10
187.7700000000004
 20
0.0
 30
0.0
 11
201.2286800000001
 21
0.0
 31
0.0
  0
LINE
  5
15F5
330
1E
100
AcDbEntity
  8
DETAIL
  6
CONTINUOUS
100
AcDbLine
 10
187.7700000000004
 20
0.0
 30
0.0
 11
187.5
 21
0.0
 31
0.0
  0
LINE
  5
15F6
330
1E
100
AcDbEntity
  8
DETAIL
  6
DASHED
100
AcDbLine
 10
187.7700000000004
 20
0.0
 30
0.0
 11
187.5
 21
0.0
 31
0.0
  0
LINE
  5
15F7
330
1E
100
AcDbEntity
  8
DETAIL
  6
DASHED
100
AcDbLine
 10
187.7700000000004
 20
0.0
 30
0.0
 11
187.5
 21
0.0
 31
0.0
  0
LINE
  5
15F8
330
1E
100
AcDbEntity
  8
DETAIL
  6
CONTINUOUS
100
AcDbLine
 10
201.2286800000001
 20
0.0
 30
0.0
 11
207.0000000000009
 21
0.0
 31
0.0
  0
LINE
  5
15F9
330
1E
100
AcDbEntity
  8
SERVICESPACE
  6
CONTINUOUS
100
AcDbLine
 10
192.0000000000072
 20
0.0
 30
0.0
 11
192.0000000000072
 21
8.999999999998181
 31
0.0
  0
LINE
  5
15FA
330
1E
100
AcDbEntity
  8
SERVICESPACE
  6
CONTINUOUS
100
AcDbLine
 10
263.4499295582973
 20
8.999999999998181
 30
0.0
 11
192.0000000000072
 21
8.999999999998181
 31
0.0
  0
LINE
  5
15FB
330
1E
100
AcDbEntity
  8
SERVICESPACE
  6
CONTINUOUS
100
AcDbLine
 10
263.4499295582973
 20
0.0
 30
0.0
 11
192.0000000000072
 21
0.0
 31
0.0
  0
LINE
  5
15FC
330
1E
100
AcDbEntity
  8
SERVICESPACE
100
AcDbLine
 10
257.9369575799428
 20
0.0
 30
0.0
 11
252.7408051572365
 21
8.999999999998181
 31
0.0
  0
LINE
  5
15FD
330
1E
100
AcDbEntity
  8
SERVICESPACE
100
AcDbLine
 10
246.3899521961502
 20
0.0
 30
0.0
 11
241.1937997734448
 21
8.99999999999909
 31
0.0
  0
LINE
  5
15FE
330
1E
100
AcDbEntity
  8
SERVICESPACE
100
AcDbLine
 10
234.8429468123577
 20
0.0
 30
0.0
 11
229.6467943896514
 21
8.99999999999909
 31
0.0
  0
LINE
  5
15FF
330
1E
100
AcDbEntity
  8
SERVICESPACE
100
AcDbLine
 10
223.295941428566
 20
0.0
 30
0.0
 11
218.0997890058597
 21
8.99999999999909
 31
0.0
  0
LINE
  5
1600
330
1E
100
AcDbEntity
  8
SERVICESPACE
100
AcDbLine
 10
211.7489360447725
 20
0.0
 30
0.0
 11
206.5527836220671
 21
8.99999999999909
 31
0.0
  0
LINE
  5
1601
330
1E
100
AcDbEntity
  8
SERVICESPACE
100
AcDbLine
 10
200.2019306609799
 20
0.0
 30
0.0
 11
195.0057782382737
 21
8.999999999998181
 31
0.0
  0
LINE
  5
1602
330
1E
100
AcDbEntity
  8
BASIS
  6
DASHDOT
100
AcDbLine
 10
154.0000000000145
 20
97.93718183580494
 30
0.0
 11
154.0000000000145
 21
126.662978164195
 31
0.0
  0
LINE
  5
1603
330
1E
100
AcDbEntity
  8
NOTE
  6
CONTINUOUS
100
AcDbLine
 10
409.6797980000146
 20
193.1927729999997
 30
0.0
 11
253.6801140000143
 21
193.1927729999997
 31
0.0
  0
LINE
  5
1604
330
1E
100
AcDbEntity
  8
NOTE
  6
CONTINUOUS
100
AcDbLine
 10
253.6801140000143
 20
193.1927729999997
 30
0.0
 11
154.0000000000145
 21
112.3000799999999
 31
0.0
  0
LWPOLYLINE
  5
1605
330
1E
100
AcDbEntity
  8
NOTE
  6
CONTINUOUS
100
AcDbPolyline
 90
        3
 70
     0
 43
0.0
 10
190.1152420000144
 20
129.495699
 10
154.0000000000145
 20
112.3000799999999
 10
176.678907000014
 20
145.2495440000002
  0
CIRCLE
  5
1606
330
1E
100
AcDbEntity
  8
FIX
  6
CONTINUOUS
100
AcDbCircle
 10
154.0000000000145
 20
112.3000799999999
 30
0.0
 40
10.0
  0
LINE
  5
1607
330
1E
100
AcDbEntity
  8
NOTE
  6
CONTINUOUS
100
AcDbLine
 10
154.0000000000145
 20
92.30007999999997
 30
0.0
 11
154.0000000000145
 21
132.3000799999999
 31
0.0
  0
LINE
  5
1608
330
1E
100
AcDbEntity
  8
NOTE
  6
CONTINUOUS
100
AcDbLine
 10
174.0000000000145
 20
112.3000799999999
 30
0.0
 11
134.0000000000145
 21
112.3000799999999
 31
0.0
  0
LINE
  5
1609
330
1E
100
AcDbEntity
  8
SIZE
  6
BYBLOCK
100
AcDbLine
 10
200.0000000000036
 20
112.3000799999999
 30
0.0
 11
405.7884440000034
 21
112.3000799999999
 31
0.0
  0
TEXT
  5
160A
330
1E
100
AcDbEntity
  8
NOTE
  6
CONTINUOUS
100
AcDbText
 10
283.9209468571571
 20
215.1641770000005
 30
0.0
 40
64.0
  1
AH
 41
0.9
100
AcDbText
  0
CIRCLE
  5
160D
330
1E
100
AcDbEntity
  8
SIZE
  6
CONTINUOUS
100
AcDbCircle
 10
180.0000000000036
 20
554.2417597129788
 30
0.0
 40
6.0
  0
LINE
  5
1616
330
1E
100
AcDbEntity
  8
SIZE
  6
BYBLOCK
100
AcDbLine
 10
-179.9999999999963
 20
195.3000799999999
 30
0.0
 11
-179.9999999999963
 21
581.9753247554035
 31
0.0
  0
LINE
  5
1617
330
1E
100
AcDbEntity
  8
NOTE
  6
CONTINUOUS
100
AcDbLine
 10
-307.4867137233923
 20
314.8427680407321
 30
0.0
 11
-799.7329197144235
 21
314.842768040733
 31
0.0
  0
TEXT
  5
1618
330
1E
100
AcDbEntity
  8
NOTE
  6
CONTINUOUS
100
AcDbText
 10
-816.9501488510714
 20
328.3436713354194
 30
0.0
 40
64.0
  1
吊りボルトM10
 41
0.9
100
AcDbText
  0
LINE
  5
1619
330
1E
100
AcDbEntity
  8
SIZE
  6
CONTINUOUS
100
AcDbLine
 10
-199.9999999999963
 20
175.3000799999999
 30
0.0
 11
-390.7750864364789
 21
175.3000799999999
 31
0.0
  0
LINE
  5
161A
330
1E
100
AcDbEntity
  8
SIZE
  6
CONTINUOUS
100
AcDbLine
 10
-201.2283900000002
 20
0.0
 30
0.0
 11
-391.0726483230828
 21
0.0
 31
0.0
  0
LINE
  5
161B
330
1E
100
AcDbEntity
  8
NOTE
  6
CONTINUOUS
100
AcDbLine
 10
-463.0477416131707
 20
-325.1380293524425
 30
0.0
 11
-765.8271231360741
 21
-325.1380293524425
 31
0.0
  0
TEXT
  5
161C
330
1E
100
AcDbEntity
  8
NOTE
  6
CONTINUOUS
100
AcDbText
 10
-735.4639477493419
 20
-304.9194094266622
 30
0.0
 40
64.0
  1
天井下面
 41
0.9
100
AcDbText
  0
LINE
  5
161D
330
1E
100
AcDbEntity
  8
SIZE
  6
BYBLOCK
100
AcDbLine
 10
-179.9999999999963
 20
-31.69992000000002
 30
0.0
 11
-179.9999999999963
 21
-478.332907316726
 31
0.0
  0
LINE
  5
161E
330
1E
100
AcDbEntity
  8
SIZE
  6
BYBLOCK
100
AcDbLine
 10
-153.9999999999963
 20
72.30007999999997
 30
0.0
 11
-153.9999999999963
 21
-478.2993430237838
 31
0.0
  0
LINE
  5
1622
330
1E
100
AcDbEntity
  8
NOTE
  6
CONTINUOUS
100
AcDbLine
 10
-108.4283999999934
 20
-119.9601723855475
 30
0.0
 11
-108.4283999999934
 21
-78.70356000000175
 31
0.0
  0
LINE
  5
1623
330
1E
100
AcDbEntity
  8
NOTE
  6
CONTINUOUS
100
AcDbLine
 10
-73.07086999999228
 20
-119.9601723855475
 30
0.0
 11
-73.07086999999228
 21
-78.70356000000175
 31
0.0
  0
LINE
  5
1624
330
1E
100
AcDbEntity
  8
NOTE
  6
CONTINUOUS
100
AcDbLine
 10
-249.7350269189519
 20
0.0
 30
0.0
 11
-463.0477416131707
 21
-325.1380293524425
 31
0.0
  0
LINE
  5
1625
330
1E
100
AcDbEntity
  8
SIZE
  6
CONTINUOUS
100
AcDbLine
 10
-179.9999999999963
 20
-451.2179960869743
 30
0.0
 11
-325.4477069999966
 21
-451.2179960869743
 31
0.0
  0
CIRCLE
  5
1626
330
1E
100
AcDbEntity
  8
SIZE
  6
CONTINUOUS
100
AcDbCircle
 10
-179.9999999999963
 20
-451.2179960869743
 30
0.0
 40
6.0
  0
CIRCLE
  5
1627
330
1E
100
AcDbEntity
  8
SIZE
  6
CONTINUOUS
100
AcDbCircle
 10
-153.9999999999963
 20
-451.2179960869743
 30
0.0
 40
6.0
  0
LINE
  5
1628
330
1E
100
AcDbEntity
  8
SIZE
  6
BYBLOCK
100
AcDbLine
 10
-153.9999999999963
 20
-451.2179960869743
 30
0.0
 11
-179.9999999999963
 21
-451.2179960869743
 31
0.0
  0
TEXT
  5
1629
330
1E
100
AcDbEntity
  8
SIZE
  6
BYBLOCK
100
AcDbText
 10
-303.2960327142818
 20
-434.1266857755381
 30
0.0
 40
64.0
  1
26
 41
0.9
100
AcDbText
  0
LINE
  5
162A
330
1E
100
AcDbEntity
  8
NOTE
  6
CONTINUOUS
100
AcDbLine
 10
-108.4283999999934
 20
-119.9601723855475
 30
0.0
 11
-73.07086999999228
 21
-119.9601723855475
 31
0.0
  0
TEXT
  5
162B
330
1E
100
AcDbEntity
  8
NOTE
  6
CONTINUOUS
100
AcDbText
 10
-135.7902051800319
 20
-186.6279075152906
 30
0.0
 40
50.0
  1
OA
 41
0.9
100
AcDbText
  0
LINE
  5
162C
330
1E
100
AcDbEntity
  8
NOTE
  6
CONTINUOUS
100
AcDbLine
 10
-310.2339033235957
 20
206.2180458402472
 30
0.0
 11
-476.1383293235958
 21
206.2180458402472
 31
0.0
  0
LWPOLYLINE
  5
162F
330
1E
100
AcDbEntity
  8
NOTE
  6
CONTINUOUS
100
AcDbPolyline
 90
        3
 70
     0
 43
0.0
 10
-176.7750929484391
 20
181.9836292489944
 10
-158.9999999999981
 20
146.1500400000004
 10
-192.3104763140236
 20
168.295291666418
  0
LINE
  5
1630
330
1E
100
AcDbEntity
  8
NOTE
  6
CONTINUOUS
100
AcDbLine
 10
-158.9999999999981
 20
146.1500400000004
 30
0.0
 11
-307.4867137233923
 21
314.8427680407321
 31
0.0
  0
LWPOLYLINE
  5
1631
330
1E
100
AcDbEntity
  8
NOTE
  6
CONTINUOUS
100
AcDbPolyline
 90
        3
 70
     0
 43
0.0
 10
-181.5205666095353
 20
141.3279711142422
 10
-153.9999999999963
 20
112.3000799999999
 10
-192.3474546054503
 20
123.6786875206726
  0
LINE
  5
1632
330
1E
100
AcDbEntity
  8
NOTE
  6
CONTINUOUS
100
AcDbLine
 10
-153.9999999999963
 20
112.3000799999999
 30
0.0
 11
-310.2339033235957
 21
206.2180458402472
 31
0.0
  0
LINE
  5
1639
330
1E
100
AcDbEntity
  8
DETAIL
  6
CONTINUOUS
100
AcDbLine
 10
-158.9999999999963
 20
74.50552000000062
 30
0.0
 11
-148.9999999999963
 21
74.50552000000062
 31
0.0
  0
LINE
  5
163A
330
1E
100
AcDbEntity
  8
DETAIL
  6
CONTINUOUS
100
AcDbLine
 10
-148.9999999999963
 20
74.50552000000062
 30
0.0
 11
-148.9999999999963
 21
110.0000799999998
 31
0.0
  0
LINE
  5
163B
330
1E
100
AcDbEntity
  8
DETAIL
  6
CONTINUOUS
100
AcDbLine
 10
-158.9999999999963
 20
74.50552000000062
 30
0.0
 11
-158.9999999999963
 21
110.0000799999998
 31
0.0
  0
LINE
  5
163C
330
1E
100
AcDbEntity
  8
DETAIL
  6
CONTINUOUS
100
AcDbLine
 10
-148.9999999999963
 20
112.3000799999999
 30
0.0
 11
-148.9999999999963
 21
180.0
 31
0.0
  0
LINE
  5
163D
330
1E
100
AcDbEntity
  8
DETAIL
  6
CONTINUOUS
100
AcDbLine
 10
-158.9999999999963
 20
112.3000799999999
 30
0.0
 11
-158.9999999999963
 21
180.0
 31
0.0
  0
LINE
  5
163E
330
1E
100
AcDbEntity
  8
SERVICESPACE
100
AcDbLine
 10
-272.829037686537
 20
0.0
 30
0.0
 11
-278.0251901092433
 21
8.999999999998181
 31
0.0
  0
LINE
  5
163F
330
1E
100
AcDbEntity
  8
DETAIL
  6
CONTINUOUS
100
AcDbLine
 10
-147.9999999999927
 20
105.300079999999
 30
0.0
 11
-147.9999999999927
 21
112.3000799999999
 31
0.0
  0
LINE
  5
1640
330
1E
100
AcDbEntity
  8
DETAIL
  6
CONTINUOUS
100
AcDbLine
 10
-160.0
 20
105.300079999999
 30
0.0
 11
-160.0
 21
112.3000799999999
 31
0.0
  0
LINE
  5
1641
330
1E
100
AcDbEntity
  8
DETAIL
  6
CONTINUOUS
100
AcDbLine
 10
-132.9999999999927
 20
102.3000799999999
 30
0.0
 11
-145.0
 21
102.3000799999999
 31
0.0
  0
LINE
  5
1642
330
1E
100
AcDbEntity
  8
DETAIL
  6
CONTINUOUS
100
AcDbLine
 10
-162.9999999999927
 20
102.3000799999999
 30
0.0
 11
-175.0
 21
102.3000799999999
 31
0.0
  0
ARC
  5
1643
330
1E
100
AcDbEntity
  8
DETAIL
  6
CONTINUOUS
100
AcDbCircle
 10
-162.9999999999927
 20
105.300079999999
 30
0.0
 40
3.0
100
AcDbArc
 50
270.0
 51
0.000000000000007
  0
ARC
  5
1644
330
1E
100
AcDbEntity
  8
DETAIL
  6
CONTINUOUS
100
AcDbCircle
 10
-145.0
 20
105.300079999999
 30
0.0
 40
3.0
100
AcDbArc
 50
180.0
 51
270.0
  0
ARC
  5
1645
330
1E
100
AcDbEntity
  8
DETAIL
  6
CONTINUOUS
100
AcDbCircle
 10
-132.9999999999927
 20
105.300079999999
 30
0.0
 40
3.0
100
AcDbArc
 50
270.0
 51
0.000000000000007
  0
LINE
  5
1646
330
1E
100
AcDbEntity
  8
DETAIL
  6
CONTINUOUS
100
AcDbLine
 10
-160.0
 20
110.0000799999998
 30
0.0
 11
-147.9999999999927
 21
110.0000799999998
 31
0.0
  0
LINE
  5
1647
330
1E
100
AcDbEntity
  8
DETAIL
  6
CONTINUOUS
100
AcDbLine
 10
-130.0
 20
105.300079999999
 30
0.0
 11
-130.0
 21
112.3000799999999
 31
0.0
  0
LINE
  5
1648
330
1E
100
AcDbEntity
  8
DETAIL
  6
CONTINUOUS
100
AcDbLine
 10
-130.0
 20
112.3000799999999
 30
0.0
 11
-177.9999999999927
 21
112.3000799999999
 31
0.0
  0
LINE
  5
1649
330
1E
100
AcDbEntity
  8
DETAIL
  6
CONTINUOUS
100
AcDbLine
 10
-177.9999999999927
 20
105.300079999999
 30
0.0
 11
-177.9999999999927
 21
112.3000799999999
 31
0.0
  0
ARC
  5
164A
330
1E
100
AcDbEntity
  8
DETAIL
  6
CONTINUOUS
100
AcDbCircle
 10
-175.0
 20
105.300079999999
 30
0.0
 40
3.0
100
AcDbArc
 50
180.0
 51
270.0
  0
LINE
  5
1650
330
1E
100
AcDbEntity
  8
DETAIL
  6
CONTINUOUS
100
AcDbLine
 10
-180.0
 20
0.0
 30
0.0
 11
-180.0
 21
175.0
 31
0.0
  0
LINE
  5
1660
330
1E
100
AcDbEntity
  8
DETAIL
  6
CONTINUOUS
100
AcDbLine
 10
-204.6790400000008
 20
-8.661929999998392
 30
0.0
 11
-207.0
 21
0.0
 31
0.0
  0
ARC
  5
1661
330
1E
100
AcDbEntity
  8
DETAIL
  6
CONTINUOUS
100
AcDbCircle
 10
-143.0989499999996
 20
68.27583000000231
 30
0.0
 40
100.0
100
AcDbArc
 50
233.8821920000121
 51
268.1777000000017
  0
LINE
  5
1662
330
1E
100
AcDbEntity
  8
DETAIL
  6
CONTINUOUS
100
AcDbLine
 10
-207.0
 20
0.0
 30
0.0
 11
-201.2283900000002
 21
0.0
 31
0.0
  0
ARC
  5
1663
330
1E
100
AcDbEntity
  8
DETAIL
  6
CONTINUOUS
100
AcDbCircle
 10
-197.9175600000016
 20
-6.850199999989854
 30
0.0
 40
7.0
100
AcDbArc
 50
194.9999999999944
 51
233.8821920000121
  0
LINE
  5
1664
330
1E
100
AcDbEntity
  8
SERVICESPACE
  6
CONTINUOUS
100
AcDbLine
 10
-191.999999999989
 20
0.0
 30
0.0
 11
-191.999999999989
 21
8.999999999998181
 31
0.0
  0
LINE
  5
1665
330
1E
100
AcDbEntity
  8
SERVICESPACE
100
AcDbLine
 10
-191.999999999989
 20
0.0
 30
0.0
 11
-197.1961524226953
 21
8.999999999998181
 31
0.0
  0
LINE
  5
1666
330
1E
100
AcDbEntity
  8
SERVICESPACE
100
AcDbLine
 10
-261.2820323027444
 20
0.0
 30
0.0
 11
-266.4781847254498
 21
8.999999999998181
 31
0.0
  0
LINE
  5
1667
330
1E
100
AcDbEntity
  8
SERVICESPACE
100
AcDbLine
 10
-249.735026918951
 20
0.0
 30
0.0
 11
-254.9311793416573
 21
8.999999999998181
 31
0.0
  0
LINE
  5
1668
330
1E
100
AcDbEntity
  8
SERVICESPACE
100
AcDbLine
 10
-238.1880215351593
 20
0.0
 30
0.0
 11
-243.3841739578656
 21
8.999999999998181
 31
0.0
  0
LINE
  5
1669
330
1E
100
AcDbEntity
  8
SERVICESPACE
100
AcDbLine
 10
-226.6410161513667
 20
0.0
 30
0.0
 11
-231.8371685740721
 21
8.999999999998181
 31
0.0
  0
LINE
  5
166A
330
1E
100
AcDbEntity
  8
SERVICESPACE
100
AcDbLine
 10
-215.0940107675742
 20
0.0
 30
0.0
 11
-220.2901631902804
 21
8.999999999998181
 31
0.0
  0
LINE
  5
166B
330
1E
100
AcDbEntity
  8
SERVICESPACE
100
AcDbLine
 10
-203.5470053837812
 20
0.0
 30
0.0
 11
-208.7431578064879
 21
8.999999999998181
 31
0.0
  0
POINT
  5
166C
330
1E
100
AcDbEntity
  8
ARRANGE
  6
CONTINUOUS
100
AcDbPoint
 10
0.0
 20
0.0
 30
0.0
  0
CIRCLE
  5
166D
330
1E
100
AcDbEntity
  8
ARRANGE
  6
CONTINUOUS
100
AcDbCircle
 10
0.0
 20
0.0
 30
0.0
 40
40.0
  0
LINE
  5
166E
330
1E
100
AcDbEntity
  8
BASIS
  6
DASHDOT
100
AcDbLine
 10
0.0
 20
-66.75330567994206
 30
0.0
 11
0.0
 21
209.3821455733213
 31
0.0
  0
LINE
  5
166F
330
1E
100
AcDbEntity
  8
BASIS
  6
DASHDOT
100
AcDbLine
 10
-153.9999999999963
 20
98.10639168908892
 30
0.0
 11
-153.9999999999963
 21
126.493768310911
 31
0.0
  0
CIRCLE
  5
1670
330
1E
100
AcDbEntity
  8
FIX
  6
CONTINUOUS
100
AcDbCircle
 10
-153.9999999999963
 20
112.3000799999999
 30
0.0
 40
10.0
  0
LINE
  5
1671
330
1E
100
AcDbEntity
  8
NOTE
  6
CONTINUOUS
100
AcDbLine
 10
-153.9999999999963
 20
92.30007999999997
 30
0.0
 11
-153.9999999999963
 21
132.3000799999999
 31
0.0
  0
LINE
  5
1672
330
1E
100
AcDbEntity
  8
NOTE
  6
CONTINUOUS
100
AcDbLine
 10
-133.9999999999963
 20
112.3000799999999
 30
0.0
 11
-173.9999999999963
 21
112.3000799999999
 31
0.0
  0
LINE
  5
1673
330
1E
100
AcDbEntity
  8
DETAIL
  6
CONTINUOUS
100
AcDbLine
 10
-201.2283900000002
 20
0.0
 30
0.0
 11
-187.5
 21
0.0
 31
0.0
  0
LINE
  5
1694
330
1E
100
AcDbEntity
  8
NOTE
  6
CONTINUOUS
100
AcDbLine
 10
-73.07086999999228
 20
-78.70356000000175
 30
0.0
 11
-56.74199999999473
 21
-78.70356000000175
 31
0.0
  0
LINE
  5
1695
330
1E
100
AcDbEntity
  8
NOTE
  6
CONTINUOUS
100
AcDbLine
 10
-90.74963999999454
 20
-48.43023999999968
 30
0.0
 11
-56.74199999999473
 21
-78.70356000000175
 31
0.0
  0
LINE
  5
1696
330
1E
100
AcDbEntity
  8
NOTE
  6
CONTINUOUS
100
AcDbLine
 10
-108.4283999999934
 20
-78.70356000000175
 30
0.0
 11
-124.7572799999943
 21
-78.70356000000175
 31
0.0
  0
LINE
  5
1697
330
1E
100
AcDbEntity
  8
NOTE
  6
CONTINUOUS
100
AcDbLine
 10
-90.74963999999454
 20
-48.43023999999968
 30
0.0
 11
-124.7572799999943
 21
-78.70356000000175
 31
0.0
  0
LINE
  5
169C
330
1E
100
AcDbEntity
  8
SERVICESPACE
  6
CONTINUOUS
100
AcDbLine
 10
-281.0309683475097
 20
8.999999999998181
 30
0.0
 11
-191.999999999989
 21
8.999999999998181
 31
0.0
  0
LINE
  5
169D
330
1E
100
AcDbEntity
  8
SERVICESPACE
  6
CONTINUOUS
100
AcDbLine
 10
-280.9078005992378
 20
0.0
 30
0.0
 11
-191.999999999989
 21
0.0
 31
0.0
  0
LWPOLYLINE
  5
169E
330
1E
100
AcDbEntity
  8
NOTE
  6
CONTINUOUS
100
AcDbPolyline
 90
        3
 70
     0
 43
0.0
 10
-279.9162337900661
 20
-26.25061524713874
 10
-249.7350269189519
 20
0.0
 10
-262.7474108324586
 20
-37.82430235594984
  0
TEXT
  5
169F
330
1E
100
AcDbEntity
  8
NOTE
  6
CONTINUOUS
100
AcDbText
 10
-435.5285294664536
 20
222.5078378402477
 30
0.0
 40
64.0
  1
AH
 41
0.9
100
AcDbText
  0
CIRCLE
  5
16A8
330
1E
100
AcDbEntity
  8
SIZE
  6
CONTINUOUS
100
AcDbCircle
 10
-179.9999999999963
 20
554.2417597129788
 30
0.0
 40
6.0
  0
LINE
  5
16A9
330
1E
100
AcDbEntity
  8
SIZE
  6
BYBLOCK
100
AcDbLine
 10
-177.9999999999963
 20
554.2417597129788
 30
0.0
 11
17.50000000000363
 21
554.2417597129788
 31
0.0
  0
TEXT
  5
16B2
330
1E
100
AcDbEntity
  8
SIZE
  6
BYBLOCK
100
AcDbText
 10
-387.8012161102797
 20
12.78277200000047
 30
0.0
 40
64.0
  1
175
 50
90.0
 41
0.9
100
AcDbText
  0
CIRCLE
  5
16B6
330
1E
100
AcDbEntity
  8
SIZE
  6
CONTINUOUS
100
AcDbCircle
 10
-366.7214673132293
 20
175.3000799999999
 30
0.0
 40
6.0
  0
LINE
  5
16B7
330
1E
100
AcDbEntity
  8
SIZE
  6
BYBLOCK
100
AcDbLine
 10
-366.7214673132293
 20
175.3000799999999
 30
0.0
 11
-366.7214673132293
 21
60.30007999999998
 31
0.0
  0
LINE
  5
16B8
330
1E
100
AcDbEntity
  8
SIZE
  6
BYBLOCK
100
AcDbLine
 10
-366.7214673132293
 20
0.3000799999999799
 30
0.0
 11
-366.7214673132293
 21
115.3000799999999
 31
0.0
  0
CIRCLE
  5
16B9
330
1E
100
AcDbEntity
  8
SIZE
  6
CONTINUOUS
100
AcDbCircle
 10
-366.7214673132293
 20
0.3000799999999799
 30
0.0
 40
6.0
  0
LINE
  5
1781
330
1E
100
AcDbEntity
  8
SIZE
  6
BYBLOCK
100
AcDbLine
 10
395.0085870000002
 20
415.0
 30
0.0
 11
-51.60000000000036
 21
415.0
 31
0.0
  0
LINE
  5
1782
330
1E
100
AcDbEntity
  8
SIZE
  6
CONTINUOUS
100
AcDbLine
 10
128.3999999999996
 20
195.0
 30
0.0
 11
128.3999999999996
 21
445.0
 31
0.0
  0
LINE
  5
1783
330
1E
100
AcDbEntity
  8
SIZE
  6
CONTINUOUS
100
AcDbLine
 10
-51.60000000000036
 20
195.0
 30
0.0
 11
-51.60000000000036
 21
445.0
 31
0.0
  0
CIRCLE
  5
1784
330
1E
100
AcDbEntity
  8
SIZE
  6
CONTINUOUS
100
AcDbCircle
 10
128.3999999999996
 20
415.0
 30
0.0
 40
6.0
  0
CIRCLE
  5
1785
330
1E
100
AcDbEntity
  8
SIZE
  6
CONTINUOUS
100
AcDbCircle
 10
-51.60000000000036
 20
415.0
 30
0.0
 40
6.0
  0
TEXT
  5
1786
330
1E
100
AcDbEntity
  8
SIZE
  6
BYBLOCK
100
AcDbText
 10
-37.82153599999947
 20
447.0
 30
0.0
 40
64.0
  1
180
 41
0.9
100
AcDbText
  0
TEXT
  5
1787
330
1E
100
AcDbEntity
  8
SIZE
  6
BYBLOCK
100
AcDbText
 10
198.2935190000007
 20
446.7886500000004
 30
0.0
 40
64.0
  1
51.6
 41
0.9
100
AcDbText
  0
CIRCLE
  5
1788
330
1E
100
AcDbEntity
  8
SIZE
  6
CONTINUOUS
100
AcDbCircle
 10
180.0
 20
415.0
 30
0.0
 40
6.0
  0
LINE
  5
1789
330
1E
100
AcDbEntity
  8
DETAIL
  6
CONTINUOUS
100
AcDbLine
 10
128.3999999999996
 20
0.0
 30
0.0
 11
128.3999999999996
 21
175.0
 31
0.0
  0
LINE
  5
178A
330
1E
100
AcDbEntity
  8
DETAIL
  6
CONTINUOUS
100
AcDbLine
 10
-51.60000000000036
 20
0.0
 30
0.0
 11
-51.60000000000036
 21
175.0
 31
0.0
  0
LINE
  5
256D
330
1E
100
AcDbEntity
  8
SIZE
100
AcDbLine
 10
192.0000000000072
 20
-10.0
 30
0.0
 11
192.0000000000072
 21
-696.2851381445434
 31
0.0
  0
LINE
  5
256E
330
1E
100
AcDbEntity
  8
SIZE
100
AcDbLine
 10
-191.999999999989
 20
-10.0
 30
0.0
 11
-191.9999999999891
 21
-696.2851381445434
 31
0.0
  0
LINE
  5
256F
330
1E
100
AcDbEntity
  8
SIZE
100
AcDbLine
 10
180.0000000000072
 20
-666.2851381445435
 30
0.0
 11
-179.9999999999891
 21
-666.2851381445435
 31
0.0
  0
LINE
  5
2573
330
1E
100
AcDbEntity
  8
SIZE
100
AcDbLine
 10
207.0000000000009
 20
-10.0
 30
0.0
 11
207.0000000000008
 21
-898.001401729307
 31
0.0
  0
LINE
  5
2574
330
1E
100
AcDbEntity
  8
SIZE
100
AcDbLine
 10
-207.0
 20
-10.0
 30
0.0
 11
-207.0
 21
-898.001401729307
 31
0.0
  0
LINE
  5
2575
330
1E
100
AcDbEntity
  8
SIZE
100
AcDbLine
 10
195.0000000000008
 20
-868.0014017293069
 30
0.0
 11
-195.0
 21
-868.0014017293069
 31
0.0
  0
LINE
  5
2579
330
1E
100
AcDbEntity
  8
SIZE
100
AcDbLine
 10
192.0000000000072
 20
-10.0
 30
0.0
 11
192.0000000000072
 21
-696.2851381445434
 31
0.0
  0
LINE
  5
257A
330
1E
100
AcDbEntity
  8
SIZE
100
AcDbLine
 10
207.0000000000009
 20
-10.0
 30
0.0
 11
207.0000000000008
 21
-696.2851381445434
 31
0.0
  0
LINE
  5
257B
330
1E
100
AcDbEntity
  8
SIZE
100
AcDbLine
 10
180.0000000000072
 20
-666.2851381445435
 30
0.0
 11
168.0000000000072
 21
-666.2851381445435
 31
0.0
  0
LINE
  5
257C
330
1E
100
AcDbEntity
  8
SIZE
100
AcDbLine
 10
219.0000000000008
 20
-666.2851381445435
 30
0.0
 11
353.2857142857151
 21
-666.2851381445435
 31
0.0
  0
LINE
  5
257D
330
1E
100
AcDbEntity
  8
SIZE
100
AcDbLine
 10
192.0000000000072
 20
-666.2851381445435
 30
0.0
 11
207.0000000000008
 21
-666.2851381445435
 31
0.0
  0
LINE
  5
2581
330
1E
100
AcDbEntity
  8
SIZE
100
AcDbLine
 10
-191.999999999989
 20
-10.0
 30
0.0
 11
-191.9999999999891
 21
-696.2851381445434
 31
0.0
  0
LINE
  5
2582
330
1E
100
AcDbEntity
  8
SIZE
100
AcDbLine
 10
-207.0
 20
-10.0
 30
0.0
 11
-207.0
 21
-696.2851381445434
 31
0.0
  0
LINE
  5
2583
330
1E
100
AcDbEntity
  8
SIZE
100
AcDbLine
 10
-179.9999999999891
 20
-666.2851381445435
 30
0.0
 11
-167.9999999999891
 21
-666.2851381445435
 31
0.0
  0
LINE
  5
2584
330
1E
100
AcDbEntity
  8
SIZE
100
AcDbLine
 10
-219.0
 20
-666.2851381445435
 30
0.0
 11
-353.2857142857143
 21
-666.2851381445435
 31
0.0
  0
LINE
  5
2585
330
1E
100
AcDbEntity
  8
SIZE
100
AcDbLine
 10
-191.9999999999891
 20
-666.2851381445435
 30
0.0
 11
-207.0
 21
-666.2851381445435
 31
0.0
  0
LINE
  5
2589
330
1E
100
AcDbEntity
  8
SIZE
100
AcDbLine
 10
217.0000000000009
 20
-0.0000000000000028
 30
0.0
 11
419.5119472921251
 21
-0.0000000000000602
 31
0.0
  0
LINE
  5
258A
330
1E
100
AcDbEntity
  8
SIZE
100
AcDbLine
 10
10.00000000000091
 20
-33.99999999999636
 30
0.0
 11
419.5119472921251
 21
-33.99999999999648
 31
0.0
  0
LINE
  5
258B
330
1E
100
AcDbEntity
  8
SIZE
100
AcDbLine
 10
389.5119472921251
 20
11.99999999999994
 30
0.0
 11
389.5119472921251
 21
23.99999999999995
 31
0.0
  0
LINE
  5
258C
330
1E
100
AcDbEntity
  8
SIZE
100
AcDbLine
 10
389.5119472921251
 20
-45.99999999999647
 30
0.0
 11
389.511947292125
 21
-193.9999999999964
 31
0.0
  0
LINE
  5
258D
330
1E
100
AcDbEntity
  8
SIZE
100
AcDbLine
 10
389.5119472921251
 20
-0.0000000000000517
 30
0.0
 11
389.5119472921251
 21
-33.99999999999646
 31
0.0
  0
LINE
  5
2591
330
1E
100
AcDbEntity
  8
SIZE
100
AcDbLine
 10
202.0000000000072
 20
-0.0000000000000028
 30
0.0
 11
419.5119472921251
 21
-0.0000000000000644
 31
0.0
  0
LINE
  5
2592
330
1E
100
AcDbEntity
  8
SIZE
100
AcDbLine
 10
184.0000000000145
 20
112.3000799999999
 30
0.0
 11
419.5119472921251
 21
112.3000799999999
 31
0.0
  0
LINE
  5
2593
330
1E
100
AcDbEntity
  8
SIZE
100
AcDbLine
 10
389.5119472921251
 20
11.99999999999994
 30
0.0
 11
389.5119472921251
 21
100.3000799999999
 31
0.0
  0
TEXT
  5
2597
330
1E
100
AcDbEntity
  8
SIZE
100
AcDbText
 10
-78.43018196518738
 20
-848.0014017293068
 30
0.0
 40
64.0
  1
414
 41
0.9
100
AcDbText
  0
TEXT
  5
2598
330
1E
100
AcDbEntity
  8
SIZE
100
AcDbText
 10
-71.17942753702559
 20
-646.2851381445434
 30
0.0
 40
64.0
  1
384
 41
0.9
100
AcDbText
  0
CIRCLE
  5
2599
330
1E
100
AcDbEntity
  8
SIZE
  6
BYBLOCK
100
AcDbCircle
 10
-207.0
 20
-868.0014017293069
 30
0.0
 40
6.0
  0
LINE
  5
259A
330
1E
100
AcDbEntity
  8
SIZE
  6
BYBLOCK
100
AcDbLine
 10
-207.0
 20
-868.0014017293069
 30
0.0
 11
-195.0
 21
-868.0014017293069
 31
0.0
  0
TEXT
  5
259B
330
1E
100
AcDbEntity
  8
SIZE
100
AcDbText
 10
-333.2857142857143
 20
-646.2851381445434
 30
0.0
 40
64.0
  1
15
 41
0.9
100
AcDbText
  0
CIRCLE
  5
259C
330
1E
100
AcDbEntity
  8
SIZE
  6
BYBLOCK
100
AcDbCircle
 10
-207.0
 20
-666.2851381445435
 30
0.0
 40
6.0
  0
LINE
  5
259D
330
1E
100
AcDbEntity
  8
SIZE
  6
BYBLOCK
100
AcDbLine
 10
-207.0
 20
-666.2851381445435
 30
0.0
 11
-219.0
 21
-666.2851381445435
 31
0.0
  0
CIRCLE
  5
259E
330
1E
100
AcDbEntity
  8
SIZE
  6
BYBLOCK
100
AcDbCircle
 10
-191.9999999999891
 20
-666.2851381445435
 30
0.0
 40
6.0
  0
LINE
  5
259F
330
1E
100
AcDbEntity
  8
SIZE
  6
BYBLOCK
100
AcDbLine
 10
-191.9999999999891
 20
-666.2851381445435
 30
0.0
 11
-179.9999999999891
 21
-666.2851381445435
 31
0.0
  0
CIRCLE
  5
25A0
330
1E
100
AcDbEntity
  8
SIZE
  6
BYBLOCK
100
AcDbCircle
 10
-191.9999999999891
 20
-666.2851381445435
 30
0.0
 40
6.0
  0
LINE
  5
25A1
330
1E
100
AcDbEntity
  8
SIZE
  6
BYBLOCK
100
AcDbLine
 10
-191.9999999999891
 20
-666.2851381445435
 30
0.0
 11
-179.9999999999891
 21
-666.2851381445435
 31
0.0
  0
CIRCLE
  5
25A2
330
1E
100
AcDbEntity
  8
SIZE
  6
BYBLOCK
100
AcDbCircle
 10
207.0000000000008
 20
-868.0014017293069
 30
0.0
 40
6.0
  0
LINE
  5
25A3
330
1E
100
AcDbEntity
  8
SIZE
  6
BYBLOCK
100
AcDbLine
 10
207.0000000000008
 20
-868.0014017293069
 30
0.0
 11
195.0000000000008
 21
-868.0014017293069
 31
0.0
  0
TEXT
  5
25A4
330
1E
100
AcDbEntity
  8
SIZE
100
AcDbText
 10
251.0000000000008
 20
-646.2851381445434
 30
0.0
 40
64.0
  1
15
 41
0.9
100
AcDbText
  0
CIRCLE
  5
25A5
330
1E
100
AcDbEntity
  8
SIZE
  6
BYBLOCK
100
AcDbCircle
 10
207.0000000000008
 20
-666.2851381445435
 30
0.0
 40
6.0
  0
LINE
  5
25A6
330
1E
100
AcDbEntity
  8
SIZE
  6
BYBLOCK
100
AcDbLine
 10
207.0000000000008
 20
-666.2851381445435
 30
0.0
 11
219.0000000000008
 21
-666.2851381445435
 31
0.0
  0
CIRCLE
  5
25A7
330
1E
100
AcDbEntity
  8
SIZE
  6
BYBLOCK
100
AcDbCircle
 10
192.0000000000072
 20
-666.2851381445435
 30
0.0
 40
6.0
  0
LINE
  5
25A8
330
1E
100
AcDbEntity
  8
SIZE
  6
BYBLOCK
100
AcDbLine
 10
192.0000000000072
 20
-666.2851381445435
 30
0.0
 11
180.0000000000072
 21
-666.2851381445435
 31
0.0
  0
CIRCLE
  5
25A9
330
1E
100
AcDbEntity
  8
SIZE
  6
BYBLOCK
100
AcDbCircle
 10
192.0000000000072
 20
-666.2851381445435
 30
0.0
 40
6.0
  0
LINE
  5
25AA
330
1E
100
AcDbEntity
  8
SIZE
  6
BYBLOCK
100
AcDbLine
 10
192.0000000000072
 20
-666.2851381445435
 30
0.0
 11
180.0000000000072
 21
-666.2851381445435
 31
0.0
  0
CIRCLE
  5
25AB
330
1E
100
AcDbEntity
  8
SIZE
  6
BYBLOCK
100
AcDbCircle
 10
389.5119472921251
 20
-33.99999999999646
 30
0.0
 40
6.0
  0
LINE
  5
25AC
330
1E
100
AcDbEntity
  8
SIZE
  6
BYBLOCK
100
AcDbLine
 10
389.5119472921251
 20
-33.99999999999646
 30
0.0
 11
389.5119472921251
 21
-45.99999999999647
 31
0.0
  0
TEXT
  5
25AD
330
1E
100
AcDbEntity
  8
SIZE
100
AcDbText
 10
369.5119472921251
 20
-173.9999999999964
 30
0.0
 40
64.0
  1
34
 50
90.0
 41
0.9
100
AcDbText
  0
TEXT
  5
25AE
330
1E
100
AcDbEntity
  8
SIZE
100
AcDbText
 10
369.5119472921251
 20
-6.935674285714299
 30
0.0
 40
64.0
  1
112
 50
90.0
 41
0.9
100
AcDbText
  0
CIRCLE
  5
25AF
330
1E
100
AcDbEntity
  8
SIZE
  6
BYBLOCK
100
AcDbCircle
 10
389.5119472921251
 20
112.3000799999999
 30
0.0
 40
6.0
  0
LINE
  5
25B0
330
1E
100
AcDbEntity
  8
SIZE
  6
BYBLOCK
100
AcDbLine
 10
389.5119472921251
 20
112.3000799999999
 30
0.0
 11
389.5119472921251
 21
100.3000799999999
 31
0.0
  0
CIRCLE
  5
25B1
330
1E
100
AcDbEntity
  8
SIZE
  6
BYBLOCK
100
AcDbCircle
 10
389.5119472921251
 20
-0.000000000000056
 30
0.0
 40
6.0
  0
LINE
  5
25B2
330
1E
100
AcDbEntity
  8
SIZE
  6
BYBLOCK
100
AcDbLine
 10
389.5119472921251
 20
-0.000000000000056
 30
0.0
 11
389.5119472921251
 21
11.99999999999994
 31
0.0
  0
CIRCLE
  5
25B3
330
1E
100
AcDbEntity
  8
SIZE
  6
BYBLOCK
100
AcDbCircle
 10
389.5119472921251
 20
-0.0000000000000517
 30
0.0
 40
6.0
  0
LINE
  5
25B4
330
1E
100
AcDbEntity
  8
SIZE
  6
BYBLOCK
100
AcDbLine
 10
389.5119472921251
 20
-0.0000000000000517
 30
0.0
 11
389.5119472921251
 21
11.99999999999994
 31
0.0
  0
LINE
  5
25B5
330
1E
100
AcDbEntity
  8
OUTLINE
  6
CONTINUOUS
100
AcDbLine
 10
-180.0
 20
175.0
 30
0.0
 11
180.0
 21
175.0
 31
0.0
  0
LINE
  5
25B6
330
1E
100
AcDbEntity
  8
OUTLINE
  6
CONTINUOUS
100
AcDbLine
 10
-180.0
 20
0.0
 30
0.0
 11
180.0
 21
0.0
 31
0.0
  0
ARC
  5
25B7
330
1E
100
AcDbEntity
  8
OUTLINE
  6
CONTINUOUS
100
AcDbCircle
 10
0.0
 20
4566.000000000004
 30
0.0
 40
4600.0
100
AcDbArc
 50
268.1777000000017
 51
271.8222999999981
  0
LINE
  5
25B8
330
1E
100
AcDbEntity
  8
OUTLINE
  6
CONTINUOUS
100
AcDbLine
 10
-187.5
 20
0.0
 30
0.0
 11
187.5
 21
0.0
 31
0.0
  0
ARC
  5
25B9
330
1E
100
AcDbEntity
  8
OUTLINE
  6
CONTINUOUS
100
AcDbCircle
 10
-143.0989499999996
 20
68.27583000000231
 30
0.0
 40
100.0
100
AcDbArc
 50
233.8821920000121
 51
268.1777000000017
  0
LINE
  5
25BC
330
1E
100
AcDbEntity
  8
OUTLINE
  6
CONTINUOUS
100
AcDbLine
 10
-180.0
 20
0.0
 30
0.0
 11
-180.0
 21
175.0
 31
0.0
  0
LINE
  5
25CB
330
1E
100
AcDbEntity
  8
OUTLINE
  6
CONTINUOUS
100
AcDbLine
 10
-204.6790400000008
 20
-8.661929999998392
 30
0.0
 11
-207.0
 21
0.0
 31
0.0
  0
LINE
  5
25CC
330
1E
100
AcDbEntity
  8
OUTLINE
  6
CONTINUOUS
100
AcDbLine
 10
-207.0
 20
0.0
 30
0.0
 11
-201.2283900000002
 21
0.0
 31
0.0
  0
ARC
  5
25CD
330
1E
100
AcDbEntity
  8
OUTLINE
  6
CONTINUOUS
100
AcDbCircle
 10
-197.9175600000016
 20
-6.850199999989854
 30
0.0
 40
7.0
100
AcDbArc
 50
194.9999999999944
 51
233.8821920000121
  0
LINE
  5
25CE
330
1E
100
AcDbEntity
  8
OUTLINE
  6
CONTINUOUS
100
AcDbLine
 10
-201.2283900000002
 20
0.0
 30
0.0
 11
-187.5
 21
0.0
 31
0.0
  0
ARC
  5
25D1
330
1E
100
AcDbEntity
  8
OUTLINE
  6
CONTINUOUS
100
AcDbCircle
 10
143.0989500000014
 20
68.27583000000231
 30
0.0
 40
100.0
100
AcDbArc
 50
271.8222999999981
 51
306.1178079999878
  0
LINE
  5
25D4
330
1E
100
AcDbEntity
  8
OUTLINE
  6
CONTINUOUS
100
AcDbLine
 10
180.0
 20
175.0
 30
0.0
 11
180.0
 21
0.0
 31
0.0
  0
LINE
  5
25DF
330
1E
100
AcDbEntity
  8
OUTLINE
  6
CONTINUOUS
100
AcDbLine
 10
207.0000000000009
 20
0.0
 30
0.0
 11
204.6790500000006
 21
-8.661929999998392
 31
0.0
  0
ARC
  5
25E0
330
1E
100
AcDbEntity
  8
OUTLINE
  6
CONTINUOUS
100
AcDbCircle
 10
197.9175699999996
 20
-6.850199999989854
 30
0.0
 40
7.0
100
AcDbArc
 50
306.1178079999878
 51
345.0000000000055
  0
LINE
  5
25E1
330
1E
100
AcDbEntity
  8
OUTLINE
  6
CONTINUOUS
100
AcDbLine
 10
187.7700000000004
 20
0.0
 30
0.0
 11
201.2286800000001
 21
0.0
 31
0.0
  0
LINE
  5
25E2
330
1E
100
AcDbEntity
  8
OUTLINE
  6
CONTINUOUS
100
AcDbLine
 10
187.7700000000004
 20
0.0
 30
0.0
 11
187.5
 21
0.0
 31
0.0
  0
LINE
  5
25E3
330
1E
100
AcDbEntity
  8
OUTLINE
  6
DASHED
100
AcDbLine
 10
187.7700000000004
 20
0.0
 30
0.0
 11
187.5
 21
0.0
 31
0.0
  0
LINE
  5
25E4
330
1E
100
AcDbEntity
  8
OUTLINE
  6
DASHED
100
AcDbLine
 10
187.7700000000004
 20
0.0
 30
0.0
 11
187.5
 21
0.0
 31
0.0
  0
LINE
  5
25E5
330
1E
100
AcDbEntity
  8
OUTLINE
  6
CONTINUOUS
100
AcDbLine
 10
201.2286800000001
 20
0.0
 30
0.0
 11
207.0000000000009
 21
0.0
 31
0.0
  0
ENDSEC
  0
SECTION
  2
OBJECTS
  0
DICTIONARY
  5
C
330
0
100
AcDbDictionary
  3
ACAD_GROUP
350
D
  3
ACAD_LAYOUT
350
19
  3
ACAD_MLINESTYLE
350
16
  3
ACAD_PLOTSETTINGS
350
18
  3
ACAD_PLOTSTYLENAME
350
E
  3
ACDBHEADERROUNDTRIPXREC
350
25F2
  3
ACDBVARIABLEDICTIONARY
350
2359
  0
DICTIONARY
  5
2615
330
1E
100
AcDbDictionary
280
     1
  3
ACAD_LAYOUTSELFREF
360
2616
  0
DICTIONARY
  5
2613
330
1A
100
AcDbDictionary
280
     1
  3
ACAD_LAYOUTSELFREF
360
2614
  0
DICTIONARY
  5
D
102
{ACAD_REACTORS
330
C
102
}
330
C
100
AcDbDictionary
  0
DICTIONARY
  5
19
102
{ACAD_REACTORS
330
C
102
}
330
C
100
AcDbDictionary
  0
DICTIONARY
  5
16
102
{ACAD_REACTORS
330
C
102
}
330
C
100
AcDbDictionary
  3
STANDARD
350
17
  0
DICTIONARY
  5
18
102
{ACAD_REACTORS
330
C
102
}
330
C
100
AcDbDictionary
  0
ACDBDICTIONARYWDFLT
  5
E
102
{ACAD_REACTORS
330
C
102
}
330
C
100
AcDbDictionary
281
     1
  3
Normal
350
F
100
AcDbDictionaryWithDefault
340
F
  0
DICTIONARY
  5
25F2
102
{ACAD_REACTORS
330
C
102
}
330
C
100
AcDbDictionary
  3
CEPSNTYPE
350
25FC
  3
DIMSTYLEDATA
350
2600
  3
FINGERPRINTGUID
350
25FD
  3
HYPERLINKBASE
350
25F5
  3
INSUNITS
350
25FB
  3
LAYOUTDICT
350
25F7
  3
LWETCUNION
350
25FA
  3
PLOTSETDICT
350
25F8
  3
PLOTSTYLNAMDICT
350
25F9
  3
PSVPSCALE
350
25FF
  3
PUCSBASE
350
2603
  3
PUCSORGBACK
350
2609
  3
PUCSORGBOTTOM
350
2605
  3
PUCSORGFRONT
350
2608
  3
PUCSORGLEFT
350
2606
  3
PUCSORGRIGHT
350
2607
  3
PUCSORGTOP
350
2604
  3
PUCSORTHOREF
350
2601
  3
PUCSORTHOVIEW
350
2602
  3
STYLESHEET
350
25F6
  3
TSTACKALIGN
350
25F3
  3
TSTACKSIZE
350
25F4
  3
UCSBASE
350
260C
  3
UCSORGBACK
350
2612
  3
UCSORGBOTTOM
350
260E
  3
UCSORGFRONT
350
2611
  3
UCSORGLEFT
350
260F
  3
UCSORGRIGHT
350
2610
  3
UCSORGTOP
350
260D
  3
UCSORTHOREF
350
260A
  3
UCSORTHOVIEW
350
260B
  3
VERSIONGUID
350
25FE
  0
DICTIONARY
  5
2359
102
{ACAD_REACTORS
330
C
102
}
330
C
100
AcDbDictionary
  3
SORTENTS
350
235A
  0
XRECORD
  5
2616
102
{ACAD_REACTORS
330
2615
102
}
330
2615
100
AcDbXrecord
340
1E
  0
XRECORD
  5
2614
102
{ACAD_REACTORS
330
2613
102
}
330
2613
100
AcDbXrecord
340
1A
  0
MLINESTYLE
  5
17
102
{ACAD_REACTORS
330
16
102
}
330
16
100
AcDbMlineStyle
  2
STANDARD
 70
     0
  3

 62
   256
 51
90.0
 52
90.0
 71
     2
 49
0.5
 62
   256
  6
BYLAYER
 49
-0.5
 62
   256
  6
BYLAYER
  0
ACDBPLACEHOLDER
  5
F
102
{ACAD_REACTORS
330
E
102
}
330
E
100
AcDbPlaceHolder
280
     0
  0
XRECORD
  5
25FC
102
{ACAD_REACTORS
330
25F2
102
}
330
25F2
100
AcDbXrecord
 90
        0
  0
XRECORD
  5
2600
102
{ACAD_REACTORS
330
25F2
102
}
330
25F2
100
AcDbXrecord
1000
DSTYLE
1002
{
1070
   341
340
1136
1070
   342
340
1136
1002
}
  0
XRECORD
  5
25FD
102
{ACAD_REACTORS
330
25F2
102
}
330
25F2
100
AcDbXrecord
  1
{0BD50845-FF1A-4E16-B464-CD967D849258}
  0
XRECORD
  5
25F5
102
{ACAD_REACTORS
330
25F2
102
}
330
25F2
100
AcDbXrecord
  1

  0
XRECORD
  5
25FB
102
{ACAD_REACTORS
330
25F2
102
}
330
25F2
100
AcDbXrecord
 90
        0
  0
XRECORD
  5
25F7
102
{ACAD_REACTORS
330
25F2
102
}
330
25F2
100
AcDbXrecord
340
19
  0
XRECORD
  5
25FA
102
{ACAD_REACTORS
330
25F2
102
}
330
25F2
100
AcDbXrecord
 90
    10781
  0
XRECORD
  5
25F8
102
{ACAD_REACTORS
330
25F2
102
}
330
25F2
100
AcDbXrecord
340
18
  0
XRECORD
  5
25F9
102
{ACAD_REACTORS
330
25F2
102
}
330
25F2
100
AcDbXrecord
340
E
  0
XRECORD
  5
25FF
102
{ACAD_REACTORS
330
25F2
102
}
330
25F2
100
AcDbXrecord
 40
0.0
  0
XRECORD
  5
2603
102
{ACAD_REACTORS
330
25F2
102
}
330
25F2
100
AcDbXrecord
340
0
  0
XRECORD
  5
2609
102
{ACAD_REACTORS
330
25F2
102
}
330
25F2
100
AcDbXrecord
 10
0.0
 20
0.0
 30
0.0
  0
XRECORD
  5
2605
102
{ACAD_REACTORS
330
25F2
102
}
330
25F2
100
AcDbXrecord
 10
0.0
 20
0.0
 30
0.0
  0
XRECORD
  5
2608
102
{ACAD_REACTORS
330
25F2
102
}
330
25F2
100
AcDbXrecord
 10
0.0
 20
0.0
 30
0.0
  0
XRECORD
  5
2606
102
{ACAD_REACTORS
330
25F2
102
}
330
25F2
100
AcDbXrecord
 10
0.0
 20
0.0
 30
0.0
  0
XRECORD
  5
2607
102
{ACAD_REACTORS
330
25F2
102
}
330
25F2
100
AcDbXrecord
 10
0.0
 20
0.0
 30
0.0
  0
XRECORD
  5
2604
102
{ACAD_REACTORS
330
25F2
102
}
330
25F2
100
AcDbXrecord
 10
0.0
 20
0.0
 30
0.0
  0
XRECORD
  5
2601
102
{ACAD_REACTORS
330
25F2
102
}
330
25F2
100
AcDbXrecord
340
0
  0
XRECORD
  5
2602
102
{ACAD_REACTORS
330
25F2
102
}
330
25F2
100
AcDbXrecord
 70
     0
  0
XRECORD
  5
25F6
102
{ACAD_REACTORS
330
25F2
102
}
330
25F2
100
AcDbXrecord
  1

  0
XRECORD
  5
25F3
102
{ACAD_REACTORS
330
25F2
102
}
330
25F2
100
AcDbXrecord
 90
        1
  0
XRECORD
  5
25F4
102
{ACAD_REACTORS
330
25F2
102
}
330
25F2
100
AcDbXrecord
 90
       70
  0
XRECORD
  5
260C
102
{ACAD_REACTORS
330
25F2
102
}
330
25F2
100
AcDbXrecord
340
0
  0
XRECORD
  5
2612
102
{ACAD_REACTORS
330
25F2
102
}
330
25F2
100
AcDbXrecord
 10
0.0
 20
0.0
 30
0.0
  0
XRECORD
  5
260E
102
{ACAD_REACTORS
330
25F2
102
}
330
25F2
100
AcDbXrecord
 10
0.0
 20
0.0
 30
0.0
  0
XRECORD
  5
2611
102
{ACAD_REACTORS
330
25F2
102
}
330
25F2
100
AcDbXrecord
 10
0.0
 20
0.0
 30
0.0
  0
XRECORD
  5
260F
102
{ACAD_REACTORS
330
25F2
102
}
330
25F2
100
AcDbXrecord
 10
0.0
 20
0.0
 30
0.0
  0
XRECORD
  5
2610
102
{ACAD_REACTORS
330
25F2
102
}
330
25F2
100
AcDbXrecord
 10
0.0
 20
0.0
 30
0.0
  0
XRECORD
  5
260D
102
{ACAD_REACTORS
330
25F2
102
}
330
25F2
100
AcDbXrecord
 10
0.0
 20
0.0
 30
0.0
  0
XRECORD
  5
260A
102
{ACAD_REACTORS
330
25F2
102
}
330
25F2
100
AcDbXrecord
340
0
  0
XRECORD
  5
260B
102
{ACAD_REACTORS
330
25F2
102
}
330
25F2
100
AcDbXrecord
 70
     0
  0
XRECORD
  5
25FE
102
{ACAD_REACTORS
330
25F2
102
}
330
25F2
100
AcDbXrecord
  1
{A4B6066F-0294-43E1-BBAF-BDE25D0C96E9}
  0
DICTIONARYVAR
  5
235A
102
{ACAD_REACTORS
330
2359
102
}
330
2359
100
DictionaryVariables
280
     0
  1
96
  0
ENDSEC
  0
EOF
