  0
SECTION
  2
HEADER
  9
$ACADVER
  1
AC1014
  9
$ACADMAINTVER
 70
     9
  9
$DWGCODEPAGE
  3
ANSI_932
  9
$INSBASE
 10
0.0
 20
0.0
 30
0.0
  9
$EXTMIN
 10
-1153.580450854351
 20
-514.9238095720392
 30
-0.0015258207003583
  9
$EXTMAX
 10
1785.68867479961
 20
848.1852489282465
 30
0.0000000349246037
  9
$LIMMIN
 10
-1351.555098560274
 20
-812.104087439082
  9
$LIMMAX
 10
1875.054356417815
 20
1065.684527159326
  9
$ORTHOMODE
 70
     0
  9
$REGENMODE
 70
     1
  9
$FILLMODE
 70
     1
  9
$QTEXTMODE
 70
     0
  9
$MIRRTEXT
 70
     0
  9
$DRAGMODE
 70
     2
  9
$LTSCALE
 40
20.0
  9
$OSMODE
 70
    39
  9
$ATTMODE
 70
     1
  9
$TEXTSIZE
 40
64.0
  9
$TRACEWID
 40
0.05
  9
$TEXTSTYLE
  7
STANDARD
  9
$CLAYER
  8
SIZE
  9
$CELTYPE
  6
BYLAYER
  9
$CECOLOR
 62
   256
  9
$CELTSCALE
 40
1.0
  9
$DELOBJ
 70
     1
  9
$DISPSILH
 70
     0
  9
$DIMSCALE
 40
0.0
  9
$DIMASZ
 40
12.0
  9
$DIMEXO
 40
10.0
  9
$DIMDLI
 40
10.0
  9
$DIMRND
 40
0.0
  9
$DIMDLE
 40
0.0
  9
$DIMEXE
 40
30.0
  9
$DIMTP
 40
0.0
  9
$DIMTM
 40
0.0
  9
$DIMTXT
 40
64.0
  9
$DIMCEN
 40
0.0
  9
$DIMTSZ
 40
0.0
  9
$DIMTOL
 70
     0
  9
$DIMLIM
 70
     0
  9
$DIMTIH
 70
     0
  9
$DIMTOH
 70
     0
  9
$DIMSE1
 70
     0
  9
$DIMSE2
 70
     0
  9
$DIMTAD
 70
     1
  9
$DIMZIN
 70
     0
  9
$DIMBLK
  1
ORIGIN
  9
$DIMASO
 70
     1
  9
$DIMSHO
 70
     0
  9
$DIMPOST
  1

  9
$DIMAPOST
  1

  9
$DIMALT
 70
     0
  9
$DIMALTD
 70
     2
  9
$DIMALTF
 40
25.4
  9
$DIMLFAC
 40
1.0
  9
$DIMTOFL
 70
     1
  9
$DIMTVP
 40
0.0
  9
$DIMTIX
 70
     0
  9
$DIMSOXD
 70
     0
  9
$DIMSAH
 70
     0
  9
$DIMBLK1
  1

  9
$DIMBLK2
  1

  9
$DIMSTYLE
  2
STANDARD
  9
$DIMCLRD
 70
     0
  9
$DIMCLRE
 70
     0
  9
$DIMCLRT
 70
     0
  9
$DIMTFAC
 40
1.0
  9
$DIMGAP
 40
20.0
  9
$DIMJUST
 70
     0
  9
$DIMSD1
 70
     0
  9
$DIMSD2
 70
     0
  9
$DIMTOLJ
 70
     1
  9
$DIMTZIN
 70
     0
  9
$DIMALTZ
 70
     0
  9
$DIMALTTZ
 70
     0
  9
$DIMFIT
 70
     3
  9
$DIMUPT
 70
     0
  9
$DIMUNIT
 70
     2
  9
$DIMDEC
 70
     0
  9
$DIMTDEC
 70
     0
  9
$DIMALTU
 70
     2
  9
$DIMALTTD
 70
     2
  9
$DIMTXSTY
  7
STANDARD
  9
$DIMAUNIT
 70
     0
  9
$LUNITS
 70
     2
  9
$LUPREC
 70
     4
  9
$SKETCHINC
 40
0.1
  9
$FILLETRAD
 40
10.0
  9
$AUNITS
 70
     1
  9
$AUPREC
 70
     3
  9
$MENU
  1
ACAD
  9
$ELEVATION
 40
0.0
  9
$PELEVATION
 40
0.0
  9
$THICKNESS
 40
0.0
  9
$LIMCHECK
 70
     1
  9
$BLIPMODE
 70
     0
  9
$CHAMFERA
 40
0.0
  9
$CHAMFERB
 40
0.0
  9
$CHAMFERC
 40
0.0
  9
$CHAMFERD
 40
0.0
  9
$SKPOLY
 70
     0
  9
$TDCREATE
 40
2450877.489177997
  9
$TDUPDATE
 40
2455716.566750034
  9
$TDINDWG
 40
0.7808076736
  9
$TDUSRTIMER
 40
0.7808075000
  9
$USRTIMER
 70
     1
  9
$ANGBASE
 50
0.0
  9
$ANGDIR
 70
     0
  9
$PDMODE
 70
     3
  9
$PDSIZE
 40
-2.0
  9
$PLINEWID
 40
0.0
  9
$COORDS
 70
     1
  9
$SPLFRAME
 70
     0
  9
$SPLINETYPE
 70
     6
  9
$SPLINESEGS
 70
     8
  9
$ATTDIA
 70
     0
  9
$ATTREQ
 70
     1
  9
$HANDLING
 70
-16383
  9
$HANDSEED
  5
2638
  9
$SURFTAB1
 70
     6
  9
$SURFTAB2
 70
     6
  9
$SURFTYPE
 70
     6
  9
$SURFU
 70
     6
  9
$SURFV
 70
     6
  9
$UCSNAME
  2

  9
$UCSORG
 10
0.0
 20
0.0
 30
0.0
  9
$UCSXDIR
 10
1.0
 20
0.0
 30
0.0
  9
$UCSYDIR
 10
0.0
 20
1.0
 30
0.0
  9
$PUCSNAME
  2

  9
$PUCSORG
 10
0.0
 20
0.0
 30
0.0
  9
$PUCSXDIR
 10
1.0
 20
0.0
 30
0.0
  9
$PUCSYDIR
 10
0.0
 20
1.0
 30
0.0
  9
$USERI1
 70
     0
  9
$USERI2
 70
     0
  9
$USERI3
 70
     0
  9
$USERI4
 70
     0
  9
$USERI5
 70
     0
  9
$USERR1
 40
20.0
  9
$USERR2
 40
0.0
  9
$USERR3
 40
0.0
  9
$USERR4
 40
0.0
  9
$USERR5
 40
0.0
  9
$WORLDVIEW
 70
     1
  9
$SHADEDGE
 70
     3
  9
$SHADEDIF
 70
    70
  9
$TILEMODE
 70
     1
  9
$MAXACTVP
 70
    64
  9
$PINSBASE
 10
0.0
 20
0.0
 30
0.0
  9
$PLIMCHECK
 70
     0
  9
$PEXTMIN
 10
1.000000000000000E+20
 20
1.000000000000000E+20
 30
1.000000000000000E+20
  9
$PEXTMAX
 10
-1.000000000000000E+20
 20
-1.000000000000000E+20
 30
-1.000000000000000E+20
  9
$PLIMMIN
 10
0.0
 20
0.0
  9
$PLIMMAX
 10
12.0
 20
9.0
  9
$UNITMODE
 70
     0
  9
$VISRETAIN
 70
     1
  9
$PLINEGEN
 70
     0
  9
$PSLTSCALE
 70
     1
  9
$TREEDEPTH
 70
  3020
  9
$PICKSTYLE
 70
     1
  9
$CMLSTYLE
  2
STANDARD
  9
$CMLJUST
 70
     0
  9
$CMLSCALE
 40
1.0
  9
$PROXYGRAPHICS
 70
     1
  9
$MEASUREMENT
 70
     0
  0
ENDSEC
  0
SECTION
  2
CLASSES
  0
CLASS
  1
ACDBDICTIONARYWDFLT
  2
AcDbDictionaryWithDefault
  3
AutoCAD 2000
 90
        0
280
     0
281
     0
  0
CLASS
  1
ACDBPLACEHOLDER
  2
AcDbPlaceHolder
  3
AutoCAD 2000
 90
        0
280
     0
281
     0
  0
CLASS
  1
LAYOUT
  2
AcDbLayout
  3
AutoCAD 2000
 90
        0
280
     0
281
     0
  0
CLASS
  1
DICTIONARYVAR
  2
AcDbDictionaryVar
  3
AutoCAD 2000
 90
        0
280
     0
281
     0
  0
CLASS
  1
LONG_TRANSACTION
  2
AcDbLongTransaction
  3
AutoCAD 2000
 90
        0
280
     0
281
     0
  0
CLASS
  1
LWPOLYLINE
  2
AcDbPolyline
  3
AutoCAD 2000
 90
        0
280
     0
281
     1
  0
CLASS
  1
HATCH
  2
AcDbHatch
  3
AutoCAD 2000
 90
        0
280
     0
281
     1
  0
CLASS
  1
XRECORD
  2
AcDbXrecord
  3
AutoCAD 2000
 90
        0
280
     0
281
     0
  0
ENDSEC
  0
SECTION
  2
TABLES
  0
TABLE
  2
VPORT
  5
8
330
0
100
AcDbSymbolTable
 70
    14
  0
VPORT
  5
2612
330
8
100
AcDbSymbolTableRecord
100
AcDbViewportTableRecord
  2
*ACTIVE
 70
     0
 10
0.0
 20
0.0
 11
1.0
 21
1.0
 12
329.9543865830492
 22
-143.338591432248
 13
0.0
 23
0.0
 14
400.0
 24
400.0
 15
400.0
 25
400.0
 16
0.0
 26
0.0
 36
1.0
 17
0.0
 27
0.0
 37
0.0
 40
4143.723501149153
 41
1.243346007604562
 42
50.0
 43
0.0
 44
0.0
 50
0.0
 51
0.0
 71
     0
 72
  1000
 73
     1
 74
     0
 75
     0
 76
     0
 77
     0
 78
     1
  0
ENDTAB
  0
TABLE
  2
LTYPE
  5
5
330
0
100
AcDbSymbolTable
 70
     8
  0
LTYPE
  5
13
330
5
100
AcDbSymbolTableRecord
100
AcDbLinetypeTableRecord
  2
BYBLOCK
 70
     0
  3

 72
    65
 73
     0
 40
0.0
  0
LTYPE
  5
14
330
5
100
AcDbSymbolTableRecord
100
AcDbLinetypeTableRecord
  2
BYLAYER
 70
     0
  3

 72
    65
 73
     0
 40
0.0
  0
LTYPE
  5
15
330
5
100
AcDbSymbolTableRecord
100
AcDbLinetypeTableRecord
  2
CONTINUOUS
 70
     0
  3
実線
 72
    65
 73
     0
 40
0.0
  0
LTYPE
  5
23
330
5
100
AcDbSymbolTableRecord
100
AcDbLinetypeTableRecord
  2
DASHDOT
 70
     0
  3
____ _ ____ _ ____ _ ____ _ ____ _ ____ _ ____
 72
    65
 73
     4
 40
5.5
 49
4.0
 74
     0
 49
-0.6
 74
     0
 49
0.3
 74
     0
 49
-0.6
 74
     0
  0
LTYPE
  5
10EB
330
5
100
AcDbSymbolTableRecord
100
AcDbLinetypeTableRecord
  2
DASHED2
 70
     0
  3
Dashed (.5x) _ _ _ _ _ _ _ _ _ _ _ _ _ _ _ _ _
 72
    65
 73
     2
 40
0.375
 49
0.25
 74
     0
 49
-0.125
 74
     0
  0
ENDTAB
  0
TABLE
  2
LAYER
  5
2
330
0
100
AcDbSymbolTable
 70
    13
  0
LAYER
  5
10
330
2
100
AcDbSymbolTableRecord
100
AcDbLayerTableRecord
  2
0
 70
     0
 62
     7
  6
CONTINUOUS
  0
LAYER
  5
22
330
2
100
AcDbSymbolTableRecord
100
AcDbLayerTableRecord
  2
DETAIL
 70
     0
 62
     5
  6
CONTINUOUS
  0
LAYER
  5
29
330
2
100
AcDbSymbolTableRecord
100
AcDbLayerTableRecord
  2
OUTLINE
 70
     0
 62
     3
  6
CONTINUOUS
  0
LAYER
  5
2A
330
2
100
AcDbSymbolTableRecord
100
AcDbLayerTableRecord
  2
BASIS
 70
     0
 62
     6
  6
CONTINUOUS
  0
LAYER
  5
2B
330
2
100
AcDbSymbolTableRecord
100
AcDbLayerTableRecord
  2
NOTE
 70
     0
 62
     4
  6
CONTINUOUS
  0
LAYER
  5
2C
330
2
100
AcDbSymbolTableRecord
100
AcDbLayerTableRecord
  2
DEFPOINTS
 70
     0
 62
     7
  6
CONTINUOUS
  0
LAYER
  5
2D
330
2
100
AcDbSymbolTableRecord
100
AcDbLayerTableRecord
  2
SIZE
 70
     0
 62
    32
  6
CONTINUOUS
  0
LAYER
  5
2E
330
2
100
AcDbSymbolTableRecord
100
AcDbLayerTableRecord
  2
ARRANGE
 70
     0
 62
     1
  6
CONTINUOUS
  0
LAYER
  5
2F
330
2
100
AcDbSymbolTableRecord
100
AcDbLayerTableRecord
  2
FIX
 70
     0
 62
   241
  6
CONTINUOUS
  0
LAYER
  5
30
330
2
100
AcDbSymbolTableRecord
100
AcDbLayerTableRecord
  2
SERVICESPACE
 70
     0
 62
     2
  6
CONTINUOUS
  0
LAYER
  5
31
330
2
100
AcDbSymbolTableRecord
100
AcDbLayerTableRecord
  2
ETC
 70
     0
 62
    83
  6
CONTINUOUS
  0
ENDTAB
  0
TABLE
  2
STYLE
  5
3
330
0
100
AcDbSymbolTable
 70
     2
  0
STYLE
  5
11
330
3
100
AcDbSymbolTableRecord
100
AcDbTextStyleTableRecord
  2
STANDARD
 70
     0
 40
0.0
 41
0.9
 50
0.0
 71
     0
 42
64.0
  3
SIMPLEX
  4
BIGFONT
  0
ENDTAB
  0
TABLE
  2
VIEW
  5
6
330
0
100
AcDbSymbolTable
 70
     1
  0
VIEW
  5
33
330
6
100
AcDbSymbolTableRecord
100
AcDbViewTableRecord
  2
ALL
 70
     0
 40
4508.021
 10
0.0
 20
41.30990399999999
 41
6252.632
 11
0.0
 21
0.0
 31
1.0
 12
0.0
 22
0.0
 32
0.0
 42
50.0
 43
0.0
 44
0.0
 50
0.0
 71
     0
  0
ENDTAB
  0
TABLE
  2
UCS
  5
7
330
0
100
AcDbSymbolTable
 70
     0
  0
ENDTAB
  0
TABLE
  2
APPID
  5
9
330
0
100
AcDbSymbolTable
 70
     1
  0
APPID
  5
12
330
9
100
AcDbSymbolTableRecord
100
AcDbRegAppTableRecord
  2
ACAD
 70
     0
  0
ENDTAB
  0
TABLE
  2
DIMSTYLE
  5
A
330
0
100
AcDbSymbolTable
 70
     2
  0
DIMSTYLE
105
1B2
330
A
100
AcDbSymbolTableRecord
100
AcDbDimStyleTableRecord
  2
STANDARD
 70
     0
  3

  4

  5
ORIGIN
  6

  7

 40
0.0
 41
12.0
 42
10.0
 43
10.0
 44
30.0
 45
0.0
 46
0.0
 47
0.0
 48
0.0
140
64.0
141
0.0
142
0.0
143
25.4
144
1.0
145
0.0
146
1.0
147
20.0
 71
     0
 72
     0
 73
     0
 74
     0
 75
     0
 76
     0
 77
     1
 78
     0
170
     0
171
     2
172
     1
173
     0
174
     0
175
     0
176
     0
177
     0
178
     0
270
     2
271
     0
272
     0
273
     2
274
     2
340
11
275
     0
280
     0
281
     0
282
     0
283
     1
284
     0
285
     0
286
     0
287
     3
288
     0
  0
ENDTAB
  0
TABLE
  2
BLOCK_RECORD
  5
1
330
0
100
AcDbSymbolTable
 70
    34
  0
BLOCK_RECORD
  5
1E
102
{ACAD_XDICTIONARY
360
2636
102
}
330
1
100
AcDbSymbolTableRecord
100
AcDbBlockTableRecord
  2
*MODEL_SPACE
  0
BLOCK_RECORD
  5
1A
102
{ACAD_XDICTIONARY
360
2634
102
}
330
1
100
AcDbSymbolTableRecord
100
AcDbBlockTableRecord
  2
*PAPER_SPACE
  0
BLOCK_RECORD
  5
1136
330
1
100
AcDbSymbolTableRecord
100
AcDbBlockTableRecord
  2
_ORIGIN
  0
ENDTAB
  0
ENDSEC
  0
SECTION
  2
BLOCKS
  0
BLOCK
  5
1F
330
1E
100
AcDbEntity
  8
0
100
AcDbBlockBegin
  2
*MODEL_SPACE
 70
     0
 10
0.0
 20
0.0
 30
0.0
  3
*MODEL_SPACE
  1

  0
ENDBLK
  5
20
330
1E
100
AcDbEntity
  8
0
100
AcDbBlockEnd
  0
BLOCK
  5
1B
330
1A
100
AcDbEntity
 67
     1
  8
0
100
AcDbBlockBegin
  2
*PAPER_SPACE
 70
     0
 10
0.0
 20
0.0
 30
0.0
  3
*PAPER_SPACE
  1

  0
ENDBLK
  5
1C
330
1A
100
AcDbEntity
 67
     1
  8
0
100
AcDbBlockEnd
  0
BLOCK
  5
1139
330
1136
100
AcDbEntity
  8
0
100
AcDbBlockBegin
  2
_ORIGIN
 70
     0
 10
0.0
 20
0.0
 30
0.0
  3
_ORIGIN
  1

  0
CIRCLE
  5
1137
330
1136
100
AcDbEntity
  8
0
  6
BYBLOCK
 62
     0
100
AcDbCircle
 10
0.0
 20
0.0
 30
0.0
 40
0.5
  0
LINE
  5
1138
330
1136
100
AcDbEntity
  8
0
  6
BYBLOCK
 62
     0
100
AcDbLine
 10
0.0
 20
0.0
 30
0.0
 11
-1.0
 21
0.0
 31
0.0
  0
ENDBLK
  5
113A
330
1136
100
AcDbEntity
  8
0
100
AcDbBlockEnd
  0
ENDSEC
  0
SECTION
  2
ENTITIES
  0
TEXT
  5
3FB
330
1E
100
AcDbEntity
  8
SIZE
  6
BYBLOCK
100
AcDbText
 10
-59.11746399998719
 20
429.3737579999997
 30
0.0
 40
64.0
  1
960
 41
0.9
100
AcDbText
  0
LINE
  5
3FC
330
1E
100
AcDbEntity
  8
SIZE
  6
CONTINUOUS
100
AcDbLine
 10
544.1000000000131
 20
415.30008
 30
0.0
 11
-557.8999999999869
 21
415.30008
 31
0.0
  0
TEXT
  5
3FF
330
1E
100
AcDbEntity
  8
SIZE
  6
BYBLOCK
100
AcDbText
 10
-295.0854642260956
 20
310.8676219999997
 30
0.0
 40
64.0
  1
1051
 41
0.9
100
AcDbText
  0
LINE
  5
400
330
1E
100
AcDbEntity
  8
SIZE
  6
BYBLOCK
100
AcDbLine
 10
-549.3999999999869
 20
295.3000799999999
 30
0.0
 11
525.600000000013
 21
295.3000799999999
 31
0.0
  0
POINT
  5
401
330
1E
100
AcDbEntity
  8
ARRANGE
  6
CONTINUOUS
100
AcDbPoint
 10
0.0
 20
0.0
 30
0.0
  0
CIRCLE
  5
402
330
1E
100
AcDbEntity
  8
ARRANGE
  6
CONTINUOUS
100
AcDbCircle
 10
0.0
 20
0.0
 30
0.0
 40
40.0
  0
LINE
  5
404
330
1E
100
AcDbEntity
  8
SIZE
  6
CONTINUOUS
100
AcDbLine
 10
-478.0999999999949
 20
85.19027004565714
 30
0.0
 11
-478.0999999999949
 21
-161.69992
 31
0.0
  0
LINE
  5
405
330
1E
100
AcDbEntity
  8
SIZE
  6
CONTINUOUS
100
AcDbLine
 10
-465.0999999999949
 20
90.58564152441249
 30
0.0
 11
-465.0999999999949
 21
-281.69992
 31
0.0
  0
CIRCLE
  5
407
330
1E
100
AcDbEntity
  8
SIZE
  6
CONTINUOUS
100
AcDbCircle
 10
-140.0999999999949
 20
0.3000799999999799
 30
0.0
 40
6.0
  0
CIRCLE
  5
408
330
1E
100
AcDbEntity
  8
SIZE
  6
CONTINUOUS
100
AcDbCircle
 10
-260.0999999999948
 20
0.3000799999999799
 30
0.0
 40
6.0
  0
LINE
  5
409
330
1E
100
AcDbEntity
  8
SIZE
  6
CONTINUOUS
100
AcDbLine
 10
-140.0999999999949
 20
-161.3634629999996
 30
0.0
 11
-140.0999999999949
 21
116.3000799999999
 31
0.0
  0
LINE
  5
40A
330
1E
100
AcDbEntity
  8
SIZE
  6
CONTINUOUS
100
AcDbLine
 10
-260.0999999999948
 20
-161.3634629999996
 30
0.0
 11
-260.0999999999948
 21
110.3000799999999
 31
0.0
  0
LINE
  5
40C
330
1E
100
AcDbEntity
  8
NOTE
  6
CONTINUOUS
100
AcDbLine
 10
-796.5538208359401
 20
-284.8071719513309
 30
0.0
 11
-478.0999999999949
 21
110.3000799999999
 31
0.0
  0
TEXT
  5
40F
330
1E
100
AcDbEntity
  8
NOTE
  6
CONTINUOUS
100
AcDbText
 10
-1119.70114811644
 20
-151.8119715258735
 30
0.0
 40
64.0
  1
RL%%C6.35
 41
0.9
100
AcDbText
  0
LINE
  5
410
330
1E
100
AcDbEntity
  8
NOTE
  6
CONTINUOUS
100
AcDbLine
 10
-1153.085031762879
 20
-284.8071719513318
 30
0.0
 11
-796.5538208359401
 21
-284.8071719513309
 31
0.0
  0
TEXT
  5
411
330
1E
100
AcDbEntity
  8
NOTE
  6
CONTINUOUS
100
AcDbText
 10
-1138.531868273111
 20
-261.9144019513314
 30
0.0
 40
64.0
  1
RG%%C9.52
 41
0.9
100
AcDbText
  0
CIRCLE
  5
412
330
1E
100
AcDbEntity
  8
SIZE
  6
CONTINUOUS
100
AcDbCircle
 10
-465.0999999999949
 20
-251.69992
 30
0.0
 40
6.0
  0
LINE
  5
413
330
1E
100
AcDbEntity
  8
SIZE
  6
CONTINUOUS
100
AcDbLine
 10
-480.0999999999949
 20
-4.511604474303112
 30
0.0
 11
-480.0999999999949
 21
-281.69992
 31
0.0
  0
CIRCLE
  5
414
330
1E
100
AcDbEntity
  8
SIZE
  6
CONTINUOUS
100
AcDbCircle
 10
-480.0999999999949
 20
-251.69992
 30
0.0
 40
6.0
  0
LINE
  5
415
330
1E
100
AcDbEntity
  8
SIZE
  6
CONTINUOUS
100
AcDbLine
 10
-465.0999999999949
 20
-251.69992
 30
0.0
 11
-558.5702689999943
 21
-251.69992
 31
0.0
  0
TEXT
  5
416
330
1E
100
AcDbEntity
  8
SIZE
  6
BYBLOCK
100
AcDbText
 10
-574.1764309999943
 20
-233.9282819999998
 30
0.0
 40
64.0
  1
15
 41
0.9
100
AcDbText
  0
TEXT
  5
417
330
1E
100
AcDbEntity
  8
SIZE
  6
BYBLOCK
100
AcDbText
 10
-540.9115709999951
 20
-112.6571400000002
 30
0.0
 40
64.0
  1
2
 41
0.9
100
AcDbText
  0
LINE
  5
418
330
1E
100
AcDbEntity
  8
SIZE
  6
CONTINUOUS
100
AcDbLine
 10
-478.0999999999949
 20
-131.69992
 30
0.0
 11
-558.5702689999943
 21
-131.69992
 31
0.0
  0
CIRCLE
  5
419
330
1E
100
AcDbEntity
  8
SIZE
  6
CONTINUOUS
100
AcDbCircle
 10
-478.0999999999949
 20
-131.69992
 30
0.0
 40
6.0
  0
CIRCLE
  5
41A
330
1E
100
AcDbEntity
  8
SIZE
  6
CONTINUOUS
100
AcDbCircle
 10
-480.0999999999949
 20
-131.69992
 30
0.0
 40
6.0
  0
TEXT
  5
41D
330
1E
100
AcDbEntity
  8
SIZE
  6
BYBLOCK
100
AcDbText
 10
-276.978508999995
 20
-178.9380567956468
 30
0.0
 40
64.0
  1
110
 50
90.0
 41
0.9
100
AcDbText
  0
TEXT
  5
41E
330
1E
100
AcDbEntity
  8
SIZE
  6
BYBLOCK
100
AcDbText
 10
-155.1965329999948
 20
-180.4319147956466
 30
0.0
 40
64.0
  1
116
 50
90.0
 41
0.9
100
AcDbText
  0
LINE
  5
41F
330
1E
100
AcDbEntity
  8
NOTE
  6
CONTINUOUS
100
AcDbLine
 10
-485.0999999999949
 20
116.3000799999999
 30
0.0
 11
-445.0999999999948
 21
116.3000799999999
 31
0.0
  0
LINE
  5
420
330
1E
100
AcDbEntity
  8
NOTE
  6
CONTINUOUS
100
AcDbLine
 10
-498.0999999999949
 20
110.3000799999999
 30
0.0
 11
-458.0999999999948
 21
110.3000799999999
 31
0.0
  0
LINE
  5
421
330
1E
100
AcDbEntity
  8
SIZE
  6
CONTINUOUS
100
AcDbLine
 10
-557.8999999999869
 20
195.3000799999999
 30
0.0
 11
-557.8999999999869
 21
445.3000799999999
 31
0.0
  0
LINE
  5
422
330
1E
100
AcDbEntity
  8
SIZE
  6
CONTINUOUS
100
AcDbLine
 10
-479.8999999999868
 20
195.3000799999999
 30
0.0
 11
-479.8999999999868
 21
445.3000799999999
 31
0.0
  0
TEXT
  5
423
330
1E
100
AcDbEntity
  8
SIZE
  6
BYBLOCK
100
AcDbText
 10
-669.8574779999871
 20
307.879899
 30
0.0
 40
64.0
  1
20
 41
0.9
100
AcDbText
  0
LINE
  5
424
330
1E
100
AcDbEntity
  8
NOTE
  6
CONTINUOUS
100
AcDbLine
 10
-756.9201388492565
 20
373.4586078273177
 30
0.0
 11
-465.0999999999949
 21
116.3000799999999
 31
0.0
  0
LINE
  5
427
330
1E
100
AcDbEntity
  8
SIZE
  6
BYBLOCK
100
AcDbLine
 10
-545.3999999999869
 20
132.3000799999999
 30
0.0
 11
-545.3999999999869
 21
325.3000799999999
 31
0.0
  0
LINE
  5
428
330
1E
100
AcDbEntity
  8
SIZE
  6
BYBLOCK
100
AcDbLine
 10
-525.5999999999949
 20
152.3000799999999
 30
0.0
 11
-525.5999999999949
 21
325.3000799999999
 31
0.0
  0
LWPOLYLINE
  5
42A
330
1E
100
AcDbEntity
  8
NOTE
  6
CONTINUOUS
100
AcDbPolyline
 90
        3
 70
     0
 43
0.0
 10
-494.5925009999946
 20
73.858381
 10
-478.0999999999949
 20
110.3000799999999
 10
-510.603774999995
 20
86.98689400000011
  0
LINE
  5
432
330
1E
100
AcDbEntity
  8
NOTE
  6
CONTINUOUS
100
AcDbLine
 10
-465.0999999999949
 20
96.30007999999998
 30
0.0
 11
-465.0999999999949
 21
136.3000799999999
 31
0.0
  0
LINE
  5
433
330
1E
100
AcDbEntity
  8
NOTE
  6
CONTINUOUS
100
AcDbLine
 10
-478.0999999999949
 20
90.30007999999998
 30
0.0
 11
-478.0999999999949
 21
130.3000799999999
 31
0.0
  0
LWPOLYLINE
  5
434
330
1E
100
AcDbEntity
  8
NOTE
  6
CONTINUOUS
100
AcDbPolyline
 90
        3
 70
     0
 43
0.0
 10
-500.9219833968568
 20
134.0985481857546
 10
-465.0999999999949
 20
116.3000799999999
 10
-487.2235139187478
 20
149.6249973665744
  0
LINE
  5
435
330
1E
100
AcDbEntity
  8
SIZE
  6
CONTINUOUS
100
AcDbLine
 10
-549.3999999999869
 20
295.3000799999999
 30
0.0
 11
-682.0444539999871
 21
295.3000799999999
 31
0.0
  0
CIRCLE
  5
436
330
1E
100
AcDbEntity
  8
SIZE
  6
CONTINUOUS
100
AcDbCircle
 10
-525.5999999999949
 20
325.3000799999999
 30
0.0
 40
6.0
  0
CIRCLE
  5
437
330
1E
100
AcDbEntity
  8
SIZE
  6
CONTINUOUS
100
AcDbCircle
 10
-525.5999999999949
 20
295.3000799999999
 30
0.0
 40
6.0
  0
CIRCLE
  5
438
330
1E
100
AcDbEntity
  8
SIZE
  6
CONTINUOUS
100
AcDbCircle
 10
-545.3999999999869
 20
295.3000799999999
 30
0.0
 40
6.0
  0
LINE
  5
43B
330
1E
100
AcDbEntity
  8
NOTE
  6
CONTINUOUS
100
AcDbLine
 10
-1091.109385790208
 20
373.4586078273177
 30
0.0
 11
-756.9201388492565
 21
373.4586078273177
 31
0.0
  0
TEXT
  5
43C
330
1E
100
AcDbEntity
  8
NOTE
  6
CONTINUOUS
100
AcDbText
 10
-1079.544733927252
 20
396.0077463485313
 30
0.0
 40
64.0
  1
D VP20
 41
0.9
100
AcDbText
  0
TEXT
  5
43D
330
1E
100
AcDbEntity
  8
SIZE
  6
BYBLOCK
100
AcDbText
 10
-593.6406229999866
 20
429.3737579999997
 30
0.0
 40
64.0
  1
78
 41
0.9
100
AcDbText
  0
CIRCLE
  5
43E
330
1E
100
AcDbEntity
  8
SIZE
  6
CONTINUOUS
100
AcDbCircle
 10
-479.8999999999868
 20
415.30008
 30
0.0
 40
6.0
  0
CIRCLE
  5
43F
330
1E
100
AcDbEntity
  8
SIZE
  6
CONTINUOUS
100
AcDbCircle
 10
-557.8999999999869
 20
415.30008
 30
0.0
 40
6.0
  0
LINE
  5
440
330
1E
100
AcDbEntity
  8
SIZE
  6
CONTINUOUS
100
AcDbLine
 10
-436.8867146711054
 20
110.3000799999999
 30
0.0
 11
-230.0999999999949
 21
110.3000799999999
 31
0.0
  0
LINE
  5
441
330
1E
100
AcDbEntity
  8
SIZE
  6
CONTINUOUS
100
AcDbLine
 10
-436.3968769978455
 20
116.3000799999999
 30
0.0
 11
-110.0999999999949
 21
116.3000799999999
 31
0.0
  0
CIRCLE
  5
442
330
1E
100
AcDbEntity
  8
SIZE
  6
CONTINUOUS
100
AcDbCircle
 10
-260.0999999999948
 20
110.3000799999999
 30
0.0
 40
6.0
  0
CIRCLE
  5
443
330
1E
100
AcDbEntity
  8
SIZE
  6
CONTINUOUS
100
AcDbCircle
 10
-140.0999999999949
 20
116.3000799999999
 30
0.0
 40
6.0
  0
CIRCLE
  5
445
330
1E
100
AcDbEntity
  8
SIZE
  6
CONTINUOUS
100
AcDbCircle
 10
802.1953427467233
 20
0.3000799999999799
 30
0.0
 40
6.0
  0
CIRCLE
  5
446
330
1E
100
AcDbEntity
  8
SIZE
  6
CONTINUOUS
100
AcDbCircle
 10
922.1953427467234
 20
0.0
 30
0.0
 40
6.0
  0
LINE
  5
447
330
1E
100
AcDbEntity
  8
SIZE
  6
CONTINUOUS
100
AcDbLine
 10
922.1953427467234
 20
0.0
 30
0.0
 11
922.1953427467234
 21
175.3000799999999
 31
0.0
  0
LINE
  5
448
330
1E
100
AcDbEntity
  8
SIZE
  6
CONTINUOUS
100
AcDbLine
 10
802.1953427467233
 20
0.3000799999999799
 30
0.0
 11
802.1953427467233
 21
112.3000799999999
 31
0.0
  0
LINE
  5
44C
330
1E
100
AcDbEntity
  8
SIZE
  6
CONTINUOUS
100
AcDbLine
 10
580.0
 20
0.0
 30
0.0
 11
945.6098202886133
 21
0.0
 31
0.0
  0
TEXT
  5
451
330
1E
100
AcDbEntity
  8
ETC
  6
CONTINUOUS
100
AcDbText
 10
1357.164199097256
 20
783.4692880763123
 30
0.0
 40
64.0
  1
HAC
 41
0.9
100
AcDbText
  0
TEXT
  5
452
330
1E
100
AcDbEntity
  8
ETC
  6
CONTINUOUS
100
AcDbText
 10
1357.164199097256
 20
662.9593340763122
 30
0.0
 40
64.0
  1
SMLZ0844
 41
0.9
100
AcDbText
  0
LINE
  5
453
330
1E
100
AcDbEntity
  8
SIZE
  6
CONTINUOUS
100
AcDbLine
 10
544.1000000000131
 20
195.3000799999999
 30
0.0
 11
544.1000000000131
 21
445.3000799999999
 31
0.0
  0
LINE
  5
454
330
1E
100
AcDbEntity
  8
SIZE
  6
CONTINUOUS
100
AcDbLine
 10
480.100000000013
 20
195.3000799999999
 30
0.0
 11
480.100000000013
 21
445.3000799999999
 31
0.0
  0
TEXT
  5
455
330
1E
100
AcDbEntity
  8
SIZE
  6
BYBLOCK
100
AcDbText
 10
577.474844000013
 20
309.3737579999997
 30
0.0
 40
64.0
  1
20
 41
0.9
100
AcDbText
  0
LINE
  5
457
330
1E
100
AcDbEntity
  8
SIZE
  6
CONTINUOUS
100
AcDbLine
 10
564.1000000000131
 20
175.3000799999999
 30
0.0
 11
947.8441453872074
 21
175.3000799999999
 31
0.0
  0
LINE
  5
459
330
1E
100
AcDbEntity
  8
SIZE
  6
BYBLOCK
100
AcDbLine
 10
525.600000000013
 20
152.3000799999999
 30
0.0
 11
525.600000000013
 21
325.3000799999999
 31
0.0
  0
LINE
  5
45A
330
1E
100
AcDbEntity
  8
SIZE
  6
BYBLOCK
100
AcDbLine
 10
545.600000000013
 20
132.3000799999999
 30
0.0
 11
545.600000000013
 21
325.3000799999999
 31
0.0
  0
LINE
  5
45B
330
1E
100
AcDbEntity
  8
SIZE
  6
CONTINUOUS
100
AcDbLine
 10
566.1028790000127
 20
112.3000799999999
 30
0.0
 11
826.1229060782788
 21
112.3000799999999
 31
0.0
  0
TEXT
  5
463
330
1E
100
AcDbEntity
  8
SIZE
  6
BYBLOCK
100
AcDbText
 10
780.6232834857828
 20
30.24535281125099
 30
0.0
 40
64.0
  1
112
 50
90.0
 41
0.9
100
AcDbText
  0
CIRCLE
  5
464
330
1E
100
AcDbEntity
  8
SIZE
  6
CONTINUOUS
100
AcDbCircle
 10
802.1953427467233
 20
112.3000799999999
 30
0.0
 40
6.0
  0
LINE
  5
465
330
1E
100
AcDbEntity
  8
SIZE
  6
CONTINUOUS
100
AcDbLine
 10
545.600000000013
 20
295.3000799999999
 30
0.0
 11
679.7883160000128
 21
295.3000799999999
 31
0.0
  0
CIRCLE
  5
466
330
1E
100
AcDbEntity
  8
SIZE
  6
CONTINUOUS
100
AcDbCircle
 10
525.600000000013
 20
295.3000799999999
 30
0.0
 40
6.0
  0
CIRCLE
  5
467
330
1E
100
AcDbEntity
  8
SIZE
  6
CONTINUOUS
100
AcDbCircle
 10
525.600000000013
 20
295.3000799999999
 30
0.0
 40
6.0
  0
CIRCLE
  5
468
330
1E
100
AcDbEntity
  8
SIZE
  6
CONTINUOUS
100
AcDbCircle
 10
545.600000000013
 20
295.3000799999999
 30
0.0
 40
6.0
  0
LINE
  5
469
330
1E
100
AcDbEntity
  8
SIZE
  6
BYBLOCK
100
AcDbLine
 10
543.6000000000131
 20
295.3000799999999
 30
0.0
 11
535.6000000000131
 21
295.3000799999999
 31
0.0
  0
LINE
  5
46A
330
1E
100
AcDbEntity
  8
SIZE
  6
BYBLOCK
100
AcDbLine
 10
527.6000000000131
 20
295.3000799999999
 30
0.0
 11
535.6000000000131
 21
295.3000799999999
 31
0.0
  0
TEXT
  5
46B
330
1E
100
AcDbEntity
  8
SIZE
  6
BYBLOCK
100
AcDbText
 10
905.6889257467227
 20
18.78427199999987
 30
0.0
 40
64.0
  1
175
 50
90.0
 41
0.9
100
AcDbText
  0
CIRCLE
  5
46C
330
1E
100
AcDbEntity
  8
SIZE
  6
CONTINUOUS
100
AcDbCircle
 10
922.1953427467234
 20
175.3000799999999
 30
0.0
 40
6.0
  0
TEXT
  5
46D
330
1E
100
AcDbEntity
  8
SIZE
  6
BYBLOCK
100
AcDbText
 10
496.7746530000131
 20
426.386034
 30
0.0
 40
64.0
  1
64
 41
0.9
100
AcDbText
  0
CIRCLE
  5
46E
330
1E
100
AcDbEntity
  8
SIZE
  6
CONTINUOUS
100
AcDbCircle
 10
544.1000000000131
 20
415.30008
 30
0.0
 40
6.0
  0
CIRCLE
  5
46F
330
1E
100
AcDbEntity
  8
SIZE
  6
CONTINUOUS
100
AcDbCircle
 10
480.100000000013
 20
415.30008
 30
0.0
 40
6.0
  0
LINE
  5
134E
330
1E
100
AcDbEntity
  8
DETAIL
  6
DASHED2
100
AcDbLine
 10
-596.0777399999933
 20
134.3000800000022
 30
0.0
 11
-577.0777399999787
 21
134.3000800000022
 31
0.0
  0
LINE
  5
134F
330
1E
100
AcDbEntity
  8
DETAIL
  6
DASHED2
100
AcDbLine
 10
-596.0777399999933
 20
98.3000800000009
 30
0.0
 11
-577.0777399999787
 21
98.3000800000009
 31
0.0
  0
LINE
  5
1350
330
1E
100
AcDbEntity
  8
BASIS
  6
DASHDOT
100
AcDbLine
 10
-619.9777399999947
 20
115.6928700000003
 30
0.0
 11
-471.7806699999892
 21
115.6928700000003
 31
0.0
  0
LINE
  5
1351
330
1E
100
AcDbEntity
  8
SERVICESPACE
  6
CONTINUOUS
100
AcDbLine
 10
-694.4173850003426
 20
0.0
 30
0.0
 11
-580.0
 21
0.0
 31
0.0
  0
LINE
  5
1352
330
1E
100
AcDbEntity
  8
SERVICESPACE
  6
CONTINUOUS
100
AcDbLine
 10
-694.4173850003426
 20
8.999999999998635
 30
0.0
 11
-580.0
 21
8.999999999998635
 31
0.0
  0
ARC
  5
1353
330
1E
100
AcDbEntity
  8
DETAIL
  6
CONTINUOUS
100
AcDbCircle
 10
-568.8230799999837
 20
-4.000000000000909
 30
0.0
 40
30.0
100
AcDbArc
 50
210.0000000000103
 51
270.0
  0
LINE
  5
1354
330
1E
100
AcDbEntity
  8
SERVICESPACE
  6
CONTINUOUS
100
AcDbLine
 10
-691.6768810231515
 20
180.0
 30
0.0
 11
683.7270496260607
 21
180.0
 31
0.0
  0
LINE
  5
1355
330
1E
100
AcDbEntity
  8
DETAIL
  6
CONTINUOUS
100
AcDbLine
 10
-600.0
 20
0.0
 30
0.0
 11
600.0
 21
0.0
 31
0.0
  0
ARC
  5
1356
330
1E
100
AcDbEntity
  8
DETAIL
  6
CONTINUOUS
100
AcDbCircle
 10
-570.0
 20
-1.961519999999836
 30
0.0
 40
30.0
100
AcDbArc
 50
180.0
 51
210.0000000000103
  0
LINE
  5
1357
330
1E
100
AcDbEntity
  8
DETAIL
  6
CONTINUOUS
100
AcDbLine
 10
-595.980759999984
 20
-16.96151999999983
 30
0.0
 11
-594.8038399999859
 21
-19.0000000000009
 31
0.0
  0
LINE
  5
1358
330
1E
100
AcDbEntity
  8
DETAIL
  6
CONTINUOUS
100
AcDbLine
 10
-600.0
 20
0.0
 30
0.0
 11
-600.0
 21
-1.961519999999836
 31
0.0
  0
LINE
  5
1359
330
1E
100
AcDbEntity
  8
DETAIL
  6
DASHED2
100
AcDbLine
 10
-596.0777399999933
 20
134.3000800000022
 30
0.0
 11
-596.0777399999933
 21
98.3000800000009
 31
0.0
  0
LINE
  5
135A
330
1E
100
AcDbEntity
  8
DETAIL
  6
DASHED2
100
AcDbLine
 10
-620.0777399999897
 20
106.3000800000027
 30
0.0
 11
-620.0777399999897
 21
126.3000800000027
 31
0.0
  0
LINE
  5
135B
330
1E
100
AcDbEntity
  8
DETAIL
  6
DASHED2
100
AcDbLine
 10
-620.0777399999897
 20
126.3000800000027
 30
0.0
 11
-596.0777399999933
 21
126.3000800000027
 31
0.0
  0
LINE
  5
135C
330
1E
100
AcDbEntity
  8
DETAIL
  6
DASHED2
100
AcDbLine
 10
-620.0777399999897
 20
106.3000800000027
 30
0.0
 11
-596.0777399999933
 21
106.3000800000027
 31
0.0
  0
LINE
  5
135D
330
1E
100
AcDbEntity
  8
DETAIL
  6
CONTINUOUS
100
AcDbLine
 10
-568.8230799999837
 20
-34.0000000000009
 30
0.0
 11
568.8230900000053
 21
-34.0000000000009
 31
0.0
  0
LINE
  5
135E
330
1E
100
AcDbEntity
  8
DETAIL
  6
CONTINUOUS
100
AcDbLine
 10
480.0
 20
175.0
 30
0.0
 11
-480.0
 21
175.0
 31
0.0
  0
LINE
  5
135F
330
1E
100
AcDbEntity
  8
DETAIL
  6
CONTINUOUS
100
AcDbLine
 10
480.0
 20
0.0
 30
0.0
 11
-480.0
 21
0.0
 31
0.0
  0
LINE
  5
1360
330
1E
100
AcDbEntity
  8
BASIS
  6
DASHDOT
100
AcDbLine
 10
-525.5999999999949
 20
65.36661999999978
 30
0.0
 11
-525.5999999999949
 21
201.9585361803342
 31
0.0
  0
LINE
  5
1361
330
1E
100
AcDbEntity
  8
DETAIL
  6
CONTINUOUS
100
AcDbLine
 10
-520.9999999999854
 20
53.60809000000017
 30
0.0
 11
-520.9999999999854
 21
65.11458999999831
 31
0.0
  0
LINE
  5
1362
330
1E
100
AcDbEntity
  8
DETAIL
  6
CONTINUOUS
100
AcDbLine
 10
-547.6999999999861
 20
73.25057000000015
 30
0.0
 11
-480.0
 21
52.62113756554299
 31
0.0
  0
LINE
  5
1363
330
1E
100
AcDbEntity
  8
DETAIL
  6
CONTINUOUS
100
AcDbLine
 10
-480.0
 20
0.0
 30
0.0
 11
-480.0
 21
175.0
 31
0.0
  0
LINE
  5
1364
330
1E
100
AcDbEntity
  8
BASIS
  6
DASHDOT
100
AcDbLine
 10
0.0
 20
-66.74622489839248
 30
0.0
 11
0.0
 21
215.7181300000002
 31
0.0
  0
LINE
  5
1365
330
1E
100
AcDbEntity
  8
SERVICESPACE
  6
CONTINUOUS
100
AcDbLine
 10
-580.0
 20
0.0
 30
0.0
 11
-580.0
 21
8.999999999998635
 31
0.0
  0
LINE
  5
1366
330
1E
100
AcDbEntity
  8
DETAIL
  6
CONTINUOUS
100
AcDbLine
 10
-520.9999999999854
 20
53.60809000000017
 30
0.0
 11
-480.0
 21
41.11463999999841
 31
0.0
  0
LINE
  5
1367
330
1E
100
AcDbEntity
  8
DETAIL
  6
CONTINUOUS
100
AcDbLine
 10
-530.5999999999949
 20
112.3000799999999
 30
0.0
 11
-530.5999999999949
 21
180.0
 31
0.0
  0
LINE
  5
1368
330
1E
100
AcDbEntity
  8
DETAIL
  6
CONTINUOUS
100
AcDbLine
 10
-530.5999999999949
 20
74.50552000000016
 30
0.0
 11
-530.5999999999949
 21
110.0000799999998
 31
0.0
  0
LINE
  5
1369
330
1E
100
AcDbEntity
  8
DETAIL
  6
CONTINUOUS
100
AcDbLine
 10
-530.3130899999996
 20
131.1928699999998
 30
0.0
 11
-530.5999999999949
 21
131.1928699999998
 31
0.0
  0
ARC
  5
136A
330
1E
100
AcDbEntity
  8
DETAIL
  6
DASHED2
100
AcDbCircle
 10
-536.9896899999839
 20
108.5500800000017
 30
0.0
 40
15.5
100
AcDbArc
 50
149.9999999999896
 51
210.0000000000103
  0
ARC
  5
136B
330
1E
100
AcDbEntity
  8
DETAIL
  6
DASHED2
100
AcDbCircle
 10
-563.8364799999835
 20
124.0500800000013
 30
0.0
 40
15.5
100
AcDbArc
 50
329.9999999999897
 51
30.00000000001032
  0
ARC
  5
136C
330
1E
100
AcDbEntity
  8
DETAIL
  6
DASHED2
100
AcDbCircle
 10
-542.6929099999797
 20
108.5500800000017
 30
0.0
 40
15.5
100
AcDbArc
 50
149.9999999999896
 51
210.0000000000103
  0
ARC
  5
136D
330
1E
100
AcDbEntity
  8
DETAIL
  6
DASHED2
100
AcDbCircle
 10
-569.5396899999941
 20
124.0500800000013
 30
0.0
 40
15.5
100
AcDbArc
 50
329.9999999999897
 51
30.00000000001032
  0
LINE
  5
136E
330
1E
100
AcDbEntity
  8
DETAIL
  6
DASHED2
100
AcDbLine
 10
-577.0777399999787
 20
131.8000800000022
 30
0.0
 11
-556.1162999999869
 21
131.8000800000022
 31
0.0
  0
LINE
  5
136F
330
1E
100
AcDbEntity
  8
DETAIL
  6
DASHED2
100
AcDbLine
 10
-577.0777399999787
 20
100.8000800000008
 30
0.0
 11
-556.1162999999869
 21
100.8000800000008
 31
0.0
  0
LINE
  5
1370
330
1E
100
AcDbEntity
  8
DETAIL
  6
DASHED2
100
AcDbLine
 10
-577.0777399999787
 20
98.3000800000009
 30
0.0
 11
-577.0777399999787
 21
134.3000800000022
 31
0.0
  0
LINE
  5
1371
330
1E
100
AcDbEntity
  8
DETAIL
  6
CONTINUOUS
100
AcDbLine
 10
-543.2999999999992
 20
102.3000799999999
 30
0.0
 11
-545.5999999999948
 21
102.3000799999999
 31
0.0
  0
LINE
  5
1372
330
1E
100
AcDbEntity
  8
DETAIL
  6
CONTINUOUS
100
AcDbLine
 10
-543.2999999999992
 20
102.3000799999999
 30
0.0
 11
-543.2999999999992
 21
107.7000799999996
 31
0.0
  0
LINE
  5
1373
330
1E
100
AcDbEntity
  8
DETAIL
  6
CONTINUOUS
100
AcDbLine
 10
-545.5999999999948
 20
102.3000799999999
 30
0.0
 11
-545.5999999999948
 21
107.7000799999996
 31
0.0
  0
ARC
  5
1374
330
1E
100
AcDbEntity
  8
DETAIL
  6
CONTINUOUS
100
AcDbCircle
 10
-540.9999999999854
 20
107.7000799999996
 30
0.0
 40
4.6
100
AcDbArc
 50
90.0
 51
180.0
  0
ARC
  5
1375
330
1E
100
AcDbEntity
  8
DETAIL
  6
CONTINUOUS
100
AcDbCircle
 10
-540.9999999999854
 20
107.7000799999996
 30
0.0
 40
2.3
100
AcDbArc
 50
90.0
 51
180.0
  0
LINE
  5
1376
330
1E
100
AcDbEntity
  8
DETAIL
  6
CONTINUOUS
100
AcDbLine
 10
-558.0999999999948
 20
142.5000799999998
 30
0.0
 11
-530.5999999999949
 21
147.9431599999998
 31
0.0
  0
LINE
  5
1377
330
1E
100
AcDbEntity
  8
DETAIL
  6
CONTINUOUS
100
AcDbLine
 10
-558.0999999999947
 20
127.0000800000002
 30
0.0
 11
-558.0999999999948
 21
142.5000799999998
 31
0.0
  0
LINE
  5
1378
330
1E
100
AcDbEntity
  8
DETAIL
  6
CONTINUOUS
100
AcDbLine
 10
-547.6999999999861
 20
73.25057000000015
 30
0.0
 11
-547.6999999999864
 21
92.00008000000025
 31
0.0
  0
LINE
  5
137B
330
1E
100
AcDbEntity
  8
DETAIL
  6
DASHED2
100
AcDbLine
 10
-550.4130899999945
 20
100.8000800000008
 30
0.0
 11
-530.6999999999898
 21
100.8000800000008
 31
0.0
  0
LINE
  5
137C
330
1E
100
AcDbEntity
  8
DETAIL
  6
DASHED2
100
AcDbLine
 10
-550.4130862413262
 20
131.8000800000036
 30
0.0
 11
-520.986909999985
 21
131.8000800000022
 31
0.0
  0
LINE
  5
137D
330
1E
100
AcDbEntity
  8
DETAIL
  6
CONTINUOUS
100
AcDbLine
 10
-520.5999999999948
 20
112.3000799999999
 30
0.0
 11
-520.5999999999948
 21
180.0
 31
0.0
  0
LINE
  5
137E
330
1E
100
AcDbEntity
  8
DETAIL
  6
CONTINUOUS
100
AcDbLine
 10
-520.5999999999948
 20
74.50552000000016
 30
0.0
 11
-520.5999999999948
 21
110.0000799999998
 31
0.0
  0
LINE
  5
137F
330
1E
100
AcDbEntity
  8
DETAIL
  6
DASHED2
100
AcDbLine
 10
-461.1502800000017
 20
114.900079999998
 30
0.0
 11
-459.5951500000047
 21
114.900079999998
 31
0.0
  0
LINE
  5
1380
330
1E
100
AcDbEntity
  8
DETAIL
  6
DASHED2
100
AcDbLine
 10
-461.1502800000017
 20
105.7000799999996
 30
0.0
 11
-459.5951500000047
 21
105.7000799999996
 31
0.0
  0
LINE
  5
1381
330
1E
100
AcDbEntity
  8
DETAIL
  6
DASHED2
100
AcDbLine
 10
-476.5999999999985
 20
114.900079999998
 30
0.0
 11
-474.5499699999891
 21
114.900079999998
 31
0.0
  0
LINE
  5
1382
330
1E
100
AcDbEntity
  8
DETAIL
  6
DASHED2
100
AcDbLine
 10
-476.5999999999985
 20
105.7000799999996
 30
0.0
 11
-478.0999999999949
 21
107.2000799999982
 31
0.0
  0
LINE
  5
1383
330
1E
100
AcDbEntity
  8
DETAIL
  6
DASHED2
100
AcDbLine
 10
-473.5999699999957
 20
104.7500799999993
 30
0.0
 11
-474.5499699999891
 21
105.7000799999996
 31
0.0
  0
LINE
  5
1384
330
1E
100
AcDbEntity
  8
DETAIL
  6
DASHED2
100
AcDbLine
 10
-462.1001599999909
 20
104.7500799999993
 30
0.0
 11
-461.1502800000017
 21
105.7000799999996
 31
0.0
  0
LINE
  5
1385
330
1E
100
AcDbEntity
  8
DETAIL
  6
DASHED2
100
AcDbLine
 10
-476.5999999999985
 20
105.7000799999996
 30
0.0
 11
-474.5499699999891
 21
105.7000799999996
 31
0.0
  0
LINE
  5
1386
330
1E
100
AcDbEntity
  8
DETAIL
  6
DASHED2
100
AcDbLine
 10
-473.5999699999957
 20
104.7500799999993
 30
0.0
 11
-462.1001599999909
 21
104.7500799999993
 31
0.0
  0
LINE
  5
1387
330
1E
100
AcDbEntity
  8
DETAIL
  6
DASHED2
100
AcDbLine
 10
-476.5999999999985
 20
114.900079999998
 30
0.0
 11
-476.5999999999985
 21
105.7000799999996
 31
0.0
  0
LINE
  5
1388
330
1E
100
AcDbEntity
  8
DETAIL
  6
DASHED2
100
AcDbLine
 10
-476.5999999999985
 20
114.900079999998
 30
0.0
 11
-478.0999999999949
 21
113.4000799999994
 31
0.0
  0
LINE
  5
1389
330
1E
100
AcDbEntity
  8
DETAIL
  6
DASHED2
100
AcDbLine
 10
-473.5999699999957
 20
115.8500799999983
 30
0.0
 11
-462.1001599999909
 21
115.8500799999983
 31
0.0
  0
LINE
  5
138A
330
1E
100
AcDbEntity
  8
DETAIL
  6
DASHED2
100
AcDbLine
 10
-459.5951500000047
 20
123.001229999998
 30
0.0
 11
-459.5951500000047
 21
97.59801999999854
 31
0.0
  0
LINE
  5
138B
330
1E
100
AcDbEntity
  8
DETAIL
  6
DASHED2
100
AcDbLine
 10
-446.1011899999903
 20
123.001229999998
 30
0.0
 11
-446.1011899999903
 21
97.59801999999854
 31
0.0
  0
LINE
  5
138C
330
1E
100
AcDbEntity
  8
DETAIL
  6
DASHED2
100
AcDbLine
 10
-461.1502800000017
 20
114.900079999998
 30
0.0
 11
-461.1502800000017
 21
105.7000799999996
 31
0.0
  0
LINE
  5
138D
330
1E
100
AcDbEntity
  8
DETAIL
  6
DASHED2
100
AcDbLine
 10
-462.1001599999909
 20
115.8500799999983
 30
0.0
 11
-461.1502800000017
 21
114.900079999998
 31
0.0
  0
LINE
  5
138E
330
1E
100
AcDbEntity
  8
DETAIL
  6
DASHED2
100
AcDbLine
 10
-473.5999699999957
 20
115.8500799999983
 30
0.0
 11
-473.5999699999957
 21
104.7500799999993
 31
0.0
  0
LINE
  5
138F
330
1E
100
AcDbEntity
  8
DETAIL
  6
DASHED2
100
AcDbLine
 10
-473.5999699999957
 20
115.8500799999983
 30
0.0
 11
-474.5499699999891
 21
114.900079999998
 31
0.0
  0
LINE
  5
1390
330
1E
100
AcDbEntity
  8
DETAIL
  6
DASHED2
100
AcDbLine
 10
-474.5499699999891
 20
114.900079999998
 30
0.0
 11
-474.5499699999891
 21
105.7000799999996
 31
0.0
  0
LINE
  5
1391
330
1E
100
AcDbEntity
  8
DETAIL
  6
DASHED2
100
AcDbLine
 10
-462.1001599999909
 20
115.8500799999983
 30
0.0
 11
-462.1001599999909
 21
104.7500799999993
 31
0.0
  0
LINE
  5
1392
330
1E
100
AcDbEntity
  8
DETAIL
  6
DASHED2
100
AcDbLine
 10
-478.0999999999949
 20
113.4000799999994
 30
0.0
 11
-478.0999999999949
 21
107.2000799999982
 31
0.0
  0
LINE
  5
1393
330
1E
100
AcDbEntity
  8
BASIS
  6
DASHDOT
100
AcDbLine
 10
-486.9467900000017
 20
110.3000799999999
 30
0.0
 11
-440.251257064563
 21
110.3000799999999
 31
0.0
  0
LINE
  5
1394
330
1E
100
AcDbEntity
  8
DETAIL
  6
DASHED2
100
AcDbLine
 10
-446.1011899999903
 20
123.001229999998
 30
0.0
 11
-459.5951500000047
 21
123.001229999998
 31
0.0
  0
LINE
  5
1395
330
1E
100
AcDbEntity
  8
DETAIL
  6
DASHED2
100
AcDbLine
 10
-446.1011899999903
 20
116.6514599999986
 30
0.0
 11
-459.5951500000047
 21
116.6514599999986
 31
0.0
  0
LINE
  5
1396
330
1E
100
AcDbEntity
  8
DETAIL
  6
DASHED2
100
AcDbLine
 10
-446.1011899999903
 20
103.9488199999986
 30
0.0
 11
-459.5951500000047
 21
103.9488199999986
 31
0.0
  0
LINE
  5
1397
330
1E
100
AcDbEntity
  8
DETAIL
  6
DASHED2
100
AcDbLine
 10
-446.1011899999903
 20
97.59801999999854
 30
0.0
 11
-459.5951500000047
 21
97.59801999999854
 31
0.0
  0
LINE
  5
1398
330
1E
100
AcDbEntity
  8
DETAIL
  6
DASHED2
100
AcDbLine
 10
-520.6999999999898
 20
131.8000800000022
 30
0.0
 11
-481.0999999999803
 21
131.8000800000022
 31
0.0
  0
LINE
  5
1399
330
1E
100
AcDbEntity
  8
DETAIL
  6
DASHED2
100
AcDbLine
 10
-520.6999999999898
 20
100.8000800000008
 30
0.0
 11
-481.0999999999803
 21
100.8000800000008
 31
0.0
  0
LINE
  5
139A
330
1E
100
AcDbEntity
  8
DETAIL
  6
DASHED2
100
AcDbLine
 10
-481.0999999999803
 20
133.3000800000008
 30
0.0
 11
-481.0999999999803
 21
99.30008000000226
 31
0.0
  0
LINE
  5
139B
330
1E
100
AcDbEntity
  8
DETAIL
  6
DASHED2
100
AcDbLine
 10
-480.9999999999854
 20
98.69286999999985
 30
0.0
 11
-480.0
 21
98.69286999999985
 31
0.0
  0
LINE
  5
139C
330
1E
100
AcDbEntity
  8
DETAIL
  6
DASHED2
100
AcDbLine
 10
-481.0999999999803
 20
133.3000800000008
 30
0.0
 11
-480.0999999999949
 21
133.3000800000008
 31
0.0
  0
LINE
  5
139E
330
1E
100
AcDbEntity
  8
DETAIL
  6
CONTINUOUS
100
AcDbLine
 10
-520.5999999999948
 20
149.9224600000002
 30
0.0
 11
-480.0
 21
157.9584199999999
 31
0.0
  0
LINE
  5
139F
330
1E
100
AcDbEntity
  8
DETAIL
  6
CONTINUOUS
100
AcDbLine
 10
-520.5999999999948
 20
74.50552000000016
 30
0.0
 11
-530.5999999999949
 21
74.50552000000016
 31
0.0
  0
LINE
  5
13A0
330
1E
100
AcDbEntity
  8
DETAIL
  6
CONTINUOUS
100
AcDbLine
 10
-540.9999999999854
 20
110.0000799999998
 30
0.0
 11
-480.0
 21
110.0000799999998
 31
0.0
  0
LINE
  5
13A1
330
1E
100
AcDbEntity
  8
DETAIL
  6
CONTINUOUS
100
AcDbLine
 10
-540.9999999999854
 20
112.3000799999999
 30
0.0
 11
-480.0
 21
112.3000799999999
 31
0.0
  0
LINE
  5
13A2
330
1E
100
AcDbEntity
  8
BASIS
  6
DASHDOT
100
AcDbLine
 10
525.600000000013
 20
65.36661999999978
 30
0.0
 11
525.600000000013
 21
199.2382318046598
 31
0.0
  0
LINE
  5
13A3
330
1E
100
AcDbEntity
  8
DETAIL
  6
CONTINUOUS
100
AcDbLine
 10
480.0
 20
175.0
 30
0.0
 11
480.0
 21
0.0
 31
0.0
  0
LINE
  5
13A4
330
1E
100
AcDbEntity
  8
DETAIL
  6
CONTINUOUS
100
AcDbLine
 10
544.0000000000146
 20
0.0
 30
0.0
 11
544.0000000000146
 21
102.3000799999999
 31
0.0
  0
LINE
  5
13A6
330
1E
100
AcDbEntity
  8
DETAIL
  6
CONTINUOUS
100
AcDbLine
 10
480.0
 20
175.0
 30
0.0
 11
480.0
 21
0.0
 31
0.0
  0
LINE
  5
13A7
330
1E
100
AcDbEntity
  8
DETAIL
  6
CONTINUOUS
100
AcDbLine
 10
480.0
 20
0.0
 30
0.0
 11
544.0000000000146
 21
0.0
 31
0.0
  0
LINE
  5
13A8
330
1E
100
AcDbEntity
  8
SERVICESPACE
  6
CONTINUOUS
100
AcDbLine
 10
580.0
 20
0.0
 30
0.0
 11
580.0
 21
8.999999999998635
 31
0.0
  0
LINE
  5
13AA
330
1E
100
AcDbEntity
  8
DETAIL
  6
CONTINUOUS
100
AcDbLine
 10
595.9807700000055
 20
-16.96151999999983
 30
0.0
 11
594.8038500000075
 21
-19.0000000000009
 31
0.0
  0
ARC
  5
13AB
330
1E
100
AcDbEntity
  8
DETAIL
  6
CONTINUOUS
100
AcDbCircle
 10
570.0
 20
-1.961519999999836
 30
0.0
 40
30.0
100
AcDbArc
 50
329.9999999999897
 51
0.000000000000007
  0
LINE
  5
13AC
330
1E
100
AcDbEntity
  8
DETAIL
  6
CONTINUOUS
100
AcDbLine
 10
600.0
 20
0.0
 30
0.0
 11
600.0
 21
-1.961519999999836
 31
0.0
  0
LINE
  5
13AD
330
1E
100
AcDbEntity
  8
SERVICESPACE
  6
CONTINUOUS
100
AcDbLine
 10
681.9275230782222
 20
0.0
 30
0.0
 11
580.0
 21
0.0
 31
0.0
  0
LINE
  5
13AE
330
1E
100
AcDbEntity
  8
SERVICESPACE
  6
CONTINUOUS
100
AcDbLine
 10
681.1479066197135
 20
8.999999999998635
 30
0.0
 11
580.0
 21
8.999999999998635
 31
0.0
  0
ARC
  5
13AF
330
1E
100
AcDbEntity
  8
DETAIL
  6
CONTINUOUS
100
AcDbCircle
 10
568.8230900000053
 20
-4.000000000000909
 30
0.0
 40
30.0
100
AcDbArc
 50
270.0
 51
329.9999999999897
  0
LINE
  5
13B0
330
1E
100
AcDbEntity
  8
DETAIL
  6
CONTINUOUS
100
AcDbLine
 10
520.600000000013
 20
74.50552000000016
 30
0.0
 11
530.6000000000131
 21
74.50552000000016
 31
0.0
  0
LINE
  5
13B1
330
1E
100
AcDbEntity
  8
DETAIL
  6
CONTINUOUS
100
AcDbLine
 10
541.0000000000036
 20
112.3000799999999
 30
0.0
 11
481.8000000000028
 21
112.3000799999999
 31
0.0
  0
LINE
  5
13B2
330
1E
100
AcDbEntity
  8
DETAIL
  6
CONTINUOUS
100
AcDbLine
 10
541.0000000000036
 20
110.0000799999998
 30
0.0
 11
481.8000000000028
 21
110.0000799999998
 31
0.0
  0
LINE
  5
13B3
330
1E
100
AcDbEntity
  8
DETAIL
  6
CONTINUOUS
100
AcDbLine
 10
520.600000000013
 20
112.3000799999999
 30
0.0
 11
520.600000000013
 21
180.0
 31
0.0
  0
LINE
  5
13B4
330
1E
100
AcDbEntity
  8
DETAIL
  6
CONTINUOUS
100
AcDbLine
 10
520.600000000013
 20
74.50552000000016
 30
0.0
 11
520.600000000013
 21
110.0000799999998
 31
0.0
  0
LINE
  5
13B5
330
1E
100
AcDbEntity
  8
DETAIL
  6
CONTINUOUS
100
AcDbLine
 10
480.0
 20
175.0
 30
0.0
 11
520.600000000013
 21
175.0
 31
0.0
  0
ARC
  5
13B6
330
1E
100
AcDbEntity
  8
DETAIL
  6
CONTINUOUS
100
AcDbCircle
 10
481.8000000000028
 20
107.7000799999996
 30
0.0
 40
2.3
100
AcDbArc
 50
90.0
 51
141.5000500000269
  0
ARC
  5
13B7
330
1E
100
AcDbEntity
  8
DETAIL
  6
CONTINUOUS
100
AcDbCircle
 10
481.8000000000028
 20
114.6000800000001
 30
0.0
 40
4.6
100
AcDbArc
 50
246.9643159999604
 51
270.0
  0
ARC
  5
13B8
330
1E
100
AcDbEntity
  8
DETAIL
  6
CONTINUOUS
100
AcDbCircle
 10
481.8000000000028
 20
114.6000800000001
 30
0.0
 40
2.3
100
AcDbArc
 50
218.499949999973
 51
270.0
  0
LINE
  5
13B9
330
1E
100
AcDbEntity
  8
DETAIL
  6
CONTINUOUS
100
AcDbLine
 10
530.6000000000131
 20
112.3000799999999
 30
0.0
 11
530.6000000000131
 21
180.0
 31
0.0
  0
LINE
  5
13BA
330
1E
100
AcDbEntity
  8
DETAIL
  6
CONTINUOUS
100
AcDbLine
 10
530.6000000000131
 20
74.50552000000016
 30
0.0
 11
530.6000000000131
 21
110.0000799999998
 31
0.0
  0
LINE
  5
13BB
330
1E
100
AcDbEntity
  8
DETAIL
  6
CONTINUOUS
100
AcDbLine
 10
530.6000000000131
 20
175.0
 30
0.0
 11
544.0000000000146
 21
175.0
 31
0.0
  0
LINE
  5
13BC
330
1E
100
AcDbEntity
  8
DETAIL
  6
CONTINUOUS
100
AcDbLine
 10
544.0000000000146
 20
111.1871999999993
 30
0.0
 11
544.0000000000146
 21
175.0
 31
0.0
  0
ARC
  5
13BE
330
1E
100
AcDbEntity
  8
DETAIL
  6
CONTINUOUS
100
AcDbCircle
 10
541.0000000000036
 20
107.7000799999996
 30
0.0
 40
2.3
100
AcDbArc
 50
0.000000000000007
 51
90.0
  0
ARC
  5
13BF
330
1E
100
AcDbEntity
  8
DETAIL
  6
CONTINUOUS
100
AcDbCircle
 10
541.0000000000036
 20
107.7000799999996
 30
0.0
 40
4.6
100
AcDbArc
 50
0.000000000000007
 51
90.0
  0
LINE
  5
13C0
330
1E
100
AcDbEntity
  8
DETAIL
  6
CONTINUOUS
100
AcDbLine
 10
545.600000000013
 20
102.3000799999999
 30
0.0
 11
545.600000000013
 21
107.7000799999996
 31
0.0
  0
LINE
  5
13C1
330
1E
100
AcDbEntity
  8
DETAIL
  6
CONTINUOUS
100
AcDbLine
 10
543.2999999999992
 20
102.3000799999999
 30
0.0
 11
543.2999999999992
 21
107.7000799999996
 31
0.0
  0
LINE
  5
13C2
330
1E
100
AcDbEntity
  8
DETAIL
  6
CONTINUOUS
100
AcDbLine
 10
543.2999999999992
 20
102.3000799999999
 30
0.0
 11
545.600000000013
 21
102.3000799999999
 31
0.0
  0
LINE
  5
13C6
330
1E
100
AcDbEntity
  8
SERVICESPACE
100
AcDbLine
 10
580.0
 20
0.0
 30
0.0
 11
585.1961524227062
 21
8.999999999998635
 31
0.0
  0
LINE
  5
13C7
330
1E
100
AcDbEntity
  8
SERVICESPACE
100
AcDbLine
 10
649.2820323027549
 20
0.0
 30
0.0
 11
654.4781847254608
 21
8.999999999998635
 31
0.0
  0
LINE
  5
13C8
330
1E
100
AcDbEntity
  8
SERVICESPACE
100
AcDbLine
 10
637.7350269189619
 20
0.0
 30
0.0
 11
642.9311793416681
 21
8.999999999998635
 31
0.0
  0
LINE
  5
13C9
330
1E
100
AcDbEntity
  8
SERVICESPACE
100
AcDbLine
 10
626.1880215351702
 20
0.0
 30
0.0
 11
631.384173957876
 21
8.999999999998635
 31
0.0
  0
LINE
  5
13CA
330
1E
100
AcDbEntity
  8
SERVICESPACE
100
AcDbLine
 10
614.6410161513776
 20
0.0
 30
0.0
 11
619.8371685740831
 21
8.999999999998635
 31
0.0
  0
LINE
  5
13CB
330
1E
100
AcDbEntity
  8
SERVICESPACE
100
AcDbLine
 10
603.0940107675847
 20
0.0
 30
0.0
 11
608.290163190291
 21
8.999999999998181
 31
0.0
  0
LINE
  5
13CC
330
1E
100
AcDbEntity
  8
SERVICESPACE
100
AcDbLine
 10
591.547005383792
 20
0.0
 30
0.0
 11
596.7431578064988
 21
8.999999999998635
 31
0.0
  0
LINE
  5
13CD
330
1E
100
AcDbEntity
  8
SERVICESPACE
100
AcDbLine
 10
-669.6009012359213
 20
0.0
 30
0.0
 11
-664.4047488132145
 21
8.999999999998635
 31
0.0
  0
LINE
  5
13CE
330
1E
100
AcDbEntity
  8
SERVICESPACE
100
AcDbLine
 10
-658.0538958521287
 20
0.0
 30
0.0
 11
-652.8577434294224
 21
8.999999999998181
 31
0.0
  0
LINE
  5
13CF
330
1E
100
AcDbEntity
  8
SERVICESPACE
100
AcDbLine
 10
-681.1479066197135
 20
0.0
 30
0.0
 11
-675.9517541970072
 21
8.999999999998635
 31
0.0
  0
LINE
  5
13D0
330
1E
100
AcDbEntity
  8
SERVICESPACE
100
AcDbLine
 10
-646.5068904683358
 20
0.0
 30
0.0
 11
-641.3107380456303
 21
8.999999999998635
 31
0.0
  0
LINE
  5
13D1
330
1E
100
AcDbEntity
  8
SERVICESPACE
100
AcDbLine
 10
-634.9598850845431
 20
0.0
 30
0.0
 11
-629.7637326618374
 21
8.999999999998635
 31
0.0
  0
LINE
  5
13D2
330
1E
100
AcDbEntity
  8
SERVICESPACE
100
AcDbLine
 10
-623.4128797007515
 20
0.0
 30
0.0
 11
-618.2167272780453
 21
8.999999999998635
 31
0.0
  0
LINE
  5
13D3
330
1E
100
AcDbEntity
  8
SERVICESPACE
100
AcDbLine
 10
-611.8658743169585
 20
0.0
 30
0.0
 11
-606.6697218942526
 21
8.999999999998635
 31
0.0
  0
LINE
  5
13D4
330
1E
100
AcDbEntity
  8
SERVICESPACE
100
AcDbLine
 10
-600.3188689331651
 20
0.0
 30
0.0
 11
-595.1227165104596
 21
8.999999999998181
 31
0.0
  0
LINE
  5
13D5
330
1E
100
AcDbEntity
  8
SERVICESPACE
100
AcDbLine
 10
-588.7718635493718
 20
0.0
 30
0.0
 11
-583.5757111266664
 21
8.999999999998181
 31
0.0
  0
LINE
  5
13D7
330
1E
100
AcDbEntity
  8
DETAIL
  6
DASHED2
100
AcDbLine
 10
-448.0999999999876
 20
96.30007999999998
 30
0.0
 11
-448.0999999999876
 21
136.3000799999999
 31
0.0
  0
LINE
  5
13D8
330
1E
100
AcDbEntity
  8
DETAIL
  6
DASHED2
100
AcDbLine
 10
-465.0999999999949
 20
96.30007999999998
 30
0.0
 11
-448.0999999999876
 21
96.30007999999998
 31
0.0
  0
LINE
  5
13D9
330
1E
100
AcDbEntity
  8
DETAIL
  6
DASHED2
100
AcDbLine
 10
-465.0999999999949
 20
136.3000799999999
 30
0.0
 11
-448.0999999999876
 21
136.3000799999999
 31
0.0
  0
LINE
  5
13DA
330
1E
100
AcDbEntity
  8
DETAIL
  6
DASHED2
100
AcDbLine
 10
-481.0999999999803
 20
133.3000800000008
 30
0.0
 11
-465.0999999999949
 21
133.3000800000008
 31
0.0
  0
LINE
  5
13DB
330
1E
100
AcDbEntity
  8
DETAIL
  6
DASHED2
100
AcDbLine
 10
-481.0999999999803
 20
99.30007999999999
 30
0.0
 11
-465.0999999999949
 21
99.30007999999999
 31
0.0
  0
LINE
  5
13DC
330
1E
100
AcDbEntity
  8
DETAIL
  6
DASHED2
100
AcDbLine
 10
-465.0999999999949
 20
136.3000799999999
 30
0.0
 11
-465.0999999999949
 21
96.30007999999998
 31
0.0
  0
LINE
  5
13E1
330
1E
100
AcDbEntity
  8
NOTE
  6
CONTINUOUS
100
AcDbLine
 10
773.2101830000129
 20
359.9806539999999
 30
0.0
 11
525.600000000013
 21
112.3000799999999
 31
0.0
  0
TEXT
  5
13E2
330
1E
100
AcDbEntity
  8
NOTE
  6
CONTINUOUS
100
AcDbText
 10
788.7494980000128
 20
376.5810999999998
 30
0.0
 40
64.0
  1
AH
 41
0.9
100
AcDbText
  0
LINE
  5
13E3
330
1E
100
AcDbEntity
  8
NOTE
  6
CONTINUOUS
100
AcDbLine
 10
773.2101830000129
 20
359.9806539999999
 30
0.0
 11
921.7344630000134
 21
359.9806539999999
 31
0.0
  0
LWPOLYLINE
  5
13E4
330
1E
100
AcDbEntity
  8
NOTE
  6
CONTINUOUS
100
AcDbPolyline
 90
        3
 70
     0
 43
0.0
 10
545.4474520000131
 20
147.0287229999998
 10
525.600000000013
 20
112.3000799999999
 10
560.1527190000133
 20
132.4522409999999
  0
LINE
  5
13E5
330
1E
100
AcDbEntity
  8
NOTE
  6
CONTINUOUS
100
AcDbLine
 10
525.600000000013
 20
92.30007999999997
 30
0.0
 11
525.600000000013
 21
132.3000799999999
 31
0.0
  0
CIRCLE
  5
13E6
330
1E
100
AcDbEntity
  8
FIX
  6
CONTINUOUS
100
AcDbCircle
 10
525.600000000013
 20
112.3000799999999
 30
0.0
 40
10.0
  0
LINE
  5
13E7
330
1E
100
AcDbEntity
  8
NOTE
  6
CONTINUOUS
100
AcDbLine
 10
505.6000000000131
 20
112.3000799999999
 30
0.0
 11
545.600000000013
 21
112.3000799999999
 31
0.0
  0
TEXT
  5
13E8
330
1E
100
AcDbEntity
  8
NOTE
  6
CONTINUOUS
100
AcDbText
 10
-842.688441999995
 20
260.030091
 30
0.0
 40
64.0
  1
AH
 41
0.9
100
AcDbText
  0
LINE
  5
13E9
330
1E
100
AcDbEntity
  8
NOTE
  6
CONTINUOUS
100
AcDbLine
 10
-873.8944719999945
 20
241.555859
 30
0.0
 11
-687.9882999999954
 21
241.555859
 31
0.0
  0
LINE
  5
13EA
330
1E
100
AcDbEntity
  8
NOTE
  6
CONTINUOUS
100
AcDbLine
 10
-525.5999999999949
 20
112.3000799999999
 30
0.0
 11
-687.9882999999954
 21
241.555859
 31
0.0
  0
LWPOLYLINE
  5
13EB
330
1E
100
AcDbEntity
  8
NOTE
  6
CONTINUOUS
100
AcDbPolyline
 90
        3
 70
     0
 43
0.0
 10
-561.936563999995
 20
129.0229429999999
 10
-525.5999999999949
 20
112.3000799999999
 10
-548.706955999995
 20
144.9507859999998
  0
LINE
  5
13EC
330
1E
100
AcDbEntity
  8
NOTE
  6
CONTINUOUS
100
AcDbLine
 10
-525.5999999999949
 20
92.30007999999997
 30
0.0
 11
-525.5999999999949
 21
132.3000799999999
 31
0.0
  0
CIRCLE
  5
13ED
330
1E
100
AcDbEntity
  8
FIX
  6
CONTINUOUS
100
AcDbCircle
 10
-525.5999999999949
 20
112.3000799999999
 30
0.0
 40
10.0
  0
LINE
  5
13EE
330
1E
100
AcDbEntity
  8
NOTE
  6
CONTINUOUS
100
AcDbLine
 10
-545.5999999999948
 20
112.3000799999999
 30
0.0
 11
-505.5999999999949
 21
112.3000799999999
 31
0.0
  0
LINE
  5
143B
330
1E
100
AcDbEntity
  8
SERVICESPACE
100
AcDbLine
 10
660.8290376865475
 20
0.0
 30
0.0
 11
666.0251901092533
 21
8.999999999998635
 31
0.0
  0
TEXT
  5
146A
330
1E
100
AcDbEntity
  8
NOTE
  6
CONTINUOUS
100
AcDbText
 10
121.6674198393748
 20
-346.9803278514214
 30
0.0
 40
64.0
  1
天井開口穴
 41
0.9
100
AcDbText
  0
TEXT
  5
146B
330
1E
100
AcDbEntity
  8
NOTE
  6
CONTINUOUS
100
AcDbText
 10
123.1093110929077
 20
-461.0009730659062
 30
0.0
 40
64.0
  1
化粧パネル
 41
0.9
100
AcDbText
  0
LINE
  5
14DE
330
1E
100
AcDbEntity
  8
DETAIL
100
AcDbLine
 10
-558.0999999999947
 20
127.0000800000002
 30
0.0
 11
-552.6999999999859
 21
127.0000800000002
 31
0.0
  0
LINE
  5
14E2
330
1E
100
AcDbEntity
  8
DETAIL
  6
CONTINUOUS
100
AcDbLine
 10
-552.6999999999861
 20
92.00008000000025
 30
0.0
 11
-547.6999999999864
 21
92.00008000000025
 31
0.0
  0
LINE
  5
14E3
330
1E
100
AcDbEntity
  8
DETAIL
  6
CONTINUOUS
100
AcDbLine
 10
-552.6999999999861
 20
92.00008000000025
 30
0.0
 11
-552.6999999999859
 21
127.0000800000002
 31
0.0
  0
LINE
  5
14E6
330
1E
100
AcDbEntity
  8
NOTE
  6
CONTINUOUS
100
AcDbLine
 10
-1137.504311606208
 20
-163.9708926854291
 30
0.0
 11
-778.7127029297687
 21
-163.9708926854291
 31
0.0
  0
LINE
  5
14E7
330
1E
100
AcDbEntity
  8
NOTE
  6
CONTINUOUS
100
AcDbLine
 10
-778.7127029297687
 20
-163.9708926854291
 30
0.0
 11
-478.0999999999949
 21
110.3000799999999
 31
0.0
  0
LWPOLYLINE
  5
14E9
330
1E
100
AcDbEntity
  8
NOTE
  6
CONTINUOUS
100
AcDbPolyline
 90
        3
 70
     0
 43
0.0
 10
-498.8351816276699
 20
76.09405336566351
 10
-478.0999999999949
 20
110.3000799999999
 10
-513.1602079453791
 20
91.04438345202607
  0
TEXT
  5
14F6
330
1E
100
AcDbEntity
  8
NOTE
  6
CONTINUOUS
100
AcDbText
 10
-98.4734815773254
 20
310.4981806454393
 30
0.0
 40
64.0
  1
吊りボルトピッチ
 41
0.9
100
AcDbText
  0
LINE
  5
1501
330
1E
100
AcDbEntity
  8
NOTE
  6
CONTINUOUS
100
AcDbLine
 10
827.9537308455969
 20
-325.1380293524425
 30
0.0
 11
1130.7331123685
 21
-325.1380293524425
 31
0.0
  0
TEXT
  5
1502
330
1E
100
AcDbEntity
  8
NOTE
  6
CONTINUOUS
100
AcDbText
 10
839.2499369817679
 20
-304.9194094266622
 30
0.0
 40
64.0
  1
天井下面
 41
0.9
100
AcDbText
  0
LINE
  5
1503
330
1E
100
AcDbEntity
  8
NOTE
  6
CONTINUOUS
100
AcDbLine
 10
614.6410161513772
 20
0.0000000000004547
 30
0.0
 11
827.9537308455969
 21
-325.1380293524425
 31
0.0
  0
LWPOLYLINE
  5
1504
330
1E
100
AcDbEntity
  8
NOTE
  6
CONTINUOUS
100
AcDbPolyline
 90
        3
 70
     0
 43
0.0
 10
644.8222230224919
 20
-26.25061524713874
 10
614.6410161513772
 20
0.0000000000004547
 10
627.6534000648844
 20
-37.82430235594984
  0
TEXT
  5
156F
330
1E
100
AcDbEntity
  8
NOTE
  6
CONTINUOUS
100
AcDbText
 10
788.7494980000128
 20
482.0295219825534
 30
0.0
 40
64.0
  1
吊りボルトM10
 41
0.9
100
AcDbText
  0
LINE
  5
1570
330
1E
100
AcDbEntity
  8
NOTE
  6
CONTINUOUS
100
AcDbLine
 10
773.2101830000129
 20
467.4425517526333
 30
0.0
 11
1293.365527096488
 21
467.4425517526333
 31
0.0
  0
LINE
  5
1571
330
1E
100
AcDbEntity
  8
NOTE
  6
CONTINUOUS
100
AcDbLine
 10
773.2101830000129
 20
467.4425517526333
 30
0.0
 11
530.6980831364417
 21
141.7483215741149
 31
0.0
  0
LWPOLYLINE
  5
1572
330
1E
100
AcDbEntity
  8
NOTE
  6
CONTINUOUS
100
AcDbPolyline
 90
        3
 70
     0
 43
0.0
 10
545.7005949666022
 20
178.8282977647722
 10
530.6980831364417
 20
141.7483215741149
 10
562.230627476411
 20
166.3592669178192
  0
LINE
  5
1577
330
1E
100
AcDbEntity
  8
NOTE
  6
CONTINUOUS
100
AcDbLine
 10
-248.575051564992
 20
511.4800842317349
 30
0.0
 11
243.6711544260397
 21
511.4800842317354
 31
0.0
  0
TEXT
  5
1578
330
1E
100
AcDbEntity
  8
NOTE
  6
CONTINUOUS
100
AcDbText
 10
-251.2935983729394
 20
526.0670544616555
 30
0.0
 40
64.0
  1
吊りボルトM10
 41
0.9
100
AcDbText
  0
LINE
  5
1579
330
1E
100
AcDbEntity
  8
NOTE
  6
CONTINUOUS
100
AcDbLine
 10
-248.575051564992
 20
511.4800842317349
 30
0.0
 11
-520.5999999999948
 21
146.15004
 31
0.0
  0
LWPOLYLINE
  5
157A
330
1E
100
AcDbEntity
  8
NOTE
  6
CONTINUOUS
100
AcDbPolyline
 90
        3
 70
     0
 43
0.0
 10
-505.5974881698343
 20
183.2300161906573
 10
-520.5999999999948
 20
146.15004
 10
-489.0674556600256
 20
170.7609853437043
  0
LINE
  5
2562
330
1E
100
AcDbEntity
  8
SIZE
100
AcDbLine
 10
-600.0
 20
-10.0
 30
0.0
 11
-600.0
 21
-514.1914557282579
 31
0.0
  0
LINE
  5
2563
330
1E
100
AcDbEntity
  8
SIZE
100
AcDbLine
 10
600.0
 20
-10.0
 30
0.0
 11
600.0
 21
-514.1914557282579
 31
0.0
  0
LINE
  5
2564
330
1E
100
AcDbEntity
  8
SIZE
100
AcDbLine
 10
-588.0
 20
-484.191455728258
 30
0.0
 11
588.0
 21
-484.191455728258
 31
0.0
  0
LINE
  5
2568
330
1E
100
AcDbEntity
  8
SIZE
100
AcDbLine
 10
-580.0
 20
-10.0
 30
0.0
 11
-580.0
 21
-394.1974770797242
 31
0.0
  0
LINE
  5
2569
330
1E
100
AcDbEntity
  8
SIZE
100
AcDbLine
 10
580.0
 20
-10.0
 30
0.0
 11
580.0
 21
-394.1974770797242
 31
0.0
  0
LINE
  5
256A
330
1E
100
AcDbEntity
  8
SIZE
100
AcDbLine
 10
-568.0
 20
-364.1974770797241
 30
0.0
 11
568.0
 21
-364.1974770797241
 31
0.0
  0
LINE
  5
256E
330
1E
100
AcDbEntity
  8
SIZE
100
AcDbLine
 10
-490.0
 20
175.0
 30
0.0
 11
-759.5119504273825
 21
175.0
 31
0.0
  0
LINE
  5
256F
330
1E
100
AcDbEntity
  8
SIZE
100
AcDbLine
 10
-610.0
 20
0.0000000000000028
 30
0.0
 11
-759.5119504273825
 21
0.0000000000000452
 31
0.0
  0
LINE
  5
2570
330
1E
100
AcDbEntity
  8
SIZE
100
AcDbLine
 10
-729.5119504273825
 20
163.0
 30
0.0
 11
-729.5119504273825
 21
12.00000000000003
 31
0.0
  0
LINE
  5
2574
330
1E
100
AcDbEntity
  8
SIZE
100
AcDbLine
 10
-701.6768810231515
 20
180.0
 30
0.0
 11
-903.1364634294813
 21
180.0
 31
0.0
  0
LINE
  5
2575
330
1E
100
AcDbEntity
  8
SIZE
100
AcDbLine
 10
-704.4173850003426
 20
0.0000000000000028
 30
0.0
 11
-903.1364634294813
 21
0.0000000000000591
 31
0.0
  0
LINE
  5
2576
330
1E
100
AcDbEntity
  8
SIZE
100
AcDbLine
 10
-873.1364634294815
 20
168.0
 30
0.0
 11
-873.1364634294815
 21
12.00000000000005
 31
0.0
  0
LINE
  5
257A
330
1E
100
AcDbEntity
  8
SIZE
100
AcDbLine
 10
590.0
 20
-0.0000000000000028
 30
0.0
 11
952.1953427467233
 21
-0.0000000000001054
 31
0.0
  0
LINE
  5
257B
330
1E
100
AcDbEntity
  8
SIZE
100
AcDbLine
 10
578.8230900000053
 20
-34.0000000000009
 30
0.0
 11
952.1953427467233
 21
-34.00000000000101
 31
0.0
  0
LINE
  5
257C
330
1E
100
AcDbEntity
  8
SIZE
100
AcDbLine
 10
922.1953427467234
 20
11.9999999999999
 30
0.0
 11
922.1953427467234
 21
23.9999999999999
 31
0.0
  0
LINE
  5
257D
330
1E
100
AcDbEntity
  8
SIZE
100
AcDbLine
 10
922.1953427467234
 20
-46.000000000001
 30
0.0
 11
922.1953427467234
 21
-194.0000000000009
 31
0.0
  0
LINE
  5
257E
330
1E
100
AcDbEntity
  8
SIZE
100
AcDbLine
 10
922.1953427467234
 20
-0.0000000000000969
 30
0.0
 11
922.1953427467234
 21
-34.00000000000101
 31
0.0
  0
TEXT
  5
2582
330
1E
100
AcDbEntity
  8
SIZE
100
AcDbText
 10
-96.0
 20
-464.1914557282579
 30
0.0
 40
64.0
  1
1200
 41
0.9
100
AcDbText
  0
CIRCLE
  5
2583
330
1E
100
AcDbEntity
  8
SIZE
  6
BYBLOCK
100
AcDbCircle
 10
-600.0
 20
-484.191455728258
 30
0.0
 40
6.0
  0
LINE
  5
2584
330
1E
100
AcDbEntity
  8
SIZE
  6
BYBLOCK
100
AcDbLine
 10
-600.0
 20
-484.191455728258
 30
0.0
 11
-588.0
 21
-484.191455728258
 31
0.0
  0
CIRCLE
  5
2585
330
1E
100
AcDbEntity
  8
SIZE
  6
BYBLOCK
100
AcDbCircle
 10
600.0
 20
-484.191455728258
 30
0.0
 40
6.0
  0
LINE
  5
2586
330
1E
100
AcDbEntity
  8
SIZE
  6
BYBLOCK
100
AcDbLine
 10
600.0
 20
-484.191455728258
 30
0.0
 11
588.0
 21
-484.191455728258
 31
0.0
  0
TEXT
  5
2587
330
1E
100
AcDbEntity
  8
SIZE
100
AcDbText
 10
-90.51428571428571
 20
-344.1974770797242
 30
0.0
 40
64.0
  1
1160
 41
0.9
100
AcDbText
  0
TEXT
  5
2588
330
1E
100
AcDbEntity
  8
SIZE
100
AcDbText
 10
-893.1364634294814
 20
-55.9200000000001
 30
0.0
 40
64.0
  1
180以上
 50
90.0
 41
0.9
100
AcDbText
  0
CIRCLE
  5
2589
330
1E
100
AcDbEntity
  8
SIZE
  6
BYBLOCK
100
AcDbCircle
 10
-580.0
 20
-364.1974770797241
 30
0.0
 40
6.0
  0
LINE
  5
258A
330
1E
100
AcDbEntity
  8
SIZE
  6
BYBLOCK
100
AcDbLine
 10
-580.0
 20
-364.1974770797241
 30
0.0
 11
-568.0
 21
-364.1974770797241
 31
0.0
  0
TEXT
  5
258B
330
1E
100
AcDbEntity
  8
SIZE
100
AcDbText
 10
-749.5119504273825
 20
18.92857142857137
 30
0.0
 40
64.0
  1
175
 50
90.0
 41
0.9
100
AcDbText
  0
CIRCLE
  5
258C
330
1E
100
AcDbEntity
  8
SIZE
  6
BYBLOCK
100
AcDbCircle
 10
-873.1364634294815
 20
0.0000000000000506
 30
0.0
 40
6.0
  0
LINE
  5
258D
330
1E
100
AcDbEntity
  8
SIZE
  6
BYBLOCK
100
AcDbLine
 10
-873.1364634294815
 20
0.0000000000000506
 30
0.0
 11
-873.1364634294815
 21
12.00000000000005
 31
0.0
  0
CIRCLE
  5
258E
330
1E
100
AcDbEntity
  8
SIZE
  6
BYBLOCK
100
AcDbCircle
 10
-873.1364634294815
 20
180.0
 30
0.0
 40
6.0
  0
LINE
  5
258F
330
1E
100
AcDbEntity
  8
SIZE
  6
BYBLOCK
100
AcDbLine
 10
-873.1364634294815
 20
180.0
 30
0.0
 11
-873.1364634294815
 21
168.0
 31
0.0
  0
CIRCLE
  5
2590
330
1E
100
AcDbEntity
  8
SIZE
  6
BYBLOCK
100
AcDbCircle
 10
-729.5119504273825
 20
0.0000000000000367
 30
0.0
 40
6.0
  0
LINE
  5
2591
330
1E
100
AcDbEntity
  8
SIZE
  6
BYBLOCK
100
AcDbLine
 10
-729.5119504273825
 20
0.0000000000000367
 30
0.0
 11
-729.5119504273825
 21
12.00000000000003
 31
0.0
  0
CIRCLE
  5
2592
330
1E
100
AcDbEntity
  8
SIZE
  6
BYBLOCK
100
AcDbCircle
 10
-729.5119504273825
 20
175.0
 30
0.0
 40
6.0
  0
LINE
  5
2593
330
1E
100
AcDbEntity
  8
SIZE
  6
BYBLOCK
100
AcDbLine
 10
-729.5119504273825
 20
175.0
 30
0.0
 11
-729.5119504273825
 21
163.0
 31
0.0
  0
CIRCLE
  5
2594
330
1E
100
AcDbEntity
  8
SIZE
  6
BYBLOCK
100
AcDbCircle
 10
922.1953427467234
 20
-34.00000000000101
 30
0.0
 40
6.0
  0
LINE
  5
2595
330
1E
100
AcDbEntity
  8
SIZE
  6
BYBLOCK
100
AcDbLine
 10
922.1953427467234
 20
-34.00000000000101
 30
0.0
 11
922.1953427467234
 21
-46.000000000001
 31
0.0
  0
CIRCLE
  5
2596
330
1E
100
AcDbEntity
  8
SIZE
  6
BYBLOCK
100
AcDbCircle
 10
580.0
 20
-364.1974770797241
 30
0.0
 40
6.0
  0
LINE
  5
2597
330
1E
100
AcDbEntity
  8
SIZE
  6
BYBLOCK
100
AcDbLine
 10
580.0
 20
-364.1974770797241
 30
0.0
 11
568.0
 21
-364.1974770797241
 31
0.0
  0
TEXT
  5
2598
330
1E
100
AcDbEntity
  8
SIZE
100
AcDbText
 10
902.1953427467233
 20
-174.0000000000008
 30
0.0
 40
64.0
  1
34
 50
90.0
 41
0.9
100
AcDbText
  0
CIRCLE
  5
2599
330
1E
100
AcDbEntity
  8
SIZE
  6
BYBLOCK
100
AcDbCircle
 10
922.1953427467234
 20
-0.0000000000000969
 30
0.0
 40
6.0
  0
LINE
  5
259A
330
1E
100
AcDbEntity
  8
SIZE
  6
BYBLOCK
100
AcDbLine
 10
922.1953427467234
 20
-0.0000000000000969
 30
0.0
 11
922.1953427467234
 21
11.9999999999999
 31
0.0
  0
LINE
  5
259B
330
1E
100
AcDbEntity
  8
OUTLINE
  6
CONTINUOUS
100
AcDbLine
 10
-600.0
 20
0.0
 30
0.0
 11
600.0
 21
0.0
 31
0.0
  0
LINE
  5
259C
330
1E
100
AcDbEntity
  8
OUTLINE
  6
CONTINUOUS
100
AcDbLine
 10
-568.8230799999837
 20
-34.0000000000009
 30
0.0
 11
568.8230900000053
 21
-34.0000000000009
 31
0.0
  0
LINE
  5
259D
330
1E
100
AcDbEntity
  8
OUTLINE
  6
CONTINUOUS
100
AcDbLine
 10
544.0000000000146
 20
175.0
 30
0.0
 11
-480.0
 21
175.0
 31
0.0
  0
LINE
  5
259E
330
1E
100
AcDbEntity
  8
OUTLINE
  6
CONTINUOUS
100
AcDbLine
 10
480.0
 20
0.0
 30
0.0
 11
-480.0
 21
0.0
 31
0.0
  0
LINE
  5
25A3
330
1E
100
AcDbEntity
  8
OUTLINE
  6
CONTINUOUS
100
AcDbLine
 10
-547.6999999999861
 20
73.25057000000015
 30
0.0
 11
-520.9999999999854
 21
65.11458999999809
 31
0.0
  0
ARC
  5
25A5
330
1E
100
AcDbEntity
  8
OUTLINE
  6
CONTINUOUS
100
AcDbCircle
 10
-568.8230799999837
 20
-4.000000000000909
 30
0.0
 40
30.0
100
AcDbArc
 50
210.0000000000103
 51
270.0
  0
ARC
  5
25A8
330
1E
100
AcDbEntity
  8
OUTLINE
  6
CONTINUOUS
100
AcDbCircle
 10
-570.0
 20
-1.961519999999836
 30
0.0
 40
30.0
100
AcDbArc
 50
180.0
 51
210.0000000000103
  0
LINE
  5
25A9
330
1E
100
AcDbEntity
  8
OUTLINE
  6
CONTINUOUS
100
AcDbLine
 10
-595.980759999984
 20
-16.96151999999983
 30
0.0
 11
-594.8038399999859
 21
-19.0000000000009
 31
0.0
  0
LINE
  5
25AA
330
1E
100
AcDbEntity
  8
OUTLINE
  6
CONTINUOUS
100
AcDbLine
 10
-600.0
 20
0.0
 30
0.0
 11
-600.0
 21
-1.961519999999836
 31
0.0
  0
LINE
  5
25B9
330
1E
100
AcDbEntity
  8
OUTLINE
  6
CONTINUOUS
100
AcDbLine
 10
-547.6999999999861
 20
73.25057000000015
 30
0.0
 11
-547.6999999999864
 21
92.00008000000025
 31
0.0
  0
LINE
  5
25BA
330
1E
100
AcDbEntity
  8
OUTLINE
100
AcDbLine
 10
-558.0999999999947
 20
127.0000800000002
 30
0.0
 11
-552.6999999999859
 21
127.0000800000002
 31
0.0
  0
LINE
  5
25BB
330
1E
100
AcDbEntity
  8
OUTLINE
  6
CONTINUOUS
100
AcDbLine
 10
-552.6999999999861
 20
92.00008000000025
 30
0.0
 11
-547.6999999999864
 21
92.00008000000025
 31
0.0
  0
LINE
  5
25BC
330
1E
100
AcDbEntity
  8
OUTLINE
  6
CONTINUOUS
100
AcDbLine
 10
-552.6999999999861
 20
92.00008000000025
 30
0.0
 11
-552.6999999999859
 21
127.0000800000002
 31
0.0
  0
LINE
  5
25BD
330
1E
100
AcDbEntity
  8
OUTLINE
  6
CONTINUOUS
100
AcDbLine
 10
-558.0999999999947
 20
127.0000800000002
 30
0.0
 11
-558.0999999999948
 21
142.5000799999998
 31
0.0
  0
LINE
  5
25BE
330
1E
100
AcDbEntity
  8
OUTLINE
  6
CONTINUOUS
100
AcDbLine
 10
-558.0999999999948
 20
142.5000799999998
 30
0.0
 11
-480.0
 21
157.9584199999999
 31
0.0
  0
LINE
  5
25BF
330
1E
100
AcDbEntity
  8
OUTLINE
  6
CONTINUOUS
100
AcDbLine
 10
-480.0
 20
0.0
 30
0.0
 11
-480.0
 21
41.11463999999853
 31
0.0
  0
LINE
  5
25C2
330
1E
100
AcDbEntity
  8
OUTLINE
  6
CONTINUOUS
100
AcDbLine
 10
-520.9999999999854
 20
53.60809000000017
 30
0.0
 11
-520.9999999999854
 21
65.11458999999809
 31
0.0
  0
LINE
  5
25C3
330
1E
100
AcDbEntity
  8
OUTLINE
  6
CONTINUOUS
100
AcDbLine
 10
-520.9999999999854
 20
53.60809000000017
 30
0.0
 11
-480.0
 21
41.11463999999853
 31
0.0
  0
LINE
  5
25EE
330
1E
100
AcDbEntity
  8
OUTLINE
  6
CONTINUOUS
100
AcDbLine
 10
480.0
 20
0.0
 30
0.0
 11
544.0000000000146
 21
0.0
 31
0.0
  0
ARC
  5
25FC
330
1E
100
AcDbEntity
  8
OUTLINE
  6
CONTINUOUS
100
AcDbCircle
 10
568.8230900000053
 20
-4.000000000000909
 30
0.0
 40
30.0
100
AcDbArc
 50
270.0
 51
329.9999999999897
  0
LINE
  5
25FE
330
1E
100
AcDbEntity
  8
OUTLINE
  6
CONTINUOUS
100
AcDbLine
 10
595.9807700000055
 20
-16.96151999999983
 30
0.0
 11
594.8038500000075
 21
-19.0000000000009
 31
0.0
  0
ARC
  5
25FF
330
1E
100
AcDbEntity
  8
OUTLINE
  6
CONTINUOUS
100
AcDbCircle
 10
570.0
 20
-1.961519999999836
 30
0.0
 40
30.0
100
AcDbArc
 50
329.9999999999897
 51
0.000000000000007
  0
LINE
  5
2600
330
1E
100
AcDbEntity
  8
OUTLINE
  6
CONTINUOUS
100
AcDbLine
 10
600.0
 20
0.0
 30
0.0
 11
600.0
 21
-1.961519999999836
 31
0.0
  0
LINE
  5
2601
330
1E
100
AcDbEntity
  8
OUTLINE
  6
CONTINUOUS
100
AcDbLine
 10
544.0000000000146
 20
0.0
 30
0.0
 11
544.0000000000146
 21
175.0
 31
0.0
  0
LINE
  5
2607
330
1E
100
AcDbEntity
  8
OUTLINE
  6
CONTINUOUS
100
AcDbLine
 10
-480.0
 20
157.9584199999999
 30
0.0
 11
-480.0
 21
175.0
 31
0.0
  0
ENDSEC
  0
SECTION
  2
OBJECTS
  0
DICTIONARY
  5
C
330
0
100
AcDbDictionary
  3
ACAD_GROUP
350
D
  3
ACAD_LAYOUT
350
19
  3
ACAD_MLINESTYLE
350
16
  3
ACAD_PLOTSETTINGS
350
18
  3
ACAD_PLOTSTYLENAME
350
E
  3
ACDBHEADERROUNDTRIPXREC
350
2613
  3
ACDBVARIABLEDICTIONARY
350
2359
  0
DICTIONARY
  5
2636
330
1E
100
AcDbDictionary
280
     1
  3
ACAD_LAYOUTSELFREF
360
2637
  0
DICTIONARY
  5
2634
330
1A
100
AcDbDictionary
280
     1
  3
ACAD_LAYOUTSELFREF
360
2635
  0
DICTIONARY
  5
D
102
{ACAD_REACTORS
330
C
102
}
330
C
100
AcDbDictionary
  0
DICTIONARY
  5
19
102
{ACAD_REACTORS
330
C
102
}
330
C
100
AcDbDictionary
  0
DICTIONARY
  5
16
102
{ACAD_REACTORS
330
C
102
}
330
C
100
AcDbDictionary
  3
STANDARD
350
17
  0
DICTIONARY
  5
18
102
{ACAD_REACTORS
330
C
102
}
330
C
100
AcDbDictionary
  0
ACDBDICTIONARYWDFLT
  5
E
102
{ACAD_REACTORS
330
C
102
}
330
C
100
AcDbDictionary
281
     1
  3
Normal
350
F
100
AcDbDictionaryWithDefault
340
F
  0
DICTIONARY
  5
2613
102
{ACAD_REACTORS
330
C
102
}
330
C
100
AcDbDictionary
  3
CEPSNTYPE
350
261D
  3
DIMSTYLEDATA
350
2621
  3
FINGERPRINTGUID
350
261E
  3
HYPERLINKBASE
350
2616
  3
INSUNITS
350
261C
  3
LAYOUTDICT
350
2618
  3
LWETCUNION
350
261B
  3
PLOTSETDICT
350
2619
  3
PLOTSTYLNAMDICT
350
261A
  3
PSVPSCALE
350
2620
  3
PUCSBASE
350
2624
  3
PUCSORGBACK
350
262A
  3
PUCSORGBOTTOM
350
2626
  3
PUCSORGFRONT
350
2629
  3
PUCSORGLEFT
350
2627
  3
PUCSORGRIGHT
350
2628
  3
PUCSORGTOP
350
2625
  3
PUCSORTHOREF
350
2622
  3
PUCSORTHOVIEW
350
2623
  3
STYLESHEET
350
2617
  3
TSTACKALIGN
350
2614
  3
TSTACKSIZE
350
2615
  3
UCSBASE
350
262D
  3
UCSORGBACK
350
2633
  3
UCSORGBOTTOM
350
262F
  3
UCSORGFRONT
350
2632
  3
UCSORGLEFT
350
2630
  3
UCSORGRIGHT
350
2631
  3
UCSORGTOP
350
262E
  3
UCSORTHOREF
350
262B
  3
UCSORTHOVIEW
350
262C
  3
VERSIONGUID
350
261F
  0
DICTIONARY
  5
2359
102
{ACAD_REACTORS
330
C
102
}
330
C
100
AcDbDictionary
  3
SORTENTS
350
235A
  0
XRECORD
  5
2637
102
{ACAD_REACTORS
330
2636
102
}
330
2636
100
AcDbXrecord
340
1E
  0
XRECORD
  5
2635
102
{ACAD_REACTORS
330
2634
102
}
330
2634
100
AcDbXrecord
340
1A
  0
MLINESTYLE
  5
17
102
{ACAD_REACTORS
330
16
102
}
330
16
100
AcDbMlineStyle
  2
STANDARD
 70
     0
  3

 62
   256
 51
90.0
 52
90.0
 71
     2
 49
0.5
 62
   256
  6
BYLAYER
 49
-0.5
 62
   256
  6
BYLAYER
  0
ACDBPLACEHOLDER
  5
F
102
{ACAD_REACTORS
330
E
102
}
330
E
100
AcDbPlaceHolder
280
     0
  0
XRECORD
  5
261D
102
{ACAD_REACTORS
330
2613
102
}
330
2613
100
AcDbXrecord
 90
        0
  0
XRECORD
  5
2621
102
{ACAD_REACTORS
330
2613
102
}
330
2613
100
AcDbXrecord
1000
DSTYLE
1002
{
1070
   341
340
1136
1070
   342
340
1136
1002
}
  0
XRECORD
  5
261E
102
{ACAD_REACTORS
330
2613
102
}
330
2613
100
AcDbXrecord
  1
{0BD50845-FF1A-4E16-B464-CD967D849258}
  0
XRECORD
  5
2616
102
{ACAD_REACTORS
330
2613
102
}
330
2613
100
AcDbXrecord
  1

  0
XRECORD
  5
261C
102
{ACAD_REACTORS
330
2613
102
}
330
2613
100
AcDbXrecord
 90
        0
  0
XRECORD
  5
2618
102
{ACAD_REACTORS
330
2613
102
}
330
2613
100
AcDbXrecord
340
19
  0
XRECORD
  5
261B
102
{ACAD_REACTORS
330
2613
102
}
330
2613
100
AcDbXrecord
 90
    10781
  0
XRECORD
  5
2619
102
{ACAD_REACTORS
330
2613
102
}
330
2613
100
AcDbXrecord
340
18
  0
XRECORD
  5
261A
102
{ACAD_REACTORS
330
2613
102
}
330
2613
100
AcDbXrecord
340
E
  0
XRECORD
  5
2620
102
{ACAD_REACTORS
330
2613
102
}
330
2613
100
AcDbXrecord
 40
0.0
  0
XRECORD
  5
2624
102
{ACAD_REACTORS
330
2613
102
}
330
2613
100
AcDbXrecord
340
0
  0
XRECORD
  5
262A
102
{ACAD_REACTORS
330
2613
102
}
330
2613
100
AcDbXrecord
 10
0.0
 20
0.0
 30
0.0
  0
XRECORD
  5
2626
102
{ACAD_REACTORS
330
2613
102
}
330
2613
100
AcDbXrecord
 10
0.0
 20
0.0
 30
0.0
  0
XRECORD
  5
2629
102
{ACAD_REACTORS
330
2613
102
}
330
2613
100
AcDbXrecord
 10
0.0
 20
0.0
 30
0.0
  0
XRECORD
  5
2627
102
{ACAD_REACTORS
330
2613
102
}
330
2613
100
AcDbXrecord
 10
0.0
 20
0.0
 30
0.0
  0
XRECORD
  5
2628
102
{ACAD_REACTORS
330
2613
102
}
330
2613
100
AcDbXrecord
 10
0.0
 20
0.0
 30
0.0
  0
XRECORD
  5
2625
102
{ACAD_REACTORS
330
2613
102
}
330
2613
100
AcDbXrecord
 10
0.0
 20
0.0
 30
0.0
  0
XRECORD
  5
2622
102
{ACAD_REACTORS
330
2613
102
}
330
2613
100
AcDbXrecord
340
0
  0
XRECORD
  5
2623
102
{ACAD_REACTORS
330
2613
102
}
330
2613
100
AcDbXrecord
 70
     0
  0
XRECORD
  5
2617
102
{ACAD_REACTORS
330
2613
102
}
330
2613
100
AcDbXrecord
  1

  0
XRECORD
  5
2614
102
{ACAD_REACTORS
330
2613
102
}
330
2613
100
AcDbXrecord
 90
        1
  0
XRECORD
  5
2615
102
{ACAD_REACTORS
330
2613
102
}
330
2613
100
AcDbXrecord
 90
       70
  0
XRECORD
  5
262D
102
{ACAD_REACTORS
330
2613
102
}
330
2613
100
AcDbXrecord
340
0
  0
XRECORD
  5
2633
102
{ACAD_REACTORS
330
2613
102
}
330
2613
100
AcDbXrecord
 10
0.0
 20
0.0
 30
0.0
  0
XRECORD
  5
262F
102
{ACAD_REACTORS
330
2613
102
}
330
2613
100
AcDbXrecord
 10
0.0
 20
0.0
 30
0.0
  0
XRECORD
  5
2632
102
{ACAD_REACTORS
330
2613
102
}
330
2613
100
AcDbXrecord
 10
0.0
 20
0.0
 30
0.0
  0
XRECORD
  5
2630
102
{ACAD_REACTORS
330
2613
102
}
330
2613
100
AcDbXrecord
 10
0.0
 20
0.0
 30
0.0
  0
XRECORD
  5
2631
102
{ACAD_REACTORS
330
2613
102
}
330
2613
100
AcDbXrecord
 10
0.0
 20
0.0
 30
0.0
  0
XRECORD
  5
262E
102
{ACAD_REACTORS
330
2613
102
}
330
2613
100
AcDbXrecord
 10
0.0
 20
0.0
 30
0.0
  0
XRECORD
  5
262B
102
{ACAD_REACTORS
330
2613
102
}
330
2613
100
AcDbXrecord
340
0
  0
XRECORD
  5
262C
102
{ACAD_REACTORS
330
2613
102
}
330
2613
100
AcDbXrecord
 70
     0
  0
XRECORD
  5
261F
102
{ACAD_REACTORS
330
2613
102
}
330
2613
100
AcDbXrecord
  1
{46B6F0EC-FFBE-4A6C-8D90-3511B183A483}
  0
DICTIONARYVAR
  5
235A
102
{ACAD_REACTORS
330
2359
102
}
330
2359
100
DictionaryVariables
280
     0
  1
96
  0
ENDSEC
  0
EOF
