  0
SECTION
  2
HEADER
  9
$ACADVER
  1
AC1014
  9
$ACADMAINTVER
 70
     9
  9
$DWGCODEPAGE
  3
ANSI_932
  9
$INSBASE
 10
0.0
 20
0.0
 30
0.0
  9
$EXTMIN
 10
-876.4869540000001
 20
-1351.916
 30
0.0
  9
$EXTMAX
 10
1049.011321
 20
891.8368120000002
 30
0.0
  9
$LIMMIN
 10
-3563.712999999999
 20
-3709.691
  9
$LIMMAX
 10
2756.175999999999
 20
1423.28006
  9
$ORTHOMODE
 70
     1
  9
$REGENMODE
 70
     1
  9
$FILLMODE
 70
     1
  9
$QTEXTMODE
 70
     0
  9
$MIRRTEXT
 70
     0
  9
$DRAGMODE
 70
     2
  9
$LTSCALE
 40
20.0
  9
$OSMODE
 70
    37
  9
$ATTMODE
 70
     1
  9
$TEXTSIZE
 40
0.2
  9
$TRACEWID
 40
0.05
  9
$TEXTSTYLE
  7
STANDARD
  9
$CLAYER
  8
SERVICESPACE
  9
$CELTYPE
  6
DASHDOT
  9
$CECOLOR
 62
     2
  9
$CELTSCALE
 40
1.0
  9
$DELOBJ
 70
     1
  9
$DISPSILH
 70
     0
  9
$DIMSCALE
 40
1.0
  9
$DIMASZ
 40
2.0
  9
$DIMEXO
 40
20.0
  9
$DIMDLI
 40
200.0
  9
$DIMRND
 40
0.0
  9
$DIMDLE
 40
0.0
  9
$DIMEXE
 40
30.0
  9
$DIMTP
 40
0.0
  9
$DIMTM
 40
0.0
  9
$DIMTXT
 40
64.0
  9
$DIMCEN
 40
0.09
  9
$DIMTSZ
 40
0.0
  9
$DIMTOL
 70
     0
  9
$DIMLIM
 70
     0
  9
$DIMTIH
 70
     0
  9
$DIMTOH
 70
     0
  9
$DIMSE1
 70
     0
  9
$DIMSE2
 70
     0
  9
$DIMTAD
 70
     3
  9
$DIMZIN
 70
     8
  9
$DIMBLK
  1

  9
$DIMASO
 70
     1
  9
$DIMSHO
 70
     0
  9
$DIMPOST
  1

  9
$DIMAPOST
  1

  9
$DIMALT
 70
     0
  9
$DIMALTD
 70
     2
  9
$DIMALTF
 40
25.4
  9
$DIMLFAC
 40
1.0
  9
$DIMTOFL
 70
     1
  9
$DIMTVP
 40
0.0
  9
$DIMTIX
 70
     1
  9
$DIMSOXD
 70
     0
  9
$DIMSAH
 70
     0
  9
$DIMBLK1
  1

  9
$DIMBLK2
  1

  9
$DIMSTYLE
  2
STANDARD
  9
$DIMCLRD
 70
     0
  9
$DIMCLRE
 70
     0
  9
$DIMCLRT
 70
     0
  9
$DIMTFAC
 40
1.0
  9
$DIMGAP
 40
0.09
  9
$DIMJUST
 70
     0
  9
$DIMSD1
 70
     0
  9
$DIMSD2
 70
     0
  9
$DIMTOLJ
 70
     1
  9
$DIMTZIN
 70
     0
  9
$DIMALTZ
 70
     0
  9
$DIMALTTZ
 70
     0
  9
$DIMFIT
 70
     3
  9
$DIMUPT
 70
     0
  9
$DIMUNIT
 70
     2
  9
$DIMDEC
 70
     4
  9
$DIMTDEC
 70
     4
  9
$DIMALTU
 70
     2
  9
$DIMALTTD
 70
     2
  9
$DIMTXSTY
  7
STANDARD
  9
$DIMAUNIT
 70
     0
  9
$LUNITS
 70
     2
  9
$LUPREC
 70
     4
  9
$SKETCHINC
 40
0.1
  9
$FILLETRAD
 40
0.0
  9
$AUNITS
 70
     1
  9
$AUPREC
 70
     3
  9
$MENU
  1
ACAD
  9
$ELEVATION
 40
0.0
  9
$PELEVATION
 40
0.0
  9
$THICKNESS
 40
0.0
  9
$LIMCHECK
 70
     1
  9
$BLIPMODE
 70
     0
  9
$CHAMFERA
 40
0.0
  9
$CHAMFERB
 40
0.0
  9
$CHAMFERC
 40
0.0
  9
$CHAMFERD
 40
0.0
  9
$SKPOLY
 70
     0
  9
$TDCREATE
 40
2451043.490022998
  9
$TDUPDATE
 40
2454523.380068356
  9
$TDINDWG
 40
0.1995691667
  9
$TDUSRTIMER
 40
0.1995691667
  9
$USRTIMER
 70
     1
  9
$ANGBASE
 50
0.0
  9
$ANGDIR
 70
     0
  9
$PDMODE
 70
     3
  9
$PDSIZE
 40
-2.0
  9
$PLINEWID
 40
0.0
  9
$COORDS
 70
     2
  9
$SPLFRAME
 70
     0
  9
$SPLINETYPE
 70
     6
  9
$SPLINESEGS
 70
     8
  9
$ATTDIA
 70
     0
  9
$ATTREQ
 70
     1
  9
$HANDLING
 70
 10241
  9
$HANDSEED
  5
1A5
  9
$SURFTAB1
 70
     6
  9
$SURFTAB2
 70
     6
  9
$SURFTYPE
 70
     6
  9
$SURFU
 70
     6
  9
$SURFV
 70
     6
  9
$UCSNAME
  2

  9
$UCSORG
 10
0.0
 20
0.0
 30
0.0
  9
$UCSXDIR
 10
1.0
 20
0.0
 30
0.0
  9
$UCSYDIR
 10
0.0
 20
1.0
 30
0.0
  9
$PUCSNAME
  2

  9
$PUCSORG
 10
0.0
 20
0.0
 30
0.0
  9
$PUCSXDIR
 10
1.0
 20
0.0
 30
0.0
  9
$PUCSYDIR
 10
0.0
 20
1.0
 30
0.0
  9
$USERI1
 70
     0
  9
$USERI2
 70
     0
  9
$USERI3
 70
     0
  9
$USERI4
 70
     0
  9
$USERI5
 70
     0
  9
$USERR1
 40
20.0
  9
$USERR2
 40
0.0
  9
$USERR3
 40
0.0
  9
$USERR4
 40
0.0
  9
$USERR5
 40
0.0
  9
$WORLDVIEW
 70
     1
  9
$SHADEDGE
 70
     3
  9
$SHADEDIF
 70
    70
  9
$TILEMODE
 70
     1
  9
$MAXACTVP
 70
    64
  9
$PINSBASE
 10
0.0
 20
0.0
 30
0.0
  9
$PLIMCHECK
 70
     0
  9
$PEXTMIN
 10
1.000000000000000E+20
 20
1.000000000000000E+20
 30
1.000000000000000E+20
  9
$PEXTMAX
 10
-1.000000000000000E+20
 20
-1.000000000000000E+20
 30
-1.000000000000000E+20
  9
$PLIMMIN
 10
0.0
 20
0.0
  9
$PLIMMAX
 10
12.0
 20
9.0
  9
$UNITMODE
 70
     0
  9
$VISRETAIN
 70
     1
  9
$PLINEGEN
 70
     0
  9
$PSLTSCALE
 70
     1
  9
$TREEDEPTH
 70
  3020
  9
$PICKSTYLE
 70
     1
  9
$CMLSTYLE
  2
STANDARD
  9
$CMLJUST
 70
     0
  9
$CMLSCALE
 40
1.0
  9
$PROXYGRAPHICS
 70
     1
  9
$MEASUREMENT
 70
     0
  0
ENDSEC
  0
SECTION
  2
CLASSES
  0
CLASS
  1
ACDBDICTIONARYWDFLT
  2
AcDbDictionaryWithDefault
  3
AutoCAD 2000
 90
        0
280
     0
281
     0
  0
CLASS
  1
ACDBPLACEHOLDER
  2
AcDbPlaceHolder
  3
AutoCAD 2000
 90
        0
280
     0
281
     0
  0
CLASS
  1
LAYOUT
  2
AcDbLayout
  3
AutoCAD 2000
 90
        0
280
     0
281
     0
  0
CLASS
  1
LONG_TRANSACTION
  2
AcDbLongTransaction
  3
AutoCAD 2000
 90
        0
280
     0
281
     0
  0
CLASS
  1
LWPOLYLINE
  2
AcDbPolyline
  3
AutoCAD 2000
 90
        0
280
     0
281
     1
  0
CLASS
  1
HATCH
  2
AcDbHatch
  3
AutoCAD 2000
 90
        0
280
     0
281
     1
  0
CLASS
  1
XRECORD
  2
AcDbXrecord
  3
AutoCAD 2000
 90
        0
280
     0
281
     0
  0
ENDSEC
  0
SECTION
  2
TABLES
  0
TABLE
  2
VPORT
  5
8
330
0
100
AcDbSymbolTable
 70
     2
  0
VPORT
  5
180
330
8
100
AcDbSymbolTableRecord
100
AcDbViewportTableRecord
  2
*ACTIVE
 70
     0
 10
0.0
 20
0.0
 11
1.0
 21
1.0
 12
228.4335493346639
 22
-224.055932
 13
0.0
 23
0.0
 14
400.0
 24
400.0
 15
400.0
 25
400.0
 16
0.0
 26
0.0
 36
1.0
 17
0.0
 27
0.0
 37
0.0
 40
2544.97
 41
1.635574837310195
 42
50.0
 43
0.0
 44
0.0
 50
0.0
 51
0.0
 71
     0
 72
  1000
 73
     1
 74
     0
 75
     0
 76
     0
 77
     0
 78
     2
  0
ENDTAB
  0
TABLE
  2
LTYPE
  5
5
330
0
100
AcDbSymbolTable
 70
     7
  0
LTYPE
  5
13
330
5
100
AcDbSymbolTableRecord
100
AcDbLinetypeTableRecord
  2
BYBLOCK
 70
     0
  3

 72
    65
 73
     0
 40
0.0
  0
LTYPE
  5
14
330
5
100
AcDbSymbolTableRecord
100
AcDbLinetypeTableRecord
  2
BYLAYER
 70
     0
  3

 72
    65
 73
     0
 40
0.0
  0
LTYPE
  5
15
330
5
100
AcDbSymbolTableRecord
100
AcDbLinetypeTableRecord
  2
CONTINUOUS
 70
     0
  3
実線
 72
    65
 73
     0
 40
0.0
  0
LTYPE
  5
23
330
5
100
AcDbSymbolTableRecord
100
AcDbLinetypeTableRecord
  2
DASHDOT
 70
     0
  3
____ _ ____ _ ____ _ ____ _ ____ _ ____ _ ____
 72
    65
 73
     4
 40
5.5
 49
4.0
 74
     0
 49
-0.6
 74
     0
 49
0.3
 74
     0
 49
-0.6
 74
     0
  0
LTYPE
  5
24
330
5
100
AcDbSymbolTableRecord
100
AcDbLinetypeTableRecord
  2
DASHED
 70
     0
  3
_ _ _ _ _ _ _ _ _ _ _ _ _ _ _ _ _ _ _ _ _ _ _
 72
    65
 73
     2
 40
2.0
 49
1.199999999999999
 74
     0
 49
-0.8
 74
     0
  0
LTYPE
  5
25
330
5
100
AcDbSymbolTableRecord
100
AcDbLinetypeTableRecord
  2
DOT
 70
     0
  3
...............................................
 72
    65
 73
     2
 40
0.8
 49
0.5
 74
     0
 49
-0.3
 74
     0
  0
LTYPE
  5
26
330
5
100
AcDbSymbolTableRecord
100
AcDbLinetypeTableRecord
  2
DASHDOT1
 70
     0
  3
____ _ ____ _ ____ _ ____ _ ____ _ ____ _ ____
 72
    65
 73
     4
 40
2.0
 49
1.5
 74
     0
 49
-0.2
 74
     0
 49
0.1
 74
     0
 49
-0.2
 74
     0
  0
LTYPE
  5
27
330
5
100
AcDbSymbolTableRecord
100
AcDbLinetypeTableRecord
  2
DIVIDE
 70
     0
  3
_____ _ _ _____ _ _ _____ _ _ _____ _ _ ____
 72
    65
 73
     6
 40
6.4
 49
4.0
 74
     0
 49
-0.6
 74
     0
 49
0.3
 74
     0
 49
-0.6
 74
     0
 49
0.3
 74
     0
 49
-0.6
 74
     0
  0
LTYPE
  5
28
330
5
100
AcDbSymbolTableRecord
100
AcDbLinetypeTableRecord
  2
DIVIDE1
 70
     0
  3
_____ _ _ _____ _ _ _____ _ _ _____ _ _ ____
 72
    65
 73
     6
 40
3.2
 49
2.0
 74
     0
 49
-0.3
 74
     0
 49
0.15
 74
     0
 49
-0.3
 74
     0
 49
0.15
 74
     0
 49
-0.3
 74
     0
  0
ENDTAB
  0
TABLE
  2
LAYER
  5
2
330
0
100
AcDbSymbolTable
 70
    12
  0
LAYER
  5
10
330
2
100
AcDbSymbolTableRecord
100
AcDbLayerTableRecord
  2
0
 70
     0
 62
     7
  6
CONTINUOUS
  0
LAYER
  5
22
330
2
100
AcDbSymbolTableRecord
100
AcDbLayerTableRecord
  2
SERVICESPACE
 70
     0
 62
     2
  6
CONTINUOUS
  0
LAYER
  5
29
330
2
100
AcDbSymbolTableRecord
100
AcDbLayerTableRecord
  2
OUTLINE
 70
     0
 62
     3
  6
CONTINUOUS
  0
LAYER
  5
2A
330
2
100
AcDbSymbolTableRecord
100
AcDbLayerTableRecord
  2
DETAIL
 70
     0
 62
     5
  6
CONTINUOUS
  0
LAYER
  5
2B
330
2
100
AcDbSymbolTableRecord
100
AcDbLayerTableRecord
  2
BASIS
 70
     0
 62
     6
  6
CONTINUOUS
  0
LAYER
  5
2C
330
2
100
AcDbSymbolTableRecord
100
AcDbLayerTableRecord
  2
NOTE
 70
     0
 62
     4
  6
CONTINUOUS
  0
LAYER
  5
2D
330
2
100
AcDbSymbolTableRecord
100
AcDbLayerTableRecord
  2
DEFPOINTS
 70
     0
 62
     7
  6
CONTINUOUS
  0
LAYER
  5
2E
330
2
100
AcDbSymbolTableRecord
100
AcDbLayerTableRecord
  2
SIZE
 70
     0
 62
    32
  6
CONTINUOUS
  0
LAYER
  5
2F
330
2
100
AcDbSymbolTableRecord
100
AcDbLayerTableRecord
  2
ARRANGE
 70
     0
 62
     1
  6
CONTINUOUS
  0
LAYER
  5
30
330
2
100
AcDbSymbolTableRecord
100
AcDbLayerTableRecord
  2
FIX
 70
     0
 62
   241
  6
CONTINUOUS
  0
LAYER
  5
31
330
2
100
AcDbSymbolTableRecord
100
AcDbLayerTableRecord
  2
ETC
 70
     0
 62
    83
  6
CONTINUOUS
  0
LAYER
  5
32
330
2
100
AcDbSymbolTableRecord
100
AcDbLayerTableRecord
  2
SYMBOLLINE
 70
     0
 62
    38
  6
CONTINUOUS
  0
ENDTAB
  0
TABLE
  2
STYLE
  5
3
330
0
100
AcDbSymbolTable
 70
     1
  0
STYLE
  5
11
330
3
100
AcDbSymbolTableRecord
100
AcDbTextStyleTableRecord
  2
STANDARD
 70
     0
 40
0.0
 41
1.0
 50
0.0
 71
     0
 42
0.2
  3
txt.shx
  4
bigfont.shx
  0
ENDTAB
  0
TABLE
  2
VIEW
  5
6
330
0
100
AcDbSymbolTable
 70
     1
  0
VIEW
  5
33
330
6
100
AcDbSymbolTableRecord
100
AcDbViewTableRecord
  2
ALL
 70
     0
 40
4508.021
 10
0.0
 20
41.30990399999999
 41
6252.632
 11
0.0
 21
0.0
 31
1.0
 12
0.0
 22
0.0
 32
0.0
 42
50.0
 43
0.0
 44
0.0
 50
0.0
 71
     0
  0
ENDTAB
  0
TABLE
  2
UCS
  5
7
330
0
100
AcDbSymbolTable
 70
     0
  0
ENDTAB
  0
TABLE
  2
APPID
  5
9
330
0
100
AcDbSymbolTable
 70
     1
  0
APPID
  5
12
330
9
100
AcDbSymbolTableRecord
100
AcDbRegAppTableRecord
  2
ACAD
 70
     0
  0
ENDTAB
  0
TABLE
  2
DIMSTYLE
  5
A
330
0
100
AcDbSymbolTable
 70
     1
  0
DIMSTYLE
105
17D
330
A
100
AcDbSymbolTableRecord
100
AcDbDimStyleTableRecord
  2
STANDARD
 70
     0
  3

  4

  5

  6

  7

 40
1.0
 41
0.18
 42
0.0625
 43
0.38
 44
0.18
 45
0.0
 46
0.0
 47
0.0
 48
0.0
140
0.18
141
0.09
142
0.0
143
25.4
144
1.0
145
0.0
146
1.0
147
0.09
 71
     0
 72
     0
 73
     1
 74
     1
 75
     0
 76
     0
 77
     0
 78
     0
170
     0
171
     2
172
     0
173
     0
174
     0
175
     0
176
     0
177
     0
178
     0
270
     2
271
     4
272
     4
273
     2
274
     2
340
11
275
     0
280
     0
281
     0
282
     0
283
     1
284
     0
285
     0
286
     0
287
     3
288
     0
  0
ENDTAB
  0
TABLE
  2
BLOCK_RECORD
  5
1
330
0
100
AcDbSymbolTable
 70
     6
  0
BLOCK_RECORD
  5
1E
102
{ACAD_XDICTIONARY
360
1A3
102
}
330
1
100
AcDbSymbolTableRecord
100
AcDbBlockTableRecord
  2
*MODEL_SPACE
  0
BLOCK_RECORD
  5
1A
102
{ACAD_XDICTIONARY
360
1A1
102
}
330
1
100
AcDbSymbolTableRecord
100
AcDbBlockTableRecord
  2
*PAPER_SPACE
  0
BLOCK_RECORD
  5
36
330
1
100
AcDbSymbolTableRecord
100
AcDbBlockTableRecord
  2
$MODEL_SPACE
  0
BLOCK_RECORD
  5
39
330
1
100
AcDbSymbolTableRecord
100
AcDbBlockTableRecord
  2
$PAPER_SPACE
  0
BLOCK_RECORD
  5
3C
330
1
100
AcDbSymbolTableRecord
100
AcDbBlockTableRecord
  2
_OPEN
  0
BLOCK_RECORD
  5
42
330
1
100
AcDbSymbolTableRecord
100
AcDbBlockTableRecord
  2
A$C3B530C17
  0
BLOCK_RECORD
  5
48
330
1
100
AcDbSymbolTableRecord
100
AcDbBlockTableRecord
  2
*D4
  0
BLOCK_RECORD
  5
56
330
1
100
AcDbSymbolTableRecord
100
AcDbBlockTableRecord
  2
*D5
  0
ENDTAB
  0
ENDSEC
  0
SECTION
  2
BLOCKS
  0
BLOCK
  5
1F
330
1E
100
AcDbEntity
  8
0
100
AcDbBlockBegin
  2
*MODEL_SPACE
 70
     0
 10
0.0
 20
0.0
 30
0.0
  3
*MODEL_SPACE
  1

  0
ENDBLK
  5
20
330
1E
100
AcDbEntity
  8
0
100
AcDbBlockEnd
  0
BLOCK
  5
1B
330
1A
100
AcDbEntity
 67
     1
  8
0
100
AcDbBlockBegin
  2
*PAPER_SPACE
 70
     0
 10
0.0
 20
0.0
 30
0.0
  3
*PAPER_SPACE
  1

  0
ENDBLK
  5
1C
330
1A
100
AcDbEntity
 67
     1
  8
0
100
AcDbBlockEnd
  0
BLOCK
  5
37
330
36
100
AcDbEntity
  8
0
100
AcDbBlockBegin
  2
$MODEL_SPACE
 70
     0
 10
0.0
 20
0.0
 30
0.0
  3
$MODEL_SPACE
  1

  0
ENDBLK
  5
38
330
36
100
AcDbEntity
  8
0
100
AcDbBlockEnd
  0
BLOCK
  5
3A
330
39
100
AcDbEntity
  8
0
100
AcDbBlockBegin
  2
$PAPER_SPACE
 70
     0
 10
0.0
 20
0.0
 30
0.0
  3
$PAPER_SPACE
  1

  0
ENDBLK
  5
3B
330
39
100
AcDbEntity
  8
0
100
AcDbBlockEnd
  0
BLOCK
  5
3D
330
3C
100
AcDbEntity
  8
0
100
AcDbBlockBegin
  2
_OPEN
 70
     0
 10
0.0
 20
0.0
 30
0.0
  3
_OPEN
  1

  0
LINE
  5
3E
330
3C
100
AcDbEntity
  8
0
  6
BYBLOCK
 62
     0
100
AcDbLine
 10
-1.0
 20
0.166667
 30
0.0
 11
0.0
 21
0.0
 31
0.0
  0
LINE
  5
3F
330
3C
100
AcDbEntity
  8
0
  6
BYBLOCK
 62
     0
100
AcDbLine
 10
0.0
 20
0.0
 30
0.0
 11
-1.0
 21
-0.166667
 31
0.0
  0
LINE
  5
40
330
3C
100
AcDbEntity
  8
0
  6
BYBLOCK
 62
     0
100
AcDbLine
 10
0.0
 20
0.0
 30
0.0
 11
-1.0
 21
0.0
 31
0.0
  0
ENDBLK
  5
41
330
3C
100
AcDbEntity
  8
0
100
AcDbBlockEnd
  0
BLOCK
  5
43
330
42
100
AcDbEntity
  8
0
 62
     2
100
AcDbBlockBegin
  2
A$C3B530C17
 70
     0
 10
0.0
 20
0.0
 30
0.0
  3
A$C3B530C17
  1

  0
CIRCLE
  5
44
330
42
100
AcDbEntity
  8
FIX
  6
CONTINUOUS
100
AcDbCircle
 10
40.0
 20
85.153753
 30
0.0
 40
40.0
  0
LINE
  5
45
330
42
100
AcDbEntity
  8
ARRANGE
  6
CONTINUOUS
100
AcDbLine
 10
124.2381509999999
 20
0.000001
 30
0.0
 11
88.88281199999999
 21
35.35534099999999
 31
0.0
  0
LINE
  5
46
330
42
100
AcDbEntity
  8
ARRANGE
  6
CONTINUOUS
100
AcDbLine
 10
124.2381509999999
 20
35.35534099999999
 30
0.0
 11
88.88281199999999
 21
0.000001
 31
0.0
  0
ENDBLK
  5
47
330
42
100
AcDbEntity
  8
0
 62
     2
100
AcDbBlockEnd
  0
BLOCK
  5
49
330
48
100
AcDbEntity
  8
0
100
AcDbBlockBegin
  2
*D4
 70
     1
 10
0.0
 20
0.0
 30
0.0
  3
*D4
  1

  0
LINE
  5
4A
330
48
100
AcDbEntity
  8
0
  6
BYBLOCK
 62
     0
100
AcDbLine
 10
240.0
 20
-395.0
 30
0.0
 11
240.0
 21
-293.476579
 31
0.0
  0
LINE
  5
4B
330
48
100
AcDbEntity
  8
0
  6
BYBLOCK
 62
     0
100
AcDbLine
 10
110.0
 20
-395.0
 30
0.0
 11
110.0
 21
-293.476579
 31
0.0
  0
LINE
  5
4C
330
48
100
AcDbEntity
  8
0
  6
BYBLOCK
 62
     0
100
AcDbLine
 10
242.0
 20
-323.476579
 30
0.0
 11
244.0
 21
-323.476579
 31
0.0
  0
LINE
  5
4D
330
48
100
AcDbEntity
  8
0
  6
BYBLOCK
 62
     0
100
AcDbLine
 10
108.0
 20
-323.476579
 30
0.0
 11
106.0
 21
-323.476579
 31
0.0
  0
LINE
  5
4E
330
48
100
AcDbEntity
  8
0
  6
BYBLOCK
 62
     0
100
AcDbLine
 10
240.0
 20
-323.476579
 30
0.0
 11
110.0
 21
-323.476579
 31
0.0
  0
SOLID
  5
4F
330
48
100
AcDbEntity
  8
0
  6
BYBLOCK
 62
     0
100
AcDbTrace
 10
242.0
 20
-323.1432459999999
 30
0.0
 11
242.0
 21
-323.809913
 31
0.0
 12
240.0
 22
-323.476579
 32
0.0
 13
240.0
 23
-323.476579
 33
0.0
  0
SOLID
  5
50
330
48
100
AcDbEntity
  8
0
  6
BYBLOCK
 62
     0
100
AcDbTrace
 10
108.0
 20
-323.1432459999999
 30
0.0
 11
108.0
 21
-323.809913
 31
0.0
 12
110.0
 22
-323.476579
 32
0.0
 13
110.0
 23
-323.476579
 33
0.0
  0
TEXT
  5
51
330
48
100
AcDbEntity
  8
0
 62
     0
100
AcDbText
 10
47.0
 20
-404.6669999999999
 30
0.0
 40
64.0
  1
130
100
AcDbText
  0
POINT
  5
52
330
48
100
AcDbEntity
  8
DEFPOINTS
  6
BYBLOCK
 62
     0
100
AcDbPoint
 10
240.0
 20
-415.0
 30
0.0
  0
POINT
  5
53
330
48
100
AcDbEntity
  8
DEFPOINTS
  6
BYBLOCK
 62
     0
100
AcDbPoint
 10
110.0
 20
-415.0
 30
0.0
  0
POINT
  5
54
330
48
100
AcDbEntity
  8
DEFPOINTS
  6
BYBLOCK
 62
     0
100
AcDbPoint
 10
110.0
 20
-323.476579
 30
0.0
  0
ENDBLK
  5
55
330
48
100
AcDbEntity
  8
0
100
AcDbBlockEnd
  0
BLOCK
  5
57
330
56
100
AcDbEntity
  8
0
100
AcDbBlockBegin
  2
*D5
 70
     1
 10
0.0
 20
0.0
 30
0.0
  3
*D5
  1

  0
LINE
  5
58
330
56
100
AcDbEntity
  8
0
  6
BYBLOCK
 62
     0
100
AcDbLine
 10
110.0
 20
-395.0
 30
0.0
 11
110.0
 21
-288.6743879999999
 31
0.0
  0
LINE
  5
59
330
56
100
AcDbEntity
  8
0
  6
BYBLOCK
 62
     0
100
AcDbLine
 10
-53.0
 20
-395.0
 30
0.0
 11
-53.0
 21
-288.6743879999999
 31
0.0
  0
LINE
  5
5A
330
56
100
AcDbEntity
  8
0
  6
BYBLOCK
 62
     0
100
AcDbLine
 10
108.0
 20
-318.6743879999999
 30
0.0
 11
-51.0
 21
-318.6743879999999
 31
0.0
  0
SOLID
  5
5B
330
56
100
AcDbEntity
  8
0
  6
BYBLOCK
 62
     0
100
AcDbTrace
 10
108.0
 20
-318.341055
 30
0.0
 11
108.0
 21
-319.007721
 31
0.0
 12
110.0
 22
-318.6743879999999
 32
0.0
 13
110.0
 23
-318.6743879999999
 33
0.0
  0
SOLID
  5
5C
330
56
100
AcDbEntity
  8
0
  6
BYBLOCK
 62
     0
100
AcDbTrace
 10
-51.0
 20
-318.341055
 30
0.0
 11
-51.0
 21
-319.007721
 31
0.0
 12
-53.0
 22
-318.6743879999999
 32
0.0
 13
-53.0
 23
-318.6743879999999
 33
0.0
  0
TEXT
  5
5D
330
56
100
AcDbEntity
  8
0
 62
     0
100
AcDbText
 10
-99.50000000000001
 20
-399.864
 30
0.0
 40
64.0
  1
163
100
AcDbText
  0
POINT
  5
5E
330
56
100
AcDbEntity
  8
DEFPOINTS
  6
BYBLOCK
 62
     0
100
AcDbPoint
 10
110.0
 20
-415.0
 30
0.0
  0
POINT
  5
5F
330
56
100
AcDbEntity
  8
DEFPOINTS
  6
BYBLOCK
 62
     0
100
AcDbPoint
 10
-53.0
 20
-415.0
 30
0.0
  0
POINT
  5
60
330
56
100
AcDbEntity
  8
DEFPOINTS
  6
BYBLOCK
 62
     0
100
AcDbPoint
 10
-53.0
 20
-318.6743879999999
 30
0.0
  0
ENDBLK
  5
61
330
56
100
AcDbEntity
  8
0
100
AcDbBlockEnd
  0
ENDSEC
  0
SECTION
  2
ENTITIES
  0
TEXT
  5
62
330
1E
100
AcDbEntity
  8
ETC
  6
CONTINUOUS
100
AcDbText
 10
626.611321
 20
-1228.987
 30
0.0
 40
64.0
  1
SMLZ4761
 41
0.9
100
AcDbText
  0
TEXT
  5
63
330
1E
100
AcDbEntity
  8
ETC
  6
CONTINUOUS
100
AcDbText
 10
626.611321
 20
-1108.476999999999
 30
0.0
 40
64.0
  1
HAC
 41
0.9
100
AcDbText
  0
LINE
  5
64
330
1E
100
AcDbEntity
  8
BASIS
  6
DASHDOT
100
AcDbLine
 10
0.0
 20
581.421651
 30
0.0
 11
0.0
 21
-581.421651
 31
0.0
  0
LINE
  5
65
330
1E
100
AcDbEntity
  8
BASIS
  6
DASHDOT
100
AcDbLine
 10
313.770999
 20
0.0
 30
0.0
 11
-313.770999
 21
0.0
 31
0.0
  0
POINT
  5
66
330
1E
100
AcDbEntity
  8
ARRANGE
  6
CONTINUOUS
100
AcDbPoint
 10
0.0
 20
0.0
 30
0.0
  0
CIRCLE
  5
67
330
1E
100
AcDbEntity
  8
ARRANGE
  6
CONTINUOUS
100
AcDbCircle
 10
0.0
 20
0.0
 30
0.0
 40
40.0
  0
LINE
  5
68
330
1E
100
AcDbEntity
  8
SIZE
  6
CONTINUOUS
100
AcDbLine
 10
242.0
 20
811.4905379999999
 30
0.0
 11
365.071483
 21
811.4905379999999
 31
0.0
  0
LINE
  5
69
330
1E
100
AcDbEntity
  8
SIZE
  6
CONTINUOUS
100
AcDbLine
 10
-369.071483
 20
811.4905379999999
 30
0.0
 11
-242.0
 21
811.4905379999999
 31
0.0
  0
LINE
  5
6A
330
1E
100
AcDbEntity
  8
SIZE
  6
CONTINUOUS
100
AcDbLine
 10
-792.6087879999999
 20
478.0
 30
0.0
 11
-792.6087879999999
 21
592.320121
 31
0.0
  0
LINE
  5
6B
330
1E
100
AcDbEntity
  8
SIZE
  6
CONTINUOUS
100
AcDbLine
 10
-792.6087879999999
 20
-594.3201209999999
 30
0.0
 11
-792.6087879999999
 21
-478.0
 31
0.0
  0
LINE
  5
6C
330
1E
100
AcDbEntity
  8
SIZE
  6
CONTINUOUS
100
AcDbLine
 10
-26.078364
 20
411.0
 30
0.0
 11
-26.078364
 21
293.674074
 31
0.0
  0
TEXT
  5
6D
330
1E
100
AcDbEntity
  8
NOTE
  6
CONTINUOUS
100
AcDbText
 10
-747.5246639999999
 20
-831.727008
 30
0.0
 40
64.0
  1
RG%%C9.52
 41
0.9
100
AcDbText
  0
TEXT
  5
6E
330
1E
100
AcDbEntity
  8
NOTE
  6
CONTINUOUS
100
AcDbText
 10
380.7043919999999
 20
-739.397582
 30
0.0
 40
64.0
  1
RL%%C6.35
 41
0.9
100
AcDbText
  0
LINE
  5
6F
330
1E
100
AcDbEntity
  8
NOTE
  6
CONTINUOUS
100
AcDbLine
 10
60.0
 20
-411.0
 30
0.0
 11
367.496422
 21
-751.767229
 31
0.0
  0
LINE
  5
70
330
1E
100
AcDbEntity
  8
NOTE
  6
CONTINUOUS
100
AcDbLine
 10
-665.6451490000001
 20
-715.852934
 30
0.0
 11
-413.062736
 21
-715.852934
 31
0.0
  0
LINE
  5
71
330
1E
100
AcDbEntity
  8
NOTE
  6
CONTINUOUS
100
AcDbLine
 10
-146.0
 20
-415.0
 30
0.0
 11
-413.062736
 21
-715.852934
 31
0.0
  0
LINE
  5
72
330
1E
100
AcDbEntity
  8
NOTE
  6
CONTINUOUS
100
AcDbLine
 10
-379.708124
 20
-844.336206
 30
0.0
 11
-758.60335
 21
-844.336206
 31
0.0
  0
LINE
  5
73
330
1E
100
AcDbEntity
  8
NOTE
  6
CONTINUOUS
100
AcDbLine
 10
0.0
 20
-412.0
 30
0.0
 11
-379.708124
 21
-844.336206
 31
0.0
  0
LINE
  5
74
330
1E
100
AcDbEntity
  8
NOTE
  6
CONTINUOUS
100
AcDbLine
 10
746.868829
 20
-751.767229
 30
0.0
 11
367.496422
 21
-751.767229
 31
0.0
  0
TEXT
  5
75
330
1E
100
AcDbEntity
  8
NOTE
  6
CONTINUOUS
100
AcDbText
 10
-644.7224099999999
 20
-704.464288
 30
0.0
 40
64.0
  1
D%%C20
 41
0.9
100
AcDbText
  0
LINE
  5
76
330
1E
100
AcDbEntity
  8
SIZE
  6
CONTINUOUS
100
AcDbLine
 10
242.0
 20
670.0976509999999
 30
0.0
 11
365.071483
 21
670.0976509999999
 31
0.0
  0
TEXT
  5
77
330
1E
100
AcDbEntity
  8
NOTE
  6
CONTINUOUS
100
AcDbText
 10
584.091812
 20
-151.3902929999999
 30
0.0
 40
64.0
  1
天井開口穴
 50
90.0
 41
0.9
100
AcDbText
  0
LINE
  5
78
330
1E
100
AcDbEntity
  8
SIZE
  6
CONTINUOUS
100
AcDbLine
 10
508.609616
 20
-539.7541179999999
 30
0.0
 11
508.609616
 21
-661.516999
 31
0.0
  0
LINE
  5
79
330
1E
100
AcDbEntity
  8
SIZE
  6
CONTINUOUS
100
AcDbLine
 10
508.609616
 20
540.0
 30
0.0
 11
508.609616
 21
656.3947339999999
 31
0.0
  0
LINE
  5
7A
330
1E
100
AcDbEntity
  8
SIZE
  6
CONTINUOUS
100
AcDbLine
 10
-269.4999999999999
 20
-1133.831999999999
 30
0.0
 11
-389.5600379999999
 21
-1133.831999999999
 31
0.0
  0
LINE
  5
7B
330
1E
100
AcDbEntity
  8
SIZE
  6
CONTINUOUS
100
AcDbLine
 10
269.4999999999999
 20
-1133.831999999999
 30
0.0
 11
391.8758839999999
 21
-1133.831999999999
 31
0.0
  0
TEXT
  5
7C
330
1E
100
AcDbEntity
  8
NOTE
  6
CONTINUOUS
100
AcDbText
 10
-154.85371
 20
-1205.537
 30
0.0
 40
64.0
  1
天井開口穴
 41
0.9
100
AcDbText
  0
TEXT
  5
7D
330
1E
100
AcDbEntity
  8
SIZE
  6
BYBLOCK
100
AcDbText
 10
289.132852
 20
-1123.568
 30
0.0
 40
64.0
  1
15
 41
0.9
100
AcDbText
  0
LINE
  5
7E
330
1E
100
AcDbEntity
  8
SIZE
  6
BYBLOCK
100
AcDbLine
 10
-250.4999999999999
 20
-1133.831999999999
 30
0.0
 11
250.4999999999999
 21
-1133.831999999999
 31
0.0
  0
TEXT
  5
7F
330
1E
100
AcDbEntity
  8
SIZE
  6
BYBLOCK
100
AcDbText
 10
-378.582972
 20
-1121.588
 30
0.0
 40
64.0
  1
15
 41
0.9
100
AcDbText
  0
LINE
  5
80
330
1E
100
AcDbEntity
  8
SIZE
  6
BYBLOCK
100
AcDbLine
 10
-252.4999999999999
 20
-533.0
 30
0.0
 11
-252.4999999999999
 21
-1172.261999999999
 31
0.0
  0
LINE
  5
81
330
1E
100
AcDbEntity
  8
SIZE
  6
BYBLOCK
100
AcDbLine
 10
252.4999999999999
 20
-533.0
 30
0.0
 11
252.4999999999999
 21
-1172.261999999999
 31
0.0
  0
TEXT
  5
82
330
1E
100
AcDbEntity
  8
SIZE
  6
BYBLOCK
100
AcDbText
 10
-75.30069799999999
 20
-1121.904
 30
0.0
 40
64.0
  1
505
 41
0.9
100
AcDbText
  0
LINE
  5
83
330
1E
100
AcDbEntity
  8
SIZE
  6
BYBLOCK
100
AcDbLine
 10
262.5
 20
-523.0
 30
0.0
 11
556.266065
 21
-523.0
 31
0.0
  0
TEXT
  5
84
330
1E
100
AcDbEntity
  8
SIZE
  6
BYBLOCK
100
AcDbText
 10
489.599661
 20
-641.6659089999999
 30
0.0
 40
64.0
  1
15
 50
90.0
 41
0.9
100
AcDbText
  0
LINE
  5
85
330
1E
100
AcDbEntity
  8
SIZE
  6
BYBLOCK
100
AcDbLine
 10
262.5
 20
523.0
 30
0.0
 11
556.266065
 21
523.0
 31
0.0
  0
LINE
  5
86
330
1E
100
AcDbEntity
  8
SIZE
  6
BYBLOCK
100
AcDbLine
 10
259.5
 20
538.0
 30
0.0
 11
532.4408469999999
 21
538.0
 31
0.0
  0
LINE
  5
87
330
1E
100
AcDbEntity
  8
SIZE
  6
BYBLOCK
100
AcDbLine
 10
508.609616
 20
538.0
 30
0.0
 11
508.609616
 21
523.0
 31
0.0
  0
TEXT
  5
88
330
1E
100
AcDbEntity
  8
SIZE
  6
BYBLOCK
100
AcDbText
 10
489.826021
 20
553.088171
 30
0.0
 40
64.0
  1
15
 50
90.0
 41
0.9
100
AcDbText
  0
LINE
  5
89
330
1E
100
AcDbEntity
  8
SIZE
  6
BYBLOCK
100
AcDbLine
 10
262.5
 20
523.0
 30
0.0
 11
556.266065
 21
523.0
 31
0.0
  0
LINE
  5
8A
330
1E
100
AcDbEntity
  8
SIZE
  6
BYBLOCK
100
AcDbLine
 10
508.609616
 20
521.0
 30
0.0
 11
508.609616
 21
-61.754118
 31
0.0
  0
LINE
  5
8B
330
1E
100
AcDbEntity
  8
SIZE
  6
BYBLOCK
100
AcDbLine
 10
508.609616
 20
-521.0
 30
0.0
 11
508.609616
 21
-61.754118
 31
0.0
  0
TEXT
  5
8C
330
1E
100
AcDbEntity
  8
SIZE
  6
BYBLOCK
100
AcDbText
 10
491.0313639999999
 20
-94.91208
 30
0.0
 40
64.0
  1
1046
 50
90.0
 41
0.9
100
AcDbText
  0
LINE
  5
8D
330
1E
100
AcDbEntity
  8
SIZE
  6
BYBLOCK
100
AcDbLine
 10
267.5
 20
-528.0
 30
0.0
 11
267.5
 21
-1351.916
 31
0.0
  0
LINE
  5
8E
330
1E
100
AcDbEntity
  8
SIZE
  6
BYBLOCK
100
AcDbLine
 10
-267.5
 20
-528.0
 30
0.0
 11
-267.5
 21
-1351.916
 31
0.0
  0
LINE
  5
8F
330
1E
100
AcDbEntity
  8
SIZE
  6
BYBLOCK
100
AcDbLine
 10
-265.5
 20
-1324.06537
 30
0.0
 11
265.5
 21
-1324.06537
 31
0.0
  0
TEXT
  5
90
330
1E
100
AcDbEntity
  8
SIZE
  6
BYBLOCK
100
AcDbText
 10
-49.43579299999999
 20
-1315.36
 30
0.0
 40
64.0
  1
535
 41
0.9
100
AcDbText
  0
LINE
  5
91
330
1E
100
AcDbEntity
  8
SIZE
  6
BYBLOCK
100
AcDbLine
 10
257.5
 20
538.0
 30
0.0
 11
773.2090599999999
 21
538.0
 31
0.0
  0
LINE
  5
92
330
1E
100
AcDbEntity
  8
SIZE
  6
BYBLOCK
100
AcDbLine
 10
257.5
 20
-538.0
 30
0.0
 11
773.2090599999999
 21
-538.0
 31
0.0
  0
LINE
  5
93
330
1E
100
AcDbEntity
  8
SIZE
  6
BYBLOCK
100
AcDbLine
 10
733.2090599999999
 20
536.0
 30
0.0
 11
733.2090599999999
 21
-536.0
 31
0.0
  0
TEXT
  5
94
330
1E
100
AcDbEntity
  8
SIZE
  6
BYBLOCK
100
AcDbText
 10
711.045206
 20
-96.0
 30
0.0
 40
64.0
  1
1076
 50
90.0
 41
0.9
100
AcDbText
  0
LINE
  5
95
330
1E
100
AcDbEntity
  8
SIZE
  6
BYBLOCK
100
AcDbLine
 10
60.0
 20
-441.0
 30
0.0
 11
60.0
 21
-659.159884
 31
0.0
  0
LINE
  5
96
330
1E
100
AcDbEntity
  8
SIZE
  6
BYBLOCK
100
AcDbLine
 10
238.0
 20
-641.540116
 30
0.0
 11
127.0
 21
-641.540116
 31
0.0
  0
LINE
  5
97
330
1E
100
AcDbEntity
  8
SIZE
  6
BYBLOCK
100
AcDbLine
 10
62.0
 20
-641.540116
 30
0.0
 11
127.0
 21
-641.540116
 31
0.0
  0
TEXT
  5
98
330
1E
100
AcDbEntity
  8
SIZE
  6
BYBLOCK
100
AcDbText
 10
73.24512
 20
-629.637021
 30
0.0
 40
64.0
  1
180
 41
0.9
100
AcDbText
  0
LINE
  5
99
330
1E
100
AcDbEntity
  8
SIZE
  6
BYBLOCK
100
AcDbLine
 10
0.0
 20
-596.963692
 30
0.0
 11
0.0
 21
-774.4831299999999
 31
0.0
  0
LINE
  5
9A
330
1E
100
AcDbEntity
  8
SIZE
  6
BYBLOCK
100
AcDbLine
 10
238.0
 20
-752.0470330000001
 30
0.0
 11
70.5
 21
-752.0470330000001
 31
0.0
  0
LINE
  5
9B
330
1E
100
AcDbEntity
  8
SIZE
  6
BYBLOCK
100
AcDbLine
 10
2.0
 20
-752.0470330000001
 30
0.0
 11
70.5
 21
-752.0470330000001
 31
0.0
  0
TEXT
  5
9C
330
1E
100
AcDbEntity
  8
SIZE
  6
BYBLOCK
100
AcDbText
 10
33.73755999999999
 20
-740.472884
 30
0.0
 40
64.0
  1
240
 41
0.9
100
AcDbText
  0
LINE
  5
9D
330
1E
100
AcDbEntity
  8
SIZE
  6
BYBLOCK
100
AcDbLine
 10
-146.0
 20
-452.835241
 30
0.0
 11
-146.0
 21
-909.713374
 31
0.0
  0
LINE
  5
9E
330
1E
100
AcDbEntity
  8
SIZE
  6
BYBLOCK
100
AcDbLine
 10
238.0
 20
-885.4895109999999
 30
0.0
 11
-144.0
 21
-885.4895109999999
 31
0.0
  0
TEXT
  5
9F
330
1E
100
AcDbEntity
  8
SIZE
  6
BYBLOCK
100
AcDbText
 10
-47.819449
 20
-873.94791
 30
0.0
 40
64.0
  1
386
 41
0.9
100
AcDbText
  0
LINE
  5
A0
330
1E
100
AcDbEntity
  8
SIZE
  6
BYBLOCK
100
AcDbLine
 10
240.0
 20
-486.0
 30
0.0
 11
240.0
 21
-1036.02
 31
0.0
  0
LINE
  5
A1
330
1E
100
AcDbEntity
  8
SIZE
  6
BYBLOCK
100
AcDbLine
 10
-240.0
 20
-476.0
 30
0.0
 11
-240.0
 21
-1036.02
 31
0.0
  0
LINE
  5
A2
330
1E
100
AcDbEntity
  8
SIZE
  6
BYBLOCK
100
AcDbLine
 10
238.0
 20
-1011.733
 30
0.0
 11
-238.0
 21
-1011.733
 31
0.0
  0
TEXT
  5
A3
330
1E
100
AcDbEntity
  8
SIZE
  6
BYBLOCK
100
AcDbText
 10
-56.98690799999999
 20
-999.8930119999998
 30
0.0
 40
64.0
  1
480
 41
0.9
100
AcDbText
  0
LINE
  5
A4
330
1E
100
AcDbEntity
  8
SIZE
  6
BYBLOCK
100
AcDbLine
 10
143.0
 20
490.0
 30
0.0
 11
143.0
 21
705.582344
 31
0.0
  0
LINE
  5
A5
330
1E
100
AcDbEntity
  8
SIZE
  6
BYBLOCK
100
AcDbLine
 10
240.0
 20
486.0
 30
0.0
 11
240.0
 21
756.582344
 31
0.0
  0
LINE
  5
A6
330
1E
100
AcDbEntity
  8
SIZE
  6
BYBLOCK
100
AcDbLine
 10
240.0
 20
670.0976509999999
 30
0.0
 11
143.0
 21
670.0976509999999
 31
0.0
  0
TEXT
  5
A7
330
1E
100
AcDbEntity
  8
SIZE
  6
BYBLOCK
100
AcDbText
 10
259.354974
 20
681.476403
 30
0.0
 40
64.0
  1
97
 41
0.9
100
AcDbText
  0
LINE
  5
A8
330
1E
100
AcDbEntity
  8
SIZE
  6
BYBLOCK
100
AcDbLine
 10
-168.0
 20
490.0
 30
0.0
 11
-168.0
 21
705.582344
 31
0.0
  0
LINE
  5
A9
330
1E
100
AcDbEntity
  8
SIZE
  6
BYBLOCK
100
AcDbLine
 10
-166.0
 20
670.0976509999999
 30
0.0
 11
141.0
 21
670.0976509999999
 31
0.0
  0
TEXT
  5
AA
330
1E
100
AcDbEntity
  8
SIZE
  6
BYBLOCK
100
AcDbText
 10
-67.701132
 20
684.0171169999999
 30
0.0
 40
64.0
  1
311
 41
0.9
100
AcDbText
  0
LINE
  5
AB
330
1E
100
AcDbEntity
  8
SIZE
  6
BYBLOCK
100
AcDbLine
 10
214.0
 20
490.0
 30
0.0
 11
214.0
 21
841.4905380000002
 31
0.0
  0
LINE
  5
AC
330
1E
100
AcDbEntity
  8
SIZE
  6
BYBLOCK
100
AcDbLine
 10
240.0
 20
486.0
 30
0.0
 11
240.0
 21
841.4905380000002
 31
0.0
  0
LINE
  5
AD
330
1E
100
AcDbEntity
  8
SIZE
  6
BYBLOCK
100
AcDbLine
 10
240.0
 20
811.4905379999999
 30
0.0
 11
214.0
 21
811.4905379999999
 31
0.0
  0
TEXT
  5
AE
330
1E
100
AcDbEntity
  8
SIZE
  6
BYBLOCK
100
AcDbText
 10
260.422795
 20
825.9207230000001
 30
0.0
 40
64.0
  1
26
 41
0.9
100
AcDbText
  0
LINE
  5
AF
330
1E
100
AcDbEntity
  8
SIZE
  6
BYBLOCK
100
AcDbLine
 10
-214.0
 20
490.0
 30
0.0
 11
-214.0
 21
841.4905380000002
 31
0.0
  0
LINE
  5
B0
330
1E
100
AcDbEntity
  8
SIZE
  6
BYBLOCK
100
AcDbLine
 10
214.0
 20
490.0
 30
0.0
 11
214.0
 21
841.4905380000002
 31
0.0
  0
LINE
  5
B1
330
1E
100
AcDbEntity
  8
SIZE
  6
BYBLOCK
100
AcDbLine
 10
-212.0
 20
811.4905379999999
 30
0.0
 11
212.0
 21
811.4905379999999
 31
0.0
  0
TEXT
  5
B2
330
1E
100
AcDbEntity
  8
SIZE
  6
BYBLOCK
100
AcDbText
 10
-69.724718
 20
826.361348
 30
0.0
 40
64.0
  1
428
 41
0.9
100
AcDbText
  0
LINE
  5
B3
330
1E
100
AcDbEntity
  8
SIZE
  6
BYBLOCK
100
AcDbLine
 10
-240.0
 20
486.0
 30
0.0
 11
-240.0
 21
841.4905380000002
 31
0.0
  0
LINE
  5
B4
330
1E
100
AcDbEntity
  8
SIZE
  6
BYBLOCK
100
AcDbLine
 10
-214.0
 20
490.0
 30
0.0
 11
-214.0
 21
841.4905380000002
 31
0.0
  0
LINE
  5
B5
330
1E
100
AcDbEntity
  8
SIZE
  6
BYBLOCK
100
AcDbLine
 10
-214.0
 20
811.4905379999999
 30
0.0
 11
-240.0
 21
811.4905379999999
 31
0.0
  0
TEXT
  5
B6
330
1E
100
AcDbEntity
  8
SIZE
  6
BYBLOCK
100
AcDbText
 10
-347.144244
 20
827.8368119999999
 30
0.0
 40
64.0
  1
26
 41
0.9
100
AcDbText
  0
LINE
  5
B7
330
1E
100
AcDbEntity
  8
SIZE
  6
BYBLOCK
100
AcDbLine
 10
-20.0
 20
480.0
 30
0.0
 11
-56.078364
 21
480.0
 31
0.0
  0
LINE
  5
B8
330
1E
100
AcDbEntity
  8
SIZE
  6
BYBLOCK
100
AcDbLine
 10
-20.0
 20
415.0
 30
0.0
 11
-56.078364
 21
415.0
 31
0.0
  0
LINE
  5
B9
330
1E
100
AcDbEntity
  8
SIZE
  6
BYBLOCK
100
AcDbLine
 10
-26.078364
 20
421.0
 30
0.0
 11
-26.078364
 21
411.0
 31
0.0
  0
LINE
  5
BA
330
1E
100
AcDbEntity
  8
SIZE
  6
BYBLOCK
100
AcDbLine
 10
-26.078364
 20
421.0
 30
0.0
 11
-26.078364
 21
478.0
 31
0.0
  0
LINE
  5
BB
330
1E
100
AcDbEntity
  8
SIZE
  6
BYBLOCK
100
AcDbLine
 10
-244.0
 20
-460.0
 30
0.0
 11
-821.4465700000001
 21
-460.0
 31
0.0
  0
LINE
  5
BC
330
1E
100
AcDbEntity
  8
SIZE
  6
BYBLOCK
100
AcDbLine
 10
-250.0
 20
-476.0
 30
0.0
 11
-821.4465700000001
 21
-476.0
 31
0.0
  0
LINE
  5
BD
330
1E
100
AcDbEntity
  8
SIZE
  6
BYBLOCK
100
AcDbLine
 10
-792.6087879999999
 20
-478.0
 30
0.0
 11
-792.6087879999999
 21
-480.0
 31
0.0
  0
TEXT
  5
BE
330
1E
100
AcDbEntity
  8
SIZE
  6
BYBLOCK
100
AcDbText
 10
-812.469367
 20
-587.7944119999999
 30
0.0
 40
64.0
  1
16
 50
90.0
 41
0.9
100
AcDbText
  0
LINE
  5
BF
330
1E
100
AcDbEntity
  8
SIZE
  6
BYBLOCK
100
AcDbLine
 10
-244.0
 20
460.0
 30
0.0
 11
-821.4465700000001
 21
460.0
 31
0.0
  0
LINE
  5
C0
330
1E
100
AcDbEntity
  8
SIZE
  6
BYBLOCK
100
AcDbLine
 10
-250.0
 20
476.0
 30
0.0
 11
-821.4465700000001
 21
476.0
 31
0.0
  0
LINE
  5
C1
330
1E
100
AcDbEntity
  8
SIZE
  6
BYBLOCK
100
AcDbLine
 10
-792.6087879999999
 20
474.0
 30
0.0
 11
-792.6087879999999
 21
458.0
 31
0.0
  0
TEXT
  5
C2
330
1E
100
AcDbEntity
  8
SIZE
  6
BYBLOCK
100
AcDbText
 10
-810.7572610000001
 20
503.0560089999999
 30
0.0
 40
64.0
  1
16
 50
90.0
 41
0.9
100
AcDbText
  0
LINE
  5
C3
330
1E
100
AcDbEntity
  8
SIZE
  6
BYBLOCK
100
AcDbLine
 10
-792.6087879999999
 20
458.0
 30
0.0
 11
-792.6087879999999
 21
-458.0
 31
0.0
  0
TEXT
  5
C4
330
1E
100
AcDbEntity
  8
SIZE
  6
BYBLOCK
100
AcDbText
 10
-812.486954
 20
-79.025584
 30
0.0
 40
64.0
  1
920
 50
90.0
 41
0.9
100
AcDbText
  0
LINE
  5
C5
330
1E
100
AcDbEntity
  8
SIZE
  6
BYBLOCK
100
AcDbLine
 10
-250.0
 20
-415.0
 30
0.0
 11
-570.719144
 21
-415.0
 31
0.0
  0
LINE
  5
C6
330
1E
100
AcDbEntity
  8
SIZE
  6
BYBLOCK
100
AcDbLine
 10
-178.0
 20
480.0
 30
0.0
 11
-698.9103919999999
 21
480.0
 31
0.0
  0
LINE
  5
C7
330
1E
100
AcDbEntity
  8
SIZE
  6
BYBLOCK
100
AcDbLine
 10
-661.0365059999999
 20
-413.0
 30
0.0
 11
-661.0365059999999
 21
478.0
 31
0.0
  0
TEXT
  5
C8
330
1E
100
AcDbEntity
  8
SIZE
  6
BYBLOCK
100
AcDbText
 10
-678.610317
 20
-79.755711
 30
0.0
 40
64.0
  1
973
 50
90.0
 41
0.9
100
AcDbText
  0
LINE
  5
C9
330
1E
100
AcDbEntity
  8
SIZE
  6
BYBLOCK
100
AcDbLine
 10
-250.0
 20
-415.0
 30
0.0
 11
-385.099821
 21
-415.0
 31
0.0
  0
LINE
  5
CA
330
1E
100
AcDbEntity
  8
SIZE
  6
BYBLOCK
100
AcDbLine
 10
-250.0
 20
415.0
 30
0.0
 11
-570.719144
 21
415.0
 31
0.0
  0
LINE
  5
CB
330
1E
100
AcDbEntity
  8
SIZE
  6
BYBLOCK
100
AcDbLine
 10
-540.533611
 20
-413.0
 30
0.0
 11
-540.533611
 21
413.0
 31
0.0
  0
TEXT
  5
CC
330
1E
100
AcDbEntity
  8
SIZE
  6
BYBLOCK
100
AcDbText
 10
-557.151548
 20
-73.66977900000001
 30
0.0
 40
64.0
  1
830
 50
90.0
 41
0.9
100
AcDbText
  0
CIRCLE
  5
CD
330
1E
100
AcDbEntity
  8
SIZE
  6
CONTINUOUS
100
AcDbCircle
 10
-540.533611
 20
415.0
 30
0.0
 40
6.0
  0
CIRCLE
  5
CE
330
1E
100
AcDbEntity
  8
SIZE
  6
CONTINUOUS
100
AcDbCircle
 10
-540.533611
 20
-415.0
 30
0.0
 40
6.0
  0
CIRCLE
  5
CF
330
1E
100
AcDbEntity
  8
SIZE
  6
CONTINUOUS
100
AcDbCircle
 10
-661.0365059999999
 20
480.0
 30
0.0
 40
6.0
  0
CIRCLE
  5
D0
330
1E
100
AcDbEntity
  8
SIZE
  6
CONTINUOUS
100
AcDbCircle
 10
-792.6087879999999
 20
-460.0
 30
0.0
 40
6.0
  0
CIRCLE
  5
D1
330
1E
100
AcDbEntity
  8
SIZE
  6
CONTINUOUS
100
AcDbCircle
 10
-792.6087879999999
 20
460.0
 30
0.0
 40
6.0
  0
CIRCLE
  5
D2
330
1E
100
AcDbEntity
  8
SIZE
  6
CONTINUOUS
100
AcDbCircle
 10
-792.6087879999999
 20
476.0208699999999
 30
0.0
 40
6.0
  0
CIRCLE
  5
D3
330
1E
100
AcDbEntity
  8
SIZE
  6
CONTINUOUS
100
AcDbCircle
 10
-792.6087879999999
 20
-460.0
 30
0.0
 40
6.0
  0
CIRCLE
  5
D4
330
1E
100
AcDbEntity
  8
SIZE
  6
CONTINUOUS
100
AcDbCircle
 10
-792.6087879999999
 20
-476.0
 30
0.0
 40
6.0
  0
CIRCLE
  5
D5
330
1E
100
AcDbEntity
  8
SIZE
  6
CONTINUOUS
100
AcDbCircle
 10
-26.078364
 20
480.0
 30
0.0
 40
6.0
  0
CIRCLE
  5
D6
330
1E
100
AcDbEntity
  8
SIZE
  6
CONTINUOUS
100
AcDbCircle
 10
-26.078364
 20
415.0
 30
0.0
 40
6.0
  0
CIRCLE
  5
D7
330
1E
100
AcDbEntity
  8
SIZE
  6
CONTINUOUS
100
AcDbCircle
 10
-240.0
 20
811.4905379999999
 30
0.0
 40
6.0
  0
CIRCLE
  5
D8
330
1E
100
AcDbEntity
  8
SIZE
  6
CONTINUOUS
100
AcDbCircle
 10
-214.0
 20
811.4905379999999
 30
0.0
 40
6.0
  0
CIRCLE
  5
D9
330
1E
100
AcDbEntity
  8
SIZE
  6
CONTINUOUS
100
AcDbCircle
 10
214.0
 20
811.4905379999999
 30
0.0
 40
6.0
  0
CIRCLE
  5
DA
330
1E
100
AcDbEntity
  8
SIZE
  6
CONTINUOUS
100
AcDbCircle
 10
-214.0
 20
811.4905379999999
 30
0.0
 40
6.0
  0
CIRCLE
  5
DB
330
1E
100
AcDbEntity
  8
SIZE
  6
CONTINUOUS
100
AcDbCircle
 10
214.0
 20
811.4905379999999
 30
0.0
 40
6.0
  0
CIRCLE
  5
DC
330
1E
100
AcDbEntity
  8
SIZE
  6
CONTINUOUS
100
AcDbCircle
 10
240.0
 20
811.4905379999999
 30
0.0
 40
6.0
  0
CIRCLE
  5
DD
330
1E
100
AcDbEntity
  8
SIZE
  6
CONTINUOUS
100
AcDbCircle
 10
143.0
 20
670.0976509999999
 30
0.0
 40
6.0
  0
CIRCLE
  5
DE
330
1E
100
AcDbEntity
  8
SIZE
  6
CONTINUOUS
100
AcDbCircle
 10
-168.0
 20
670.0976509999999
 30
0.0
 40
6.0
  0
CIRCLE
  5
DF
330
1E
100
AcDbEntity
  8
SIZE
  6
CONTINUOUS
100
AcDbCircle
 10
240.0
 20
670.0976509999999
 30
0.0
 40
6.0
  0
CIRCLE
  5
E0
330
1E
100
AcDbEntity
  8
SIZE
  6
CONTINUOUS
100
AcDbCircle
 10
-240.0
 20
-1011.733
 30
0.0
 40
6.0
  0
CIRCLE
  5
E1
330
1E
100
AcDbEntity
  8
SIZE
  6
CONTINUOUS
100
AcDbCircle
 10
240.0
 20
-1011.733
 30
0.0
 40
6.0
  0
CIRCLE
  5
E2
330
1E
100
AcDbEntity
  8
SIZE
  6
CONTINUOUS
100
AcDbCircle
 10
-146.0
 20
-885.4895109999999
 30
0.0
 40
6.0
  0
CIRCLE
  5
E3
330
1E
100
AcDbEntity
  8
SIZE
  6
CONTINUOUS
100
AcDbCircle
 10
240.0
 20
-885.4895109999999
 30
0.0
 40
6.0
  0
CIRCLE
  5
E4
330
1E
100
AcDbEntity
  8
SIZE
  6
CONTINUOUS
100
AcDbCircle
 10
0.0
 20
-752.0470330000001
 30
0.0
 40
6.0
  0
CIRCLE
  5
E5
330
1E
100
AcDbEntity
  8
SIZE
  6
CONTINUOUS
100
AcDbCircle
 10
240.0
 20
-752.0470330000001
 30
0.0
 40
6.0
  0
CIRCLE
  5
E6
330
1E
100
AcDbEntity
  8
SIZE
  6
CONTINUOUS
100
AcDbCircle
 10
60.0
 20
-641.540116
 30
0.0
 40
6.0
  0
CIRCLE
  5
E7
330
1E
100
AcDbEntity
  8
SIZE
  6
CONTINUOUS
100
AcDbCircle
 10
240.0
 20
-641.540116
 30
0.0
 40
6.0
  0
CIRCLE
  5
E8
330
1E
100
AcDbEntity
  8
SIZE
  6
CONTINUOUS
100
AcDbCircle
 10
733.2090599999999
 20
-538.0
 30
0.0
 40
6.0
  0
CIRCLE
  5
E9
330
1E
100
AcDbEntity
  8
SIZE
  6
CONTINUOUS
100
AcDbCircle
 10
733.2090599999999
 20
538.0
 30
0.0
 40
6.0
  0
CIRCLE
  5
EA
330
1E
100
AcDbEntity
  8
SIZE
  6
CONTINUOUS
100
AcDbCircle
 10
-267.5
 20
-1324.06537
 30
0.0
 40
6.0
  0
CIRCLE
  5
EB
330
1E
100
AcDbEntity
  8
SIZE
  6
CONTINUOUS
100
AcDbCircle
 10
267.5
 20
-1324.06537
 30
0.0
 40
6.0
  0
CIRCLE
  5
EC
330
1E
100
AcDbEntity
  8
SIZE
  6
CONTINUOUS
100
AcDbCircle
 10
508.609616
 20
523.0
 30
0.0
 40
6.0
  0
CIRCLE
  5
ED
330
1E
100
AcDbEntity
  8
SIZE
  6
CONTINUOUS
100
AcDbCircle
 10
508.609616
 20
538.0
 30
0.0
 40
6.0
  0
CIRCLE
  5
EE
330
1E
100
AcDbEntity
  8
SIZE
  6
CONTINUOUS
100
AcDbCircle
 10
508.609616
 20
-523.0
 30
0.0
 40
6.0
  0
CIRCLE
  5
EF
330
1E
100
AcDbEntity
  8
SIZE
  6
CONTINUOUS
100
AcDbCircle
 10
508.609616
 20
-537.7541179999999
 30
0.0
 40
6.0
  0
CIRCLE
  5
F0
330
1E
100
AcDbEntity
  8
SIZE
  6
CONTINUOUS
100
AcDbCircle
 10
-252.4999999999999
 20
-1133.831999999999
 30
0.0
 40
6.0
  0
CIRCLE
  5
F1
330
1E
100
AcDbEntity
  8
SIZE
  6
CONTINUOUS
100
AcDbCircle
 10
-267.5
 20
-1133.831999999999
 30
0.0
 40
6.0
  0
CIRCLE
  5
F2
330
1E
100
AcDbEntity
  8
SIZE
  6
CONTINUOUS
100
AcDbCircle
 10
252.4999999999999
 20
-1133.831999999999
 30
0.0
 40
6.0
  0
CIRCLE
  5
F3
330
1E
100
AcDbEntity
  8
SIZE
  6
CONTINUOUS
100
AcDbCircle
 10
267.5
 20
-1133.831999999999
 30
0.0
 40
6.0
  0
LWPOLYLINE
  5
F4
330
1E
100
AcDbEntity
  8
NOTE
  6
CONTINUOUS
100
AcDbPolyline
 90
        3
 70
     0
 43
0.0
 10
-164.5247209999999
 20
-450.4518639999999
 10
-146.0
 20
-415.0
 10
-179.768812
 20
-436.439854
  0
LWPOLYLINE
  5
F9
330
1E
100
AcDbEntity
  8
NOTE
  6
CONTINUOUS
100
AcDbPolyline
 90
        3
 70
     0
 43
0.0
 10
-18.872861
 20
-447.2677629999999
 10
0.0
 20
-412.0
 10
-33.978258
 20
-433.106349
  0
LWPOLYLINE
  5
FE
330
1E
100
AcDbEntity
  8
NOTE
  6
CONTINUOUS
100
AcDbPolyline
 90
        3
 70
     0
 43
0.0
 10
93.28232300000001
 20
-433.187541
 10
60.0
 20
-411.0
 10
77.729567
 20
-446.856136
  0
LINE
  5
103
330
1E
100
AcDbEntity
  8
DETAIL
  6
CONTINUOUS
100
AcDbLine
 10
-240.0
 20
415.0
 30
0.0
 11
-240.0
 21
-415.0
 31
0.0
  0
LINE
  5
104
330
1E
100
AcDbEntity
  8
DETAIL
  6
CONTINUOUS
100
AcDbLine
 10
240.0
 20
415.0
 30
0.0
 11
240.0
 21
-415.0
 31
0.0
  0
LINE
  5
105
330
1E
100
AcDbEntity
  8
DETAIL
  6
CONTINUOUS
100
AcDbLine
 10
240.0
 20
-415.0
 30
0.0
 11
-240.0
 21
-415.0
 31
0.0
  0
CIRCLE
  5
106
330
1E
100
AcDbEntity
  8
FIX
  6
CONTINUOUS
100
AcDbCircle
 10
214.0
 20
-460.0
 30
0.0
 40
10.0
  0
LINE
  5
107
330
1E
100
AcDbEntity
  8
DETAIL
  6
CONTINUOUS
100
AcDbLine
 10
-218.0
 20
-476.0
 30
0.0
 11
-240.0
 21
-476.0
 31
0.0
  0
ARC
  5
108
330
1E
100
AcDbEntity
  8
DETAIL
  6
CONTINUOUS
100
AcDbCircle
 10
-218.02865
 20
-460.0
 30
0.0
 40
10.0
100
AcDbArc
 50
90.591869
 51
269.408131
  0
CIRCLE
  5
109
330
1E
100
AcDbEntity
  8
FIX
  6
CONTINUOUS
100
AcDbCircle
 10
-214.0
 20
-460.0
 30
0.0
 40
10.0
  0
ARC
  5
10A
330
1E
100
AcDbEntity
  8
DETAIL
  6
CONTINUOUS
100
AcDbCircle
 10
-210.074649
 20
-460.0
 30
0.0
 40
10.0
100
AcDbArc
 50
271.1838
 51
88.81619999999999
  0
LINE
  5
10B
330
1E
100
AcDbEntity
  8
DETAIL
  6
CONTINUOUS
100
AcDbLine
 10
-218.0
 20
-476.0
 30
0.0
 11
-218.0
 21
-469.999959
 31
0.0
  0
LINE
  5
10C
330
1E
100
AcDbEntity
  8
DETAIL
  6
CONTINUOUS
100
AcDbLine
 10
-210.0
 20
-476.0
 30
0.0
 11
-210.0
 21
-469.999721
 31
0.0
  0
LINE
  5
10D
330
1E
100
AcDbEntity
  8
DETAIL
  6
CONTINUOUS
100
AcDbLine
 10
-188.0
 20
-476.0
 30
0.0
 11
-210.0
 21
-476.0
 31
0.0
  0
LINE
  5
10E
330
1E
100
AcDbEntity
  8
DETAIL
  6
CONTINUOUS
100
AcDbLine
 10
-209.868052
 20
-450.0
 30
0.0
 11
-218.131949
 21
-450.0
 31
0.0
  0
LINE
  5
10F
330
1E
100
AcDbEntity
  8
DETAIL
  6
CONTINUOUS
100
AcDbLine
 10
240.0
 20
415.0
 30
0.0
 11
-240.0
 21
415.0
 31
0.0
  0
CIRCLE
  5
110
330
1E
100
AcDbEntity
  8
FIX
  6
CONTINUOUS
100
AcDbCircle
 10
214.0
 20
460.0
 30
0.0
 40
10.0
  0
CIRCLE
  5
111
330
1E
100
AcDbEntity
  8
FIX
  6
CONTINUOUS
100
AcDbCircle
 10
-214.0
 20
460.0
 30
0.0
 40
10.0
  0
LINE
  5
112
330
1E
100
AcDbEntity
  8
SERVICESPACE
  6
DASHDOT
100
AcDbLine
 10
252.4999999999999
 20
523.0
 30
0.0
 11
252.4999999999999
 21
-523.0
 31
0.0
  0
LINE
  5
113
330
1E
100
AcDbEntity
  8
SERVICESPACE
  6
DASHDOT
100
AcDbLine
 10
-252.4999999999999
 20
523.0
 30
0.0
 11
-252.4999999999999
 21
-523.0
 31
0.0
  0
LINE
  5
114
330
1E
100
AcDbEntity
  8
SERVICESPACE
  6
DASHDOT
100
AcDbLine
 10
252.4999999999999
 20
-523.0
 30
0.0
 11
-252.4999999999999
 21
-523.0
 31
0.0
  0
LINE
  5
115
330
1E
100
AcDbEntity
  8
SERVICESPACE
  6
DASHDOT
100
AcDbLine
 10
252.4999999999999
 20
523.0
 30
0.0
 11
-252.4999999999999
 21
523.0
 31
0.0
  0
LINE
  5
116
330
1E
100
AcDbEntity
  8
DETAIL
  6
CONTINUOUS
100
AcDbLine
 10
-267.5
 20
518.0
 30
0.0
 11
-267.5
 21
-518.0
 31
0.0
  0
LINE
  5
117
330
1E
100
AcDbEntity
  8
DETAIL
  6
CONTINUOUS
100
AcDbLine
 10
247.5
 20
538.0
 30
0.0
 11
-247.5
 21
538.0
 31
0.0
  0
ARC
  5
118
330
1E
100
AcDbEntity
  8
DETAIL
  6
CONTINUOUS
100
AcDbCircle
 10
-247.5
 20
518.0
 30
0.0
 40
20.0
100
AcDbArc
 50
90.0
 51
180.0
  0
LINE
  5
119
330
1E
100
AcDbEntity
  8
DETAIL
  6
CONTINUOUS
100
AcDbLine
 10
267.5
 20
518.0
 30
0.0
 11
267.5
 21
-518.0
 31
0.0
  0
ARC
  5
11A
330
1E
100
AcDbEntity
  8
DETAIL
  6
CONTINUOUS
100
AcDbCircle
 10
247.5
 20
-518.0
 30
0.0
 40
20.0
100
AcDbArc
 50
270.0
 51
0.0
  0
LINE
  5
11B
330
1E
100
AcDbEntity
  8
DETAIL
  6
CONTINUOUS
100
AcDbLine
 10
247.5
 20
-538.0
 30
0.0
 11
-247.5
 21
-538.0
 31
0.0
  0
ARC
  5
11C
330
1E
100
AcDbEntity
  8
DETAIL
  6
CONTINUOUS
100
AcDbCircle
 10
247.5
 20
518.0
 30
0.0
 40
20.0
100
AcDbArc
 50
0.0
 51
90.0
  0
ARC
  5
11D
330
1E
100
AcDbEntity
  8
DETAIL
  6
CONTINUOUS
100
AcDbCircle
 10
-247.5
 20
-518.0
 30
0.0
 40
20.0
100
AcDbArc
 50
180.0
 51
270.0
  0
LINE
  5
11E
330
1E
100
AcDbEntity
  8
DETAIL
  6
CONTINUOUS
100
AcDbLine
 10
-240.0
 20
-476.0
 30
0.0
 11
-240.0
 21
-415.0
 31
0.0
  0
LINE
  5
11F
330
1E
100
AcDbEntity
  8
DETAIL
  6
CONTINUOUS
100
AcDbLine
 10
-188.0
 20
-476.0
 30
0.0
 11
-188.0
 21
-415.0
 31
0.0
  0
LINE
  5
120
330
1E
100
AcDbEntity
  8
DETAIL
  6
CONTINUOUS
100
AcDbLine
 10
188.0
 20
-476.0
 30
0.0
 11
188.0
 21
-415.0
 31
0.0
  0
LINE
  5
121
330
1E
100
AcDbEntity
  8
DETAIL
  6
CONTINUOUS
100
AcDbLine
 10
210.0
 20
-476.0
 30
0.0
 11
188.0
 21
-476.0
 31
0.0
  0
LINE
  5
122
330
1E
100
AcDbEntity
  8
DETAIL
  6
CONTINUOUS
100
AcDbLine
 10
210.0
 20
-476.0
 30
0.0
 11
210.0
 21
-469.999959
 31
0.0
  0
LINE
  5
123
330
1E
100
AcDbEntity
  8
DETAIL
  6
CONTINUOUS
100
AcDbLine
 10
218.0
 20
-476.0
 30
0.0
 11
218.0
 21
-469.999721
 31
0.0
  0
LINE
  5
124
330
1E
100
AcDbEntity
  8
DETAIL
  6
CONTINUOUS
100
AcDbLine
 10
240.0
 20
-476.0
 30
0.0
 11
218.0
 21
-476.0
 31
0.0
  0
LINE
  5
125
330
1E
100
AcDbEntity
  8
DETAIL
  6
CONTINUOUS
100
AcDbLine
 10
240.0
 20
-476.0
 30
0.0
 11
240.0
 21
-415.0
 31
0.0
  0
ARC
  5
126
330
1E
100
AcDbEntity
  8
DETAIL
  6
CONTINUOUS
100
AcDbCircle
 10
217.925352
 20
-460.0
 30
0.0
 40
10.0
100
AcDbArc
 50
271.1838
 51
88.81619999999999
  0
ARC
  5
127
330
1E
100
AcDbEntity
  8
DETAIL
  6
CONTINUOUS
100
AcDbCircle
 10
209.9713509999999
 20
-460.0
 30
0.0
 40
10.0
100
AcDbArc
 50
90.591869
 51
269.408131
  0
LINE
  5
128
330
1E
100
AcDbEntity
  8
DETAIL
  6
CONTINUOUS
100
AcDbLine
 10
218.1319479999999
 20
-450.0
 30
0.0
 11
209.868052
 21
-450.0
 31
0.0
  0
LINE
  5
129
330
1E
100
AcDbEntity
  8
DETAIL
  6
CONTINUOUS
100
AcDbLine
 10
-240.0
 20
476.0
 30
0.0
 11
-240.0
 21
415.0
 31
0.0
  0
LINE
  5
12A
330
1E
100
AcDbEntity
  8
DETAIL
  6
CONTINUOUS
100
AcDbLine
 10
-218.0
 20
476.0
 30
0.0
 11
-240.0
 21
476.0
 31
0.0
  0
LINE
  5
12B
330
1E
100
AcDbEntity
  8
DETAIL
  6
CONTINUOUS
100
AcDbLine
 10
-188.0
 20
476.0
 30
0.0
 11
-210.0
 21
476.0
 31
0.0
  0
LINE
  5
12C
330
1E
100
AcDbEntity
  8
DETAIL
  6
CONTINUOUS
100
AcDbLine
 10
-188.0
 20
476.0
 30
0.0
 11
-188.0
 21
415.0
 31
0.0
  0
ARC
  5
12D
330
1E
100
AcDbEntity
  8
DETAIL
  6
CONTINUOUS
100
AcDbCircle
 10
-218.02865
 20
460.0
 30
0.0
 40
10.0
100
AcDbArc
 50
90.591869
 51
269.408131
  0
LINE
  5
12E
330
1E
100
AcDbEntity
  8
DETAIL
  6
CONTINUOUS
100
AcDbLine
 10
-218.0
 20
476.0
 30
0.0
 11
-218.0
 21
469.999959
 31
0.0
  0
LINE
  5
12F
330
1E
100
AcDbEntity
  8
DETAIL
  6
CONTINUOUS
100
AcDbLine
 10
-210.0
 20
476.0
 30
0.0
 11
-210.0
 21
469.999721
 31
0.0
  0
ARC
  5
130
330
1E
100
AcDbEntity
  8
DETAIL
  6
CONTINUOUS
100
AcDbCircle
 10
-210.074649
 20
460.0
 30
0.0
 40
10.0
100
AcDbArc
 50
271.1838
 51
88.81619999999999
  0
LINE
  5
131
330
1E
100
AcDbEntity
  8
DETAIL
  6
CONTINUOUS
100
AcDbLine
 10
-209.868052
 20
450.0
 30
0.0
 11
-218.131949
 21
450.0
 31
0.0
  0
ARC
  5
132
330
1E
100
AcDbEntity
  8
DETAIL
  6
CONTINUOUS
100
AcDbCircle
 10
217.925352
 20
460.0
 30
0.0
 40
10.0
100
AcDbArc
 50
271.1838
 51
88.81619999999999
  0
LINE
  5
133
330
1E
100
AcDbEntity
  8
DETAIL
  6
CONTINUOUS
100
AcDbLine
 10
240.0
 20
476.0
 30
0.0
 11
240.0
 21
415.0
 31
0.0
  0
LINE
  5
134
330
1E
100
AcDbEntity
  8
DETAIL
  6
CONTINUOUS
100
AcDbLine
 10
240.0
 20
476.0
 30
0.0
 11
218.0
 21
476.0
 31
0.0
  0
LINE
  5
135
330
1E
100
AcDbEntity
  8
DETAIL
  6
CONTINUOUS
100
AcDbLine
 10
218.0
 20
476.0
 30
0.0
 11
218.0
 21
469.999721
 31
0.0
  0
LINE
  5
136
330
1E
100
AcDbEntity
  8
DETAIL
  6
CONTINUOUS
100
AcDbLine
 10
210.0
 20
476.0
 30
0.0
 11
210.0
 21
469.999959
 31
0.0
  0
ARC
  5
137
330
1E
100
AcDbEntity
  8
DETAIL
  6
CONTINUOUS
100
AcDbCircle
 10
209.9713509999999
 20
460.0
 30
0.0
 40
10.0
100
AcDbArc
 50
90.591869
 51
269.408131
  0
LINE
  5
138
330
1E
100
AcDbEntity
  8
DETAIL
  6
CONTINUOUS
100
AcDbLine
 10
218.1319479999999
 20
450.0
 30
0.0
 11
209.868052
 21
450.0
 31
0.0
  0
LINE
  5
139
330
1E
100
AcDbEntity
  8
DETAIL
  6
CONTINUOUS
100
AcDbLine
 10
210.0
 20
476.0
 30
0.0
 11
188.0
 21
476.0
 31
0.0
  0
LINE
  5
13A
330
1E
100
AcDbEntity
  8
DETAIL
  6
CONTINUOUS
100
AcDbLine
 10
188.0
 20
476.0
 30
0.0
 11
188.0
 21
415.0
 31
0.0
  0
LINE
  5
13B
330
1E
100
AcDbEntity
  8
DETAIL
  6
CONTINUOUS
100
AcDbLine
 10
143.0
 20
480.0
 30
0.0
 11
143.0
 21
415.0
 31
0.0
  0
LINE
  5
13C
330
1E
100
AcDbEntity
  8
DETAIL
  6
CONTINUOUS
100
AcDbLine
 10
-168.0
 20
480.0
 30
0.0
 11
-168.0
 21
415.0
 31
0.0
  0
LINE
  5
13D
330
1E
100
AcDbEntity
  8
DETAIL
  6
CONTINUOUS
100
AcDbLine
 10
143.0
 20
480.0
 30
0.0
 11
-168.0
 21
480.0
 31
0.0
  0
LINE
  5
13E
330
1E
100
AcDbEntity
  8
DETAIL
  6
CONTINUOUS
100
AcDbLine
 10
110.0
 20
-415.0
 30
0.0
 11
110.0
 21
-493.0
 31
0.0
  0
LINE
  5
13F
330
1E
100
AcDbEntity
  8
DETAIL
  6
CONTINUOUS
100
AcDbLine
 10
-53.0
 20
-415.0
 30
0.0
 11
-53.0
 21
-493.0
 31
0.0
  0
LINE
  5
140
330
1E
100
AcDbEntity
  8
DETAIL
  6
CONTINUOUS
100
AcDbLine
 10
110.0
 20
-493.0
 30
0.0
 11
-53.0
 21
-493.0
 31
0.0
  0
LINE
  5
141
330
1E
100
AcDbEntity
  8
NOTE
  6
CONTINUOUS
100
AcDbLine
 10
-20.0
 20
-412.0
 30
0.0
 11
20.0
 21
-412.0
 31
0.0
  0
LINE
  5
142
330
1E
100
AcDbEntity
  8
NOTE
  6
CONTINUOUS
100
AcDbLine
 10
0.0
 20
-432.0
 30
0.0
 11
0.0
 21
-392.0
 31
0.0
  0
LINE
  5
143
330
1E
100
AcDbEntity
  8
NOTE
  6
CONTINUOUS
100
AcDbLine
 10
40.0
 20
-411.0
 30
0.0
 11
80.0
 21
-411.0
 31
0.0
  0
LINE
  5
144
330
1E
100
AcDbEntity
  8
NOTE
  6
CONTINUOUS
100
AcDbLine
 10
60.0
 20
-431.0
 30
0.0
 11
60.0
 21
-391.0
 31
0.0
  0
LINE
  5
145
330
1E
100
AcDbEntity
  8
NOTE
  6
CONTINUOUS
100
AcDbLine
 10
-166.0
 20
-415.0
 30
0.0
 11
-126.0
 21
-415.0
 31
0.0
  0
LINE
  5
146
330
1E
100
AcDbEntity
  8
NOTE
  6
CONTINUOUS
100
AcDbLine
 10
-146.0
 20
-435.0
 30
0.0
 11
-146.0
 21
-395.0
 31
0.0
  0
TEXT
  5
147
330
1E
100
AcDbEntity
  8
SIZE
  6
BYBLOCK
100
AcDbText
 10
-41.316775
 20
302.4548409999999
 30
0.0
 40
64.0
  1
65
 50
90.0
 41
0.9
100
AcDbText
  0
LINE
  5
148
330
1E
100
AcDbEntity
  8
NOTE
  6
CONTINUOUS
100
AcDbLine
 10
-214.0
 20
-440.0
 30
0.0
 11
-214.0
 21
-480.0
 31
0.0
  0
LINE
  5
149
330
1E
100
AcDbEntity
  8
NOTE
  6
CONTINUOUS
100
AcDbLine
 10
-194.0
 20
-460.0
 30
0.0
 11
-234.0
 21
-460.0
 31
0.0
  0
LINE
  5
14A
330
1E
100
AcDbEntity
  8
NOTE
  6
CONTINUOUS
100
AcDbLine
 10
214.0
 20
-440.0
 30
0.0
 11
214.0
 21
-480.0
 31
0.0
  0
LINE
  5
14B
330
1E
100
AcDbEntity
  8
NOTE
  6
CONTINUOUS
100
AcDbLine
 10
194.0
 20
-460.0
 30
0.0
 11
234.0
 21
-460.0
 31
0.0
  0
LINE
  5
14C
330
1E
100
AcDbEntity
  8
NOTE
  6
CONTINUOUS
100
AcDbLine
 10
-214.0
 20
440.0
 30
0.0
 11
-214.0
 21
480.0
 31
0.0
  0
LINE
  5
14D
330
1E
100
AcDbEntity
  8
NOTE
  6
CONTINUOUS
100
AcDbLine
 10
-194.0
 20
460.0
 30
0.0
 11
-234.0
 21
460.0
 31
0.0
  0
LINE
  5
14E
330
1E
100
AcDbEntity
  8
NOTE
  6
CONTINUOUS
100
AcDbLine
 10
214.0
 20
440.0
 30
0.0
 11
214.0
 21
480.0
 31
0.0
  0
LINE
  5
14F
330
1E
100
AcDbEntity
  8
NOTE
  6
CONTINUOUS
100
AcDbLine
 10
194.0
 20
460.0
 30
0.0
 11
234.0
 21
460.0
 31
0.0
  0
LINE
  5
150
330
1E
100
AcDbEntity
  8
SIZE
  6
BYBLOCK
100
AcDbLine
 10
-792.6087879999999
 20
-460.0
 30
0.0
 11
-792.6087879999999
 21
-476.0
 31
0.0
  0
LINE
  5
151
330
1E
100
AcDbEntity
  8
SIZE
  6
CONTINUOUS
100
AcDbLine
 10
508.609616
 20
-523.0
 30
0.0
 11
508.609616
 21
-537.7541179999999
 31
0.0
  0
LINE
  5
152
330
1E
100
AcDbEntity
  8
SIZE
  6
CONTINUOUS
100
AcDbLine
 10
-252.4999999999999
 20
-1133.831999999999
 30
0.0
 11
-267.5
 21
-1133.831999999999
 31
0.0
  0
LINE
  5
153
330
1E
100
AcDbEntity
  8
SIZE
  6
CONTINUOUS
100
AcDbLine
 10
267.5
 20
-1133.831999999999
 30
0.0
 11
252.4999999999999
 21
-1133.831999999999
 31
0.0
  0
LINE
  5
154
330
1E
100
AcDbEntity
  8
SIZE
  6
BYBLOCK
100
AcDbLine
 10
-60.022316
 20
-415.0
 30
0.0
 11
-20.0
 21
-415.0
 31
0.0
  0
LINE
  5
155
330
1E
100
AcDbEntity
  8
SIZE
  6
BYBLOCK
100
AcDbLine
 10
-661.0365059999999
 20
-491.0
 30
0.0
 11
-661.0365059999999
 21
400.0
 31
0.0
  0
LINE
  5
156
330
1E
100
AcDbEntity
  8
SIZE
  6
BYBLOCK
100
AcDbLine
 10
-63.0
 20
-493.0
 30
0.0
 11
-698.9103919999999
 21
-493.0
 31
0.0
  0
CIRCLE
  5
157
330
1E
100
AcDbEntity
  8
SIZE
  6
CONTINUOUS
100
AcDbCircle
 10
-661.0365059999999
 20
-493.0
 30
0.0
 40
6.0
  0
CIRCLE
  5
158
330
1E
100
AcDbEntity
  8
SIZE
  6
CONTINUOUS
100
AcDbCircle
 10
-119.632885
 20
-492.86402
 30
0.0
 40
6.0
  0
LINE
  5
159
330
1E
100
AcDbEntity
  8
SIZE
  6
BYBLOCK
100
AcDbLine
 10
-119.632885
 20
-413.0
 30
0.0
 11
-119.632885
 21
-265.529081
 31
0.0
  0
CIRCLE
  5
15A
330
1E
100
AcDbEntity
  8
SIZE
  6
CONTINUOUS
100
AcDbCircle
 10
-119.632885
 20
-415.0
 30
0.0
 40
6.0
  0
LINE
  5
15B
330
1E
100
AcDbEntity
  8
SIZE
  6
BYBLOCK
100
AcDbLine
 10
-119.632885
 20
-493.0
 30
0.0
 11
-119.632885
 21
-415.0
 31
0.0
  0
TEXT
  5
15C
330
1E
100
AcDbEntity
  8
SIZE
  6
BYBLOCK
100
AcDbText
 10
-133.916184
 20
-371.1513229999999
 30
0.0
 40
64.0
  1
78
 50
90.0
 41
0.9
100
AcDbText
  0
LINE
  5
15D
330
1E
100
AcDbEntity
  8
OUTLINE
  6
CONTINUOUS
100
AcDbLine
 10
247.5
 20
538.0
 30
0.0
 11
-247.5
 21
538.0
 31
0.0
  0
ARC
  5
15E
330
1E
100
AcDbEntity
  8
OUTLINE
  6
CONTINUOUS
100
AcDbCircle
 10
247.5
 20
518.0
 30
0.0
 40
20.0
100
AcDbArc
 50
0.0
 51
90.0
  0
LINE
  5
15F
330
1E
100
AcDbEntity
  8
OUTLINE
  6
CONTINUOUS
100
AcDbLine
 10
267.5
 20
518.0
 30
0.0
 11
267.5
 21
-518.0
 31
0.0
  0
LINE
  5
160
330
1E
100
AcDbEntity
  8
OUTLINE
  6
CONTINUOUS
100
AcDbLine
 10
247.5
 20
-538.0
 30
0.0
 11
-247.5
 21
-538.0
 31
0.0
  0
ARC
  5
161
330
1E
100
AcDbEntity
  8
OUTLINE
  6
CONTINUOUS
100
AcDbCircle
 10
247.5
 20
-518.0
 30
0.0
 40
20.0
100
AcDbArc
 50
270.0
 51
0.0
  0
ARC
  5
162
330
1E
100
AcDbEntity
  8
OUTLINE
  6
CONTINUOUS
100
AcDbCircle
 10
-247.5
 20
-518.0
 30
0.0
 40
20.0
100
AcDbArc
 50
180.0
 51
270.0
  0
LINE
  5
163
330
1E
100
AcDbEntity
  8
OUTLINE
  6
CONTINUOUS
100
AcDbLine
 10
-267.5
 20
518.0
 30
0.0
 11
-267.5
 21
-518.0
 31
0.0
  0
ARC
  5
164
330
1E
100
AcDbEntity
  8
OUTLINE
  6
CONTINUOUS
100
AcDbCircle
 10
-247.5
 20
518.0
 30
0.0
 40
20.0
100
AcDbArc
 50
90.0
 51
180.0
  0
CIRCLE
  5
165
330
1E
100
AcDbEntity
  8
FIX
  6
CONTINUOUS
100
AcDbCircle
 10
-214.0
 20
460.0
 30
0.0
 40
40.0
  0
CIRCLE
  5
166
330
1E
100
AcDbEntity
  8
FIX
  6
CONTINUOUS
100
AcDbCircle
 10
214.0
 20
460.0
 30
0.0
 40
40.0
  0
CIRCLE
  5
167
330
1E
100
AcDbEntity
  8
FIX
  6
CONTINUOUS
100
AcDbCircle
 10
214.0
 20
-460.0
 30
0.0
 40
40.0
  0
CIRCLE
  5
168
330
1E
100
AcDbEntity
  8
FIX
  6
CONTINUOUS
100
AcDbCircle
 10
-214.0
 20
-460.0
 30
0.0
 40
40.0
  0
LINE
  5
169
330
1E
100
AcDbEntity
  8
SIZE
  6
BYBLOCK
100
AcDbLine
 10
-30.0
 20
-412.0
 30
0.0
 11
-348.87512
 21
-412.0
 31
0.0
  0
LINE
  5
16A
330
1E
100
AcDbEntity
  8
SIZE
  6
BYBLOCK
100
AcDbLine
 10
30.0
 20
-411.0
 30
0.0
 11
-461.0611889999999
 21
-411.0
 31
0.0
  0
LINE
  5
16B
330
1E
100
AcDbEntity
  8
SIZE
  6
BYBLOCK
100
AcDbLine
 10
-329.974355
 20
-415.0
 30
0.0
 11
-329.974355
 21
-330.510166
 31
0.0
  0
CIRCLE
  5
16C
330
1E
100
AcDbEntity
  8
SIZE
  6
CONTINUOUS
100
AcDbCircle
 10
-329.974355
 20
-412.0
 30
0.0
 40
6.0
  0
LINE
  5
16D
330
1E
100
AcDbEntity
  8
SIZE
  6
BYBLOCK
100
AcDbLine
 10
-447.409815
 20
-415.0
 30
0.0
 11
-447.409815
 21
-330.510166
 31
0.0
  0
CIRCLE
  5
16E
330
1E
100
AcDbEntity
  8
SIZE
  6
CONTINUOUS
100
AcDbCircle
 10
-447.409815
 20
-411.0
 30
0.0
 40
6.0
  0
CIRCLE
  5
16F
330
1E
100
AcDbEntity
  8
SIZE
  6
CONTINUOUS
100
AcDbCircle
 10
-447.409815
 20
-415.0
 30
0.0
 40
6.0
  0
CIRCLE
  5
170
330
1E
100
AcDbEntity
  8
SIZE
  6
CONTINUOUS
100
AcDbCircle
 10
-329.974355
 20
-415.0
 30
0.0
 40
6.0
  0
TEXT
  5
171
330
1E
100
AcDbEntity
  8
SIZE
  6
BYBLOCK
100
AcDbText
 10
-341.380853
 20
-387.012887
 30
0.0
 40
64.0
  1
3
 50
90.0
 41
0.9
100
AcDbText
  0
TEXT
  5
172
330
1E
100
AcDbEntity
  8
SIZE
  6
BYBLOCK
100
AcDbText
 10
-458.9105629999999
 20
-387.012887
 30
0.0
 40
64.0
  1
4
 50
90.0
 41
0.9
100
AcDbText
  0
LINE
  5
173
330
1E
100
AcDbEntity
  8
SIZE
  6
BYBLOCK
100
AcDbLine
 10
-53.0
 20
-224.902349
 30
0.0
 11
108.0
 21
-224.902349
 31
0.0
  0
LINE
  5
174
330
1E
100
AcDbEntity
  8
SIZE
  6
BYBLOCK
100
AcDbLine
 10
110.0
 20
-405.0
 30
0.0
 11
110.0
 21
-189.417656
 31
0.0
  0
LINE
  5
175
330
1E
100
AcDbEntity
  8
SIZE
  6
BYBLOCK
100
AcDbLine
 10
240.0
 20
-224.902349
 30
0.0
 11
110.0
 21
-224.902349
 31
0.0
  0
CIRCLE
  5
176
330
1E
100
AcDbEntity
  8
SIZE
  6
CONTINUOUS
100
AcDbCircle
 10
110.0
 20
-224.902349
 30
0.0
 40
6.0
  0
LINE
  5
177
330
1E
100
AcDbEntity
  8
SIZE
  6
BYBLOCK
100
AcDbLine
 10
-53.0
 20
-405.0
 30
0.0
 11
-53.0
 21
-189.417656
 31
0.0
  0
CIRCLE
  5
178
330
1E
100
AcDbEntity
  8
SIZE
  6
CONTINUOUS
100
AcDbCircle
 10
-53.0
 20
-224.902349
 30
0.0
 40
6.0
  0
TEXT
  5
179
330
1E
100
AcDbEntity
  8
SIZE
  6
BYBLOCK
100
AcDbText
 10
-40.84399099999999
 20
-210.982883
 30
0.0
 40
64.0
  1
163
 41
0.9
100
AcDbText
  0
CIRCLE
  5
17A
330
1E
100
AcDbEntity
  8
SIZE
  6
CONTINUOUS
100
AcDbCircle
 10
240.0
 20
-224.902349
 30
0.0
 40
6.0
  0
LINE
  5
17B
330
1E
100
AcDbEntity
  8
SIZE
  6
BYBLOCK
100
AcDbLine
 10
240.0
 20
-405.0
 30
0.0
 11
240.0
 21
-189.417656
 31
0.0
  0
TEXT
  5
17C
330
1E
100
AcDbEntity
  8
SIZE
  6
BYBLOCK
100
AcDbText
 10
114.4855379999999
 20
-210.982883
 30
0.0
 40
64.0
  1
130
 41
0.9
100
AcDbText
  0
ENDSEC
  0
SECTION
  2
OBJECTS
  0
DICTIONARY
  5
C
330
0
100
AcDbDictionary
  3
ACAD_GROUP
350
D
  3
ACAD_PLOTSTYLENAME
350
E
  3
ACAD_MLINESTYLE
350
16
  3
ACAD_PLOTSETTINGS
350
18
  3
ACAD_LAYOUT
350
19
  3
ACDBHEADERROUNDTRIPXREC
350
181
  0
DICTIONARY
  5
1A3
330
1E
100
AcDbDictionary
280
     1
  3
ACAD_LAYOUTSELFREF
360
1A4
  0
DICTIONARY
  5
1A1
330
1A
100
AcDbDictionary
280
     1
  3
ACAD_LAYOUTSELFREF
360
1A2
  0
DICTIONARY
  5
D
102
{ACAD_REACTORS
330
C
102
}
330
C
100
AcDbDictionary
  0
ACDBDICTIONARYWDFLT
  5
E
102
{ACAD_REACTORS
330
C
102
}
330
C
100
AcDbDictionary
281
     1
  3
Normal
350
F
100
AcDbDictionaryWithDefault
340
F
  0
DICTIONARY
  5
16
102
{ACAD_REACTORS
330
C
102
}
330
C
100
AcDbDictionary
  3
STANDARD
350
17
  0
DICTIONARY
  5
18
102
{ACAD_REACTORS
330
C
102
}
330
C
100
AcDbDictionary
  0
DICTIONARY
  5
19
102
{ACAD_REACTORS
330
C
102
}
330
C
100
AcDbDictionary
  0
DICTIONARY
  5
181
102
{ACAD_REACTORS
330
C
102
}
330
C
100
AcDbDictionary
  3
TSTACKALIGN
350
182
  3
TSTACKSIZE
350
183
  3
HYPERLINKBASE
350
184
  3
STYLESHEET
350
185
  3
LAYOUTDICT
350
186
  3
PLOTSETDICT
350
187
  3
PLOTSTYLNAMDICT
350
188
  3
LWETCUNION
350
189
  3
INSUNITS
350
18A
  3
CEPSNTYPE
350
18B
  3
FINGERPRINTGUID
350
18C
  3
VERSIONGUID
350
18D
  3
PSVPSCALE
350
18E
  3
PUCSORTHOREF
350
18F
  3
PUCSORTHOVIEW
350
190
  3
PUCSBASE
350
191
  3
PUCSORGTOP
350
192
  3
PUCSORGBOTTOM
350
193
  3
PUCSORGLEFT
350
194
  3
PUCSORGRIGHT
350
195
  3
PUCSORGFRONT
350
196
  3
PUCSORGBACK
350
197
  3
UCSORTHOREF
350
198
  3
UCSORTHOVIEW
350
199
  3
UCSBASE
350
19A
  3
UCSORGTOP
350
19B
  3
UCSORGBOTTOM
350
19C
  3
UCSORGLEFT
350
19D
  3
UCSORGRIGHT
350
19E
  3
UCSORGFRONT
350
19F
  3
UCSORGBACK
350
1A0
  0
XRECORD
  5
1A4
102
{ACAD_REACTORS
330
1A3
102
}
330
1A3
100
AcDbXrecord
340
1E
  0
XRECORD
  5
1A2
102
{ACAD_REACTORS
330
1A1
102
}
330
1A1
100
AcDbXrecord
340
1A
  0
ACDBPLACEHOLDER
  5
F
102
{ACAD_REACTORS
330
E
102
}
330
E
100
AcDbPlaceHolder
280
     0
  0
MLINESTYLE
  5
17
102
{ACAD_REACTORS
330
16
102
}
330
16
100
AcDbMlineStyle
  2
STANDARD
 70
     0
  3

 62
   256
 51
90.0
 52
90.0
 71
     2
 49
0.5
 62
   256
  6
BYLAYER
 49
-0.5
 62
   256
  6
BYLAYER
  0
XRECORD
  5
182
102
{ACAD_REACTORS
330
181
102
}
330
181
100
AcDbXrecord
 90
        1
  0
XRECORD
  5
183
102
{ACAD_REACTORS
330
181
102
}
330
181
100
AcDbXrecord
 90
       70
  0
XRECORD
  5
184
102
{ACAD_REACTORS
330
181
102
}
330
181
100
AcDbXrecord
  1

  0
XRECORD
  5
185
102
{ACAD_REACTORS
330
181
102
}
330
181
100
AcDbXrecord
  1

  0
XRECORD
  5
186
102
{ACAD_REACTORS
330
181
102
}
330
181
100
AcDbXrecord
340
19
  0
XRECORD
  5
187
102
{ACAD_REACTORS
330
181
102
}
330
181
100
AcDbXrecord
340
18
  0
XRECORD
  5
188
102
{ACAD_REACTORS
330
181
102
}
330
181
100
AcDbXrecord
340
E
  0
XRECORD
  5
189
102
{ACAD_REACTORS
330
181
102
}
330
181
100
AcDbXrecord
 90
    10781
  0
XRECORD
  5
18A
102
{ACAD_REACTORS
330
181
102
}
330
181
100
AcDbXrecord
 90
        0
  0
XRECORD
  5
18B
102
{ACAD_REACTORS
330
181
102
}
330
181
100
AcDbXrecord
 90
        0
  0
XRECORD
  5
18C
102
{ACAD_REACTORS
330
181
102
}
330
181
100
AcDbXrecord
  1
{0A2FAE40-2E78-4BB0-BC34-F49FB3188323}
  0
XRECORD
  5
18D
102
{ACAD_REACTORS
330
181
102
}
330
181
100
AcDbXrecord
  1
{F8C7F16C-84B9-4467-8CE7-457EF23D433E}
  0
XRECORD
  5
18E
102
{ACAD_REACTORS
330
181
102
}
330
181
100
AcDbXrecord
 40
0.0
  0
XRECORD
  5
18F
102
{ACAD_REACTORS
330
181
102
}
330
181
100
AcDbXrecord
340
0
  0
XRECORD
  5
190
102
{ACAD_REACTORS
330
181
102
}
330
181
100
AcDbXrecord
 70
     0
  0
XRECORD
  5
191
102
{ACAD_REACTORS
330
181
102
}
330
181
100
AcDbXrecord
340
0
  0
XRECORD
  5
192
102
{ACAD_REACTORS
330
181
102
}
330
181
100
AcDbXrecord
 10
0.0
 20
0.0
 30
0.0
  0
XRECORD
  5
193
102
{ACAD_REACTORS
330
181
102
}
330
181
100
AcDbXrecord
 10
0.0
 20
0.0
 30
0.0
  0
XRECORD
  5
194
102
{ACAD_REACTORS
330
181
102
}
330
181
100
AcDbXrecord
 10
0.0
 20
0.0
 30
0.0
  0
XRECORD
  5
195
102
{ACAD_REACTORS
330
181
102
}
330
181
100
AcDbXrecord
 10
0.0
 20
0.0
 30
0.0
  0
XRECORD
  5
196
102
{ACAD_REACTORS
330
181
102
}
330
181
100
AcDbXrecord
 10
0.0
 20
0.0
 30
0.0
  0
XRECORD
  5
197
102
{ACAD_REACTORS
330
181
102
}
330
181
100
AcDbXrecord
 10
0.0
 20
0.0
 30
0.0
  0
XRECORD
  5
198
102
{ACAD_REACTORS
330
181
102
}
330
181
100
AcDbXrecord
340
0
  0
XRECORD
  5
199
102
{ACAD_REACTORS
330
181
102
}
330
181
100
AcDbXrecord
 70
     0
  0
XRECORD
  5
19A
102
{ACAD_REACTORS
330
181
102
}
330
181
100
AcDbXrecord
340
0
  0
XRECORD
  5
19B
102
{ACAD_REACTORS
330
181
102
}
330
181
100
AcDbXrecord
 10
0.0
 20
0.0
 30
0.0
  0
XRECORD
  5
19C
102
{ACAD_REACTORS
330
181
102
}
330
181
100
AcDbXrecord
 10
0.0
 20
0.0
 30
0.0
  0
XRECORD
  5
19D
102
{ACAD_REACTORS
330
181
102
}
330
181
100
AcDbXrecord
 10
0.0
 20
0.0
 30
0.0
  0
XRECORD
  5
19E
102
{ACAD_REACTORS
330
181
102
}
330
181
100
AcDbXrecord
 10
0.0
 20
0.0
 30
0.0
  0
XRECORD
  5
19F
102
{ACAD_REACTORS
330
181
102
}
330
181
100
AcDbXrecord
 10
0.0
 20
0.0
 30
0.0
  0
XRECORD
  5
1A0
102
{ACAD_REACTORS
330
181
102
}
330
181
100
AcDbXrecord
 10
0.0
 20
0.0
 30
0.0
  0
ENDSEC
  0
EOF
