  0
SECTION
  2
HEADER
  9
$ACADVER
  1
AC1014
  9
$ACADMAINTVER
 70
     9
  9
$DWGCODEPAGE
  3
ANSI_932
  9
$INSBASE
 10
0.0
 20
0.0
 30
0.0
  9
$EXTMIN
 10
-1011.384999999999
 20
-408.272666
 30
0.0
  9
$EXTMAX
 10
1148.650090285714
 20
656.9193560000001
 30
0.0
  9
$LIMMIN
 10
-2970.0
 20
-2100.0
  9
$LIMMAX
 10
2970.0
 20
2100.0
  9
$ORTHOMODE
 70
     1
  9
$REGENMODE
 70
     1
  9
$FILLMODE
 70
     1
  9
$QTEXTMODE
 70
     0
  9
$MIRRTEXT
 70
     0
  9
$DRAGMODE
 70
     2
  9
$LTSCALE
 40
20.0
  9
$OSMODE
 70
    37
  9
$ATTMODE
 70
     1
  9
$TEXTSIZE
 40
64.0
  9
$TRACEWID
 40
0.05
  9
$TEXTSTYLE
  7
STANDARD
  9
$CLAYER
  8
0
  9
$CELTYPE
  6
CONTINUOUS
  9
$CECOLOR
 62
     6
  9
$CELTSCALE
 40
1.0
  9
$DELOBJ
 70
     1
  9
$DISPSILH
 70
     0
  9
$DIMSCALE
 40
1.0
  9
$DIMASZ
 40
2.0
  9
$DIMEXO
 40
20.0
  9
$DIMDLI
 40
200.0
  9
$DIMRND
 40
0.0
  9
$DIMDLE
 40
0.0
  9
$DIMEXE
 40
30.0
  9
$DIMTP
 40
0.0
  9
$DIMTM
 40
0.0
  9
$DIMTXT
 40
64.0
  9
$DIMCEN
 40
0.09
  9
$DIMTSZ
 40
0.0
  9
$DIMTOL
 70
     0
  9
$DIMLIM
 70
     0
  9
$DIMTIH
 70
     0
  9
$DIMTOH
 70
     0
  9
$DIMSE1
 70
     0
  9
$DIMSE2
 70
     0
  9
$DIMTAD
 70
     1
  9
$DIMZIN
 70
     8
  9
$DIMBLK
  1

  9
$DIMASO
 70
     1
  9
$DIMSHO
 70
     0
  9
$DIMPOST
  1

  9
$DIMAPOST
  1

  9
$DIMALT
 70
     0
  9
$DIMALTD
 70
     2
  9
$DIMALTF
 40
25.4
  9
$DIMLFAC
 40
1.0
  9
$DIMTOFL
 70
     1
  9
$DIMTVP
 40
0.0
  9
$DIMTIX
 70
     1
  9
$DIMSOXD
 70
     0
  9
$DIMSAH
 70
     0
  9
$DIMBLK1
  1

  9
$DIMBLK2
  1

  9
$DIMSTYLE
  2
STANDARD
  9
$DIMCLRD
 70
     0
  9
$DIMCLRE
 70
     0
  9
$DIMCLRT
 70
     0
  9
$DIMTFAC
 40
1.0
  9
$DIMGAP
 40
0.09
  9
$DIMJUST
 70
     0
  9
$DIMSD1
 70
     0
  9
$DIMSD2
 70
     0
  9
$DIMTOLJ
 70
     1
  9
$DIMTZIN
 70
     0
  9
$DIMALTZ
 70
     0
  9
$DIMALTTZ
 70
     0
  9
$DIMFIT
 70
     3
  9
$DIMUPT
 70
     0
  9
$DIMUNIT
 70
     2
  9
$DIMDEC
 70
     4
  9
$DIMTDEC
 70
     4
  9
$DIMALTU
 70
     2
  9
$DIMALTTD
 70
     2
  9
$DIMTXSTY
  7
STANDARD
  9
$DIMAUNIT
 70
     0
  9
$LUNITS
 70
     2
  9
$LUPREC
 70
     4
  9
$SKETCHINC
 40
0.1
  9
$FILLETRAD
 40
0.0
  9
$AUNITS
 70
     1
  9
$AUPREC
 70
     3
  9
$MENU
  1
ACAD
  9
$ELEVATION
 40
0.0
  9
$PELEVATION
 40
0.0
  9
$THICKNESS
 40
0.0
  9
$LIMCHECK
 70
     0
  9
$BLIPMODE
 70
     0
  9
$CHAMFERA
 40
0.0
  9
$CHAMFERB
 40
0.0
  9
$CHAMFERC
 40
0.0
  9
$CHAMFERD
 40
0.0
  9
$SKPOLY
 70
     0
  9
$TDCREATE
 40
2451043.491794004
  9
$TDUPDATE
 40
2454523.385702037
  9
$TDINDWG
 40
0.1149060648
  9
$TDUSRTIMER
 40
0.1149058796
  9
$USRTIMER
 70
     1
  9
$ANGBASE
 50
0.0
  9
$ANGDIR
 70
     0
  9
$PDMODE
 70
     3
  9
$PDSIZE
 40
-2.0
  9
$PLINEWID
 40
0.0
  9
$COORDS
 70
     2
  9
$SPLFRAME
 70
     0
  9
$SPLINETYPE
 70
     6
  9
$SPLINESEGS
 70
     8
  9
$ATTDIA
 70
     0
  9
$ATTREQ
 70
     1
  9
$HANDLING
 70
 10241
  9
$HANDSEED
  5
100
  9
$SURFTAB1
 70
     6
  9
$SURFTAB2
 70
     6
  9
$SURFTYPE
 70
     6
  9
$SURFU
 70
     6
  9
$SURFV
 70
     6
  9
$UCSNAME
  2

  9
$UCSORG
 10
0.0
 20
0.0
 30
0.0
  9
$UCSXDIR
 10
1.0
 20
0.0
 30
0.0
  9
$UCSYDIR
 10
0.0
 20
1.0
 30
0.0
  9
$PUCSNAME
  2

  9
$PUCSORG
 10
0.0
 20
0.0
 30
0.0
  9
$PUCSXDIR
 10
1.0
 20
0.0
 30
0.0
  9
$PUCSYDIR
 10
0.0
 20
1.0
 30
0.0
  9
$USERI1
 70
     0
  9
$USERI2
 70
     0
  9
$USERI3
 70
     0
  9
$USERI4
 70
     0
  9
$USERI5
 70
     0
  9
$USERR1
 40
20.0
  9
$USERR2
 40
0.0
  9
$USERR3
 40
0.0
  9
$USERR4
 40
0.0
  9
$USERR5
 40
0.0
  9
$WORLDVIEW
 70
     1
  9
$SHADEDGE
 70
     3
  9
$SHADEDIF
 70
    70
  9
$TILEMODE
 70
     1
  9
$MAXACTVP
 70
    64
  9
$PINSBASE
 10
0.0
 20
0.0
 30
0.0
  9
$PLIMCHECK
 70
     0
  9
$PEXTMIN
 10
1.000000000000000E+20
 20
1.000000000000000E+20
 30
1.000000000000000E+20
  9
$PEXTMAX
 10
-1.000000000000000E+20
 20
-1.000000000000000E+20
 30
-1.000000000000000E+20
  9
$PLIMMIN
 10
0.0
 20
0.0
  9
$PLIMMAX
 10
12.0
 20
9.0
  9
$UNITMODE
 70
     0
  9
$VISRETAIN
 70
     1
  9
$PLINEGEN
 70
     0
  9
$PSLTSCALE
 70
     1
  9
$TREEDEPTH
 70
  3020
  9
$PICKSTYLE
 70
     1
  9
$CMLSTYLE
  2
STANDARD
  9
$CMLJUST
 70
     0
  9
$CMLSCALE
 40
1.0
  9
$PROXYGRAPHICS
 70
     1
  9
$MEASUREMENT
 70
     0
  0
ENDSEC
  0
SECTION
  2
CLASSES
  0
CLASS
  1
ACDBDICTIONARYWDFLT
  2
AcDbDictionaryWithDefault
  3
AutoCAD 2000
 90
        0
280
     0
281
     0
  0
CLASS
  1
ACDBPLACEHOLDER
  2
AcDbPlaceHolder
  3
AutoCAD 2000
 90
        0
280
     0
281
     0
  0
CLASS
  1
LAYOUT
  2
AcDbLayout
  3
AutoCAD 2000
 90
        0
280
     0
281
     0
  0
CLASS
  1
LONG_TRANSACTION
  2
AcDbLongTransaction
  3
AutoCAD 2000
 90
        0
280
     0
281
     0
  0
CLASS
  1
LWPOLYLINE
  2
AcDbPolyline
  3
AutoCAD 2000
 90
        0
280
     0
281
     1
  0
CLASS
  1
HATCH
  2
AcDbHatch
  3
AutoCAD 2000
 90
        0
280
     0
281
     1
  0
CLASS
  1
XRECORD
  2
AcDbXrecord
  3
AutoCAD 2000
 90
        0
280
     0
281
     0
  0
ENDSEC
  0
SECTION
  2
TABLES
  0
TABLE
  2
VPORT
  5
8
330
0
100
AcDbSymbolTable
 70
     2
  0
VPORT
  5
DB
330
8
100
AcDbSymbolTableRecord
100
AcDbViewportTableRecord
  2
*ACTIVE
 70
     0
 10
0.0
 20
0.0
 11
1.0
 21
1.0
 12
192.0137836545598
 22
124.3461029999999
 13
0.0
 23
0.0
 14
100.0
 24
100.0
 15
100.0
 25
100.0
 16
0.0
 26
0.0
 36
1.0
 17
0.0
 27
0.0
 37
0.0
 40
1561.898
 41
1.635574837310195
 42
50.0
 43
0.0
 44
0.0
 50
0.0
 51
0.0
 71
     0
 72
  1000
 73
     1
 74
     0
 75
     0
 76
     0
 77
     0
 78
     1
  0
ENDTAB
  0
TABLE
  2
LTYPE
  5
5
330
0
100
AcDbSymbolTable
 70
     7
  0
LTYPE
  5
13
330
5
100
AcDbSymbolTableRecord
100
AcDbLinetypeTableRecord
  2
BYBLOCK
 70
     0
  3

 72
    65
 73
     0
 40
0.0
  0
LTYPE
  5
14
330
5
100
AcDbSymbolTableRecord
100
AcDbLinetypeTableRecord
  2
BYLAYER
 70
     0
  3

 72
    65
 73
     0
 40
0.0
  0
LTYPE
  5
15
330
5
100
AcDbSymbolTableRecord
100
AcDbLinetypeTableRecord
  2
CONTINUOUS
 70
     0
  3
実線
 72
    65
 73
     0
 40
0.0
  0
LTYPE
  5
22
330
5
100
AcDbSymbolTableRecord
100
AcDbLinetypeTableRecord
  2
DASHDOT
 70
     0
  3
____ _ ____ _ ____ _ ____ _ ____ _ ____ _ ____
 72
    65
 73
     4
 40
5.5
 49
4.0
 74
     0
 49
-0.6
 74
     0
 49
0.3
 74
     0
 49
-0.6
 74
     0
  0
LTYPE
  5
23
330
5
100
AcDbSymbolTableRecord
100
AcDbLinetypeTableRecord
  2
DASHED
 70
     0
  3
_ _ _ _ _ _ _ _ _ _ _ _ _ _ _ _ _ _ _ _ _ _ _
 72
    65
 73
     2
 40
2.0
 49
1.199999999999999
 74
     0
 49
-0.8
 74
     0
  0
LTYPE
  5
24
330
5
100
AcDbSymbolTableRecord
100
AcDbLinetypeTableRecord
  2
DOT
 70
     0
  3
...............................................
 72
    65
 73
     2
 40
0.8
 49
0.5
 74
     0
 49
-0.3
 74
     0
  0
LTYPE
  5
25
330
5
100
AcDbSymbolTableRecord
100
AcDbLinetypeTableRecord
  2
DASHDOT1
 70
     0
  3
____ _ ____ _ ____ _ ____ _ ____ _ ____ _ ____
 72
    65
 73
     4
 40
2.0
 49
1.5
 74
     0
 49
-0.2
 74
     0
 49
0.1
 74
     0
 49
-0.2
 74
     0
  0
LTYPE
  5
26
330
5
100
AcDbSymbolTableRecord
100
AcDbLinetypeTableRecord
  2
DIVIDE
 70
     0
  3
_____ _ _ _____ _ _ _____ _ _ _____ _ _ ____
 72
    65
 73
     6
 40
6.4
 49
4.0
 74
     0
 49
-0.6
 74
     0
 49
0.3
 74
     0
 49
-0.6
 74
     0
 49
0.3
 74
     0
 49
-0.6
 74
     0
  0
LTYPE
  5
27
330
5
100
AcDbSymbolTableRecord
100
AcDbLinetypeTableRecord
  2
DIVIDE1
 70
     0
  3
_____ _ _ _____ _ _ _____ _ _ _____ _ _ ____
 72
    65
 73
     6
 40
3.2
 49
2.0
 74
     0
 49
-0.3
 74
     0
 49
0.15
 74
     0
 49
-0.3
 74
     0
 49
0.15
 74
     0
 49
-0.3
 74
     0
  0
ENDTAB
  0
TABLE
  2
LAYER
  5
2
330
0
100
AcDbSymbolTable
 70
    12
  0
LAYER
  5
10
330
2
100
AcDbSymbolTableRecord
100
AcDbLayerTableRecord
  2
0
 70
     0
 62
     7
  6
CONTINUOUS
  0
LAYER
  5
28
330
2
100
AcDbSymbolTableRecord
100
AcDbLayerTableRecord
  2
OUTLINE
 70
     0
 62
     3
  6
CONTINUOUS
  0
LAYER
  5
29
330
2
100
AcDbSymbolTableRecord
100
AcDbLayerTableRecord
  2
DETAIL
 70
     0
 62
     5
  6
CONTINUOUS
  0
LAYER
  5
2A
330
2
100
AcDbSymbolTableRecord
100
AcDbLayerTableRecord
  2
BASIS
 70
     0
 62
     6
  6
CONTINUOUS
  0
LAYER
  5
2B
330
2
100
AcDbSymbolTableRecord
100
AcDbLayerTableRecord
  2
NOTE
 70
     0
 62
     4
  6
CONTINUOUS
  0
LAYER
  5
2C
330
2
100
AcDbSymbolTableRecord
100
AcDbLayerTableRecord
  2
DEFPOINTS
 70
     0
 62
     7
  6
CONTINUOUS
  0
LAYER
  5
2D
330
2
100
AcDbSymbolTableRecord
100
AcDbLayerTableRecord
  2
SIZE
 70
     0
 62
    32
  6
CONTINUOUS
  0
LAYER
  5
2E
330
2
100
AcDbSymbolTableRecord
100
AcDbLayerTableRecord
  2
ARRANGE
 70
     0
 62
     1
  6
CONTINUOUS
  0
LAYER
  5
2F
330
2
100
AcDbSymbolTableRecord
100
AcDbLayerTableRecord
  2
FIX
 70
     0
 62
   241
  6
CONTINUOUS
  0
LAYER
  5
30
330
2
100
AcDbSymbolTableRecord
100
AcDbLayerTableRecord
  2
ETC
 70
     0
 62
    83
  6
CONTINUOUS
  0
LAYER
  5
31
330
2
100
AcDbSymbolTableRecord
100
AcDbLayerTableRecord
  2
SERVICESPACE
 70
     0
 62
     2
  6
CONTINUOUS
  0
LAYER
  5
32
330
2
100
AcDbSymbolTableRecord
100
AcDbLayerTableRecord
  2
SYMBOLLINE
 70
     0
 62
    38
  6
CONTINUOUS
  0
ENDTAB
  0
TABLE
  2
STYLE
  5
3
330
0
100
AcDbSymbolTable
 70
     1
  0
STYLE
  5
11
330
3
100
AcDbSymbolTableRecord
100
AcDbTextStyleTableRecord
  2
STANDARD
 70
     0
 40
0.0
 41
0.9
 50
0.0
 71
     0
 42
64.0
  3
SIMPLEX
  4
BIGFONT
  0
ENDTAB
  0
TABLE
  2
VIEW
  5
6
330
0
100
AcDbSymbolTable
 70
     1
  0
VIEW
  5
33
330
6
100
AcDbSymbolTableRecord
100
AcDbViewTableRecord
  2
ALL
 70
     0
 40
4282.62
 10
0.0
 20
41.30990399999999
 41
5940.0
 11
0.0
 21
0.0
 31
1.0
 12
0.0
 22
0.0
 32
0.0
 42
50.0
 43
0.0
 44
0.0
 50
0.0
 71
     0
  0
ENDTAB
  0
TABLE
  2
UCS
  5
7
330
0
100
AcDbSymbolTable
 70
     0
  0
ENDTAB
  0
TABLE
  2
APPID
  5
9
330
0
100
AcDbSymbolTable
 70
     1
  0
APPID
  5
12
330
9
100
AcDbSymbolTableRecord
100
AcDbRegAppTableRecord
  2
ACAD
 70
     0
  0
ENDTAB
  0
TABLE
  2
DIMSTYLE
  5
A
330
0
100
AcDbSymbolTable
 70
     1
  0
DIMSTYLE
105
D9
330
A
100
AcDbSymbolTableRecord
100
AcDbDimStyleTableRecord
  2
STANDARD
 70
     0
  3

  4

  5

  6

  7

 40
1.0
 41
0.18
 42
0.0625
 43
0.38
 44
0.18
 45
0.0
 46
0.0
 47
0.0
 48
0.0
140
0.18
141
0.09
142
0.0
143
25.4
144
1.0
145
0.0
146
1.0
147
0.09
 71
     0
 72
     0
 73
     1
 74
     1
 75
     0
 76
     0
 77
     0
 78
     0
170
     0
171
     2
172
     0
173
     0
174
     0
175
     0
176
     0
177
     0
178
     0
270
     2
271
     4
272
     4
273
     2
274
     2
340
11
275
     0
280
     0
281
     0
282
     0
283
     1
284
     0
285
     0
286
     0
287
     3
288
     0
  0
ENDTAB
  0
TABLE
  2
BLOCK_RECORD
  5
1
330
0
100
AcDbSymbolTable
 70
     3
  0
BLOCK_RECORD
  5
1E
102
{ACAD_XDICTIONARY
360
FE
102
}
330
1
100
AcDbSymbolTableRecord
100
AcDbBlockTableRecord
  2
*MODEL_SPACE
  0
BLOCK_RECORD
  5
1A
102
{ACAD_XDICTIONARY
360
FC
102
}
330
1
100
AcDbSymbolTableRecord
100
AcDbBlockTableRecord
  2
*PAPER_SPACE
  0
BLOCK_RECORD
  5
37
330
1
100
AcDbSymbolTableRecord
100
AcDbBlockTableRecord
  2
$MODEL_SPACE
  0
BLOCK_RECORD
  5
3A
330
1
100
AcDbSymbolTableRecord
100
AcDbBlockTableRecord
  2
$PAPER_SPACE
  0
BLOCK_RECORD
  5
3D
330
1
100
AcDbSymbolTableRecord
100
AcDbBlockTableRecord
  2
*D2
  0
ENDTAB
  0
ENDSEC
  0
SECTION
  2
BLOCKS
  0
BLOCK
  5
1F
330
1E
100
AcDbEntity
  8
0
100
AcDbBlockBegin
  2
*MODEL_SPACE
 70
     0
 10
0.0
 20
0.0
 30
0.0
  3
*MODEL_SPACE
  1

  0
ENDBLK
  5
20
330
1E
100
AcDbEntity
  8
0
100
AcDbBlockEnd
  0
BLOCK
  5
1B
330
1A
100
AcDbEntity
 67
     1
  8
0
100
AcDbBlockBegin
  2
*PAPER_SPACE
 70
     0
 10
0.0
 20
0.0
 30
0.0
  3
*PAPER_SPACE
  1

  0
ENDBLK
  5
1C
330
1A
100
AcDbEntity
 67
     1
  8
0
100
AcDbBlockEnd
  0
BLOCK
  5
38
330
37
100
AcDbEntity
  8
0
100
AcDbBlockBegin
  2
$MODEL_SPACE
 70
     0
 10
0.0
 20
0.0
 30
0.0
  3
$MODEL_SPACE
  1

  0
ENDBLK
  5
39
330
37
100
AcDbEntity
  8
0
100
AcDbBlockEnd
  0
BLOCK
  5
3B
330
3A
100
AcDbEntity
  8
0
100
AcDbBlockBegin
  2
$PAPER_SPACE
 70
     0
 10
0.0
 20
0.0
 30
0.0
  3
$PAPER_SPACE
  1

  0
ENDBLK
  5
3C
330
3A
100
AcDbEntity
  8
0
100
AcDbBlockEnd
  0
BLOCK
  5
3E
330
3D
100
AcDbEntity
  8
0
100
AcDbBlockBegin
  2
*D2
 70
     1
 10
0.0
 20
0.0
 30
0.0
  3
*D2
  1

  0
LINE
  5
3F
330
3D
100
AcDbEntity
  8
0
  6
BYBLOCK
 62
     0
100
AcDbLine
 10
538.0
 20
-54.0
 30
0.0
 11
538.0
 21
-363.4071879999999
 31
0.0
  0
LINE
  5
40
330
3D
100
AcDbEntity
  8
0
  6
BYBLOCK
 62
     0
100
AcDbLine
 10
-538.0
 20
-54.0
 30
0.0
 11
-538.0
 21
-363.4071879999999
 31
0.0
  0
LINE
  5
41
330
3D
100
AcDbEntity
  8
0
  6
BYBLOCK
 62
     0
100
AcDbLine
 10
536.0
 20
-333.4071879999999
 30
0.0
 11
-536.0
 21
-333.4071879999999
 31
0.0
  0
SOLID
  5
42
330
3D
100
AcDbEntity
  8
0
  6
BYBLOCK
 62
     0
100
AcDbTrace
 10
536.0
 20
-333.0738549999999
 30
0.0
 11
536.0
 21
-333.7405219999999
 31
0.0
 12
538.0
 22
-333.4071879999999
 32
0.0
 13
538.0
 23
-333.4071879999999
 33
0.0
  0
SOLID
  5
43
330
3D
100
AcDbEntity
  8
0
  6
BYBLOCK
 62
     0
100
AcDbTrace
 10
-536.0
 20
-333.0738549999999
 30
0.0
 11
-536.0
 21
-333.7405219999999
 31
0.0
 12
-538.0
 22
-333.4071879999999
 32
0.0
 13
-538.0
 23
-333.4071879999999
 33
0.0
  0
TEXT
  5
44
330
3D
100
AcDbEntity
  8
0
 62
     0
100
AcDbText
 10
-128.0
 20
-414.597
 30
0.0
 40
64.0
  1
1076
100
AcDbText
  0
POINT
  5
45
330
3D
100
AcDbEntity
  8
DEFPOINTS
  6
BYBLOCK
 62
     0
100
AcDbPoint
 10
538.0
 20
-34.0
 30
0.0
  0
POINT
  5
46
330
3D
100
AcDbEntity
  8
DEFPOINTS
  6
BYBLOCK
 62
     0
100
AcDbPoint
 10
-538.0
 20
-34.0
 30
0.0
  0
POINT
  5
47
330
3D
100
AcDbEntity
  8
DEFPOINTS
  6
BYBLOCK
 62
     0
100
AcDbPoint
 10
-538.0
 20
-333.4071879999999
 30
0.0
  0
ENDBLK
  5
48
330
3D
100
AcDbEntity
  8
0
100
AcDbBlockEnd
  0
ENDSEC
  0
SECTION
  2
ENTITIES
  0
TEXT
  5
49
330
1E
100
AcDbEntity
  8
ETC
  6
CONTINUOUS
100
AcDbText
 10
720.7643759999999
 20
-408.272666
 30
0.0
 40
64.0
  1
SMLZ4764
 41
0.9
100
AcDbText
  0
TEXT
  5
4A
330
1E
100
AcDbEntity
  8
ETC
  6
CONTINUOUS
100
AcDbText
 10
720.7643759999999
 20
-287.762712
 30
0.0
 40
64.0
  1
HAC
 41
0.9
100
AcDbText
  0
TEXT
  5
4B
330
1E
100
AcDbEntity
  8
NOTE
  6
CONTINUOUS
100
AcDbText
 10
-994.2901
 20
257.130991
 30
0.0
 40
64.0
  1
RG%%C9.52
 41
0.9
100
AcDbText
  0
TEXT
  5
4C
330
1E
100
AcDbEntity
  8
NOTE
  6
CONTINUOUS
100
AcDbText
 10
-962.0586710000001
 20
-97.09267
 30
0.0
 40
64.0
  1
RL%%C6.35
 41
0.9
100
AcDbText
  0
LINE
  5
4D
330
1E
100
AcDbEntity
  8
NOTE
  6
CONTINUOUS
100
AcDbLine
 10
-1011.384999999999
 20
237.6187149999999
 30
0.0
 11
-617.7109
 21
237.6187149999999
 31
0.0
  0
LINE
  5
4E
330
1E
100
AcDbEntity
  8
NOTE
  6
CONTINUOUS
100
AcDbLine
 10
-982.4039119999998
 20
-120.955407
 30
0.0
 11
-594.730544
 21
-120.955407
 31
0.0
  0
LINE
  5
4F
330
1E
100
AcDbEntity
  8
BASIS
  6
DASHDOT
100
AcDbLine
 10
0.0
 20
-53.834447
 30
0.0
 11
0.0
 21
241.8508069999999
 31
0.0
  0
POINT
  5
50
330
1E
100
AcDbEntity
  8
ARRANGE
  6
CONTINUOUS
100
AcDbPoint
 10
0.0
 20
0.0
 30
0.0
  0
CIRCLE
  5
51
330
1E
100
AcDbEntity
  8
ARRANGE
  6
CONTINUOUS
100
AcDbCircle
 10
0.0
 20
0.0
 30
0.0
 40
40.0
  0
LINE
  5
52
330
1E
100
AcDbEntity
  8
SIZE
  6
CONTINUOUS
100
AcDbLine
 10
476.0
 20
329.857093
 30
0.0
 11
610.1883159999999
 21
329.857093
 31
0.0
  0
LINE
  5
53
330
1E
100
AcDbEntity
  8
SIZE
  6
CONTINUOUS
100
AcDbLine
 10
480.0
 20
452.595724
 30
0.0
 11
605.188316
 21
452.595724
 31
0.0
  0
TEXT
  5
54
330
1E
100
AcDbEntity
  8
NOTE
  6
CONTINUOUS
100
AcDbText
 10
-918.020502
 20
389.558805
 30
0.0
 40
64.0
  1
D%%C20
 41
0.9
100
AcDbText
  0
LINE
  5
55
330
1E
100
AcDbEntity
  8
NOTE
  6
CONTINUOUS
100
AcDbLine
 10
-936.231874
 20
369.963116
 30
0.0
 11
-687.7605289999999
 21
369.963116
 31
0.0
  0
LINE
  5
56
330
1E
100
AcDbEntity
  8
NOTE
  6
CONTINUOUS
100
AcDbLine
 10
-594.730544
 20
-120.955407
 30
0.0
 11
-411.0
 21
107.0
 31
0.0
  0
LINE
  5
57
330
1E
100
AcDbEntity
  8
NOTE
  6
CONTINUOUS
100
AcDbLine
 10
-687.7605289999999
 20
369.963116
 30
0.0
 11
-415.0
 21
166.0
 31
0.0
  0
LINE
  5
58
330
1E
100
AcDbEntity
  8
NOTE
  6
CONTINUOUS
100
AcDbLine
 10
-412.0
 20
107.0
 30
0.0
 11
-617.7109
 21
237.6187149999999
 31
0.0
  0
LINE
  5
59
330
1E
100
AcDbEntity
  8
SIZE
  6
BYBLOCK
100
AcDbLine
 10
-538.0
 20
-44.0
 30
0.0
 11
-538.0
 21
-277.94867
 31
0.0
  0
LINE
  5
5A
330
1E
100
AcDbEntity
  8
SIZE
  6
BYBLOCK
100
AcDbLine
 10
538.0
 20
-44.0
 30
0.0
 11
538.0
 21
-277.94867
 31
0.0
  0
LINE
  5
5B
330
1E
100
AcDbEntity
  8
SIZE
  6
BYBLOCK
100
AcDbLine
 10
536.0
 20
-247.94867
 30
0.0
 11
-536.0
 21
-247.94867
 31
0.0
  0
TEXT
  5
5C
330
1E
100
AcDbEntity
  8
SIZE
  6
BYBLOCK
100
AcDbText
 10
-92.87138699999999
 20
-231.6409399999999
 30
0.0
 40
64.0
  1
1076
 41
0.9
100
AcDbText
  0
LINE
  5
5D
330
1E
100
AcDbEntity
  8
SIZE
  6
BYBLOCK
100
AcDbLine
 10
415.0
 20
204.0
 30
0.0
 11
415.0
 21
494.583378
 31
0.0
  0
LINE
  5
5E
330
1E
100
AcDbEntity
  8
SIZE
  6
BYBLOCK
100
AcDbLine
 10
480.0
 20
204.0
 30
0.0
 11
480.0
 21
433.3249139999999
 31
0.0
  0
LINE
  5
5F
330
1E
100
AcDbEntity
  8
SIZE
  6
BYBLOCK
100
AcDbLine
 10
417.0
 20
452.595724
 30
0.0
 11
478.0
 21
452.595724
 31
0.0
  0
TEXT
  5
60
330
1E
100
AcDbEntity
  8
SIZE
  6
BYBLOCK
100
AcDbText
 10
496.1345719999999
 20
467.4971339999999
 30
0.0
 40
64.0
  1
65
 41
0.9
100
AcDbText
  0
LINE
  5
61
330
1E
100
AcDbEntity
  8
SIZE
  6
BYBLOCK
100
AcDbLine
 10
-474.0
 20
329.857093
 30
0.0
 11
-462.0
 21
329.857093
 31
0.0
  0
LINE
  5
62
330
1E
100
AcDbEntity
  8
SIZE
  6
BYBLOCK
100
AcDbLine
 10
460.0
 20
142.0
 30
0.0
 11
460.0
 21
378.0446289999999
 31
0.0
  0
LINE
  5
63
330
1E
100
AcDbEntity
  8
SIZE
  6
BYBLOCK
100
AcDbLine
 10
476.0
 20
122.0
 30
0.0
 11
476.0
 21
378.0446289999999
 31
0.0
  0
LINE
  5
64
330
1E
100
AcDbEntity
  8
SIZE
  6
BYBLOCK
100
AcDbLine
 10
462.0
 20
329.857093
 30
0.0
 11
466.0
 21
329.857093
 31
0.0
  0
LINE
  5
65
330
1E
100
AcDbEntity
  8
SIZE
  6
BYBLOCK
100
AcDbLine
 10
474.0
 20
329.857093
 30
0.0
 11
466.0
 21
329.857093
 31
0.0
  0
TEXT
  5
66
330
1E
100
AcDbEntity
  8
SIZE
  6
BYBLOCK
100
AcDbText
 10
495.0308639999999
 20
349.4236819999999
 30
0.0
 40
64.0
  1
16
 41
0.9
100
AcDbText
  0
LINE
  5
67
330
1E
100
AcDbEntity
  8
SIZE
  6
BYBLOCK
100
AcDbLine
 10
-460.0
 20
142.0
 30
0.0
 11
-460.0
 21
378.0446289999999
 31
0.0
  0
LINE
  5
68
330
1E
100
AcDbEntity
  8
SIZE
  6
BYBLOCK
100
AcDbLine
 10
-460.0
 20
329.857093
 30
0.0
 11
458.0
 21
329.857093
 31
0.0
  0
TEXT
  5
69
330
1E
100
AcDbEntity
  8
SIZE
  6
BYBLOCK
100
AcDbText
 10
-56.228571
 20
350.854
 30
0.0
 40
64.0
  1
920
 41
0.9
100
AcDbText
  0
LINE
  5
6A
330
1E
100
AcDbEntity
  8
SIZE
  6
BYBLOCK
100
AcDbLine
 10
480.0
 20
204.0
 30
0.0
 11
480.0
 21
612.9410669999999
 31
0.0
  0
LINE
  5
6B
330
1E
100
AcDbEntity
  8
SIZE
  6
BYBLOCK
100
AcDbLine
 10
478.0
 20
575.1706889999999
 30
0.0
 11
-491.0
 21
575.1706889999999
 31
0.0
  0
TEXT
  5
6C
330
1E
100
AcDbEntity
  8
SIZE
  6
BYBLOCK
100
AcDbText
 10
-75.696443
 20
592.9193559999999
 30
0.0
 40
64.0
  1
973
 41
0.9
100
AcDbText
  0
LINE
  5
6D
330
1E
100
AcDbEntity
  8
SIZE
  6
BYBLOCK
100
AcDbLine
 10
-415.0
 20
204.0
 30
0.0
 11
-415.0
 21
494.583378
 31
0.0
  0
LINE
  5
6E
330
1E
100
AcDbEntity
  8
SIZE
  6
BYBLOCK
100
AcDbLine
 10
415.0
 20
204.0
 30
0.0
 11
415.0
 21
433.3249139999999
 31
0.0
  0
LINE
  5
6F
330
1E
100
AcDbEntity
  8
SIZE
  6
BYBLOCK
100
AcDbLine
 10
413.0
 20
452.595724
 30
0.0
 11
-413.0
 21
452.595724
 31
0.0
  0
TEXT
  5
70
330
1E
100
AcDbEntity
  8
SIZE
  6
BYBLOCK
100
AcDbText
 10
-72.685714
 20
471.66957
 30
0.0
 40
64.0
  1
830
 41
0.9
100
AcDbText
  0
LINE
  5
71
330
1E
100
AcDbEntity
  8
SIZE
  6
BYBLOCK
100
AcDbLine
 10
548.0
 20
0.0
 30
0.0
 11
819.3378499999999
 21
0.0
 31
0.0
  0
LINE
  5
72
330
1E
100
AcDbEntity
  8
SIZE
  6
BYBLOCK
100
AcDbLine
 10
658.0450639999999
 20
-2.0
 30
0.0
 11
658.0450639999999
 21
-32.0
 31
0.0
  0
TEXT
  5
73
330
1E
100
AcDbEntity
  8
SIZE
  6
BYBLOCK
100
AcDbText
 10
640.5730980000001
 20
-144.934206
 30
0.0
 40
64.0
  1
34
 50
90.0
 41
0.9
100
AcDbText
  0
LINE
  5
74
330
1E
100
AcDbEntity
  8
SIZE
  6
BYBLOCK
100
AcDbLine
 10
548.0
 20
-34.0
 30
0.0
 11
682.668709
 21
-34.0
 31
0.0
  0
LINE
  5
75
330
1E
100
AcDbEntity
  8
SIZE
  6
BYBLOCK
100
AcDbLine
 10
-548.0
 20
0.0
 30
0.0
 11
-767.1361309999999
 21
0.0
 31
0.0
  0
LINE
  5
76
330
1E
100
AcDbEntity
  8
SIZE
  6
BYBLOCK
100
AcDbLine
 10
-548.0
 20
0.0
 30
0.0
 11
-767.1361309999999
 21
0.0
 31
0.0
  0
LINE
  5
77
330
1E
100
AcDbEntity
  8
SIZE
  6
BYBLOCK
100
AcDbLine
 10
-445.0
 20
166.0
 30
0.0
 11
-767.1361309999999
 21
166.0
 31
0.0
  0
LINE
  5
78
330
1E
100
AcDbEntity
  8
SIZE
  6
BYBLOCK
100
AcDbLine
 10
-739.3689329999999
 20
2.0
 30
0.0
 11
-739.3689329999999
 21
164.0
 31
0.0
  0
TEXT
  5
79
330
1E
100
AcDbEntity
  8
SIZE
  6
BYBLOCK
100
AcDbText
 10
-756.26092
 20
13.846316
 30
0.0
 40
64.0
  1
166
 50
90.0
 41
0.9
100
AcDbText
  0
LINE
  5
7A
330
1E
100
AcDbEntity
  8
SIZE
  6
BYBLOCK
100
AcDbLine
 10
-442.0
 20
107.0
 30
0.0
 11
-614.9615240000001
 21
107.0
 31
0.0
  0
LINE
  5
7B
330
1E
100
AcDbEntity
  8
SIZE
  6
BYBLOCK
100
AcDbLine
 10
-591.24942
 20
2.0
 30
0.0
 11
-591.24942
 21
105.0
 31
0.0
  0
TEXT
  5
7C
330
1E
100
AcDbEntity
  8
SIZE
  6
BYBLOCK
100
AcDbText
 10
-622.130994
 20
6.256769
 30
0.0
 40
64.0
  1
107
 50
90.0
 41
0.9
100
AcDbText
  0
CIRCLE
  5
7D
330
1E
100
AcDbEntity
  8
SIZE
  6
CONTINUOUS
100
AcDbCircle
 10
-591.24942
 20
107.0
 30
0.0
 40
6.0
  0
CIRCLE
  5
7E
330
1E
100
AcDbEntity
  8
SIZE
  6
CONTINUOUS
100
AcDbCircle
 10
-591.24942
 20
0.0
 30
0.0
 40
6.0
  0
CIRCLE
  5
7F
330
1E
100
AcDbEntity
  8
SIZE
  6
CONTINUOUS
100
AcDbCircle
 10
-739.3689329999999
 20
166.0
 30
0.0
 40
6.0
  0
CIRCLE
  5
80
330
1E
100
AcDbEntity
  8
SIZE
  6
CONTINUOUS
100
AcDbCircle
 10
-739.3689329999999
 20
0.0
 30
0.0
 40
6.0
  0
CIRCLE
  5
81
330
1E
100
AcDbEntity
  8
SIZE
  6
CONTINUOUS
100
AcDbCircle
 10
658.0450639999999
 20
-34.0
 30
0.0
 40
6.0
  0
CIRCLE
  5
82
330
1E
100
AcDbEntity
  8
SIZE
  6
CONTINUOUS
100
AcDbCircle
 10
658.0450639999999
 20
0.0
 30
0.0
 40
6.0
  0
CIRCLE
  5
83
330
1E
100
AcDbEntity
  8
SIZE
  6
CONTINUOUS
100
AcDbCircle
 10
415.0
 20
452.595724
 30
0.0
 40
6.0
  0
CIRCLE
  5
84
330
1E
100
AcDbEntity
  8
SIZE
  6
CONTINUOUS
100
AcDbCircle
 10
-415.0
 20
452.595724
 30
0.0
 40
6.0
  0
CIRCLE
  5
85
330
1E
100
AcDbEntity
  8
SIZE
  6
CONTINUOUS
100
AcDbCircle
 10
480.0
 20
575.1706889999999
 30
0.0
 40
6.0
  0
CIRCLE
  5
86
330
1E
100
AcDbEntity
  8
SIZE
  6
CONTINUOUS
100
AcDbCircle
 10
-493.0
 20
575.1706889999999
 30
0.0
 40
6.0
  0
CIRCLE
  5
87
330
1E
100
AcDbEntity
  8
SIZE
  6
CONTINUOUS
100
AcDbCircle
 10
460.0
 20
329.857093
 30
0.0
 40
6.0
  0
CIRCLE
  5
88
330
1E
100
AcDbEntity
  8
SIZE
  6
CONTINUOUS
100
AcDbCircle
 10
476.0
 20
329.857093
 30
0.0
 40
6.0
  0
CIRCLE
  5
89
330
1E
100
AcDbEntity
  8
SIZE
  6
CONTINUOUS
100
AcDbCircle
 10
-460.0
 20
329.857093
 30
0.0
 40
6.0
  0
CIRCLE
  5
8A
330
1E
100
AcDbEntity
  8
SIZE
  6
CONTINUOUS
100
AcDbCircle
 10
480.0
 20
452.595724
 30
0.0
 40
6.0
  0
CIRCLE
  5
8B
330
1E
100
AcDbEntity
  8
SIZE
  6
CONTINUOUS
100
AcDbCircle
 10
415.0
 20
452.595724
 30
0.0
 40
6.0
  0
CIRCLE
  5
8C
330
1E
100
AcDbEntity
  8
SIZE
  6
CONTINUOUS
100
AcDbCircle
 10
538.0
 20
-247.94867
 30
0.0
 40
6.0
  0
CIRCLE
  5
8D
330
1E
100
AcDbEntity
  8
SIZE
  6
CONTINUOUS
100
AcDbCircle
 10
-538.0
 20
-247.94867
 30
0.0
 40
6.0
  0
LWPOLYLINE
  5
8E
330
1E
100
AcDbEntity
  8
NOTE
  6
CONTINUOUS
100
AcDbPolyline
 90
        3
 70
     0
 43
0.0
 10
-427.492501
 20
70.558301
 10
-411.0
 20
107.0
 10
-443.503775
 20
83.68681399999999
  0
LWPOLYLINE
  5
93
330
1E
100
AcDbEntity
  8
NOTE
  6
CONTINUOUS
100
AcDbPolyline
 90
        3
 70
     0
 43
0.0
 10
-449.908894
 20
119.763846
 10
-412.0
 20
107.0
 10
-438.448142
 20
137.008262
  0
LWPOLYLINE
  5
98
330
1E
100
AcDbEntity
  8
NOTE
  6
CONTINUOUS
100
AcDbPolyline
 90
        3
 70
     0
 43
0.0
 10
-452.133772
 20
180.868858
 10
-415.0
 20
166.0
 10
-439.724361
 20
197.4436949999999
  0
LINE
  5
9D
330
1E
100
AcDbEntity
  8
DETAIL
  6
CONTINUOUS
100
AcDbLine
 10
538.0
 20
0.0
 30
0.0
 11
-538.0
 21
0.0
 31
0.0
  0
LINE
  5
9E
330
1E
100
AcDbEntity
  8
DETAIL
  6
CONTINUOUS
100
AcDbLine
 10
415.0
 20
0.0
 30
0.0
 11
415.0
 21
194.0
 31
0.0
  0
CIRCLE
  5
9F
330
1E
100
AcDbEntity
  8
FIX
  6
CONTINUOUS
100
AcDbCircle
 10
460.0
 20
112.0
 30
0.0
 40
10.0
  0
LINE
  5
A0
330
1E
100
AcDbEntity
  8
DETAIL
  6
CONTINUOUS
100
AcDbLine
 10
476.0
 20
102.0
 30
0.0
 11
415.0
 21
102.0
 31
0.0
  0
LINE
  5
A1
330
1E
100
AcDbEntity
  8
DETAIL
  6
CONTINUOUS
100
AcDbLine
 10
476.0
 20
112.0
 30
0.0
 11
415.0
 21
112.0
 31
0.0
  0
LINE
  5
A2
330
1E
100
AcDbEntity
  8
DETAIL
  6
CONTINUOUS
100
AcDbLine
 10
-415.0
 20
0.0
 30
0.0
 11
-415.0
 21
194.0
 31
0.0
  0
CIRCLE
  5
A3
330
1E
100
AcDbEntity
  8
FIX
  6
CONTINUOUS
100
AcDbCircle
 10
-460.0
 20
112.0
 30
0.0
 40
10.0
  0
LINE
  5
A4
330
1E
100
AcDbEntity
  8
DETAIL
  6
CONTINUOUS
100
AcDbLine
 10
-415.0
 20
102.0
 30
0.0
 11
-476.0
 21
102.0
 31
0.0
  0
LINE
  5
A5
330
1E
100
AcDbEntity
  8
DETAIL
  6
CONTINUOUS
100
AcDbLine
 10
-415.0
 20
112.0
 30
0.0
 11
-476.0
 21
112.0
 31
0.0
  0
LINE
  5
A6
330
1E
100
AcDbEntity
  8
OUTLINE
  6
CONTINUOUS
100
AcDbLine
 10
-415.0
 20
0.0
 30
0.0
 11
-415.0
 21
56.099963
 31
0.0
  0
LINE
  5
A7
330
1E
100
AcDbEntity
  8
DETAIL
  6
CONTINUOUS
100
AcDbLine
 10
480.0
 20
194.0
 30
0.0
 11
-415.0
 21
194.0
 31
0.0
  0
LINE
  5
A8
330
1E
100
AcDbEntity
  8
DETAIL
  6
CONTINUOUS
100
AcDbLine
 10
538.0
 20
-34.0
 30
0.0
 11
538.0
 21
0.0
 31
0.0
  0
LINE
  5
A9
330
1E
100
AcDbEntity
  8
DETAIL
  6
CONTINUOUS
100
AcDbLine
 10
-538.0
 20
-34.0
 30
0.0
 11
-538.0
 21
0.0
 31
0.0
  0
LINE
  5
AA
330
1E
100
AcDbEntity
  8
DETAIL
  6
CONTINUOUS
100
AcDbLine
 10
538.0
 20
-34.0
 30
0.0
 11
-538.0
 21
-34.0
 31
0.0
  0
LINE
  5
AB
330
1E
100
AcDbEntity
  8
DETAIL
  6
CONTINUOUS
100
AcDbLine
 10
480.0
 20
0.0
 30
0.0
 11
480.0
 21
194.0
 31
0.0
  0
LINE
  5
AC
330
1E
100
AcDbEntity
  8
NOTE
  6
CONTINUOUS
100
AcDbLine
 10
-460.0
 20
92.0
 30
0.0
 11
-460.0
 21
132.0
 31
0.0
  0
LINE
  5
AD
330
1E
100
AcDbEntity
  8
NOTE
  6
CONTINUOUS
100
AcDbLine
 10
-480.0
 20
112.0
 30
0.0
 11
-440.0
 21
112.0
 31
0.0
  0
LINE
  5
AE
330
1E
100
AcDbEntity
  8
NOTE
  6
CONTINUOUS
100
AcDbLine
 10
460.0
 20
92.0
 30
0.0
 11
460.0
 21
132.0
 31
0.0
  0
LINE
  5
AF
330
1E
100
AcDbEntity
  8
NOTE
  6
CONTINUOUS
100
AcDbLine
 10
440.0
 20
112.0
 30
0.0
 11
480.0
 21
112.0
 31
0.0
  0
LINE
  5
B0
330
1E
100
AcDbEntity
  8
DETAIL
  6
CONTINUOUS
100
AcDbLine
 10
-476.0
 20
102.0
 30
0.0
 11
-476.0
 21
112.0
 31
0.0
  0
LINE
  5
B1
330
1E
100
AcDbEntity
  8
DETAIL
  6
CONTINUOUS
100
AcDbLine
 10
476.0
 20
102.0
 30
0.0
 11
476.0
 21
112.0
 31
0.0
  0
LINE
  5
B2
330
1E
100
AcDbEntity
  8
NOTE
  6
CONTINUOUS
100
AcDbLine
 10
-412.0
 20
87.0
 30
0.0
 11
-412.0
 21
127.0
 31
0.0
  0
LINE
  5
B3
330
1E
100
AcDbEntity
  8
NOTE
  6
CONTINUOUS
100
AcDbLine
 10
-432.0
 20
107.0
 30
0.0
 11
-392.0
 21
107.0
 31
0.0
  0
LINE
  5
B4
330
1E
100
AcDbEntity
  8
NOTE
  6
CONTINUOUS
100
AcDbLine
 10
-411.0
 20
87.0
 30
0.0
 11
-411.0
 21
127.0
 31
0.0
  0
LINE
  5
B5
330
1E
100
AcDbEntity
  8
NOTE
  6
CONTINUOUS
100
AcDbLine
 10
-431.0
 20
107.0
 30
0.0
 11
-391.0
 21
107.0
 31
0.0
  0
LINE
  5
B6
330
1E
100
AcDbEntity
  8
NOTE
  6
CONTINUOUS
100
AcDbLine
 10
-415.0
 20
146.0
 30
0.0
 11
-415.0
 21
186.0
 31
0.0
  0
LINE
  5
B7
330
1E
100
AcDbEntity
  8
NOTE
  6
CONTINUOUS
100
AcDbLine
 10
-435.0
 20
166.0
 30
0.0
 11
-395.0
 21
166.0
 31
0.0
  0
LINE
  5
B8
330
1E
100
AcDbEntity
  8
DETAIL
  6
CONTINUOUS
100
AcDbLine
 10
-493.0
 20
77.0
 30
0.0
 11
-493.0
 21
137.0
 31
0.0
  0
LINE
  5
B9
330
1E
100
AcDbEntity
  8
DETAIL
  6
CONTINUOUS
100
AcDbLine
 10
-415.0
 20
157.9000369999999
 30
0.0
 11
-493.0
 21
137.0
 31
0.0
  0
LINE
  5
BA
330
1E
100
AcDbEntity
  8
DETAIL
  6
CONTINUOUS
100
AcDbLine
 10
-415.0
 20
56.099963
 30
0.0
 11
-493.0
 21
77.0
 31
0.0
  0
LINE
  5
BB
330
1E
100
AcDbEntity
  8
SIZE
  6
CONTINUOUS
100
AcDbLine
 10
-478.0
 20
329.857093
 30
0.0
 11
-612.644454
 21
329.857093
 31
0.0
  0
TEXT
  5
BC
330
1E
100
AcDbEntity
  8
SIZE
  6
BYBLOCK
100
AcDbText
 10
-589.996349
 20
346.688483
 30
0.0
 40
64.0
  1
16
 41
0.9
100
AcDbText
  0
LINE
  5
BD
330
1E
100
AcDbEntity
  8
SIZE
  6
BYBLOCK
100
AcDbLine
 10
-476.0
 20
122.0
 30
0.0
 11
-476.0
 21
378.0446289999999
 31
0.0
  0
CIRCLE
  5
BE
330
1E
100
AcDbEntity
  8
SIZE
  6
CONTINUOUS
100
AcDbCircle
 10
-476.0
 20
329.857093
 30
0.0
 40
6.0
  0
LINE
  5
BF
330
1E
100
AcDbEntity
  8
SIZE
  6
BYBLOCK
100
AcDbLine
 10
-493.0
 20
147.0
 30
0.0
 11
-493.0
 21
612.9410669999999
 31
0.0
  0
CIRCLE
  5
C0
330
1E
100
AcDbEntity
  8
SIZE
  6
CONTINUOUS
100
AcDbCircle
 10
-493.0
 20
452.595724
 30
0.0
 40
6.0
  0
LINE
  5
C1
330
1E
100
AcDbEntity
  8
SIZE
  6
BYBLOCK
100
AcDbLine
 10
-417.0
 20
452.595724
 30
0.0
 11
-491.0
 21
452.595724
 31
0.0
  0
LINE
  5
C2
330
1E
100
AcDbEntity
  8
SIZE
  6
CONTINUOUS
100
AcDbLine
 10
-618.1883159999999
 20
452.595724
 30
0.0
 11
-493.0
 21
452.595724
 31
0.0
  0
TEXT
  5
C3
330
1E
100
AcDbEntity
  8
SIZE
  6
BYBLOCK
100
AcDbText
 10
-603.7091639999999
 20
467.4971339999999
 30
0.0
 40
64.0
  1
78
 41
0.9
100
AcDbText
  0
LINE
  5
C4
330
1E
100
AcDbEntity
  8
OUTLINE
  6
CONTINUOUS
100
AcDbLine
 10
-493.0
 20
77.0
 30
0.0
 11
-493.0
 21
137.0
 31
0.0
  0
LINE
  5
C5
330
1E
100
AcDbEntity
  8
OUTLINE
  6
CONTINUOUS
100
AcDbLine
 10
-415.0
 20
157.9000369999999
 30
0.0
 11
-493.0
 21
137.0
 31
0.0
  0
LINE
  5
C6
330
1E
100
AcDbEntity
  8
OUTLINE
  6
CONTINUOUS
100
AcDbLine
 10
-415.0
 20
56.099963
 30
0.0
 11
-493.0
 21
77.0
 31
0.0
  0
LINE
  5
C7
330
1E
100
AcDbEntity
  8
OUTLINE
  6
CONTINUOUS
100
AcDbLine
 10
-415.0
 20
157.9000369999999
 30
0.0
 11
-415.0
 21
194.0
 31
0.0
  0
LINE
  5
C8
330
1E
100
AcDbEntity
  8
SIZE
  6
BYBLOCK
100
AcDbLine
 10
658.0450639999999
 20
-34.0
 30
0.0
 11
658.0450639999999
 21
-153.6202269999999
 31
0.0
  0
CIRCLE
  5
C9
330
1E
100
AcDbEntity
  8
SIZE
  6
CONTINUOUS
100
AcDbCircle
 10
658.0450639999999
 20
112.0
 30
0.0
 40
6.0
  0
LINE
  5
CA
330
1E
100
AcDbEntity
  8
SIZE
  6
BYBLOCK
100
AcDbLine
 10
490.0
 20
112.0
 30
0.0
 11
682.668709
 21
112.0
 31
0.0
  0
TEXT
  5
CB
330
1E
100
AcDbEntity
  8
SIZE
  6
BYBLOCK
100
AcDbText
 10
640.5730980000001
 20
7.036250999999999
 30
0.0
 40
64.0
  1
112
 50
90.0
 41
0.9
100
AcDbText
  0
LINE
  5
CC
330
1E
100
AcDbEntity
  8
SIZE
  6
BYBLOCK
100
AcDbLine
 10
658.0450639999999
 20
110.0
 30
0.0
 11
658.0450639999999
 21
2.0
 31
0.0
  0
CIRCLE
  5
CD
330
1E
100
AcDbEntity
  8
SIZE
  6
CONTINUOUS
100
AcDbCircle
 10
791.109689
 20
194.0
 30
0.0
 40
6.0
  0
LINE
  5
CE
330
1E
100
AcDbEntity
  8
SIZE
  6
BYBLOCK
100
AcDbLine
 10
490.0
 20
194.0
 30
0.0
 11
819.3378499999999
 21
194.0
 31
0.0
  0
LINE
  5
CF
330
1E
100
AcDbEntity
  8
SIZE
  6
BYBLOCK
100
AcDbLine
 10
791.109689
 20
192.0
 30
0.0
 11
791.109689
 21
2.0
 31
0.0
  0
TEXT
  5
D0
330
1E
100
AcDbEntity
  8
SIZE
  6
BYBLOCK
100
AcDbText
 10
772.811266
 20
29.34302
 30
0.0
 40
64.0
  1
194
 50
90.0
 41
0.9
100
AcDbText
  0
CIRCLE
  5
D1
330
1E
100
AcDbEntity
  8
SIZE
  6
CONTINUOUS
100
AcDbCircle
 10
791.109689
 20
0.0
 30
0.0
 40
6.0
  0
LINE
  5
D2
330
1E
100
AcDbEntity
  8
OUTLINE
  6
CONTINUOUS
100
AcDbLine
 10
-415.0
 20
0.0
 30
0.0
 11
-538.0
 21
0.0
 31
0.0
  0
LINE
  5
D3
330
1E
100
AcDbEntity
  8
OUTLINE
  6
CONTINUOUS
100
AcDbLine
 10
538.0
 20
0.0
 30
0.0
 11
480.0
 21
0.0
 31
0.0
  0
LINE
  5
D4
330
1E
100
AcDbEntity
  8
OUTLINE
  6
CONTINUOUS
100
AcDbLine
 10
538.0
 20
-34.0
 30
0.0
 11
538.0
 21
0.0
 31
0.0
  0
LINE
  5
D5
330
1E
100
AcDbEntity
  8
OUTLINE
  6
CONTINUOUS
100
AcDbLine
 10
538.0
 20
-34.0
 30
0.0
 11
-538.0
 21
-34.0
 31
0.0
  0
LINE
  5
D6
330
1E
100
AcDbEntity
  8
OUTLINE
  6
CONTINUOUS
100
AcDbLine
 10
480.0
 20
0.0
 30
0.0
 11
480.0
 21
194.0
 31
0.0
  0
LINE
  5
D7
330
1E
100
AcDbEntity
  8
OUTLINE
  6
CONTINUOUS
100
AcDbLine
 10
480.0
 20
194.0
 30
0.0
 11
-415.0
 21
194.0
 31
0.0
  0
LINE
  5
D8
330
1E
100
AcDbEntity
  8
OUTLINE
  6
CONTINUOUS
100
AcDbLine
 10
-538.0
 20
-34.0
 30
0.0
 11
-538.0
 21
0.0
 31
0.0
  0
ENDSEC
  0
SECTION
  2
OBJECTS
  0
DICTIONARY
  5
C
330
0
100
AcDbDictionary
  3
ACAD_GROUP
350
D
  3
ACAD_PLOTSTYLENAME
350
E
  3
ACAD_MLINESTYLE
350
16
  3
ACAD_PLOTSETTINGS
350
18
  3
ACAD_LAYOUT
350
19
  3
ACDBHEADERROUNDTRIPXREC
350
DC
  0
DICTIONARY
  5
FE
330
1E
100
AcDbDictionary
280
     1
  3
ACAD_LAYOUTSELFREF
360
FF
  0
DICTIONARY
  5
FC
330
1A
100
AcDbDictionary
280
     1
  3
ACAD_LAYOUTSELFREF
360
FD
  0
DICTIONARY
  5
D
102
{ACAD_REACTORS
330
C
102
}
330
C
100
AcDbDictionary
  0
ACDBDICTIONARYWDFLT
  5
E
102
{ACAD_REACTORS
330
C
102
}
330
C
100
AcDbDictionary
281
     1
  3
Normal
350
F
100
AcDbDictionaryWithDefault
340
F
  0
DICTIONARY
  5
16
102
{ACAD_REACTORS
330
C
102
}
330
C
100
AcDbDictionary
  3
STANDARD
350
17
  0
DICTIONARY
  5
18
102
{ACAD_REACTORS
330
C
102
}
330
C
100
AcDbDictionary
  0
DICTIONARY
  5
19
102
{ACAD_REACTORS
330
C
102
}
330
C
100
AcDbDictionary
  0
DICTIONARY
  5
DC
102
{ACAD_REACTORS
330
C
102
}
330
C
100
AcDbDictionary
  3
TSTACKALIGN
350
DD
  3
TSTACKSIZE
350
DE
  3
HYPERLINKBASE
350
DF
  3
STYLESHEET
350
E0
  3
LAYOUTDICT
350
E1
  3
PLOTSETDICT
350
E2
  3
PLOTSTYLNAMDICT
350
E3
  3
LWETCUNION
350
E4
  3
INSUNITS
350
E5
  3
CEPSNTYPE
350
E6
  3
FINGERPRINTGUID
350
E7
  3
VERSIONGUID
350
E8
  3
PSVPSCALE
350
E9
  3
PUCSORTHOREF
350
EA
  3
PUCSORTHOVIEW
350
EB
  3
PUCSBASE
350
EC
  3
PUCSORGTOP
350
ED
  3
PUCSORGBOTTOM
350
EE
  3
PUCSORGLEFT
350
EF
  3
PUCSORGRIGHT
350
F0
  3
PUCSORGFRONT
350
F1
  3
PUCSORGBACK
350
F2
  3
UCSORTHOREF
350
F3
  3
UCSORTHOVIEW
350
F4
  3
UCSBASE
350
F5
  3
UCSORGTOP
350
F6
  3
UCSORGBOTTOM
350
F7
  3
UCSORGLEFT
350
F8
  3
UCSORGRIGHT
350
F9
  3
UCSORGFRONT
350
FA
  3
UCSORGBACK
350
FB
  0
XRECORD
  5
FF
102
{ACAD_REACTORS
330
FE
102
}
330
FE
100
AcDbXrecord
340
1E
  0
XRECORD
  5
FD
102
{ACAD_REACTORS
330
FC
102
}
330
FC
100
AcDbXrecord
340
1A
  0
ACDBPLACEHOLDER
  5
F
102
{ACAD_REACTORS
330
E
102
}
330
E
100
AcDbPlaceHolder
280
     0
  0
MLINESTYLE
  5
17
102
{ACAD_REACTORS
330
16
102
}
330
16
100
AcDbMlineStyle
  2
STANDARD
 70
     0
  3

 62
   256
 51
90.0
 52
90.0
 71
     2
 49
0.5
 62
   256
  6
BYLAYER
 49
-0.5
 62
   256
  6
BYLAYER
  0
XRECORD
  5
DD
102
{ACAD_REACTORS
330
DC
102
}
330
DC
100
AcDbXrecord
 90
        1
  0
XRECORD
  5
DE
102
{ACAD_REACTORS
330
DC
102
}
330
DC
100
AcDbXrecord
 90
       70
  0
XRECORD
  5
DF
102
{ACAD_REACTORS
330
DC
102
}
330
DC
100
AcDbXrecord
  1

  0
XRECORD
  5
E0
102
{ACAD_REACTORS
330
DC
102
}
330
DC
100
AcDbXrecord
  1

  0
XRECORD
  5
E1
102
{ACAD_REACTORS
330
DC
102
}
330
DC
100
AcDbXrecord
340
19
  0
XRECORD
  5
E2
102
{ACAD_REACTORS
330
DC
102
}
330
DC
100
AcDbXrecord
340
18
  0
XRECORD
  5
E3
102
{ACAD_REACTORS
330
DC
102
}
330
DC
100
AcDbXrecord
340
E
  0
XRECORD
  5
E4
102
{ACAD_REACTORS
330
DC
102
}
330
DC
100
AcDbXrecord
 90
    10781
  0
XRECORD
  5
E5
102
{ACAD_REACTORS
330
DC
102
}
330
DC
100
AcDbXrecord
 90
        0
  0
XRECORD
  5
E6
102
{ACAD_REACTORS
330
DC
102
}
330
DC
100
AcDbXrecord
 90
        0
  0
XRECORD
  5
E7
102
{ACAD_REACTORS
330
DC
102
}
330
DC
100
AcDbXrecord
  1
{032D7630-CA5F-4598-9A50-860DE30E3DF2}
  0
XRECORD
  5
E8
102
{ACAD_REACTORS
330
DC
102
}
330
DC
100
AcDbXrecord
  1
{E15C7F00-4961-4D87-88CA-C9A594695BD9}
  0
XRECORD
  5
E9
102
{ACAD_REACTORS
330
DC
102
}
330
DC
100
AcDbXrecord
 40
0.0
  0
XRECORD
  5
EA
102
{ACAD_REACTORS
330
DC
102
}
330
DC
100
AcDbXrecord
340
0
  0
XRECORD
  5
EB
102
{ACAD_REACTORS
330
DC
102
}
330
DC
100
AcDbXrecord
 70
     0
  0
XRECORD
  5
EC
102
{ACAD_REACTORS
330
DC
102
}
330
DC
100
AcDbXrecord
340
0
  0
XRECORD
  5
ED
102
{ACAD_REACTORS
330
DC
102
}
330
DC
100
AcDbXrecord
 10
0.0
 20
0.0
 30
0.0
  0
XRECORD
  5
EE
102
{ACAD_REACTORS
330
DC
102
}
330
DC
100
AcDbXrecord
 10
0.0
 20
0.0
 30
0.0
  0
XRECORD
  5
EF
102
{ACAD_REACTORS
330
DC
102
}
330
DC
100
AcDbXrecord
 10
0.0
 20
0.0
 30
0.0
  0
XRECORD
  5
F0
102
{ACAD_REACTORS
330
DC
102
}
330
DC
100
AcDbXrecord
 10
0.0
 20
0.0
 30
0.0
  0
XRECORD
  5
F1
102
{ACAD_REACTORS
330
DC
102
}
330
DC
100
AcDbXrecord
 10
0.0
 20
0.0
 30
0.0
  0
XRECORD
  5
F2
102
{ACAD_REACTORS
330
DC
102
}
330
DC
100
AcDbXrecord
 10
0.0
 20
0.0
 30
0.0
  0
XRECORD
  5
F3
102
{ACAD_REACTORS
330
DC
102
}
330
DC
100
AcDbXrecord
340
0
  0
XRECORD
  5
F4
102
{ACAD_REACTORS
330
DC
102
}
330
DC
100
AcDbXrecord
 70
     0
  0
XRECORD
  5
F5
102
{ACAD_REACTORS
330
DC
102
}
330
DC
100
AcDbXrecord
340
0
  0
XRECORD
  5
F6
102
{ACAD_REACTORS
330
DC
102
}
330
DC
100
AcDbXrecord
 10
0.0
 20
0.0
 30
0.0
  0
XRECORD
  5
F7
102
{ACAD_REACTORS
330
DC
102
}
330
DC
100
AcDbXrecord
 10
0.0
 20
0.0
 30
0.0
  0
XRECORD
  5
F8
102
{ACAD_REACTORS
330
DC
102
}
330
DC
100
AcDbXrecord
 10
0.0
 20
0.0
 30
0.0
  0
XRECORD
  5
F9
102
{ACAD_REACTORS
330
DC
102
}
330
DC
100
AcDbXrecord
 10
0.0
 20
0.0
 30
0.0
  0
XRECORD
  5
FA
102
{ACAD_REACTORS
330
DC
102
}
330
DC
100
AcDbXrecord
 10
0.0
 20
0.0
 30
0.0
  0
XRECORD
  5
FB
102
{ACAD_REACTORS
330
DC
102
}
330
DC
100
AcDbXrecord
 10
0.0
 20
0.0
 30
0.0
  0
ENDSEC
  0
EOF
