  0
SECTION
  2
HEADER
  9
$ACADVER
  1
AC1014
  9
$ACADMAINTVER
 70
     9
  9
$DWGCODEPAGE
  3
ANSI_932
  9
$INSBASE
 10
0.0
 20
0.0
 30
0.0
  9
$EXTMIN
 10
-1136.171458850203
 20
-655.2351945065893
 30
-0.0015258207003583
  9
$EXTMAX
 10
841.1408808810374
 20
615.4475480792825
 30
0.0000000349246037
  9
$LIMMIN
 10
-1350.313517220482
 20
-879.1864995300239
  9
$LIMMAX
 10
1019.00935588474
 20
786.5367270320384
  9
$ORTHOMODE
 70
     1
  9
$REGENMODE
 70
     0
  9
$FILLMODE
 70
     1
  9
$QTEXTMODE
 70
     0
  9
$MIRRTEXT
 70
     0
  9
$DRAGMODE
 70
     2
  9
$LTSCALE
 40
20.0
  9
$OSMODE
 70
    39
  9
$ATTMODE
 70
     1
  9
$TEXTSIZE
 40
64.0
  9
$TRACEWID
 40
0.05
  9
$TEXTSTYLE
  7
STANDARD
  9
$CLAYER
  8
SIZE
  9
$CELTYPE
  6
CONTINUOUS
  9
$CECOLOR
 62
   256
  9
$CELTSCALE
 40
1.0
  9
$DELOBJ
 70
     1
  9
$DISPSILH
 70
     0
  9
$DIMSCALE
 40
1.0
  9
$DIMASZ
 40
10.0
  9
$DIMEXO
 40
20.0
  9
$DIMDLI
 40
200.0
  9
$DIMRND
 40
0.0
  9
$DIMDLE
 40
0.0
  9
$DIMEXE
 40
30.0
  9
$DIMTP
 40
0.0
  9
$DIMTM
 40
0.0
  9
$DIMTXT
 40
64.0
  9
$DIMCEN
 40
0.09
  9
$DIMTSZ
 40
0.0
  9
$DIMTOL
 70
     0
  9
$DIMLIM
 70
     0
  9
$DIMTIH
 70
     0
  9
$DIMTOH
 70
     0
  9
$DIMSE1
 70
     0
  9
$DIMSE2
 70
     0
  9
$DIMTAD
 70
     1
  9
$DIMZIN
 70
     8
  9
$DIMBLK
  1
ORIGIN
  9
$DIMASO
 70
     1
  9
$DIMSHO
 70
     0
  9
$DIMPOST
  1

  9
$DIMAPOST
  1

  9
$DIMALT
 70
     0
  9
$DIMALTD
 70
     2
  9
$DIMALTF
 40
25.4
  9
$DIMLFAC
 40
1.0
  9
$DIMTOFL
 70
     1
  9
$DIMTVP
 40
0.0
  9
$DIMTIX
 70
     1
  9
$DIMSOXD
 70
     0
  9
$DIMSAH
 70
     0
  9
$DIMBLK1
  1

  9
$DIMBLK2
  1

  9
$DIMSTYLE
  2
STANDARD
  9
$DIMCLRD
 70
     0
  9
$DIMCLRE
 70
     0
  9
$DIMCLRT
 70
     0
  9
$DIMTFAC
 40
1.0
  9
$DIMGAP
 40
20.0
  9
$DIMJUST
 70
     0
  9
$DIMSD1
 70
     0
  9
$DIMSD2
 70
     0
  9
$DIMTOLJ
 70
     1
  9
$DIMTZIN
 70
     0
  9
$DIMALTZ
 70
     0
  9
$DIMALTTZ
 70
     0
  9
$DIMFIT
 70
     3
  9
$DIMUPT
 70
     0
  9
$DIMUNIT
 70
     2
  9
$DIMDEC
 70
     0
  9
$DIMTDEC
 70
     0
  9
$DIMALTU
 70
     2
  9
$DIMALTTD
 70
     2
  9
$DIMTXSTY
  7
STANDARD
  9
$DIMAUNIT
 70
     0
  9
$LUNITS
 70
     2
  9
$LUPREC
 70
     4
  9
$SKETCHINC
 40
0.1
  9
$FILLETRAD
 40
1.0
  9
$AUNITS
 70
     1
  9
$AUPREC
 70
     3
  9
$MENU
  1
ACAD
  9
$ELEVATION
 40
0.0
  9
$PELEVATION
 40
0.0
  9
$THICKNESS
 40
0.0
  9
$LIMCHECK
 70
     1
  9
$BLIPMODE
 70
     0
  9
$CHAMFERA
 40
0.0
  9
$CHAMFERB
 40
0.0
  9
$CHAMFERC
 40
0.0
  9
$CHAMFERD
 40
0.0
  9
$SKPOLY
 70
     0
  9
$TDCREATE
 40
2450322.443299004
  9
$TDUPDATE
 40
2454495.713002199
  9
$TDINDWG
 40
0.6538043171
  9
$TDUSRTIMER
 40
0.6538043171
  9
$USRTIMER
 70
     1
  9
$ANGBASE
 50
0.0
  9
$ANGDIR
 70
     0
  9
$PDMODE
 70
     3
  9
$PDSIZE
 40
-2.0
  9
$PLINEWID
 40
0.0
  9
$COORDS
 70
     0
  9
$SPLFRAME
 70
     0
  9
$SPLINETYPE
 70
     6
  9
$SPLINESEGS
 70
     8
  9
$ATTDIA
 70
     0
  9
$ATTREQ
 70
     1
  9
$HANDLING
 70
-16383
  9
$HANDSEED
  5
D8FB
  9
$SURFTAB1
 70
     6
  9
$SURFTAB2
 70
     6
  9
$SURFTYPE
 70
     6
  9
$SURFU
 70
     6
  9
$SURFV
 70
     6
  9
$UCSNAME
  2

  9
$UCSORG
 10
0.0
 20
0.0
 30
0.0
  9
$UCSXDIR
 10
1.0
 20
0.0
 30
0.0
  9
$UCSYDIR
 10
0.0
 20
1.0
 30
0.0
  9
$PUCSNAME
  2

  9
$PUCSORG
 10
0.0
 20
0.0
 30
0.0
  9
$PUCSXDIR
 10
1.0
 20
0.0
 30
0.0
  9
$PUCSYDIR
 10
0.0
 20
1.0
 30
0.0
  9
$USERI1
 70
     0
  9
$USERI2
 70
     0
  9
$USERI3
 70
     0
  9
$USERI4
 70
     0
  9
$USERI5
 70
     0
  9
$USERR1
 40
20.0
  9
$USERR2
 40
0.0
  9
$USERR3
 40
0.0
  9
$USERR4
 40
0.0
  9
$USERR5
 40
0.0
  9
$WORLDVIEW
 70
     1
  9
$SHADEDGE
 70
     3
  9
$SHADEDIF
 70
    70
  9
$TILEMODE
 70
     1
  9
$MAXACTVP
 70
    64
  9
$PINSBASE
 10
0.0
 20
0.0
 30
0.0
  9
$PLIMCHECK
 70
     0
  9
$PEXTMIN
 10
1.000000000000000E+20
 20
1.000000000000000E+20
 30
1.000000000000000E+20
  9
$PEXTMAX
 10
-1.000000000000000E+20
 20
-1.000000000000000E+20
 30
-1.000000000000000E+20
  9
$PLIMMIN
 10
0.0
 20
0.0
  9
$PLIMMAX
 10
12.0
 20
9.0
  9
$UNITMODE
 70
     0
  9
$VISRETAIN
 70
     1
  9
$PLINEGEN
 70
     0
  9
$PSLTSCALE
 70
     1
  9
$TREEDEPTH
 70
  3020
  9
$PICKSTYLE
 70
     1
  9
$CMLSTYLE
  2
STANDARD
  9
$CMLJUST
 70
     0
  9
$CMLSCALE
 40
1.0
  9
$PROXYGRAPHICS
 70
     1
  9
$MEASUREMENT
 70
     0
  0
ENDSEC
  0
SECTION
  2
CLASSES
  0
CLASS
  1
ACDBDICTIONARYWDFLT
  2
AcDbDictionaryWithDefault
  3
AutoCAD 2000
 90
        0
280
     0
281
     0
  0
CLASS
  1
ACDBPLACEHOLDER
  2
AcDbPlaceHolder
  3
AutoCAD 2000
 90
        0
280
     0
281
     0
  0
CLASS
  1
LAYOUT
  2
AcDbLayout
  3
AutoCAD 2000
 90
        0
280
     0
281
     0
  0
CLASS
  1
LONG_TRANSACTION
  2
AcDbLongTransaction
  3
AutoCAD 2000
 90
        0
280
     0
281
     0
  0
CLASS
  1
LWPOLYLINE
  2
AcDbPolyline
  3
AutoCAD 2000
 90
        0
280
     0
281
     1
  0
CLASS
  1
HATCH
  2
AcDbHatch
  3
AutoCAD 2000
 90
        0
280
     0
281
     1
  0
CLASS
  1
XRECORD
  2
AcDbXrecord
  3
AutoCAD 2000
 90
        0
280
     0
281
     0
  0
ENDSEC
  0
SECTION
  2
TABLES
  0
TABLE
  2
VPORT
  5
8
330
0
100
AcDbSymbolTable
 70
     5
  0
VPORT
  5
D8D5
330
8
100
AcDbSymbolTableRecord
100
AcDbViewportTableRecord
  2
*ACTIVE
 70
     0
 10
0.0
 20
0.0
 11
1.0
 21
1.0
 12
-115.4252099585901
 22
-79.2237872548319
 13
0.0
 23
0.0
 14
400.0
 24
400.0
 15
400.0
 25
400.0
 16
0.0
 26
0.0
 36
1.0
 17
0.0
 27
0.0
 37
0.0
 40
2836.23143205532
 41
1.26283618581907
 42
50.0
 43
0.0
 44
0.0
 50
0.0
 51
0.0
 71
     0
 72
   500
 73
     1
 74
     0
 75
     0
 76
     0
 77
     0
 78
     1
  0
ENDTAB
  0
TABLE
  2
LTYPE
  5
5
330
0
100
AcDbSymbolTable
 70
     2
  0
LTYPE
  5
13
330
5
100
AcDbSymbolTableRecord
100
AcDbLinetypeTableRecord
  2
BYBLOCK
 70
     0
  3

 72
    65
 73
     0
 40
0.0
  0
LTYPE
  5
14
330
5
100
AcDbSymbolTableRecord
100
AcDbLinetypeTableRecord
  2
BYLAYER
 70
     0
  3

 72
    65
 73
     0
 40
0.0
  0
LTYPE
  5
15
330
5
100
AcDbSymbolTableRecord
100
AcDbLinetypeTableRecord
  2
CONTINUOUS
 70
     0
  3
実線
 72
    65
 73
     0
 40
0.0
  0
LTYPE
  5
22
330
5
100
AcDbSymbolTableRecord
100
AcDbLinetypeTableRecord
  2
DASHDOT
 70
     0
  3
____ _ ____ _ ____ _ ____ _ ____ _ ____ _ ____
 72
    65
 73
     4
 40
5.5
 49
4.0
 74
     0
 49
-0.6
 74
     0
 49
0.3
 74
     0
 49
-0.6
 74
     0
  0
ENDTAB
  0
TABLE
  2
LAYER
  5
2
330
0
100
AcDbSymbolTable
 70
    10
  0
LAYER
  5
10
330
2
100
AcDbSymbolTableRecord
100
AcDbLayerTableRecord
  2
0
 70
     0
 62
     7
  6
CONTINUOUS
  0
LAYER
  5
28
330
2
100
AcDbSymbolTableRecord
100
AcDbLayerTableRecord
  2
OUTLINE
 70
     0
 62
     3
  6
CONTINUOUS
  0
LAYER
  5
29
330
2
100
AcDbSymbolTableRecord
100
AcDbLayerTableRecord
  2
DETAIL
 70
     0
 62
     5
  6
CONTINUOUS
  0
LAYER
  5
2A
330
2
100
AcDbSymbolTableRecord
100
AcDbLayerTableRecord
  2
BASIS
 70
     0
 62
     6
  6
CONTINUOUS
  0
LAYER
  5
2B
330
2
100
AcDbSymbolTableRecord
100
AcDbLayerTableRecord
  2
NOTE
 70
     0
 62
     4
  6
CONTINUOUS
  0
LAYER
  5
2C
330
2
100
AcDbSymbolTableRecord
100
AcDbLayerTableRecord
  2
DEFPOINTS
 70
     0
 62
     7
  6
CONTINUOUS
  0
LAYER
  5
2D
330
2
100
AcDbSymbolTableRecord
100
AcDbLayerTableRecord
  2
SIZE
 70
     0
 62
    32
  6
CONTINUOUS
  0
LAYER
  5
2E
330
2
100
AcDbSymbolTableRecord
100
AcDbLayerTableRecord
  2
FIX
 70
     0
 62
   241
  6
CONTINUOUS
  0
LAYER
  5
2F
330
2
100
AcDbSymbolTableRecord
100
AcDbLayerTableRecord
  2
ETC
 70
     0
 62
    83
  6
CONTINUOUS
  0
LAYER
  5
30
330
2
100
AcDbSymbolTableRecord
100
AcDbLayerTableRecord
  2
ARRANGE
 70
     0
 62
     1
  6
CONTINUOUS
  0
ENDTAB
  0
TABLE
  2
STYLE
  5
3
330
0
100
AcDbSymbolTable
 70
     1
  0
STYLE
  5
11
330
3
100
AcDbSymbolTableRecord
100
AcDbTextStyleTableRecord
  2
STANDARD
 70
     0
 40
0.0
 41
0.9
 50
0.0
 71
     0
 42
64.0
  3
SIMPLEX
  4
BIGFONT
  0
ENDTAB
  0
TABLE
  2
VIEW
  5
6
330
0
100
AcDbSymbolTable
 70
     1
  0
VIEW
  5
33
330
6
100
AcDbSymbolTableRecord
100
AcDbViewTableRecord
  2
ALL
 70
     0
 40
4508.021
 10
0.0
 20
41.30990399999999
 41
6252.632
 11
0.0
 21
0.0
 31
1.0
 12
0.0
 22
0.0
 32
0.0
 42
50.0
 43
0.0
 44
0.0
 50
0.0
 71
     0
  0
ENDTAB
  0
TABLE
  2
UCS
  5
7
330
0
100
AcDbSymbolTable
 70
     0
  0
ENDTAB
  0
TABLE
  2
APPID
  5
9
330
0
100
AcDbSymbolTable
 70
     1
  0
APPID
  5
12
330
9
100
AcDbSymbolTableRecord
100
AcDbRegAppTableRecord
  2
ACAD
 70
     0
  0
ENDTAB
  0
TABLE
  2
DIMSTYLE
  5
A
330
0
100
AcDbSymbolTable
 70
     1
  0
DIMSTYLE
105
11F
330
A
100
AcDbSymbolTableRecord
100
AcDbDimStyleTableRecord
  2
STANDARD
 70
     0
  3

  4

  5

  6

  7

 40
1.0
 41
0.18
 42
0.0625
 43
0.38
 44
0.18
 45
0.0
 46
0.0
 47
0.0
 48
0.0
140
0.18
141
0.09
142
0.0
143
25.4
144
1.0
145
0.0
146
1.0
147
0.09
 71
     0
 72
     0
 73
     1
 74
     1
 75
     0
 76
     0
 77
     0
 78
     0
170
     0
171
     2
172
     0
173
     0
174
     0
175
     0
176
     0
177
     0
178
     0
270
     2
271
     4
272
     4
273
     2
274
     2
340
11
275
     0
280
     0
281
     0
282
     0
283
     1
284
     0
285
     0
286
     0
287
     3
288
     0
  0
ENDTAB
  0
TABLE
  2
BLOCK_RECORD
  5
1
330
0
100
AcDbSymbolTable
 70
   101
  0
BLOCK_RECORD
  5
1E
102
{ACAD_XDICTIONARY
360
D8F9
102
}
330
1
100
AcDbSymbolTableRecord
100
AcDbBlockTableRecord
  2
*MODEL_SPACE
  0
BLOCK_RECORD
  5
1A
102
{ACAD_XDICTIONARY
360
D8F7
102
}
330
1
100
AcDbSymbolTableRecord
100
AcDbBlockTableRecord
  2
*PAPER_SPACE
  0
BLOCK_RECORD
  5
125
330
1
100
AcDbSymbolTableRecord
100
AcDbBlockTableRecord
  2
_ORIGIN
  0
BLOCK_RECORD
  5
B304
330
1
100
AcDbSymbolTableRecord
100
AcDbBlockTableRecord
  2
*D1
  0
BLOCK_RECORD
  5
B310
330
1
100
AcDbSymbolTableRecord
100
AcDbBlockTableRecord
  2
*D2
  0
BLOCK_RECORD
  5
B31C
330
1
100
AcDbSymbolTableRecord
100
AcDbBlockTableRecord
  2
*D3
  0
BLOCK_RECORD
  5
B32A
330
1
100
AcDbSymbolTableRecord
100
AcDbBlockTableRecord
  2
*D4
  0
BLOCK_RECORD
  5
B336
330
1
100
AcDbSymbolTableRecord
100
AcDbBlockTableRecord
  2
*D5
  0
BLOCK_RECORD
  5
B343
330
1
100
AcDbSymbolTableRecord
100
AcDbBlockTableRecord
  2
*D6
  0
BLOCK_RECORD
  5
B351
330
1
100
AcDbSymbolTableRecord
100
AcDbBlockTableRecord
  2
*D7
  0
BLOCK_RECORD
  5
B35F
330
1
100
AcDbSymbolTableRecord
100
AcDbBlockTableRecord
  2
*D8
  0
BLOCK_RECORD
  5
B36B
330
1
100
AcDbSymbolTableRecord
100
AcDbBlockTableRecord
  2
*D9
  0
BLOCK_RECORD
  5
B377
330
1
100
AcDbSymbolTableRecord
100
AcDbBlockTableRecord
  2
*D10
  0
BLOCK_RECORD
  5
B383
330
1
100
AcDbSymbolTableRecord
100
AcDbBlockTableRecord
  2
*D11
  0
BLOCK_RECORD
  5
B38F
330
1
100
AcDbSymbolTableRecord
100
AcDbBlockTableRecord
  2
*D12
  0
BLOCK_RECORD
  5
B39B
330
1
100
AcDbSymbolTableRecord
100
AcDbBlockTableRecord
  2
*D13
  0
BLOCK_RECORD
  5
B3A7
330
1
100
AcDbSymbolTableRecord
100
AcDbBlockTableRecord
  2
*D14
  0
BLOCK_RECORD
  5
B3B4
330
1
100
AcDbSymbolTableRecord
100
AcDbBlockTableRecord
  2
*D15
  0
BLOCK_RECORD
  5
B3C1
330
1
100
AcDbSymbolTableRecord
100
AcDbBlockTableRecord
  2
*D16
  0
BLOCK_RECORD
  5
B3CF
330
1
100
AcDbSymbolTableRecord
100
AcDbBlockTableRecord
  2
*D17
  0
BLOCK_RECORD
  5
B3DB
330
1
100
AcDbSymbolTableRecord
100
AcDbBlockTableRecord
  2
*D18
  0
BLOCK_RECORD
  5
B3E7
330
1
100
AcDbSymbolTableRecord
100
AcDbBlockTableRecord
  2
*D19
  0
BLOCK_RECORD
  5
B3F3
330
1
100
AcDbSymbolTableRecord
100
AcDbBlockTableRecord
  2
*D20
  0
BLOCK_RECORD
  5
B6D6
330
1
100
AcDbSymbolTableRecord
100
AcDbBlockTableRecord
  2
*D21
  0
BLOCK_RECORD
  5
B6E2
330
1
100
AcDbSymbolTableRecord
100
AcDbBlockTableRecord
  2
*D22
  0
BLOCK_RECORD
  5
B6EE
330
1
100
AcDbSymbolTableRecord
100
AcDbBlockTableRecord
  2
*D23
  0
BLOCK_RECORD
  5
B6FA
330
1
100
AcDbSymbolTableRecord
100
AcDbBlockTableRecord
  2
*D24
  0
BLOCK_RECORD
  5
B706
330
1
100
AcDbSymbolTableRecord
100
AcDbBlockTableRecord
  2
*D25
  0
BLOCK_RECORD
  5
B714
330
1
100
AcDbSymbolTableRecord
100
AcDbBlockTableRecord
  2
*D26
  0
BLOCK_RECORD
  5
B720
330
1
100
AcDbSymbolTableRecord
100
AcDbBlockTableRecord
  2
*D27
  0
BLOCK_RECORD
  5
B72E
330
1
100
AcDbSymbolTableRecord
100
AcDbBlockTableRecord
  2
*D28
  0
BLOCK_RECORD
  5
B73A
330
1
100
AcDbSymbolTableRecord
100
AcDbBlockTableRecord
  2
*D29
  0
BLOCK_RECORD
  5
B746
330
1
100
AcDbSymbolTableRecord
100
AcDbBlockTableRecord
  2
*D30
  0
BLOCK_RECORD
  5
B754
330
1
100
AcDbSymbolTableRecord
100
AcDbBlockTableRecord
  2
*D31
  0
BLOCK_RECORD
  5
B762
330
1
100
AcDbSymbolTableRecord
100
AcDbBlockTableRecord
  2
*D32
  0
BLOCK_RECORD
  5
B9FD
330
1
100
AcDbSymbolTableRecord
100
AcDbBlockTableRecord
  2
*D33
  0
BLOCK_RECORD
  5
BA09
330
1
100
AcDbSymbolTableRecord
100
AcDbBlockTableRecord
  2
*D34
  0
BLOCK_RECORD
  5
BA17
330
1
100
AcDbSymbolTableRecord
100
AcDbBlockTableRecord
  2
*D35
  0
BLOCK_RECORD
  5
BA23
330
1
100
AcDbSymbolTableRecord
100
AcDbBlockTableRecord
  2
*D36
  0
BLOCK_RECORD
  5
BA31
330
1
100
AcDbSymbolTableRecord
100
AcDbBlockTableRecord
  2
*D37
  0
BLOCK_RECORD
  5
BA3D
330
1
100
AcDbSymbolTableRecord
100
AcDbBlockTableRecord
  2
*D38
  0
BLOCK_RECORD
  5
BA49
330
1
100
AcDbSymbolTableRecord
100
AcDbBlockTableRecord
  2
*D39
  0
BLOCK_RECORD
  5
BA55
330
1
100
AcDbSymbolTableRecord
100
AcDbBlockTableRecord
  2
*D40
  0
BLOCK_RECORD
  5
BA63
330
1
100
AcDbSymbolTableRecord
100
AcDbBlockTableRecord
  2
*D41
  0
BLOCK_RECORD
  5
BA71
330
1
100
AcDbSymbolTableRecord
100
AcDbBlockTableRecord
  2
*D42
  0
BLOCK_RECORD
  5
BA7F
330
1
100
AcDbSymbolTableRecord
100
AcDbBlockTableRecord
  2
*D43
  0
BLOCK_RECORD
  5
BA8D
330
1
100
AcDbSymbolTableRecord
100
AcDbBlockTableRecord
  2
*D44
  0
BLOCK_RECORD
  5
BA9B
330
1
100
AcDbSymbolTableRecord
100
AcDbBlockTableRecord
  2
*D45
  0
BLOCK_RECORD
  5
BAA9
330
1
100
AcDbSymbolTableRecord
100
AcDbBlockTableRecord
  2
*D46
  0
BLOCK_RECORD
  5
BAB7
330
1
100
AcDbSymbolTableRecord
100
AcDbBlockTableRecord
  2
*D47
  0
BLOCK_RECORD
  5
BAC3
330
1
100
AcDbSymbolTableRecord
100
AcDbBlockTableRecord
  2
*D48
  0
BLOCK_RECORD
  5
BC83
330
1
100
AcDbSymbolTableRecord
100
AcDbBlockTableRecord
  2
*D49
  0
BLOCK_RECORD
  5
BC8F
330
1
100
AcDbSymbolTableRecord
100
AcDbBlockTableRecord
  2
*D50
  0
BLOCK_RECORD
  5
BC9B
330
1
100
AcDbSymbolTableRecord
100
AcDbBlockTableRecord
  2
*D51
  0
BLOCK_RECORD
  5
BCA9
330
1
100
AcDbSymbolTableRecord
100
AcDbBlockTableRecord
  2
*D52
  0
BLOCK_RECORD
  5
BCB5
330
1
100
AcDbSymbolTableRecord
100
AcDbBlockTableRecord
  2
*D53
  0
BLOCK_RECORD
  5
BCC1
330
1
100
AcDbSymbolTableRecord
100
AcDbBlockTableRecord
  2
*D54
  0
BLOCK_RECORD
  5
BCCF
330
1
100
AcDbSymbolTableRecord
100
AcDbBlockTableRecord
  2
*D55
  0
BLOCK_RECORD
  5
BCDB
330
1
100
AcDbSymbolTableRecord
100
AcDbBlockTableRecord
  2
*D56
  0
BLOCK_RECORD
  5
BCE9
330
1
100
AcDbSymbolTableRecord
100
AcDbBlockTableRecord
  2
*D57
  0
BLOCK_RECORD
  5
BCF7
330
1
100
AcDbSymbolTableRecord
100
AcDbBlockTableRecord
  2
*D58
  0
BLOCK_RECORD
  5
BD05
330
1
100
AcDbSymbolTableRecord
100
AcDbBlockTableRecord
  2
*D59
  0
BLOCK_RECORD
  5
BD13
330
1
100
AcDbSymbolTableRecord
100
AcDbBlockTableRecord
  2
*D60
  0
BLOCK_RECORD
  5
BD21
330
1
100
AcDbSymbolTableRecord
100
AcDbBlockTableRecord
  2
*D61
  0
BLOCK_RECORD
  5
C78E
330
1
100
AcDbSymbolTableRecord
100
AcDbBlockTableRecord
  2
*D62
  0
BLOCK_RECORD
  5
C79A
330
1
100
AcDbSymbolTableRecord
100
AcDbBlockTableRecord
  2
*D63
  0
BLOCK_RECORD
  5
C7A6
330
1
100
AcDbSymbolTableRecord
100
AcDbBlockTableRecord
  2
*D64
  0
BLOCK_RECORD
  5
C7B4
330
1
100
AcDbSymbolTableRecord
100
AcDbBlockTableRecord
  2
*D65
  0
BLOCK_RECORD
  5
C7C0
330
1
100
AcDbSymbolTableRecord
100
AcDbBlockTableRecord
  2
*D66
  0
BLOCK_RECORD
  5
C7CE
330
1
100
AcDbSymbolTableRecord
100
AcDbBlockTableRecord
  2
*D67
  0
BLOCK_RECORD
  5
C7DA
330
1
100
AcDbSymbolTableRecord
100
AcDbBlockTableRecord
  2
*D68
  0
BLOCK_RECORD
  5
C7E6
330
1
100
AcDbSymbolTableRecord
100
AcDbBlockTableRecord
  2
*D69
  0
BLOCK_RECORD
  5
C7F2
330
1
100
AcDbSymbolTableRecord
100
AcDbBlockTableRecord
  2
*D70
  0
BLOCK_RECORD
  5
C800
330
1
100
AcDbSymbolTableRecord
100
AcDbBlockTableRecord
  2
*D71
  0
BLOCK_RECORD
  5
C80C
330
1
100
AcDbSymbolTableRecord
100
AcDbBlockTableRecord
  2
*D72
  0
BLOCK_RECORD
  5
C819
330
1
100
AcDbSymbolTableRecord
100
AcDbBlockTableRecord
  2
*D73
  0
BLOCK_RECORD
  5
C827
330
1
100
AcDbSymbolTableRecord
100
AcDbBlockTableRecord
  2
*D74
  0
BLOCK_RECORD
  5
C834
330
1
100
AcDbSymbolTableRecord
100
AcDbBlockTableRecord
  2
*D75
  0
BLOCK_RECORD
  5
C842
330
1
100
AcDbSymbolTableRecord
100
AcDbBlockTableRecord
  2
*D76
  0
BLOCK_RECORD
  5
C850
330
1
100
AcDbSymbolTableRecord
100
AcDbBlockTableRecord
  2
*D77
  0
BLOCK_RECORD
  5
C85E
330
1
100
AcDbSymbolTableRecord
100
AcDbBlockTableRecord
  2
*D78
  0
BLOCK_RECORD
  5
C86C
330
1
100
AcDbSymbolTableRecord
100
AcDbBlockTableRecord
  2
*D79
  0
BLOCK_RECORD
  5
C87A
330
1
100
AcDbSymbolTableRecord
100
AcDbBlockTableRecord
  2
*D80
  0
BLOCK_RECORD
  5
D01B
330
1
100
AcDbSymbolTableRecord
100
AcDbBlockTableRecord
  2
*D81
  0
BLOCK_RECORD
  5
D028
330
1
100
AcDbSymbolTableRecord
100
AcDbBlockTableRecord
  2
*D82
  0
BLOCK_RECORD
  5
D034
330
1
100
AcDbSymbolTableRecord
100
AcDbBlockTableRecord
  2
*D83
  0
BLOCK_RECORD
  5
D040
330
1
100
AcDbSymbolTableRecord
100
AcDbBlockTableRecord
  2
*D84
  0
BLOCK_RECORD
  5
D04C
330
1
100
AcDbSymbolTableRecord
100
AcDbBlockTableRecord
  2
*D85
  0
BLOCK_RECORD
  5
D058
330
1
100
AcDbSymbolTableRecord
100
AcDbBlockTableRecord
  2
*D86
  0
BLOCK_RECORD
  5
D066
330
1
100
AcDbSymbolTableRecord
100
AcDbBlockTableRecord
  2
*D87
  0
BLOCK_RECORD
  5
D074
330
1
100
AcDbSymbolTableRecord
100
AcDbBlockTableRecord
  2
*D88
  0
BLOCK_RECORD
  5
D081
330
1
100
AcDbSymbolTableRecord
100
AcDbBlockTableRecord
  2
*D89
  0
BLOCK_RECORD
  5
D08D
330
1
100
AcDbSymbolTableRecord
100
AcDbBlockTableRecord
  2
*D90
  0
BLOCK_RECORD
  5
D09B
330
1
100
AcDbSymbolTableRecord
100
AcDbBlockTableRecord
  2
*D91
  0
BLOCK_RECORD
  5
D0A7
330
1
100
AcDbSymbolTableRecord
100
AcDbBlockTableRecord
  2
*D92
  0
BLOCK_RECORD
  5
D0B3
330
1
100
AcDbSymbolTableRecord
100
AcDbBlockTableRecord
  2
*D93
  0
BLOCK_RECORD
  5
D0BF
330
1
100
AcDbSymbolTableRecord
100
AcDbBlockTableRecord
  2
*D94
  0
BLOCK_RECORD
  5
D0CB
330
1
100
AcDbSymbolTableRecord
100
AcDbBlockTableRecord
  2
*D95
  0
BLOCK_RECORD
  5
D0D8
330
1
100
AcDbSymbolTableRecord
100
AcDbBlockTableRecord
  2
*D96
  0
BLOCK_RECORD
  5
D0E4
330
1
100
AcDbSymbolTableRecord
100
AcDbBlockTableRecord
  2
*D97
  0
BLOCK_RECORD
  5
D0F0
330
1
100
AcDbSymbolTableRecord
100
AcDbBlockTableRecord
  2
*D98
  0
BLOCK_RECORD
  5
D0FC
330
1
100
AcDbSymbolTableRecord
100
AcDbBlockTableRecord
  2
*D99
  0
BLOCK_RECORD
  5
D10A
330
1
100
AcDbSymbolTableRecord
100
AcDbBlockTableRecord
  2
*D100
  0
ENDTAB
  0
ENDSEC
  0
SECTION
  2
BLOCKS
  0
BLOCK
  5
1F
330
1E
100
AcDbEntity
  8
0
100
AcDbBlockBegin
  2
*MODEL_SPACE
 70
     0
 10
0.0
 20
0.0
 30
0.0
  3
*MODEL_SPACE
  1

  0
ENDBLK
  5
20
330
1E
100
AcDbEntity
  8
0
100
AcDbBlockEnd
  0
BLOCK
  5
1B
330
1A
100
AcDbEntity
 67
     1
  8
0
100
AcDbBlockBegin
  2
*PAPER_SPACE
 70
     0
 10
0.0
 20
0.0
 30
0.0
  3
*PAPER_SPACE
  1

  0
ENDBLK
  5
1C
330
1A
100
AcDbEntity
 67
     1
  8
0
100
AcDbBlockEnd
  0
BLOCK
  5
128
330
125
100
AcDbEntity
  8
0
100
AcDbBlockBegin
  2
_ORIGIN
 70
     0
 10
0.0
 20
0.0
 30
0.0
  3
_ORIGIN
  1

  0
CIRCLE
  5
126
330
125
100
AcDbEntity
  8
0
  6
BYBLOCK
 62
     0
100
AcDbCircle
 10
0.0
 20
0.0
 30
0.0
 40
0.5
  0
LINE
  5
127
330
125
100
AcDbEntity
  8
0
  6
BYBLOCK
 62
     0
100
AcDbLine
 10
0.0
 20
0.0
 30
0.0
 11
-1.0
 21
0.0
 31
0.0
  0
ENDBLK
  5
129
330
125
100
AcDbEntity
  8
0
100
AcDbBlockEnd
  0
BLOCK
  5
B30E
330
B304
100
AcDbEntity
  8
0
100
AcDbBlockBegin
  2
*D1
 70
     1
 10
0.0
 20
0.0
 30
0.0
  3
*D1
  1

  0
LINE
  5
D2FF
330
B304
100
AcDbEntity
  8
SIZE
  6
CONTINUOUS
 62
     0
100
AcDbLine
 10
-361.9604619245074
 20
-1142.120772001104
 30
0.0
 11
-867.7557457011497
 21
-1142.120772001104
 31
0.0
  0
LINE
  5
D300
330
B304
100
AcDbEntity
  8
SIZE
  6
CONTINUOUS
 62
     0
100
AcDbLine
 10
-360.7604619244994
 20
-1822.120772001104
 30
0.0
 11
-867.7557457011499
 21
-1822.120772001104
 31
0.0
  0
LINE
  5
D301
330
B304
100
AcDbEntity
  8
SIZE
  6
CONTINUOUS
 62
     0
100
AcDbLine
 10
-837.7557457011496
 20
-1152.120772001104
 30
0.0
 11
-837.7557457011498
 21
-1812.120772001104
 31
0.0
  0
INSERT
  5
D302
330
B304
100
AcDbEntity
  8
SIZE
  6
CONTINUOUS
 62
     0
100
AcDbBlockReference
  2
_ORIGIN
 10
-837.7557457011496
 20
-1142.120772001104
 30
0.0
 41
10.0
 42
10.0
 43
10.0
 50
90.0
  0
INSERT
  5
D303
330
B304
100
AcDbEntity
  8
SIZE
  6
CONTINUOUS
 62
     0
100
AcDbBlockReference
  2
_ORIGIN
 10
-837.7557457011498
 20
-1822.120772001104
 30
0.0
 41
10.0
 42
10.0
 43
10.0
 50
270.0
  0
MTEXT
  5
D304
330
B304
100
AcDbEntity
  8
SIZE
  6
CONTINUOUS
 62
     0
100
AcDbMText
 10
-889.7557457011496
 20
-1482.120772001104
 30
0.0
 40
64.0
 41
0.0
 71
     5
 72
     1
  1
\A1;680
 11
0.0000000000000001
 21
1.0
 31
0.0
1001
ACAD
1000
MTEXTBEGIN
1070
    73
1070
     1
1070
    44
1040
1.0
1070
    74
1070
     0
1000
MTEXTEND
  0
POINT
  5
D305
330
B304
100
AcDbEntity
  8
DEFPOINTS
  6
CONTINUOUS
 62
     0
100
AcDbPoint
 10
-341.9604619245073
 20
-1142.120772001104
 30
0.0
  0
POINT
  5
D306
330
B304
100
AcDbEntity
  8
DEFPOINTS
  6
CONTINUOUS
 62
     0
100
AcDbPoint
 10
-340.7604619244994
 20
-1822.120772001104
 30
0.0
  0
POINT
  5
D307
330
B304
100
AcDbEntity
  8
DEFPOINTS
  6
CONTINUOUS
 62
     0
100
AcDbPoint
 10
-837.7557457011498
 20
-1822.120772001104
 30
0.0
  0
ENDBLK
  5
B30F
330
B304
100
AcDbEntity
  8
0
100
AcDbBlockEnd
  0
BLOCK
  5
B31A
330
B310
100
AcDbEntity
  8
0
100
AcDbBlockBegin
  2
*D2
 70
     1
 10
0.0
 20
0.0
 30
0.0
  3
*D2
  1

  0
LINE
  5
D4B1
330
B310
100
AcDbEntity
  8
SIZE
  6
CONTINUOUS
 62
     0
100
AcDbLine
 10
-361.9604619245074
 20
-1142.120772001104
 30
0.0
 11
-519.504270633377
 21
-1142.120772001104
 31
0.0
  0
LINE
  5
D4B2
330
B310
100
AcDbEntity
  8
SIZE
  6
CONTINUOUS
 62
     0
100
AcDbLine
 10
-346.9604619244964
 20
-1388.120772001106
 30
0.0
 11
-519.5042706333771
 21
-1388.120772001106
 31
0.0
  0
LINE
  5
D4B3
330
B310
100
AcDbEntity
  8
SIZE
  6
CONTINUOUS
 62
     0
100
AcDbLine
 10
-489.504270633377
 20
-1152.120772001104
 30
0.0
 11
-489.504270633377
 21
-1378.120772001106
 31
0.0
  0
INSERT
  5
D4B4
330
B310
100
AcDbEntity
  8
SIZE
  6
CONTINUOUS
 62
     0
100
AcDbBlockReference
  2
_ORIGIN
 10
-489.5042706333769
 20
-1142.120772001104
 30
0.0
 41
10.0
 42
10.0
 43
10.0
 50
90.0
  0
INSERT
  5
D4B5
330
B310
100
AcDbEntity
  8
SIZE
  6
CONTINUOUS
 62
     0
100
AcDbBlockReference
  2
_ORIGIN
 10
-489.504270633377
 20
-1388.120772001106
 30
0.0
 41
10.0
 42
10.0
 43
10.0
 50
270.0
  0
MTEXT
  5
D4B6
330
B310
100
AcDbEntity
  8
SIZE
  6
CONTINUOUS
 62
     0
100
AcDbMText
 10
-541.5042706333768
 20
-1265.120772001105
 30
0.0
 40
64.0
 41
0.0
 71
     5
 72
     1
  1
\A1;246
 11
0.0000000000000001
 21
1.0
 31
0.0
1001
ACAD
1000
MTEXTBEGIN
1070
    73
1070
     1
1070
    44
1040
1.0
1070
    74
1070
     0
1000
MTEXTEND
  0
POINT
  5
D4B7
330
B310
100
AcDbEntity
  8
DEFPOINTS
  6
CONTINUOUS
 62
     0
100
AcDbPoint
 10
-341.9604619245073
 20
-1142.120772001104
 30
0.0
  0
POINT
  5
D4B8
330
B310
100
AcDbEntity
  8
DEFPOINTS
  6
CONTINUOUS
 62
     0
100
AcDbPoint
 10
-326.9604619244964
 20
-1388.120772001106
 30
0.0
  0
POINT
  5
D4B9
330
B310
100
AcDbEntity
  8
DEFPOINTS
  6
CONTINUOUS
 62
     0
100
AcDbPoint
 10
-489.504270633377
 20
-1388.120772001106
 30
0.0
  0
ENDBLK
  5
B31B
330
B310
100
AcDbEntity
  8
0
100
AcDbBlockEnd
  0
BLOCK
  5
B328
330
B31C
100
AcDbEntity
  8
0
100
AcDbBlockBegin
  2
*D3
 70
     1
 10
0.0
 20
0.0
 30
0.0
  3
*D3
  1

  0
LINE
  5
D4A6
330
B31C
100
AcDbEntity
  8
SIZE
  6
CONTINUOUS
 62
     0
100
AcDbLine
 10
-361.9604619245074
 20
-1142.120772001104
 30
0.0
 11
-652.6316045525818
 21
-1142.120772001104
 31
0.0
  0
LINE
  5
D4A7
330
B31C
100
AcDbEntity
  8
SIZE
  6
CONTINUOUS
 62
     0
100
AcDbLine
 10
-400.2604619245066
 20
-1222.120772001104
 30
0.0
 11
-652.6316045525818
 21
-1222.120772001104
 31
0.0
  0
LINE
  5
D4A8
330
B31C
100
AcDbEntity
  8
SIZE
  6
CONTINUOUS
 62
     0
100
AcDbLine
 10
-622.6316045525818
 20
-1132.120772001104
 30
0.0
 11
-622.6316045525818
 21
-1122.120772001104
 31
0.0
  0
LINE
  5
D4A9
330
B31C
100
AcDbEntity
  8
SIZE
  6
CONTINUOUS
 62
     0
100
AcDbLine
 10
-622.6316045525818
 20
-1232.120772001104
 30
0.0
 11
-622.6316045525818
 21
-1242.120772001104
 31
0.0
  0
LINE
  5
D4AA
330
B31C
100
AcDbEntity
  8
SIZE
  6
CONTINUOUS
 62
     0
100
AcDbLine
 10
-622.6316045525818
 20
-1142.120772001104
 30
0.0
 11
-622.6316045525818
 21
-1222.120772001104
 31
0.0
  0
INSERT
  5
D4AB
330
B31C
100
AcDbEntity
  8
SIZE
  6
CONTINUOUS
 62
     0
100
AcDbBlockReference
  2
_ORIGIN
 10
-622.6316045525818
 20
-1142.120772001104
 30
0.0
 41
10.0
 42
10.0
 43
10.0
 50
270.0
  0
INSERT
  5
D4AC
330
B31C
100
AcDbEntity
  8
SIZE
  6
CONTINUOUS
 62
     0
100
AcDbBlockReference
  2
_ORIGIN
 10
-622.6316045525818
 20
-1222.120772001104
 30
0.0
 41
10.0
 42
10.0
 43
10.0
 50
90.0
  0
MTEXT
  5
D4AD
330
B31C
100
AcDbEntity
  8
SIZE
  6
CONTINUOUS
 62
     0
100
AcDbMText
 10
-674.6316045525817
 20
-1182.120772001104
 30
0.0
 40
64.0
 41
0.0
 71
     5
 72
     1
  1
\A1;80
 11
0.0000000000000001
 21
1.0
 31
0.0
1001
ACAD
1000
MTEXTBEGIN
1070
    73
1070
     1
1070
    44
1040
1.0
1070
    74
1070
     0
1000
MTEXTEND
  0
POINT
  5
D4AE
330
B31C
100
AcDbEntity
  8
DEFPOINTS
  6
CONTINUOUS
 62
     0
100
AcDbPoint
 10
-341.9604619245073
 20
-1142.120772001104
 30
0.0
  0
POINT
  5
D4AF
330
B31C
100
AcDbEntity
  8
DEFPOINTS
  6
CONTINUOUS
 62
     0
100
AcDbPoint
 10
-380.2604619245066
 20
-1222.120772001104
 30
0.0
  0
POINT
  5
D4B0
330
B31C
100
AcDbEntity
  8
DEFPOINTS
  6
CONTINUOUS
 62
     0
100
AcDbPoint
 10
-622.6316045525818
 20
-1222.120772001104
 30
0.0
  0
ENDBLK
  5
B329
330
B31C
100
AcDbEntity
  8
0
100
AcDbBlockEnd
  0
BLOCK
  5
B334
330
B32A
100
AcDbEntity
  8
0
100
AcDbBlockBegin
  2
*D4
 70
     1
 10
0.0
 20
0.0
 30
0.0
  3
*D4
  1

  0
LINE
  5
D4BA
330
B32A
100
AcDbEntity
  8
SIZE
  6
CONTINUOUS
 62
     0
100
AcDbLine
 10
-399.3604619245052
 20
-1222.120772001104
 30
0.0
 11
-652.631604552582
 21
-1222.120772001104
 31
0.0
  0
LINE
  5
D4BB
330
B32A
100
AcDbEntity
  8
SIZE
  6
CONTINUOUS
 62
     0
100
AcDbLine
 10
-400.2604619245066
 20
-1542.120772001104
 30
0.0
 11
-652.631604552582
 21
-1542.120772001104
 31
0.0
  0
LINE
  5
D4BC
330
B32A
100
AcDbEntity
  8
SIZE
  6
CONTINUOUS
 62
     0
100
AcDbLine
 10
-622.631604552582
 20
-1232.120772001104
 30
0.0
 11
-622.6316045525821
 21
-1532.120772001104
 31
0.0
  0
INSERT
  5
D4BD
330
B32A
100
AcDbEntity
  8
SIZE
  6
CONTINUOUS
 62
     0
100
AcDbBlockReference
  2
_ORIGIN
 10
-622.631604552582
 20
-1222.120772001104
 30
0.0
 41
10.0
 42
10.0
 43
10.0
 50
90.0
  0
INSERT
  5
D4BE
330
B32A
100
AcDbEntity
  8
SIZE
  6
CONTINUOUS
 62
     0
100
AcDbBlockReference
  2
_ORIGIN
 10
-622.6316045525821
 20
-1542.120772001104
 30
0.0
 41
10.0
 42
10.0
 43
10.0
 50
270.0
  0
MTEXT
  5
D4BF
330
B32A
100
AcDbEntity
  8
SIZE
  6
CONTINUOUS
 62
     0
100
AcDbMText
 10
-674.6316045525818
 20
-1382.120772001102
 30
0.0
 40
64.0
 41
0.0
 71
     5
 72
     1
  1
\A1;320
 11
0.0000000000000001
 21
1.0
 31
0.0
1001
ACAD
1000
MTEXTBEGIN
1070
    73
1070
     1
1070
    44
1040
1.0
1070
    74
1070
     0
1000
MTEXTEND
  0
POINT
  5
D4C0
330
B32A
100
AcDbEntity
  8
DEFPOINTS
  6
CONTINUOUS
 62
     0
100
AcDbPoint
 10
-379.3604619245052
 20
-1222.120772001104
 30
0.0
  0
POINT
  5
D4C1
330
B32A
100
AcDbEntity
  8
DEFPOINTS
  6
CONTINUOUS
 62
     0
100
AcDbPoint
 10
-380.2604619245066
 20
-1542.120772001104
 30
0.0
  0
POINT
  5
D4C2
330
B32A
100
AcDbEntity
  8
DEFPOINTS
  6
CONTINUOUS
 62
     0
100
AcDbPoint
 10
-622.6316045525821
 20
-1542.120772001104
 30
0.0
  0
ENDBLK
  5
B335
330
B32A
100
AcDbEntity
  8
0
100
AcDbBlockEnd
  0
BLOCK
  5
B341
330
B336
100
AcDbEntity
  8
0
100
AcDbBlockBegin
  2
*D5
 70
     1
 10
0.0
 20
0.0
 30
0.0
  3
*D5
  1

  0
LINE
  5
D49C
330
B336
100
AcDbEntity
  8
SIZE
  6
CONTINUOUS
 62
     0
100
AcDbLine
 10
-383.9604619244965
 20
-1408.120772001106
 30
0.0
 11
-383.9604619244965
 21
-1529.099642405082
 31
0.0
  0
LINE
  5
D49D
330
B336
100
AcDbEntity
  8
SIZE
  6
CONTINUOUS
 62
     0
100
AcDbLine
 10
-306.9604619244965
 20
-1427.451682134193
 30
0.0
 11
-306.9604619244965
 21
-1529.099642405082
 31
0.0
  0
LINE
  5
D49E
330
B336
100
AcDbEntity
  8
SIZE
  6
CONTINUOUS
 62
     0
100
AcDbLine
 10
-316.9604619244964
 20
-1499.099642405082
 30
0.0
 11
-373.9604619244965
 21
-1499.099642405082
 31
0.0
  0
LINE
  5
D49F
330
B336
100
AcDbEntity
  8
SIZE
  6
CONTINUOUS
 62
     0
100
AcDbLine
 10
-383.9604619244965
 20
-1499.099642405082
 30
0.0
 11
-584.1971663165077
 21
-1499.099642405082
 31
0.0
  0
INSERT
  5
D4A0
330
B336
100
AcDbEntity
  8
SIZE
  6
CONTINUOUS
 62
     0
100
AcDbBlockReference
  2
_ORIGIN
 10
-306.9604619244965
 20
-1499.099642405082
 30
0.0
 41
10.0
 42
10.0
 43
10.0
  0
INSERT
  5
D4A1
330
B336
100
AcDbEntity
  8
SIZE
  6
CONTINUOUS
 62
     0
100
AcDbBlockReference
  2
_ORIGIN
 10
-383.9604619244965
 20
-1499.099642405082
 30
0.0
 41
10.0
 42
10.0
 43
10.0
 50
180.0
  0
MTEXT
  5
D4A2
330
B336
100
AcDbEntity
  8
SIZE
  6
CONTINUOUS
 62
     0
100
AcDbMText
 10
-517.5685948879363
 20
-1447.099642405082
 30
0.0
 40
64.0
 41
0.0
 71
     5
 72
     1
  1
\A1;77
1001
ACAD
1000
MTEXTBEGIN
1070
    73
1070
     1
1070
    44
1040
1.0
1070
    74
1070
     0
1000
MTEXTEND
  0
POINT
  5
D4A3
330
B336
100
AcDbEntity
  8
DEFPOINTS
  6
CONTINUOUS
 62
     0
100
AcDbPoint
 10
-383.9604619244965
 20
-1388.120772001106
 30
0.0
  0
POINT
  5
D4A4
330
B336
100
AcDbEntity
  8
DEFPOINTS
  6
CONTINUOUS
 62
     0
100
AcDbPoint
 10
-306.9604619244965
 20
-1407.451682134193
 30
0.0
  0
POINT
  5
D4A5
330
B336
100
AcDbEntity
  8
DEFPOINTS
  6
CONTINUOUS
 62
     0
100
AcDbPoint
 10
-306.9604619244965
 20
-1499.099642405082
 30
0.0
  0
ENDBLK
  5
B342
330
B336
100
AcDbEntity
  8
0
100
AcDbBlockEnd
  0
BLOCK
  5
B34F
330
B343
100
AcDbEntity
  8
0
100
AcDbBlockBegin
  2
*D6
 70
     1
 10
0.0
 20
0.0
 30
0.0
  3
*D6
  1

  0
LINE
  5
D50E
330
B343
100
AcDbEntity
  8
SIZE
  6
CONTINUOUS
 62
     0
100
AcDbLine
 10
940.0395380754998
 20
-1102.120772001104
 30
0.0
 11
940.0395380754998
 21
-870.9523227520913
 31
0.0
  0
LINE
  5
D50F
330
B343
100
AcDbEntity
  8
SIZE
  6
CONTINUOUS
 62
     0
100
AcDbLine
 10
902.0395380754999
 20
-1102.120772001104
 30
0.0
 11
902.0395380754999
 21
-870.9523227520913
 31
0.0
  0
LINE
  5
D510
330
B343
100
AcDbEntity
  8
SIZE
  6
CONTINUOUS
 62
     0
100
AcDbLine
 10
950.0395380754998
 20
-900.9523227520913
 30
0.0
 11
960.0395380754999
 21
-900.9523227520913
 31
0.0
  0
LINE
  5
D511
330
B343
100
AcDbEntity
  8
SIZE
  6
CONTINUOUS
 62
     0
100
AcDbLine
 10
892.0395380754998
 20
-900.9523227520913
 30
0.0
 11
882.0395380754998
 21
-900.9523227520913
 31
0.0
  0
LINE
  5
D512
330
B343
100
AcDbEntity
  8
SIZE
  6
CONTINUOUS
 62
     0
100
AcDbLine
 10
940.0395380754998
 20
-900.9523227520913
 30
0.0
 11
902.0395380754999
 21
-900.9523227520913
 31
0.0
  0
INSERT
  5
D513
330
B343
100
AcDbEntity
  8
SIZE
  6
CONTINUOUS
 62
     0
100
AcDbBlockReference
  2
_ORIGIN
 10
940.0395380754998
 20
-900.9523227520913
 30
0.0
 41
10.0
 42
10.0
 43
10.0
 50
180.0
  0
INSERT
  5
D514
330
B343
100
AcDbEntity
  8
SIZE
  6
CONTINUOUS
 62
     0
100
AcDbBlockReference
  2
_ORIGIN
 10
902.0395380754999
 20
-900.9523227520913
 30
0.0
 41
10.0
 42
10.0
 43
10.0
  0
MTEXT
  5
D515
330
B343
100
AcDbEntity
  8
SIZE
  6
CONTINUOUS
 62
     0
100
AcDbMText
 10
921.0395380754999
 20
-848.9523227520912
 30
0.0
 40
64.0
 41
0.0
 71
     5
 72
     1
  1
\A1;38
1001
ACAD
1000
MTEXTBEGIN
1070
    73
1070
     1
1070
    44
1040
1.0
1070
    74
1070
     0
1000
MTEXTEND
  0
POINT
  5
D516
330
B343
100
AcDbEntity
  8
DEFPOINTS
  6
CONTINUOUS
 62
     0
100
AcDbPoint
 10
940.0395380754998
 20
-1122.120772001104
 30
0.0
  0
POINT
  5
D517
330
B343
100
AcDbEntity
  8
DEFPOINTS
  6
CONTINUOUS
 62
     0
100
AcDbPoint
 10
902.0395380754999
 20
-1122.120772001104
 30
0.0
  0
POINT
  5
D518
330
B343
100
AcDbEntity
  8
DEFPOINTS
  6
CONTINUOUS
 62
     0
100
AcDbPoint
 10
902.0395380754999
 20
-900.9523227520913
 30
0.0
  0
ENDBLK
  5
B350
330
B343
100
AcDbEntity
  8
0
100
AcDbBlockEnd
  0
BLOCK
  5
B35D
330
B351
100
AcDbEntity
  8
0
100
AcDbBlockBegin
  2
*D7
 70
     1
 10
0.0
 20
0.0
 30
0.0
  3
*D7
  1

  0
LINE
  5
D4CC
330
B351
100
AcDbEntity
  8
SIZE
  6
CONTINUOUS
 62
     0
100
AcDbLine
 10
896.0395380754999
 20
-1102.120772001104
 30
0.0
 11
896.0395380754999
 21
-757.5658467535759
 31
0.0
  0
LINE
  5
D4CD
330
B351
100
AcDbEntity
  8
SIZE
  6
CONTINUOUS
 62
     0
100
AcDbLine
 10
934.0395380754998
 20
-1102.120772001104
 30
0.0
 11
934.0395380754998
 21
-757.5658467535759
 31
0.0
  0
LINE
  5
D4CE
330
B351
100
AcDbEntity
  8
SIZE
  6
CONTINUOUS
 62
     0
100
AcDbLine
 10
886.0395380754999
 20
-787.5658467535759
 30
0.0
 11
876.0395380754998
 21
-787.5658467535759
 31
0.0
  0
LINE
  5
D4CF
330
B351
100
AcDbEntity
  8
SIZE
  6
CONTINUOUS
 62
     0
100
AcDbLine
 10
944.0395380754999
 20
-787.5658467535759
 30
0.0
 11
954.0395380754999
 21
-787.5658467535759
 31
0.0
  0
LINE
  5
D4D0
330
B351
100
AcDbEntity
  8
SIZE
  6
CONTINUOUS
 62
     0
100
AcDbLine
 10
896.0395380754999
 20
-787.5658467535759
 30
0.0
 11
934.0395380754998
 21
-787.5658467535759
 31
0.0
  0
INSERT
  5
D4D1
330
B351
100
AcDbEntity
  8
SIZE
  6
CONTINUOUS
 62
     0
100
AcDbBlockReference
  2
_ORIGIN
 10
896.0395380754999
 20
-787.5658467535759
 30
0.0
 41
10.0
 42
10.0
 43
10.0
  0
INSERT
  5
D4D2
330
B351
100
AcDbEntity
  8
SIZE
  6
CONTINUOUS
 62
     0
100
AcDbBlockReference
  2
_ORIGIN
 10
934.0395380754998
 20
-787.5658467535759
 30
0.0
 41
10.0
 42
10.0
 43
10.0
 50
180.0
  0
MTEXT
  5
D4D3
330
B351
100
AcDbEntity
  8
SIZE
  6
CONTINUOUS
 62
     0
100
AcDbMText
 10
915.0395380754998
 20
-735.5658467535759
 30
0.0
 40
64.0
 41
0.0
 71
     5
 72
     1
  1
\A1;38
1001
ACAD
1000
MTEXTBEGIN
1070
    73
1070
     1
1070
    44
1040
1.0
1070
    74
1070
     0
1000
MTEXTEND
  0
POINT
  5
D4D4
330
B351
100
AcDbEntity
  8
DEFPOINTS
  6
CONTINUOUS
 62
     0
100
AcDbPoint
 10
896.0395380754999
 20
-1122.120772001104
 30
0.0
  0
POINT
  5
D4D5
330
B351
100
AcDbEntity
  8
DEFPOINTS
  6
CONTINUOUS
 62
     0
100
AcDbPoint
 10
934.0395380754998
 20
-1122.120772001104
 30
0.0
  0
POINT
  5
D4D6
330
B351
100
AcDbEntity
  8
DEFPOINTS
  6
CONTINUOUS
 62
     0
100
AcDbPoint
 10
934.0395380754998
 20
-787.5658467535759
 30
0.0
  0
ENDBLK
  5
B35E
330
B351
100
AcDbEntity
  8
0
100
AcDbBlockEnd
  0
BLOCK
  5
B369
330
B35F
100
AcDbEntity
  8
0
100
AcDbBlockBegin
  2
*D8
 70
     1
 10
0.0
 20
0.0
 30
0.0
  3
*D8
  1

  0
LINE
  5
D4C3
330
B35F
100
AcDbEntity
  8
SIZE
  6
CONTINUOUS
 62
     0
100
AcDbLine
 10
934.0395380754998
 20
-1102.120772001104
 30
0.0
 11
934.0395380754998
 21
-757.5658467535759
 31
0.0
  0
LINE
  5
D4C4
330
B35F
100
AcDbEntity
  8
SIZE
  6
CONTINUOUS
 62
     0
100
AcDbLine
 10
1220.0395380755
 20
-1123.836582001109
 30
0.0
 11
1220.0395380755
 21
-757.5658467535759
 31
0.0
  0
LINE
  5
D4C5
330
B35F
100
AcDbEntity
  8
SIZE
  6
CONTINUOUS
 62
     0
100
AcDbLine
 10
944.0395380754999
 20
-787.5658467535759
 30
0.0
 11
1210.0395380755
 21
-787.5658467535759
 31
0.0
  0
INSERT
  5
D4C6
330
B35F
100
AcDbEntity
  8
SIZE
  6
CONTINUOUS
 62
     0
100
AcDbBlockReference
  2
_ORIGIN
 10
934.0395380754998
 20
-787.5658467535759
 30
0.0
 41
10.0
 42
10.0
 43
10.0
 50
180.0
  0
INSERT
  5
D4C7
330
B35F
100
AcDbEntity
  8
SIZE
  6
CONTINUOUS
 62
     0
100
AcDbBlockReference
  2
_ORIGIN
 10
1220.0395380755
 20
-787.5658467535759
 30
0.0
 41
10.0
 42
10.0
 43
10.0
  0
MTEXT
  5
D4C8
330
B35F
100
AcDbEntity
  8
SIZE
  6
CONTINUOUS
 62
     0
100
AcDbMText
 10
1077.0395380755
 20
-735.5658467535759
 30
0.0
 40
64.0
 41
0.0
 71
     5
 72
     1
  1
\A1;286
1001
ACAD
1000
MTEXTBEGIN
1070
    73
1070
     1
1070
    44
1040
1.0
1070
    74
1070
     0
1000
MTEXTEND
  0
POINT
  5
D4C9
330
B35F
100
AcDbEntity
  8
DEFPOINTS
  6
CONTINUOUS
 62
     0
100
AcDbPoint
 10
934.0395380754998
 20
-1122.120772001104
 30
0.0
  0
POINT
  5
D4CA
330
B35F
100
AcDbEntity
  8
DEFPOINTS
  6
CONTINUOUS
 62
     0
100
AcDbPoint
 10
1220.0395380755
 20
-1143.836582001109
 30
0.0
  0
POINT
  5
D4CB
330
B35F
100
AcDbEntity
  8
DEFPOINTS
  6
CONTINUOUS
 62
     0
100
AcDbPoint
 10
1220.0395380755
 20
-787.5658467535759
 30
0.0
  0
ENDBLK
  5
B36A
330
B35F
100
AcDbEntity
  8
0
100
AcDbBlockEnd
  0
BLOCK
  5
B375
330
B36B
100
AcDbEntity
  8
0
100
AcDbBlockBegin
  2
*D9
 70
     1
 10
0.0
 20
0.0
 30
0.0
  3
*D9
  1

  0
LINE
  5
D505
330
B36B
100
AcDbEntity
  8
SIZE
  6
CONTINUOUS
 62
     0
100
AcDbLine
 10
1220.039538075496
 20
-1123.836582001109
 30
0.0
 11
1220.039538075496
 21
-870.9523227520913
 31
0.0
  0
LINE
  5
D506
330
B36B
100
AcDbEntity
  8
SIZE
  6
CONTINUOUS
 62
     0
100
AcDbLine
 10
940.0395380754998
 20
-1102.120772001104
 30
0.0
 11
940.0395380754998
 21
-870.9523227520913
 31
0.0
  0
LINE
  5
D507
330
B36B
100
AcDbEntity
  8
SIZE
  6
CONTINUOUS
 62
     0
100
AcDbLine
 10
1210.039538075496
 20
-900.9523227520913
 30
0.0
 11
950.0395380754998
 21
-900.9523227520913
 31
0.0
  0
INSERT
  5
D508
330
B36B
100
AcDbEntity
  8
SIZE
  6
CONTINUOUS
 62
     0
100
AcDbBlockReference
  2
_ORIGIN
 10
1220.039538075496
 20
-900.9523227520913
 30
0.0
 41
10.0
 42
10.0
 43
10.0
  0
INSERT
  5
D509
330
B36B
100
AcDbEntity
  8
SIZE
  6
CONTINUOUS
 62
     0
100
AcDbBlockReference
  2
_ORIGIN
 10
940.0395380754998
 20
-900.9523227520913
 30
0.0
 41
10.0
 42
10.0
 43
10.0
 50
180.0
  0
MTEXT
  5
D50A
330
B36B
100
AcDbEntity
  8
SIZE
  6
CONTINUOUS
 62
     0
100
AcDbMText
 10
1080.039538075498
 20
-848.9523227520912
 30
0.0
 40
64.0
 41
0.0
 71
     5
 72
     1
  1
\A1;280
1001
ACAD
1000
MTEXTBEGIN
1070
    73
1070
     1
1070
    44
1040
1.0
1070
    74
1070
     0
1000
MTEXTEND
  0
POINT
  5
D50B
330
B36B
100
AcDbEntity
  8
DEFPOINTS
  6
CONTINUOUS
 62
     0
100
AcDbPoint
 10
1220.039538075496
 20
-1143.836582001109
 30
0.0
  0
POINT
  5
D50C
330
B36B
100
AcDbEntity
  8
DEFPOINTS
  6
CONTINUOUS
 62
     0
100
AcDbPoint
 10
940.0395380754998
 20
-1122.120772001104
 30
0.0
  0
POINT
  5
D50D
330
B36B
100
AcDbEntity
  8
DEFPOINTS
  6
CONTINUOUS
 62
     0
100
AcDbPoint
 10
940.0395380754998
 20
-900.9523227520913
 30
0.0
  0
ENDBLK
  5
B376
330
B36B
100
AcDbEntity
  8
0
100
AcDbBlockEnd
  0
BLOCK
  5
B381
330
B377
100
AcDbEntity
  8
0
100
AcDbBlockBegin
  2
*D10
 70
     1
 10
0.0
 20
0.0
 30
0.0
  3
*D10
  1

  0
LINE
  5
D4D7
330
B377
100
AcDbEntity
  8
SIZE
  6
CONTINUOUS
 62
     0
100
AcDbLine
 10
1198.039538075492
 20
-1142.120772001104
 30
0.0
 11
1744.092623777738
 21
-1142.120772001104
 31
0.0
  0
LINE
  5
D4D8
330
B377
100
AcDbEntity
  8
SIZE
  6
CONTINUOUS
 62
     0
100
AcDbLine
 10
1122.039538075499
 20
-1388.120772001104
 30
0.0
 11
1744.092623777738
 21
-1388.120772001104
 31
0.0
  0
LINE
  5
D4D9
330
B377
100
AcDbEntity
  8
SIZE
  6
CONTINUOUS
 62
     0
100
AcDbLine
 10
1714.092623777738
 20
-1152.120772001104
 30
0.0
 11
1714.092623777738
 21
-1378.120772001104
 31
0.0
  0
INSERT
  5
D4DA
330
B377
100
AcDbEntity
  8
SIZE
  6
CONTINUOUS
 62
     0
100
AcDbBlockReference
  2
_ORIGIN
 10
1714.092623777738
 20
-1142.120772001104
 30
0.0
 41
10.0
 42
10.0
 43
10.0
 50
90.0
  0
INSERT
  5
D4DB
330
B377
100
AcDbEntity
  8
SIZE
  6
CONTINUOUS
 62
     0
100
AcDbBlockReference
  2
_ORIGIN
 10
1714.092623777738
 20
-1388.120772001104
 30
0.0
 41
10.0
 42
10.0
 43
10.0
 50
270.0
  0
MTEXT
  5
D4DC
330
B377
100
AcDbEntity
  8
SIZE
  6
CONTINUOUS
 62
     0
100
AcDbMText
 10
1662.092623777738
 20
-1265.120772001104
 30
0.0
 40
64.0
 41
0.0
 71
     5
 72
     1
  1
\A1;246
 11
0.0000000000000001
 21
1.0
 31
0.0
1001
ACAD
1000
MTEXTBEGIN
1070
    73
1070
     1
1070
    44
1040
1.0
1070
    74
1070
     0
1000
MTEXTEND
  0
POINT
  5
D4DD
330
B377
100
AcDbEntity
  8
DEFPOINTS
  6
CONTINUOUS
 62
     0
100
AcDbPoint
 10
1178.039538075492
 20
-1142.120772001104
 30
0.0
  0
POINT
  5
D4DE
330
B377
100
AcDbEntity
  8
DEFPOINTS
  6
CONTINUOUS
 62
     0
100
AcDbPoint
 10
1102.039538075499
 20
-1388.120772001104
 30
0.0
  0
POINT
  5
D4DF
330
B377
100
AcDbEntity
  8
DEFPOINTS
  6
CONTINUOUS
 62
     0
100
AcDbPoint
 10
1714.092623777738
 20
-1388.120772001104
 30
0.0
  0
ENDBLK
  5
B382
330
B377
100
AcDbEntity
  8
0
100
AcDbBlockEnd
  0
BLOCK
  5
B38D
330
B383
100
AcDbEntity
  8
0
100
AcDbBlockBegin
  2
*D11
 70
     1
 10
0.0
 20
0.0
 30
0.0
  3
*D11
  1

  0
LINE
  5
D4E9
330
B383
100
AcDbEntity
  8
SIZE
  6
CONTINUOUS
 62
     0
100
AcDbLine
 10
1198.039538075492
 20
-1142.120772001104
 30
0.0
 11
1438.014684926915
 21
-1142.120772001104
 31
0.0
  0
LINE
  5
D4EA
330
B383
100
AcDbEntity
  8
SIZE
  6
CONTINUOUS
 62
     0
100
AcDbLine
 10
1087.0395380755
 20
-1322.120772001104
 30
0.0
 11
1438.014684926915
 21
-1322.120772001104
 31
0.0
  0
LINE
  5
D4EB
330
B383
100
AcDbEntity
  8
SIZE
  6
CONTINUOUS
 62
     0
100
AcDbLine
 10
1408.014684926915
 20
-1152.120772001104
 30
0.0
 11
1408.014684926915
 21
-1312.120772001104
 31
0.0
  0
INSERT
  5
D4EC
330
B383
100
AcDbEntity
  8
SIZE
  6
CONTINUOUS
 62
     0
100
AcDbBlockReference
  2
_ORIGIN
 10
1408.014684926915
 20
-1142.120772001104
 30
0.0
 41
10.0
 42
10.0
 43
10.0
 50
90.0
  0
INSERT
  5
D4ED
330
B383
100
AcDbEntity
  8
SIZE
  6
CONTINUOUS
 62
     0
100
AcDbBlockReference
  2
_ORIGIN
 10
1408.014684926915
 20
-1322.120772001104
 30
0.0
 41
10.0
 42
10.0
 43
10.0
 50
270.0
  0
MTEXT
  5
D4EE
330
B383
100
AcDbEntity
  8
SIZE
  6
CONTINUOUS
 62
     0
100
AcDbMText
 10
1356.014684926915
 20
-1232.120772001104
 30
0.0
 40
64.0
 41
0.0
 71
     5
 72
     1
  1
\A1;180
 11
0.0000000000000001
 21
1.0
 31
0.0
1001
ACAD
1000
MTEXTBEGIN
1070
    73
1070
     1
1070
    44
1040
1.0
1070
    74
1070
     0
1000
MTEXTEND
  0
POINT
  5
D4EF
330
B383
100
AcDbEntity
  8
DEFPOINTS
  6
CONTINUOUS
 62
     0
100
AcDbPoint
 10
1178.039538075492
 20
-1142.120772001104
 30
0.0
  0
POINT
  5
D4F0
330
B383
100
AcDbEntity
  8
DEFPOINTS
  6
CONTINUOUS
 62
     0
100
AcDbPoint
 10
1067.039538075499
 20
-1322.120772001104
 30
0.0
  0
POINT
  5
D4F1
330
B383
100
AcDbEntity
  8
DEFPOINTS
  6
CONTINUOUS
 62
     0
100
AcDbPoint
 10
1408.014684926915
 20
-1322.120772001104
 30
0.0
  0
ENDBLK
  5
B38E
330
B383
100
AcDbEntity
  8
0
100
AcDbBlockEnd
  0
BLOCK
  5
B399
330
B38F
100
AcDbEntity
  8
0
100
AcDbBlockBegin
  2
*D12
 70
     1
 10
0.0
 20
0.0
 30
0.0
  3
*D12
  1

  0
LINE
  5
D4E0
330
B38F
100
AcDbEntity
  8
SIZE
  6
CONTINUOUS
 62
     0
100
AcDbLine
 10
1198.039538075492
 20
-1142.120772001104
 30
0.0
 11
1591.625749167222
 21
-1142.120772001104
 31
0.0
  0
LINE
  5
D4E1
330
B38F
100
AcDbEntity
  8
SIZE
  6
CONTINUOUS
 62
     0
100
AcDbLine
 10
1172.039538075499
 20
-1342.120772001104
 30
0.0
 11
1591.625749167222
 21
-1342.120772001104
 31
0.0
  0
LINE
  5
D4E2
330
B38F
100
AcDbEntity
  8
SIZE
  6
CONTINUOUS
 62
     0
100
AcDbLine
 10
1561.625749167222
 20
-1152.120772001104
 30
0.0
 11
1561.625749167222
 21
-1332.120772001104
 31
0.0
  0
INSERT
  5
D4E3
330
B38F
100
AcDbEntity
  8
SIZE
  6
CONTINUOUS
 62
     0
100
AcDbBlockReference
  2
_ORIGIN
 10
1561.625749167222
 20
-1142.120772001104
 30
0.0
 41
10.0
 42
10.0
 43
10.0
 50
90.0
  0
INSERT
  5
D4E4
330
B38F
100
AcDbEntity
  8
SIZE
  6
CONTINUOUS
 62
     0
100
AcDbBlockReference
  2
_ORIGIN
 10
1561.625749167222
 20
-1342.120772001104
 30
0.0
 41
10.0
 42
10.0
 43
10.0
 50
270.0
  0
MTEXT
  5
D4E5
330
B38F
100
AcDbEntity
  8
SIZE
  6
CONTINUOUS
 62
     0
100
AcDbMText
 10
1509.625749167222
 20
-1242.120772001104
 30
0.0
 40
64.0
 41
0.0
 71
     5
 72
     1
  1
\A1;200
 11
0.0000000000000001
 21
1.0
 31
0.0
1001
ACAD
1000
MTEXTBEGIN
1070
    73
1070
     1
1070
    44
1040
1.0
1070
    74
1070
     0
1000
MTEXTEND
  0
POINT
  5
D4E6
330
B38F
100
AcDbEntity
  8
DEFPOINTS
  6
CONTINUOUS
 62
     0
100
AcDbPoint
 10
1178.039538075492
 20
-1142.120772001104
 30
0.0
  0
POINT
  5
D4E7
330
B38F
100
AcDbEntity
  8
DEFPOINTS
  6
CONTINUOUS
 62
     0
100
AcDbPoint
 10
1152.039538075499
 20
-1342.120772001104
 30
0.0
  0
POINT
  5
D4E8
330
B38F
100
AcDbEntity
  8
DEFPOINTS
  6
CONTINUOUS
 62
     0
100
AcDbPoint
 10
1561.625749167222
 20
-1342.120772001104
 30
0.0
  0
ENDBLK
  5
B39A
330
B38F
100
AcDbEntity
  8
0
100
AcDbBlockEnd
  0
BLOCK
  5
B3A5
330
B39B
100
AcDbEntity
  8
0
100
AcDbBlockBegin
  2
*D13
 70
     1
 10
0.0
 20
0.0
 30
0.0
  3
*D13
  1

  0
LINE
  5
D4FC
330
B39B
100
AcDbEntity
  8
SIZE
  6
CONTINUOUS
 62
     0
100
AcDbLine
 10
1132.039538075499
 20
-1305.120772001104
 30
0.0
 11
1132.039538075499
 21
-1013.13228140059
 31
0.0
  0
LINE
  5
D4FD
330
B39B
100
AcDbEntity
  8
SIZE
  6
CONTINUOUS
 62
     0
100
AcDbLine
 10
1047.039538075499
 20
-1286.120772001104
 30
0.0
 11
1047.039538075499
 21
-1013.13228140059
 31
0.0
  0
LINE
  5
D4FE
330
B39B
100
AcDbEntity
  8
SIZE
  6
CONTINUOUS
 62
     0
100
AcDbLine
 10
1122.039538075499
 20
-1043.13228140059
 30
0.0
 11
1057.039538075499
 21
-1043.13228140059
 31
0.0
  0
INSERT
  5
D4FF
330
B39B
100
AcDbEntity
  8
SIZE
  6
CONTINUOUS
 62
     0
100
AcDbBlockReference
  2
_ORIGIN
 10
1132.039538075499
 20
-1043.13228140059
 30
0.0
 41
10.0
 42
10.0
 43
10.0
  0
INSERT
  5
D500
330
B39B
100
AcDbEntity
  8
SIZE
  6
CONTINUOUS
 62
     0
100
AcDbBlockReference
  2
_ORIGIN
 10
1047.039538075499
 20
-1043.13228140059
 30
0.0
 41
10.0
 42
10.0
 43
10.0
 50
180.0
  0
MTEXT
  5
D501
330
B39B
100
AcDbEntity
  8
SIZE
  6
CONTINUOUS
 62
     0
100
AcDbMText
 10
1089.539538075499
 20
-991.1322814005908
 30
0.0
 40
64.0
 41
0.0
 71
     5
 72
     1
  1
\A1;85
1001
ACAD
1000
MTEXTBEGIN
1070
    73
1070
     1
1070
    44
1040
1.0
1070
    74
1070
     0
1000
MTEXTEND
  0
POINT
  5
D502
330
B39B
100
AcDbEntity
  8
DEFPOINTS
  6
CONTINUOUS
 62
     0
100
AcDbPoint
 10
1132.039538075499
 20
-1325.120772001104
 30
0.0
  0
POINT
  5
D503
330
B39B
100
AcDbEntity
  8
DEFPOINTS
  6
CONTINUOUS
 62
     0
100
AcDbPoint
 10
1047.039538075499
 20
-1306.120772001104
 30
0.0
  0
POINT
  5
D504
330
B39B
100
AcDbEntity
  8
DEFPOINTS
  6
CONTINUOUS
 62
     0
100
AcDbPoint
 10
1047.039538075499
 20
-1043.13228140059
 30
0.0
  0
ENDBLK
  5
B3A6
330
B39B
100
AcDbEntity
  8
0
100
AcDbBlockEnd
  0
BLOCK
  5
B3B2
330
B3A7
100
AcDbEntity
  8
0
100
AcDbBlockBegin
  2
*D14
 70
     1
 10
0.0
 20
0.0
 30
0.0
  3
*D14
  1

  0
LINE
  5
D4F2
330
B3A7
100
AcDbEntity
  8
SIZE
  6
CONTINUOUS
 62
     0
100
AcDbLine
 10
1220.0395380755
 20
-1123.836582001109
 30
0.0
 11
1220.0395380755
 21
-1013.13228140059
 31
0.0
  0
LINE
  5
D4F3
330
B3A7
100
AcDbEntity
  8
SIZE
  6
CONTINUOUS
 62
     0
100
AcDbLine
 10
1132.039538075499
 20
-1305.120772001104
 30
0.0
 11
1132.039538075499
 21
-1013.13228140059
 31
0.0
  0
LINE
  5
D4F4
330
B3A7
100
AcDbEntity
  8
SIZE
  6
CONTINUOUS
 62
     0
100
AcDbLine
 10
1142.039538075499
 20
-1043.13228140059
 30
0.0
 11
1210.0395380755
 21
-1043.13228140059
 31
0.0
  0
LINE
  5
D4F5
330
B3A7
100
AcDbEntity
  8
SIZE
  6
CONTINUOUS
 62
     0
100
AcDbLine
 10
1220.0395380755
 20
-1043.13228140059
 30
0.0
 11
1363.296680932642
 21
-1043.13228140059
 31
0.0
  0
INSERT
  5
D4F6
330
B3A7
100
AcDbEntity
  8
SIZE
  6
CONTINUOUS
 62
     0
100
AcDbBlockReference
  2
_ORIGIN
 10
1132.039538075499
 20
-1043.13228140059
 30
0.0
 41
10.0
 42
10.0
 43
10.0
 50
180.0
  0
INSERT
  5
D4F7
330
B3A7
100
AcDbEntity
  8
SIZE
  6
CONTINUOUS
 62
     0
100
AcDbBlockReference
  2
_ORIGIN
 10
1220.0395380755
 20
-1043.13228140059
 30
0.0
 41
10.0
 42
10.0
 43
10.0
  0
MTEXT
  5
D4F8
330
B3A7
100
AcDbEntity
  8
SIZE
  6
CONTINUOUS
 62
     0
100
AcDbMText
 10
1296.668109504071
 20
-991.1322814005908
 30
0.0
 40
64.0
 41
0.0
 71
     5
 72
     1
  1
\A1;88
1001
ACAD
1000
MTEXTBEGIN
1070
    73
1070
     1
1070
    44
1040
1.0
1070
    74
1070
     0
1000
MTEXTEND
  0
POINT
  5
D4F9
330
B3A7
100
AcDbEntity
  8
DEFPOINTS
  6
CONTINUOUS
 62
     0
100
AcDbPoint
 10
1220.0395380755
 20
-1143.836582001109
 30
0.0
  0
POINT
  5
D4FA
330
B3A7
100
AcDbEntity
  8
DEFPOINTS
  6
CONTINUOUS
 62
     0
100
AcDbPoint
 10
1132.039538075499
 20
-1325.120772001104
 30
0.0
  0
POINT
  5
D4FB
330
B3A7
100
AcDbEntity
  8
DEFPOINTS
  6
CONTINUOUS
 62
     0
100
AcDbPoint
 10
1132.039538075499
 20
-1043.13228140059
 30
0.0
  0
ENDBLK
  5
B3B3
330
B3A7
100
AcDbEntity
  8
0
100
AcDbBlockEnd
  0
BLOCK
  5
B3BF
330
B3B4
100
AcDbEntity
  8
0
100
AcDbBlockBegin
  2
*D15
 70
     1
 10
0.0
 20
0.0
 30
0.0
  3
*D15
  1

  0
LINE
  5
D2E1
330
B3B4
100
AcDbEntity
  8
SIZE
  6
CONTINUOUS
 62
     0
100
AcDbLine
 10
1080.039538075499
 20
-1428.120772001104
 30
0.0
 11
1080.039538075499
 21
-1682.457273847212
 31
0.0
  0
LINE
  5
D2E2
330
B3B4
100
AcDbEntity
  8
SIZE
  6
CONTINUOUS
 62
     0
100
AcDbLine
 10
1220.0395380755
 20
-1610.491652001106
 30
0.0
 11
1220.0395380755
 21
-1682.457273847212
 31
0.0
  0
LINE
  5
D2E3
330
B3B4
100
AcDbEntity
  8
SIZE
  6
CONTINUOUS
 62
     0
100
AcDbLine
 10
1210.0395380755
 20
-1652.457273847212
 30
0.0
 11
1090.039538075499
 21
-1652.457273847212
 31
0.0
  0
LINE
  5
D2E4
330
B3B4
100
AcDbEntity
  8
SIZE
  6
CONTINUOUS
 62
     0
100
AcDbLine
 10
1080.039538075499
 20
-1652.457273847212
 30
0.0
 11
892.8966809326421
 21
-1652.457273847212
 31
0.0
  0
INSERT
  5
D2E5
330
B3B4
100
AcDbEntity
  8
SIZE
  6
CONTINUOUS
 62
     0
100
AcDbBlockReference
  2
_ORIGIN
 10
1220.0395380755
 20
-1652.457273847212
 30
0.0
 41
10.0
 42
10.0
 43
10.0
  0
INSERT
  5
D2E6
330
B3B4
100
AcDbEntity
  8
SIZE
  6
CONTINUOUS
 62
     0
100
AcDbBlockReference
  2
_ORIGIN
 10
1080.039538075499
 20
-1652.457273847212
 30
0.0
 41
10.0
 42
10.0
 43
10.0
 50
180.0
  0
MTEXT
  5
D2E7
330
B3B4
100
AcDbEntity
  8
SIZE
  6
CONTINUOUS
 62
     0
100
AcDbMText
 10
981.4681095040706
 20
-1600.457273847212
 30
0.0
 40
64.0
 41
0.0
 71
     5
 72
     1
  1
\A1;140
1001
ACAD
1000
MTEXTBEGIN
1070
    73
1070
     1
1070
    44
1040
1.0
1070
    74
1070
     0
1000
MTEXTEND
  0
POINT
  5
D2E8
330
B3B4
100
AcDbEntity
  8
DEFPOINTS
  6
CONTINUOUS
 62
     0
100
AcDbPoint
 10
1080.039538075499
 20
-1408.120772001104
 30
0.0
  0
POINT
  5
D2E9
330
B3B4
100
AcDbEntity
  8
DEFPOINTS
  6
CONTINUOUS
 62
     0
100
AcDbPoint
 10
1220.0395380755
 20
-1590.491652001106
 30
0.0
  0
POINT
  5
D2EA
330
B3B4
100
AcDbEntity
  8
DEFPOINTS
  6
CONTINUOUS
 62
     0
100
AcDbPoint
 10
1220.0395380755
 20
-1652.457273847212
 30
0.0
  0
ENDBLK
  5
B3C0
330
B3B4
100
AcDbEntity
  8
0
100
AcDbBlockEnd
  0
BLOCK
  5
B3CD
330
B3C1
100
AcDbEntity
  8
0
100
AcDbBlockBegin
  2
*D16
 70
     1
 10
0.0
 20
0.0
 30
0.0
  3
*D16
  1

  0
LINE
  5
D2F4
330
B3C1
100
AcDbEntity
  8
SIZE
  6
CONTINUOUS
 62
     0
100
AcDbLine
 10
-381.960461924491
 20
-1617.763249778102
 30
0.0
 11
-381.960461924491
 21
-2186.994690878305
 31
0.0
  0
LINE
  5
D2F5
330
B3C1
100
AcDbEntity
  8
SIZE
  6
CONTINUOUS
 62
     0
100
AcDbLine
 10
-383.9604619244965
 20
-1610.491652001102
 30
0.0
 11
-383.9604619244965
 21
-2186.994690878305
 31
0.0
  0
LINE
  5
D2F6
330
B3C1
100
AcDbEntity
  8
SIZE
  6
CONTINUOUS
 62
     0
100
AcDbLine
 10
-371.960461924491
 20
-2156.994690878304
 30
0.0
 11
-361.960461924491
 21
-2156.994690878304
 31
0.0
  0
LINE
  5
D2F7
330
B3C1
100
AcDbEntity
  8
SIZE
  6
CONTINUOUS
 62
     0
100
AcDbLine
 10
-393.9604619244965
 20
-2156.994690878304
 30
0.0
 11
-485.8030940362325
 21
-2156.994690878304
 31
0.0
  0
LINE
  5
D2F8
330
B3C1
100
AcDbEntity
  8
SIZE
  6
CONTINUOUS
 62
     0
100
AcDbLine
 10
-381.960461924491
 20
-2156.994690878304
 30
0.0
 11
-383.9604619244965
 21
-2156.994690878304
 31
0.0
  0
INSERT
  5
D2F9
330
B3C1
100
AcDbEntity
  8
SIZE
  6
CONTINUOUS
 62
     0
100
AcDbBlockReference
  2
_ORIGIN
 10
-381.960461924491
 20
-2156.994690878304
 30
0.0
 41
10.0
 42
10.0
 43
10.0
 50
180.0
  0
INSERT
  5
D2FA
330
B3C1
100
AcDbEntity
  8
SIZE
  6
CONTINUOUS
 62
     0
100
AcDbBlockReference
  2
_ORIGIN
 10
-383.9604619244965
 20
-2156.994690878304
 30
0.0
 41
10.0
 42
10.0
 43
10.0
  0
MTEXT
  5
D2FB
330
B3C1
100
AcDbEntity
  8
SIZE
  6
CONTINUOUS
 62
     0
100
AcDbMText
 10
-446.6030940362324
 20
-2104.994690878304
 30
0.0
 40
64.0
 41
0.0
 71
     5
 72
     1
  1
\A1;2
1001
ACAD
1000
MTEXTBEGIN
1070
    73
1070
     1
1070
    44
1040
1.0
1070
    74
1070
     0
1000
MTEXTEND
  0
POINT
  5
D2FC
330
B3C1
100
AcDbEntity
  8
DEFPOINTS
  6
CONTINUOUS
 62
     0
100
AcDbPoint
 10
-381.960461924491
 20
-1597.763249778101
 30
0.0
  0
POINT
  5
D2FD
330
B3C1
100
AcDbEntity
  8
DEFPOINTS
  6
CONTINUOUS
 62
     0
100
AcDbPoint
 10
-383.9604619244965
 20
-1590.491652001102
 30
0.0
  0
POINT
  5
D2FE
330
B3C1
100
AcDbEntity
  8
DEFPOINTS
  6
CONTINUOUS
 62
     0
100
AcDbPoint
 10
-383.9604619244965
 20
-2156.994690878304
 30
0.0
  0
ENDBLK
  5
B3CE
330
B3C1
100
AcDbEntity
  8
0
100
AcDbBlockEnd
  0
BLOCK
  5
B3D9
330
B3CF
100
AcDbEntity
  8
0
100
AcDbBlockBegin
  2
*D17
 70
     1
 10
0.0
 20
0.0
 30
0.0
  3
*D17
  1

  0
LINE
  5
D2CD
330
B3CF
100
AcDbEntity
  8
SIZE
  6
CONTINUOUS
 62
     0
100
AcDbLine
 10
-360.2604619245066
 20
-1582.120772001104
 30
0.0
 11
-360.2604619245066
 21
-1997.686867749044
 31
0.0
  0
LINE
  5
D2CE
330
B3CF
100
AcDbEntity
  8
SIZE
  6
CONTINUOUS
 62
     0
100
AcDbLine
 10
1196.791828075504
 20
-1582.120772001104
 30
0.0
 11
1196.791828075504
 21
-1997.686867749044
 31
0.0
  0
LINE
  5
D2CF
330
B3CF
100
AcDbEntity
  8
SIZE
  6
CONTINUOUS
 62
     0
100
AcDbLine
 10
-350.2604619245066
 20
-1967.686867749044
 30
0.0
 11
1186.791828075503
 21
-1967.686867749044
 31
0.0
  0
INSERT
  5
D2D0
330
B3CF
100
AcDbEntity
  8
SIZE
  6
CONTINUOUS
 62
     0
100
AcDbBlockReference
  2
_ORIGIN
 10
-360.2604619245066
 20
-1967.686867749044
 30
0.0
 41
10.0
 42
10.0
 43
10.0
 50
180.0
  0
INSERT
  5
D2D1
330
B3CF
100
AcDbEntity
  8
SIZE
  6
CONTINUOUS
 62
     0
100
AcDbBlockReference
  2
_ORIGIN
 10
1196.791828075504
 20
-1967.686867749044
 30
0.0
 41
10.0
 42
10.0
 43
10.0
  0
MTEXT
  5
D2D2
330
B3CF
100
AcDbEntity
  8
SIZE
  6
CONTINUOUS
 62
     0
100
AcDbMText
 10
418.2656830754986
 20
-1915.686867749044
 30
0.0
 40
64.0
 41
0.0
 71
     5
 72
     1
  1
\A1;1557
1001
ACAD
1000
MTEXTBEGIN
1070
    73
1070
     1
1070
    44
1040
1.0
1070
    74
1070
     0
1000
MTEXTEND
  0
POINT
  5
D2D3
330
B3CF
100
AcDbEntity
  8
DEFPOINTS
  6
CONTINUOUS
 62
     0
100
AcDbPoint
 10
-360.2604619245066
 20
-1562.120772001104
 30
0.0
  0
POINT
  5
D2D4
330
B3CF
100
AcDbEntity
  8
DEFPOINTS
  6
CONTINUOUS
 62
     0
100
AcDbPoint
 10
1196.791828075504
 20
-1562.120772001104
 30
0.0
  0
POINT
  5
D2D5
330
B3CF
100
AcDbEntity
  8
DEFPOINTS
  6
CONTINUOUS
 62
     0
100
AcDbPoint
 10
1196.791828075504
 20
-1967.686867749044
 30
0.0
  0
ENDBLK
  5
B3DA
330
B3CF
100
AcDbEntity
  8
0
100
AcDbBlockEnd
  0
BLOCK
  5
B3E5
330
B3DB
100
AcDbEntity
  8
0
100
AcDbBlockBegin
  2
*D18
 70
     1
 10
0.0
 20
0.0
 30
0.0
  3
*D18
  1

  0
LINE
  5
D2EB
330
B3DB
100
AcDbEntity
  8
SIZE
  6
CONTINUOUS
 62
     0
100
AcDbLine
 10
-383.9604619244965
 20
-1610.491652001102
 30
0.0
 11
-383.9604619244965
 21
-2334.141642539168
 31
0.0
  0
LINE
  5
D2EC
330
B3DB
100
AcDbEntity
  8
SIZE
  6
CONTINUOUS
 62
     0
100
AcDbLine
 10
1220.0395380755
 20
-1610.491652001106
 30
0.0
 11
1220.0395380755
 21
-2334.141642539168
 31
0.0
  0
LINE
  5
D2ED
330
B3DB
100
AcDbEntity
  8
SIZE
  6
CONTINUOUS
 62
     0
100
AcDbLine
 10
-373.9604619244965
 20
-2304.141642539168
 30
0.0
 11
1210.0395380755
 21
-2304.141642539168
 31
0.0
  0
INSERT
  5
D2EE
330
B3DB
100
AcDbEntity
  8
SIZE
  6
CONTINUOUS
 62
     0
100
AcDbBlockReference
  2
_ORIGIN
 10
-383.9604619244965
 20
-2304.141642539168
 30
0.0
 41
10.0
 42
10.0
 43
10.0
 50
180.0
  0
INSERT
  5
D2EF
330
B3DB
100
AcDbEntity
  8
SIZE
  6
CONTINUOUS
 62
     0
100
AcDbBlockReference
  2
_ORIGIN
 10
1220.0395380755
 20
-2304.141642539168
 30
0.0
 41
10.0
 42
10.0
 43
10.0
  0
MTEXT
  5
D2F0
330
B3DB
100
AcDbEntity
  8
SIZE
  6
CONTINUOUS
 62
     0
100
AcDbMText
 10
418.0395380755016
 20
-2252.141642539168
 30
0.0
 40
64.0
 41
0.0
 71
     5
 72
     1
  1
\A1;1604
1001
ACAD
1000
MTEXTBEGIN
1070
    73
1070
     1
1070
    44
1040
1.0
1070
    74
1070
     0
1000
MTEXTEND
  0
POINT
  5
D2F1
330
B3DB
100
AcDbEntity
  8
DEFPOINTS
  6
CONTINUOUS
 62
     0
100
AcDbPoint
 10
-383.9604619244965
 20
-1590.491652001102
 30
0.0
  0
POINT
  5
D2F2
330
B3DB
100
AcDbEntity
  8
DEFPOINTS
  6
CONTINUOUS
 62
     0
100
AcDbPoint
 10
1220.0395380755
 20
-1590.491652001106
 30
0.0
  0
POINT
  5
D2F3
330
B3DB
100
AcDbEntity
  8
DEFPOINTS
  6
CONTINUOUS
 62
     0
100
AcDbPoint
 10
1220.0395380755
 20
-2304.141642539168
 30
0.0
  0
ENDBLK
  5
B3E6
330
B3DB
100
AcDbEntity
  8
0
100
AcDbBlockEnd
  0
BLOCK
  5
B3F1
330
B3E7
100
AcDbEntity
  8
0
100
AcDbBlockBegin
  2
*D19
 70
     1
 10
0.0
 20
0.0
 30
0.0
  3
*D19
  1

  0
LINE
  5
D441
330
B3E7
100
AcDbEntity
  8
SIZE
  6
CONTINUOUS
 62
     0
100
AcDbLine
 10
-381.960461924491
 20
-1617.763249778102
 30
0.0
 11
-381.960461924491
 21
-2186.994690878305
 31
0.0
  0
LINE
  5
D442
330
B3E7
100
AcDbEntity
  8
SIZE
  6
CONTINUOUS
 62
     0
100
AcDbLine
 10
1218.039538075492
 20
-1624.491652001102
 30
0.0
 11
1218.039538075492
 21
-2186.994690878305
 31
0.0
  0
LINE
  5
D443
330
B3E7
100
AcDbEntity
  8
SIZE
  6
CONTINUOUS
 62
     0
100
AcDbLine
 10
-371.960461924491
 20
-2156.994690878304
 30
0.0
 11
1208.039538075492
 21
-2156.994690878304
 31
0.0
  0
INSERT
  5
D444
330
B3E7
100
AcDbEntity
  8
SIZE
  6
CONTINUOUS
 62
     0
100
AcDbBlockReference
  2
_ORIGIN
 10
-381.960461924491
 20
-2156.994690878304
 30
0.0
 41
10.0
 42
10.0
 43
10.0
 50
180.0
  0
INSERT
  5
D445
330
B3E7
100
AcDbEntity
  8
SIZE
  6
CONTINUOUS
 62
     0
100
AcDbBlockReference
  2
_ORIGIN
 10
1218.039538075492
 20
-2156.994690878304
 30
0.0
 41
10.0
 42
10.0
 43
10.0
  0
MTEXT
  5
D446
330
B3E7
100
AcDbEntity
  8
SIZE
  6
CONTINUOUS
 62
     0
100
AcDbMText
 10
418.0395380755007
 20
-2104.994690878304
 30
0.0
 40
64.0
 41
0.0
 71
     5
 72
     1
  1
\A1;1600
1001
ACAD
1000
MTEXTBEGIN
1070
    73
1070
     1
1070
    44
1040
1.0
1070
    74
1070
     0
1000
MTEXTEND
  0
POINT
  5
D447
330
B3E7
100
AcDbEntity
  8
DEFPOINTS
  6
CONTINUOUS
 62
     0
100
AcDbPoint
 10
-381.960461924491
 20
-1597.763249778101
 30
0.0
  0
POINT
  5
D448
330
B3E7
100
AcDbEntity
  8
DEFPOINTS
  6
CONTINUOUS
 62
     0
100
AcDbPoint
 10
1218.039538075492
 20
-1604.491652001103
 30
0.0
  0
POINT
  5
D449
330
B3E7
100
AcDbEntity
  8
DEFPOINTS
  6
CONTINUOUS
 62
     0
100
AcDbPoint
 10
1218.039538075492
 20
-2156.994690878304
 30
0.0
  0
ENDBLK
  5
B3F2
330
B3E7
100
AcDbEntity
  8
0
100
AcDbBlockEnd
  0
BLOCK
  5
B3FF
330
B3F3
100
AcDbEntity
  8
0
100
AcDbBlockBegin
  2
*D20
 70
     1
 10
0.0
 20
0.0
 30
0.0
  3
*D20
  1

  0
LINE
  5
D2D6
330
B3F3
100
AcDbEntity
  8
SIZE
  6
CONTINUOUS
 62
     0
100
AcDbLine
 10
1218.039538075492
 20
-1624.491652001133
 30
0.0
 11
1218.039538075492
 21
-2186.994690878305
 31
0.0
  0
LINE
  5
D2D7
330
B3F3
100
AcDbEntity
  8
SIZE
  6
CONTINUOUS
 62
     0
100
AcDbLine
 10
1220.039538075501
 20
-1610.491652001106
 30
0.0
 11
1220.039538075501
 21
-2186.994690878305
 31
0.0
  0
LINE
  5
D2D8
330
B3F3
100
AcDbEntity
  8
SIZE
  6
CONTINUOUS
 62
     0
100
AcDbLine
 10
1208.039538075492
 20
-2156.994690878304
 30
0.0
 11
1198.039538075492
 21
-2156.994690878304
 31
0.0
  0
LINE
  5
D2D9
330
B3F3
100
AcDbEntity
  8
SIZE
  6
CONTINUOUS
 62
     0
100
AcDbLine
 10
1230.039538075501
 20
-2156.994690878304
 30
0.0
 11
1319.810966646931
 21
-2156.994690878304
 31
0.0
  0
LINE
  5
D2DA
330
B3F3
100
AcDbEntity
  8
SIZE
  6
CONTINUOUS
 62
     0
100
AcDbLine
 10
1218.039538075492
 20
-2156.994690878304
 30
0.0
 11
1220.039538075501
 21
-2156.994690878304
 31
0.0
  0
INSERT
  5
D2DB
330
B3F3
100
AcDbEntity
  8
SIZE
  6
CONTINUOUS
 62
     0
100
AcDbBlockReference
  2
_ORIGIN
 10
1218.039538075492
 20
-2156.994690878304
 30
0.0
 41
10.0
 42
10.0
 43
10.0
  0
INSERT
  5
D2DC
330
B3F3
100
AcDbEntity
  8
SIZE
  6
CONTINUOUS
 62
     0
100
AcDbBlockReference
  2
_ORIGIN
 10
1220.039538075501
 20
-2156.994690878304
 30
0.0
 41
10.0
 42
10.0
 43
10.0
 50
180.0
  0
MTEXT
  5
D2DD
330
B3F3
100
AcDbEntity
  8
SIZE
  6
CONTINUOUS
 62
     0
100
AcDbMText
 10
1280.610966646931
 20
-2104.994690878304
 30
0.0
 40
64.0
 41
0.0
 71
     5
 72
     1
  1
\A1;2
1001
ACAD
1000
MTEXTBEGIN
1070
    73
1070
     1
1070
    44
1040
1.0
1070
    74
1070
     0
1000
MTEXTEND
  0
POINT
  5
D2DE
330
B3F3
100
AcDbEntity
  8
DEFPOINTS
  6
CONTINUOUS
 62
     0
100
AcDbPoint
 10
1218.039538075492
 20
-1604.491652001133
 30
0.0
  0
POINT
  5
D2DF
330
B3F3
100
AcDbEntity
  8
DEFPOINTS
  6
CONTINUOUS
 62
     0
100
AcDbPoint
 10
1220.039538075501
 20
-1590.491652001106
 30
0.0
  0
POINT
  5
D2E0
330
B3F3
100
AcDbEntity
  8
DEFPOINTS
  6
CONTINUOUS
 62
     0
100
AcDbPoint
 10
1220.039538075501
 20
-2156.994690878304
 30
0.0
  0
ENDBLK
  5
B400
330
B3F3
100
AcDbEntity
  8
0
100
AcDbBlockEnd
  0
BLOCK
  5
B6E0
330
B6D6
100
AcDbEntity
  8
0
100
AcDbBlockBegin
  2
*D21
 70
     1
 10
0.0
 20
0.0
 30
0.0
  3
*D21
  1

  0
LINE
  5
D426
330
B6D6
100
AcDbEntity
  8
SIZE
  6
CONTINUOUS
 62
     0
100
AcDbLine
 10
-328.4604619245037
 20
-3067.307728352439
 30
0.0
 11
-328.4604619245037
 21
-3324.166247972182
 31
0.0
  0
LINE
  5
D427
330
B6D6
100
AcDbEntity
  8
SIZE
  6
CONTINUOUS
 62
     0
100
AcDbLine
 10
1164.239538075515
 20
-3067.307728352434
 30
0.0
 11
1164.239538075515
 21
-3324.166247972182
 31
0.0
  0
LINE
  5
D428
330
B6D6
100
AcDbEntity
  8
SIZE
  6
CONTINUOUS
 62
     0
100
AcDbLine
 10
-318.4604619245037
 20
-3294.166247972182
 30
0.0
 11
1154.239538075515
 21
-3294.166247972182
 31
0.0
  0
INSERT
  5
D429
330
B6D6
100
AcDbEntity
  8
SIZE
  6
CONTINUOUS
 62
     0
100
AcDbBlockReference
  2
_ORIGIN
 10
-328.4604619245037
 20
-3294.166247972182
 30
0.0
 41
10.0
 42
10.0
 43
10.0
 50
180.0
  0
INSERT
  5
D42A
330
B6D6
100
AcDbEntity
  8
SIZE
  6
CONTINUOUS
 62
     0
100
AcDbBlockReference
  2
_ORIGIN
 10
1164.239538075515
 20
-3294.166247972182
 30
0.0
 41
10.0
 42
10.0
 43
10.0
  0
MTEXT
  5
D42B
330
B6D6
100
AcDbEntity
  8
SIZE
  6
CONTINUOUS
 62
     0
100
AcDbMText
 10
417.8895380755056
 20
-3242.166247972182
 30
0.0
 40
64.0
 41
0.0
 71
     5
 72
     1
  1
\A1;1493
1001
ACAD
1000
MTEXTBEGIN
1070
    73
1070
     1
1070
    44
1040
1.0
1070
    74
1070
     0
1000
MTEXTEND
  0
POINT
  5
D42C
330
B6D6
100
AcDbEntity
  8
DEFPOINTS
  6
CONTINUOUS
 62
     0
100
AcDbPoint
 10
-328.4604619245037
 20
-3047.307728352439
 30
0.0
  0
POINT
  5
D42D
330
B6D6
100
AcDbEntity
  8
DEFPOINTS
  6
CONTINUOUS
 62
     0
100
AcDbPoint
 10
1164.239538075515
 20
-3047.307728352434
 30
0.0
  0
POINT
  5
D42E
330
B6D6
100
AcDbEntity
  8
DEFPOINTS
  6
CONTINUOUS
 62
     0
100
AcDbPoint
 10
1164.239538075515
 20
-3294.166247972182
 30
0.0
  0
ENDBLK
  5
B6E1
330
B6D6
100
AcDbEntity
  8
0
100
AcDbBlockEnd
  0
BLOCK
  5
B6EC
330
B6E2
100
AcDbEntity
  8
0
100
AcDbBlockBegin
  2
*D22
 70
     1
 10
0.0
 20
0.0
 30
0.0
  3
*D22
  1

  0
LINE
  5
D3BD
330
B6E2
100
AcDbEntity
  8
SIZE
  6
CONTINUOUS
 62
     0
100
AcDbLine
 10
-381.9604619245073
 20
-3143.647928352434
 30
0.0
 11
-381.9604619245073
 21
-3447.107845998235
 31
0.0
  0
LINE
  5
D3BE
330
B6E2
100
AcDbEntity
  8
SIZE
  6
CONTINUOUS
 62
     0
100
AcDbLine
 10
1217.7395380755
 20
-3143.647928352434
 30
0.0
 11
1217.7395380755
 21
-3447.107845998235
 31
0.0
  0
LINE
  5
D3BF
330
B6E2
100
AcDbEntity
  8
SIZE
  6
CONTINUOUS
 62
     0
100
AcDbLine
 10
-371.9604619245074
 20
-3417.107845998235
 30
0.0
 11
1207.7395380755
 21
-3417.107845998235
 31
0.0
  0
INSERT
  5
D3C0
330
B6E2
100
AcDbEntity
  8
SIZE
  6
CONTINUOUS
 62
     0
100
AcDbBlockReference
  2
_ORIGIN
 10
-381.9604619245073
 20
-3417.107845998235
 30
0.0
 41
10.0
 42
10.0
 43
10.0
 50
180.0
  0
INSERT
  5
D3C1
330
B6E2
100
AcDbEntity
  8
SIZE
  6
CONTINUOUS
 62
     0
100
AcDbBlockReference
  2
_ORIGIN
 10
1217.7395380755
 20
-3417.107845998235
 30
0.0
 41
10.0
 42
10.0
 43
10.0
  0
MTEXT
  5
D3C2
330
B6E2
100
AcDbEntity
  8
SIZE
  6
CONTINUOUS
 62
     0
100
AcDbMText
 10
417.8895380754966
 20
-3365.107845998235
 30
0.0
 40
64.0
 41
0.0
 71
     5
 72
     1
  1
\A1;1600
1001
ACAD
1000
MTEXTBEGIN
1070
    73
1070
     1
1070
    44
1040
1.0
1070
    74
1070
     0
1000
MTEXTEND
  0
POINT
  5
D3C3
330
B6E2
100
AcDbEntity
  8
DEFPOINTS
  6
CONTINUOUS
 62
     0
100
AcDbPoint
 10
-381.9604619245073
 20
-3123.647928352434
 30
0.0
  0
POINT
  5
D3C4
330
B6E2
100
AcDbEntity
  8
DEFPOINTS
  6
CONTINUOUS
 62
     0
100
AcDbPoint
 10
1217.7395380755
 20
-3123.647928352434
 30
0.0
  0
POINT
  5
D3C5
330
B6E2
100
AcDbEntity
  8
DEFPOINTS
  6
CONTINUOUS
 62
     0
100
AcDbPoint
 10
1217.7395380755
 20
-3417.107845998235
 30
0.0
  0
ENDBLK
  5
B6ED
330
B6E2
100
AcDbEntity
  8
0
100
AcDbBlockEnd
  0
BLOCK
  5
B6F8
330
B6EE
100
AcDbEntity
  8
0
100
AcDbBlockBegin
  2
*D23
 70
     1
 10
0.0
 20
0.0
 30
0.0
  3
*D23
  1

  0
LINE
  5
D42F
330
B6EE
100
AcDbEntity
  8
SIZE
  6
CONTINUOUS
 62
     0
100
AcDbLine
 10
-384.2604619244884
 20
-2875.307778352435
 30
0.0
 11
-384.2604619244884
 21
-2524.458844327913
 31
0.0
  0
LINE
  5
D430
330
B6EE
100
AcDbEntity
  8
SIZE
  6
CONTINUOUS
 62
     0
100
AcDbLine
 10
1219.739538075508
 20
-2875.307778352435
 30
0.0
 11
1219.739538075508
 21
-2524.458844327913
 31
0.0
  0
LINE
  5
D431
330
B6EE
100
AcDbEntity
  8
SIZE
  6
CONTINUOUS
 62
     0
100
AcDbLine
 10
-374.2604619244884
 20
-2554.458844327913
 30
0.0
 11
1209.739538075508
 21
-2554.458844327913
 31
0.0
  0
INSERT
  5
D432
330
B6EE
100
AcDbEntity
  8
SIZE
  6
CONTINUOUS
 62
     0
100
AcDbBlockReference
  2
_ORIGIN
 10
-384.2604619244884
 20
-2554.458844327913
 30
0.0
 41
10.0
 42
10.0
 43
10.0
 50
180.0
  0
INSERT
  5
D433
330
B6EE
100
AcDbEntity
  8
SIZE
  6
CONTINUOUS
 62
     0
100
AcDbBlockReference
  2
_ORIGIN
 10
1219.739538075508
 20
-2554.458844327913
 30
0.0
 41
10.0
 42
10.0
 43
10.0
  0
MTEXT
  5
D434
330
B6EE
100
AcDbEntity
  8
SIZE
  6
CONTINUOUS
 62
     0
100
AcDbMText
 10
417.7395380755097
 20
-2502.458844327913
 30
0.0
 40
64.0
 41
0.0
 71
     5
 72
     1
  1
\A1;1604
1001
ACAD
1000
MTEXTBEGIN
1070
    73
1070
     1
1070
    44
1040
1.0
1070
    74
1070
     0
1000
MTEXTEND
  0
POINT
  5
D435
330
B6EE
100
AcDbEntity
  8
DEFPOINTS
  6
CONTINUOUS
 62
     0
100
AcDbPoint
 10
-384.2604619244884
 20
-2895.307778352435
 30
0.0
  0
POINT
  5
D436
330
B6EE
100
AcDbEntity
  8
DEFPOINTS
  6
CONTINUOUS
 62
     0
100
AcDbPoint
 10
1219.739538075508
 20
-2895.307778352435
 30
0.0
  0
POINT
  5
D437
330
B6EE
100
AcDbEntity
  8
DEFPOINTS
  6
CONTINUOUS
 62
     0
100
AcDbPoint
 10
1219.739538075508
 20
-2554.458844327913
 30
0.0
  0
ENDBLK
  5
B6F9
330
B6EE
100
AcDbEntity
  8
0
100
AcDbBlockEnd
  0
BLOCK
  5
B704
330
B6FA
100
AcDbEntity
  8
0
100
AcDbBlockBegin
  2
*D24
 70
     1
 10
0.0
 20
0.0
 30
0.0
  3
*D24
  1

  0
LINE
  5
D438
330
B6FA
100
AcDbEntity
  8
SIZE
  6
CONTINUOUS
 62
     0
100
AcDbLine
 10
-360.2604619245066
 20
-2855.307778352435
 30
0.0
 11
-360.2604619245066
 21
-2739.798152898853
 31
0.0
  0
LINE
  5
D439
330
B6FA
100
AcDbEntity
  8
SIZE
  6
CONTINUOUS
 62
     0
100
AcDbLine
 10
1196.791828075504
 20
-2856.385970726478
 30
0.0
 11
1196.791828075504
 21
-2739.798152898853
 31
0.0
  0
LINE
  5
D43A
330
B6FA
100
AcDbEntity
  8
SIZE
  6
CONTINUOUS
 62
     0
100
AcDbLine
 10
-350.2604619245066
 20
-2769.798152898853
 30
0.0
 11
1186.791828075503
 21
-2769.798152898853
 31
0.0
  0
INSERT
  5
D43B
330
B6FA
100
AcDbEntity
  8
SIZE
  6
CONTINUOUS
 62
     0
100
AcDbBlockReference
  2
_ORIGIN
 10
-360.2604619245066
 20
-2769.798152898853
 30
0.0
 41
10.0
 42
10.0
 43
10.0
 50
180.0
  0
INSERT
  5
D43C
330
B6FA
100
AcDbEntity
  8
SIZE
  6
CONTINUOUS
 62
     0
100
AcDbBlockReference
  2
_ORIGIN
 10
1196.791828075504
 20
-2769.798152898853
 30
0.0
 41
10.0
 42
10.0
 43
10.0
  0
MTEXT
  5
D43D
330
B6FA
100
AcDbEntity
  8
SIZE
  6
CONTINUOUS
 62
     0
100
AcDbMText
 10
418.2656830754986
 20
-2717.798152898853
 30
0.0
 40
64.0
 41
0.0
 71
     5
 72
     1
  1
\A1;1557
1001
ACAD
1000
MTEXTBEGIN
1070
    73
1070
     1
1070
    44
1040
1.0
1070
    74
1070
     0
1000
MTEXTEND
  0
POINT
  5
D43E
330
B6FA
100
AcDbEntity
  8
DEFPOINTS
  6
CONTINUOUS
 62
     0
100
AcDbPoint
 10
-360.2604619245066
 20
-2875.307778352435
 30
0.0
  0
POINT
  5
D43F
330
B6FA
100
AcDbEntity
  8
DEFPOINTS
  6
CONTINUOUS
 62
     0
100
AcDbPoint
 10
1196.791828075504
 20
-2876.385970726478
 30
0.0
  0
POINT
  5
D440
330
B6FA
100
AcDbEntity
  8
DEFPOINTS
  6
CONTINUOUS
 62
     0
100
AcDbPoint
 10
1196.791828075504
 20
-2769.798152898853
 30
0.0
  0
ENDBLK
  5
B705
330
B6FA
100
AcDbEntity
  8
0
100
AcDbBlockEnd
  0
BLOCK
  5
B712
330
B706
100
AcDbEntity
  8
0
100
AcDbBlockBegin
  2
*D25
 70
     1
 10
0.0
 20
0.0
 30
0.0
  3
*D25
  1

  0
LINE
  5
D44A
330
B706
100
AcDbEntity
  8
SIZE
  6
CONTINUOUS
 62
     0
100
AcDbLine
 10
-382.2604619244957
 20
-2921.721998352431
 30
0.0
 11
-382.2604619244957
 21
-2649.381543125251
 31
0.0
  0
LINE
  5
D44B
330
B706
100
AcDbEntity
  8
SIZE
  6
CONTINUOUS
 62
     0
100
AcDbLine
 10
-384.2604619244884
 20
-2875.307778352435
 30
0.0
 11
-384.2604619244884
 21
-2649.381543125251
 31
0.0
  0
LINE
  5
D44C
330
B706
100
AcDbEntity
  8
SIZE
  6
CONTINUOUS
 62
     0
100
AcDbLine
 10
-372.2604619244957
 20
-2679.381543125251
 30
0.0
 11
-362.2604619244957
 21
-2679.381543125251
 31
0.0
  0
LINE
  5
D44D
330
B706
100
AcDbEntity
  8
SIZE
  6
CONTINUOUS
 62
     0
100
AcDbLine
 10
-394.2604619244884
 20
-2679.381543125251
 30
0.0
 11
-482.6604619244892
 21
-2679.381543125251
 31
0.0
  0
LINE
  5
D44E
330
B706
100
AcDbEntity
  8
SIZE
  6
CONTINUOUS
 62
     0
100
AcDbLine
 10
-382.2604619244957
 20
-2679.381543125251
 30
0.0
 11
-384.2604619244884
 21
-2679.381543125251
 31
0.0
  0
INSERT
  5
D44F
330
B706
100
AcDbEntity
  8
SIZE
  6
CONTINUOUS
 62
     0
100
AcDbBlockReference
  2
_ORIGIN
 10
-382.2604619244957
 20
-2679.381543125251
 30
0.0
 41
10.0
 42
10.0
 43
10.0
 50
180.0
  0
INSERT
  5
D450
330
B706
100
AcDbEntity
  8
SIZE
  6
CONTINUOUS
 62
     0
100
AcDbBlockReference
  2
_ORIGIN
 10
-384.2604619244884
 20
-2679.381543125251
 30
0.0
 41
10.0
 42
10.0
 43
10.0
  0
MTEXT
  5
D451
330
B706
100
AcDbEntity
  8
SIZE
  6
CONTINUOUS
 62
     0
100
AcDbMText
 10
-443.4604619244892
 20
-2627.381543125251
 30
0.0
 40
64.0
 41
0.0
 71
     5
 72
     1
  1
\A1;2
1001
ACAD
1000
MTEXTBEGIN
1070
    73
1070
     1
1070
    44
1040
1.0
1070
    74
1070
     0
1000
MTEXTEND
  0
POINT
  5
D452
330
B706
100
AcDbEntity
  8
DEFPOINTS
  6
CONTINUOUS
 62
     0
100
AcDbPoint
 10
-382.2604619244957
 20
-2941.721998352432
 30
0.0
  0
POINT
  5
D453
330
B706
100
AcDbEntity
  8
DEFPOINTS
  6
CONTINUOUS
 62
     0
100
AcDbPoint
 10
-384.2604619244884
 20
-2895.307778352435
 30
0.0
  0
POINT
  5
D454
330
B706
100
AcDbEntity
  8
DEFPOINTS
  6
CONTINUOUS
 62
     0
100
AcDbPoint
 10
-384.2604619244884
 20
-2679.381543125251
 30
0.0
  0
ENDBLK
  5
B713
330
B706
100
AcDbEntity
  8
0
100
AcDbBlockEnd
  0
BLOCK
  5
B71E
330
B714
100
AcDbEntity
  8
0
100
AcDbBlockBegin
  2
*D26
 70
     1
 10
0.0
 20
0.0
 30
0.0
  3
*D26
  1

  0
LINE
  5
D455
330
B714
100
AcDbEntity
  8
SIZE
  6
CONTINUOUS
 62
     0
100
AcDbLine
 10
1198.039538075492
 20
-3131.307778352429
 30
0.0
 11
1816.000037125632
 21
-3131.307778352429
 31
0.0
  0
LINE
  5
D456
330
B714
100
AcDbEntity
  8
SIZE
  6
CONTINUOUS
 62
     0
100
AcDbLine
 10
1239.739538075507
 20
-2895.307778352435
 30
0.0
 11
1816.000037125632
 21
-2895.307778352435
 31
0.0
  0
LINE
  5
D457
330
B714
100
AcDbEntity
  8
SIZE
  6
CONTINUOUS
 62
     0
100
AcDbLine
 10
1786.000037125631
 20
-3121.307778352429
 30
0.0
 11
1786.000037125631
 21
-2905.307778352435
 31
0.0
  0
INSERT
  5
D458
330
B714
100
AcDbEntity
  8
SIZE
  6
CONTINUOUS
 62
     0
100
AcDbBlockReference
  2
_ORIGIN
 10
1786.000037125631
 20
-3131.307778352429
 30
0.0
 41
10.0
 42
10.0
 43
10.0
 50
270.0
  0
INSERT
  5
D459
330
B714
100
AcDbEntity
  8
SIZE
  6
CONTINUOUS
 62
     0
100
AcDbBlockReference
  2
_ORIGIN
 10
1786.000037125631
 20
-2895.307778352435
 30
0.0
 41
10.0
 42
10.0
 43
10.0
 50
90.0
  0
MTEXT
  5
D45A
330
B714
100
AcDbEntity
  8
SIZE
  6
CONTINUOUS
 62
     0
100
AcDbMText
 10
1734.000037125632
 20
-3013.307778352432
 30
0.0
 40
64.0
 41
0.0
 71
     5
 72
     1
  1
\A1;236
 11
0.0000000000000001
 21
1.0
 31
0.0
1001
ACAD
1000
MTEXTBEGIN
1070
    73
1070
     1
1070
    44
1040
1.0
1070
    74
1070
     0
1000
MTEXTEND
  0
POINT
  5
D45B
330
B714
100
AcDbEntity
  8
DEFPOINTS
  6
CONTINUOUS
 62
     0
100
AcDbPoint
 10
1178.039538075492
 20
-3131.307778352429
 30
0.0
  0
POINT
  5
D45C
330
B714
100
AcDbEntity
  8
DEFPOINTS
  6
CONTINUOUS
 62
     0
100
AcDbPoint
 10
1219.739538075508
 20
-2895.307778352435
 30
0.0
  0
POINT
  5
D45D
330
B714
100
AcDbEntity
  8
DEFPOINTS
  6
CONTINUOUS
 62
     0
100
AcDbPoint
 10
1786.000037125631
 20
-2895.307778352435
 30
0.0
  0
ENDBLK
  5
B71F
330
B714
100
AcDbEntity
  8
0
100
AcDbBlockEnd
  0
BLOCK
  5
B72C
330
B720
100
AcDbEntity
  8
0
100
AcDbBlockBegin
  2
*D27
 70
     1
 10
0.0
 20
0.0
 30
0.0
  3
*D27
  1

  0
LINE
  5
D45E
330
B720
100
AcDbEntity
  8
SIZE
  6
CONTINUOUS
 62
     0
100
AcDbLine
 10
1198.039538075492
 20
-2901.307778352429
 30
0.0
 11
1691.982349054116
 21
-2901.307778352429
 31
0.0
  0
LINE
  5
D45F
330
B720
100
AcDbEntity
  8
SIZE
  6
CONTINUOUS
 62
     0
100
AcDbLine
 10
1239.739538075507
 20
-2895.307778352435
 30
0.0
 11
1691.982349054116
 21
-2895.307778352435
 31
0.0
  0
LINE
  5
D460
330
B720
100
AcDbEntity
  8
SIZE
  6
CONTINUOUS
 62
     0
100
AcDbLine
 10
1661.982349054116
 20
-2911.30777835243
 30
0.0
 11
1661.982349054116
 21
-2921.307778352429
 31
0.0
  0
LINE
  5
D461
330
B720
100
AcDbEntity
  8
SIZE
  6
CONTINUOUS
 62
     0
100
AcDbLine
 10
1661.982349054116
 20
-2885.307778352435
 30
0.0
 11
1661.982349054116
 21
-2799.650635495289
 31
0.0
  0
LINE
  5
D462
330
B720
100
AcDbEntity
  8
SIZE
  6
CONTINUOUS
 62
     0
100
AcDbLine
 10
1661.982349054116
 20
-2901.307778352429
 30
0.0
 11
1661.982349054116
 21
-2895.307778352435
 31
0.0
  0
INSERT
  5
D463
330
B720
100
AcDbEntity
  8
SIZE
  6
CONTINUOUS
 62
     0
100
AcDbBlockReference
  2
_ORIGIN
 10
1661.982349054116
 20
-2901.307778352429
 30
0.0
 41
10.0
 42
10.0
 43
10.0
 50
90.0
  0
INSERT
  5
D464
330
B720
100
AcDbEntity
  8
SIZE
  6
CONTINUOUS
 62
     0
100
AcDbBlockReference
  2
_ORIGIN
 10
1661.982349054116
 20
-2895.307778352435
 30
0.0
 41
10.0
 42
10.0
 43
10.0
 50
270.0
  0
MTEXT
  5
D465
330
B720
100
AcDbEntity
  8
SIZE
  6
CONTINUOUS
 62
     0
100
AcDbMText
 10
1609.982349054116
 20
-2837.47920692386
 30
0.0
 40
64.0
 41
0.0
 71
     5
 72
     1
  1
\A1;6
 11
0.0000000000000001
 21
1.0
 31
0.0
1001
ACAD
1000
MTEXTBEGIN
1070
    73
1070
     1
1070
    44
1040
1.0
1070
    74
1070
     0
1000
MTEXTEND
  0
POINT
  5
D466
330
B720
100
AcDbEntity
  8
DEFPOINTS
  6
CONTINUOUS
 62
     0
100
AcDbPoint
 10
1178.039538075492
 20
-2901.307778352429
 30
0.0
  0
POINT
  5
D467
330
B720
100
AcDbEntity
  8
DEFPOINTS
  6
CONTINUOUS
 62
     0
100
AcDbPoint
 10
1219.739538075508
 20
-2895.307778352435
 30
0.0
  0
POINT
  5
D468
330
B720
100
AcDbEntity
  8
DEFPOINTS
  6
CONTINUOUS
 62
     0
100
AcDbPoint
 10
1661.982349054116
 20
-2895.307778352435
 30
0.0
  0
ENDBLK
  5
B72D
330
B720
100
AcDbEntity
  8
0
100
AcDbBlockEnd
  0
BLOCK
  5
B738
330
B72E
100
AcDbEntity
  8
0
100
AcDbBlockBegin
  2
*D28
 70
     1
 10
0.0
 20
0.0
 30
0.0
  3
*D28
  1

  0
LINE
  5
D472
330
B72E
100
AcDbEntity
  8
SIZE
  6
CONTINUOUS
 62
     0
100
AcDbLine
 10
1198.039538075492
 20
-3131.307778352429
 30
0.0
 11
1691.982349054116
 21
-3131.307778352429
 31
0.0
  0
LINE
  5
D473
330
B72E
100
AcDbEntity
  8
SIZE
  6
CONTINUOUS
 62
     0
100
AcDbLine
 10
1198.039538075492
 20
-2901.307778352429
 30
0.0
 11
1691.982349054116
 21
-2901.307778352429
 31
0.0
  0
LINE
  5
D474
330
B72E
100
AcDbEntity
  8
SIZE
  6
CONTINUOUS
 62
     0
100
AcDbLine
 10
1661.982349054116
 20
-3121.307778352429
 30
0.0
 11
1661.982349054116
 21
-2911.30777835243
 31
0.0
  0
INSERT
  5
D475
330
B72E
100
AcDbEntity
  8
SIZE
  6
CONTINUOUS
 62
     0
100
AcDbBlockReference
  2
_ORIGIN
 10
1661.982349054116
 20
-3131.307778352429
 30
0.0
 41
10.0
 42
10.0
 43
10.0
 50
270.0
  0
INSERT
  5
D476
330
B72E
100
AcDbEntity
  8
SIZE
  6
CONTINUOUS
 62
     0
100
AcDbBlockReference
  2
_ORIGIN
 10
1661.982349054116
 20
-2901.307778352429
 30
0.0
 41
10.0
 42
10.0
 43
10.0
 50
90.0
  0
MTEXT
  5
D477
330
B72E
100
AcDbEntity
  8
SIZE
  6
CONTINUOUS
 62
     0
100
AcDbMText
 10
1609.982349054117
 20
-3016.307778352429
 30
0.0
 40
64.0
 41
0.0
 71
     5
 72
     1
  1
\A1;230
 11
0.0000000000000001
 21
1.0
 31
0.0
1001
ACAD
1000
MTEXTBEGIN
1070
    73
1070
     1
1070
    44
1040
1.0
1070
    74
1070
     0
1000
MTEXTEND
  0
POINT
  5
D478
330
B72E
100
AcDbEntity
  8
DEFPOINTS
  6
CONTINUOUS
 62
     0
100
AcDbPoint
 10
1178.039538075492
 20
-3131.307778352429
 30
0.0
  0
POINT
  5
D479
330
B72E
100
AcDbEntity
  8
DEFPOINTS
  6
CONTINUOUS
 62
     0
100
AcDbPoint
 10
1178.039538075492
 20
-2901.307778352429
 30
0.0
  0
POINT
  5
D47A
330
B72E
100
AcDbEntity
  8
DEFPOINTS
  6
CONTINUOUS
 62
     0
100
AcDbPoint
 10
1661.982349054116
 20
-2901.307778352429
 30
0.0
  0
ENDBLK
  5
B739
330
B72E
100
AcDbEntity
  8
0
100
AcDbBlockEnd
  0
BLOCK
  5
B744
330
B73A
100
AcDbEntity
  8
0
100
AcDbBlockBegin
  2
*D29
 70
     1
 10
0.0
 20
0.0
 30
0.0
  3
*D29
  1

  0
LINE
  5
D469
330
B73A
100
AcDbEntity
  8
SIZE
  6
CONTINUOUS
 62
     0
100
AcDbLine
 10
1198.039538075492
 20
-3131.307778352429
 30
0.0
 11
1572.433083309675
 21
-3131.307778352429
 31
0.0
  0
LINE
  5
D46A
330
B73A
100
AcDbEntity
  8
SIZE
  6
CONTINUOUS
 62
     0
100
AcDbLine
 10
1232.625318075508
 20
-2936.307778352433
 30
0.0
 11
1572.433083309675
 21
-2936.307778352433
 31
0.0
  0
LINE
  5
D46B
330
B73A
100
AcDbEntity
  8
SIZE
  6
CONTINUOUS
 62
     0
100
AcDbLine
 10
1542.433083309675
 20
-3121.307778352429
 30
0.0
 11
1542.433083309675
 21
-2946.307778352433
 31
0.0
  0
INSERT
  5
D46C
330
B73A
100
AcDbEntity
  8
SIZE
  6
CONTINUOUS
 62
     0
100
AcDbBlockReference
  2
_ORIGIN
 10
1542.433083309675
 20
-3131.307778352429
 30
0.0
 41
10.0
 42
10.0
 43
10.0
 50
270.0
  0
INSERT
  5
D46D
330
B73A
100
AcDbEntity
  8
SIZE
  6
CONTINUOUS
 62
     0
100
AcDbBlockReference
  2
_ORIGIN
 10
1542.433083309675
 20
-2936.307778352433
 30
0.0
 41
10.0
 42
10.0
 43
10.0
 50
90.0
  0
MTEXT
  5
D46E
330
B73A
100
AcDbEntity
  8
SIZE
  6
CONTINUOUS
 62
     0
100
AcDbMText
 10
1490.433083309676
 20
-3033.80777835243
 30
0.0
 40
64.0
 41
0.0
 71
     5
 72
     1
  1
\A1;195
 11
0.0000000000000001
 21
1.0
 31
0.0
1001
ACAD
1000
MTEXTBEGIN
1070
    73
1070
     1
1070
    44
1040
1.0
1070
    74
1070
     0
1000
MTEXTEND
  0
POINT
  5
D46F
330
B73A
100
AcDbEntity
  8
DEFPOINTS
  6
CONTINUOUS
 62
     0
100
AcDbPoint
 10
1178.039538075492
 20
-3131.307778352429
 30
0.0
  0
POINT
  5
D470
330
B73A
100
AcDbEntity
  8
DEFPOINTS
  6
CONTINUOUS
 62
     0
100
AcDbPoint
 10
1212.625318075508
 20
-2936.307778352433
 30
0.0
  0
POINT
  5
D471
330
B73A
100
AcDbEntity
  8
DEFPOINTS
  6
CONTINUOUS
 62
     0
100
AcDbPoint
 10
1542.433083309675
 20
-2936.307778352433
 30
0.0
  0
ENDBLK
  5
B745
330
B73A
100
AcDbEntity
  8
0
100
AcDbBlockEnd
  0
BLOCK
  5
B752
330
B746
100
AcDbEntity
  8
0
100
AcDbBlockBegin
  2
*D30
 70
     1
 10
0.0
 20
0.0
 30
0.0
  3
*D30
  1

  0
LINE
  5
D491
330
B746
100
AcDbEntity
  8
SIZE
  6
CONTINUOUS
 62
     0
100
AcDbLine
 10
1184.539538075507
 20
-3047.307728352434
 30
0.0
 11
1442.659428458995
 21
-3047.307728352434
 31
0.0
  0
LINE
  5
D492
330
B746
100
AcDbEntity
  8
SIZE
  6
CONTINUOUS
 62
     0
100
AcDbLine
 10
1198.039538075492
 20
-3131.307778352429
 30
0.0
 11
1442.659428458995
 21
-3131.307778352429
 31
0.0
  0
LINE
  5
D493
330
B746
100
AcDbEntity
  8
SIZE
  6
CONTINUOUS
 62
     0
100
AcDbLine
 10
1412.659428458995
 20
-3037.307728352434
 30
0.0
 11
1412.659428458995
 21
-3027.307728352434
 31
0.0
  0
LINE
  5
D494
330
B746
100
AcDbEntity
  8
SIZE
  6
CONTINUOUS
 62
     0
100
AcDbLine
 10
1412.659428458995
 20
-3141.307778352429
 30
0.0
 11
1412.659428458995
 21
-3151.307778352429
 31
0.0
  0
LINE
  5
D495
330
B746
100
AcDbEntity
  8
SIZE
  6
CONTINUOUS
 62
     0
100
AcDbLine
 10
1412.659428458995
 20
-3047.307728352434
 30
0.0
 11
1412.659428458995
 21
-3131.307778352429
 31
0.0
  0
INSERT
  5
D496
330
B746
100
AcDbEntity
  8
SIZE
  6
CONTINUOUS
 62
     0
100
AcDbBlockReference
  2
_ORIGIN
 10
1412.659428458995
 20
-3047.307728352434
 30
0.0
 41
10.0
 42
10.0
 43
10.0
 50
270.0
  0
INSERT
  5
D497
330
B746
100
AcDbEntity
  8
SIZE
  6
CONTINUOUS
 62
     0
100
AcDbBlockReference
  2
_ORIGIN
 10
1412.659428458995
 20
-3131.307778352429
 30
0.0
 41
10.0
 42
10.0
 43
10.0
 50
90.0
  0
MTEXT
  5
D498
330
B746
100
AcDbEntity
  8
SIZE
  6
CONTINUOUS
 62
     0
100
AcDbMText
 10
1360.659428458996
 20
-3089.307753352431
 30
0.0
 40
64.0
 41
0.0
 71
     5
 72
     1
  1
\A1;84
 11
0.0000000000000001
 21
1.0
 31
0.0
1001
ACAD
1000
MTEXTBEGIN
1070
    73
1070
     1
1070
    44
1040
1.0
1070
    74
1070
     0
1000
MTEXTEND
  0
POINT
  5
D499
330
B746
100
AcDbEntity
  8
DEFPOINTS
  6
CONTINUOUS
 62
     0
100
AcDbPoint
 10
1164.539538075507
 20
-3047.307728352434
 30
0.0
  0
POINT
  5
D49A
330
B746
100
AcDbEntity
  8
DEFPOINTS
  6
CONTINUOUS
 62
     0
100
AcDbPoint
 10
1178.039538075492
 20
-3131.307778352429
 30
0.0
  0
POINT
  5
D49B
330
B746
100
AcDbEntity
  8
DEFPOINTS
  6
CONTINUOUS
 62
     0
100
AcDbPoint
 10
1412.659428458995
 20
-3131.307778352429
 30
0.0
  0
ENDBLK
  5
B753
330
B746
100
AcDbEntity
  8
0
100
AcDbBlockEnd
  0
BLOCK
  5
B760
330
B754
100
AcDbEntity
  8
0
100
AcDbBlockBegin
  2
*D31
 70
     1
 10
0.0
 20
0.0
 30
0.0
  3
*D31
  1

  0
LINE
  5
D486
330
B754
100
AcDbEntity
  8
SIZE
  6
CONTINUOUS
 62
     0
100
AcDbLine
 10
1184.539538075507
 20
-2959.307778352431
 30
0.0
 11
1442.659428458995
 21
-2959.307778352431
 31
0.0
  0
LINE
  5
D487
330
B754
100
AcDbEntity
  8
SIZE
  6
CONTINUOUS
 62
     0
100
AcDbLine
 10
1184.539538075507
 20
-3047.307728352434
 30
0.0
 11
1442.659428458995
 21
-3047.307728352434
 31
0.0
  0
LINE
  5
D488
330
B754
100
AcDbEntity
  8
SIZE
  6
CONTINUOUS
 62
     0
100
AcDbLine
 10
1412.659428458995
 20
-2949.307778352431
 30
0.0
 11
1412.659428458995
 21
-2939.307778352431
 31
0.0
  0
LINE
  5
D489
330
B754
100
AcDbEntity
  8
SIZE
  6
CONTINUOUS
 62
     0
100
AcDbLine
 10
1412.659428458995
 20
-3057.307728352434
 30
0.0
 11
1412.659428458995
 21
-3067.307728352434
 31
0.0
  0
LINE
  5
D48A
330
B754
100
AcDbEntity
  8
SIZE
  6
CONTINUOUS
 62
     0
100
AcDbLine
 10
1412.659428458995
 20
-2959.307778352431
 30
0.0
 11
1412.659428458995
 21
-3047.307728352434
 31
0.0
  0
INSERT
  5
D48B
330
B754
100
AcDbEntity
  8
SIZE
  6
CONTINUOUS
 62
     0
100
AcDbBlockReference
  2
_ORIGIN
 10
1412.659428458995
 20
-2959.307778352431
 30
0.0
 41
10.0
 42
10.0
 43
10.0
 50
270.0
  0
INSERT
  5
D48C
330
B754
100
AcDbEntity
  8
SIZE
  6
CONTINUOUS
 62
     0
100
AcDbBlockReference
  2
_ORIGIN
 10
1412.659428458995
 20
-3047.307728352434
 30
0.0
 41
10.0
 42
10.0
 43
10.0
 50
90.0
  0
MTEXT
  5
D48D
330
B754
100
AcDbEntity
  8
SIZE
  6
CONTINUOUS
 62
     0
100
AcDbMText
 10
1360.659428458996
 20
-3003.307753352432
 30
0.0
 40
64.0
 41
0.0
 71
     5
 72
     1
  1
\A1;88
 11
0.0000000000000001
 21
1.0
 31
0.0
1001
ACAD
1000
MTEXTBEGIN
1070
    73
1070
     1
1070
    44
1040
1.0
1070
    74
1070
     0
1000
MTEXTEND
  0
POINT
  5
D48E
330
B754
100
AcDbEntity
  8
DEFPOINTS
  6
CONTINUOUS
 62
     0
100
AcDbPoint
 10
1164.539538075507
 20
-2959.307778352431
 30
0.0
  0
POINT
  5
D48F
330
B754
100
AcDbEntity
  8
DEFPOINTS
  6
CONTINUOUS
 62
     0
100
AcDbPoint
 10
1164.539538075507
 20
-3047.307728352434
 30
0.0
  0
POINT
  5
D490
330
B754
100
AcDbEntity
  8
DEFPOINTS
  6
CONTINUOUS
 62
     0
100
AcDbPoint
 10
1412.659428458995
 20
-3047.307728352434
 30
0.0
  0
ENDBLK
  5
B761
330
B754
100
AcDbEntity
  8
0
100
AcDbBlockEnd
  0
BLOCK
  5
B76E
330
B762
100
AcDbEntity
  8
0
100
AcDbBlockBegin
  2
*D32
 70
     1
 10
0.0
 20
0.0
 30
0.0
  3
*D32
  1

  0
LINE
  5
D47B
330
B762
100
AcDbEntity
  8
SIZE
  6
CONTINUOUS
 62
     0
100
AcDbLine
 10
1217.739538075515
 20
-2921.721998352431
 30
0.0
 11
1217.739538075515
 21
-2654.055938598459
 31
0.0
  0
LINE
  5
D47C
330
B762
100
AcDbEntity
  8
SIZE
  6
CONTINUOUS
 62
     0
100
AcDbLine
 10
1219.739538075508
 20
-2875.307778352435
 30
0.0
 11
1219.739538075508
 21
-2654.055938598459
 31
0.0
  0
LINE
  5
D47D
330
B762
100
AcDbEntity
  8
SIZE
  6
CONTINUOUS
 62
     0
100
AcDbLine
 10
1207.739538075515
 20
-2684.05593859846
 30
0.0
 11
1197.739538075515
 21
-2684.05593859846
 31
0.0
  0
LINE
  5
D47E
330
B762
100
AcDbEntity
  8
SIZE
  6
CONTINUOUS
 62
     0
100
AcDbLine
 10
1229.739538075508
 20
-2684.05593859846
 30
0.0
 11
1318.439538075504
 21
-2684.05593859846
 31
0.0
  0
LINE
  5
D47F
330
B762
100
AcDbEntity
  8
SIZE
  6
CONTINUOUS
 62
     0
100
AcDbLine
 10
1217.739538075515
 20
-2684.05593859846
 30
0.0
 11
1219.739538075508
 21
-2684.05593859846
 31
0.0
  0
INSERT
  5
D480
330
B762
100
AcDbEntity
  8
SIZE
  6
CONTINUOUS
 62
     0
100
AcDbBlockReference
  2
_ORIGIN
 10
1217.739538075515
 20
-2684.05593859846
 30
0.0
 41
10.0
 42
10.0
 43
10.0
  0
INSERT
  5
D481
330
B762
100
AcDbEntity
  8
SIZE
  6
CONTINUOUS
 62
     0
100
AcDbBlockReference
  2
_ORIGIN
 10
1219.739538075508
 20
-2684.05593859846
 30
0.0
 41
10.0
 42
10.0
 43
10.0
 50
180.0
  0
MTEXT
  5
D482
330
B762
100
AcDbEntity
  8
SIZE
  6
CONTINUOUS
 62
     0
100
AcDbMText
 10
1279.239538075504
 20
-2632.05593859846
 30
0.0
 40
64.0
 41
0.0
 71
     5
 72
     1
  1
\A1;2
1001
ACAD
1000
MTEXTBEGIN
1070
    73
1070
     1
1070
    44
1040
1.0
1070
    74
1070
     0
1000
MTEXTEND
  0
POINT
  5
D483
330
B762
100
AcDbEntity
  8
DEFPOINTS
  6
CONTINUOUS
 62
     0
100
AcDbPoint
 10
1217.739538075515
 20
-2941.721998352432
 30
0.0
  0
POINT
  5
D484
330
B762
100
AcDbEntity
  8
DEFPOINTS
  6
CONTINUOUS
 62
     0
100
AcDbPoint
 10
1219.739538075508
 20
-2895.307778352435
 30
0.0
  0
POINT
  5
D485
330
B762
100
AcDbEntity
  8
DEFPOINTS
  6
CONTINUOUS
 62
     0
100
AcDbPoint
 10
1219.739538075508
 20
-2684.05593859846
 30
0.0
  0
ENDBLK
  5
B76F
330
B762
100
AcDbEntity
  8
0
100
AcDbBlockEnd
  0
BLOCK
  5
BA07
330
B9FD
100
AcDbEntity
  8
0
100
AcDbBlockBegin
  2
*D33
 70
     1
 10
0.0
 20
0.0
 30
0.0
  3
*D33
  1

  0
LINE
  5
D725
330
B9FD
100
AcDbEntity
  8
SIZE
  6
CONTINUOUS
 62
     0
100
AcDbLine
 10
40.0
 20
-198.9999999999945
 30
0.0
 11
487.7135746855564
 21
-198.9999999999946
 31
0.0
  0
LINE
  5
D726
330
B9FD
100
AcDbEntity
  8
SIZE
  6
CONTINUOUS
 62
     0
100
AcDbLine
 10
40.0
 20
-29.99999999999455
 30
0.0
 11
487.7135746855564
 21
-29.99999999999467
 31
0.0
  0
LINE
  5
D727
330
B9FD
100
AcDbEntity
  8
SIZE
  6
CONTINUOUS
 62
     0
100
AcDbLine
 10
457.7135746855565
 20
-188.9999999999946
 30
0.0
 11
457.7135746855565
 21
-39.99999999999467
 31
0.0
  0
INSERT
  5
D728
330
B9FD
100
AcDbEntity
  8
SIZE
  6
CONTINUOUS
 62
     0
100
AcDbBlockReference
  2
_ORIGIN
 10
457.7135746855565
 20
-198.9999999999946
 30
0.0
 41
10.0
 42
10.0
 43
10.0
 50
270.0
  0
INSERT
  5
D729
330
B9FD
100
AcDbEntity
  8
SIZE
  6
CONTINUOUS
 62
     0
100
AcDbBlockReference
  2
_ORIGIN
 10
457.7135746855565
 20
-29.99999999999467
 30
0.0
 41
10.0
 42
10.0
 43
10.0
 50
90.0
  0
MTEXT
  5
D72A
330
B9FD
100
AcDbEntity
  8
SIZE
  6
CONTINUOUS
 62
     0
100
AcDbMText
 10
405.7135746855565
 20
-114.4999999999946
 30
0.0
 40
64.0
 41
0.0
 71
     5
 72
     1
  1
\A1;169
 11
0.0000000000000001
 21
1.0
 31
0.0
1001
ACAD
1000
MTEXTBEGIN
1070
    73
1070
     1
1070
    44
1040
1.0
1070
    74
1070
     0
1000
MTEXTEND
  0
POINT
  5
D72B
330
B9FD
100
AcDbEntity
  8
DEFPOINTS
  6
CONTINUOUS
 62
     0
100
AcDbPoint
 10
20.0
 20
-198.9999999999945
 30
0.0
  0
POINT
  5
D72C
330
B9FD
100
AcDbEntity
  8
DEFPOINTS
  6
CONTINUOUS
 62
     0
100
AcDbPoint
 10
20.0
 20
-29.99999999999454
 30
0.0
  0
POINT
  5
D72D
330
B9FD
100
AcDbEntity
  8
DEFPOINTS
  6
CONTINUOUS
 62
     0
100
AcDbPoint
 10
457.7135746855565
 20
-29.99999999999467
 30
0.0
  0
ENDBLK
  5
BA08
330
B9FD
100
AcDbEntity
  8
0
100
AcDbBlockEnd
  0
BLOCK
  5
BA15
330
BA09
100
AcDbEntity
  8
0
100
AcDbBlockBegin
  2
*D34
 70
     1
 10
0.0
 20
0.0
 30
0.0
  3
*D34
  1

  0
LINE
  5
D71A
330
BA09
100
AcDbEntity
  8
SIZE
  6
CONTINUOUS
 62
     0
100
AcDbLine
 10
19.00000000001455
 20
-236.0
 30
0.0
 11
487.7135746855564
 21
-236.0000000000001
 31
0.0
  0
LINE
  5
D71B
330
BA09
100
AcDbEntity
  8
SIZE
  6
CONTINUOUS
 62
     0
100
AcDbLine
 10
40.0
 20
-198.9999999999945
 30
0.0
 11
487.7135746855564
 21
-198.9999999999946
 31
0.0
  0
LINE
  5
D71C
330
BA09
100
AcDbEntity
  8
SIZE
  6
CONTINUOUS
 62
     0
100
AcDbLine
 10
457.7135746855565
 20
-188.9999999999946
 30
0.0
 11
457.7135746855565
 21
-178.9999999999946
 31
0.0
  0
LINE
  5
D71D
330
BA09
100
AcDbEntity
  8
SIZE
  6
CONTINUOUS
 62
     0
100
AcDbLine
 10
457.7135746855565
 20
-246.0000000000001
 30
0.0
 11
457.7135746855564
 21
-389.2571428571429
 31
0.0
  0
LINE
  5
D71E
330
BA09
100
AcDbEntity
  8
SIZE
  6
CONTINUOUS
 62
     0
100
AcDbLine
 10
457.7135746855565
 20
-198.9999999999946
 30
0.0
 11
457.7135746855565
 21
-236.0000000000001
 31
0.0
  0
INSERT
  5
D71F
330
BA09
100
AcDbEntity
  8
SIZE
  6
CONTINUOUS
 62
     0
100
AcDbBlockReference
  2
_ORIGIN
 10
457.7135746855565
 20
-198.9999999999946
 30
0.0
 41
10.0
 42
10.0
 43
10.0
 50
270.0
  0
INSERT
  5
D720
330
BA09
100
AcDbEntity
  8
SIZE
  6
CONTINUOUS
 62
     0
100
AcDbBlockReference
  2
_ORIGIN
 10
457.7135746855565
 20
-236.0000000000001
 30
0.0
 41
10.0
 42
10.0
 43
10.0
 50
90.0
  0
MTEXT
  5
D721
330
BA09
100
AcDbEntity
  8
SIZE
  6
CONTINUOUS
 62
     0
100
AcDbMText
 10
405.7135746855565
 20
-322.6285714285714
 30
0.0
 40
64.0
 41
0.0
 71
     5
 72
     1
  1
\A1;37
 11
0.0000000000000001
 21
1.0
 31
0.0
1001
ACAD
1000
MTEXTBEGIN
1070
    73
1070
     1
1070
    44
1040
1.0
1070
    74
1070
     0
1000
MTEXTEND
  0
POINT
  5
D722
330
BA09
100
AcDbEntity
  8
DEFPOINTS
  6
CONTINUOUS
 62
     0
100
AcDbPoint
 10
-0.999999999985448
 20
-236.0
 30
0.0
  0
POINT
  5
D723
330
BA09
100
AcDbEntity
  8
DEFPOINTS
  6
CONTINUOUS
 62
     0
100
AcDbPoint
 10
20.0
 20
-198.9999999999945
 30
0.0
  0
POINT
  5
D724
330
BA09
100
AcDbEntity
  8
DEFPOINTS
  6
CONTINUOUS
 62
     0
100
AcDbPoint
 10
457.7135746855565
 20
-198.9999999999946
 30
0.0
  0
ENDBLK
  5
BA16
330
BA09
100
AcDbEntity
  8
0
100
AcDbBlockEnd
  0
BLOCK
  5
BA21
330
BA17
100
AcDbEntity
  8
0
100
AcDbBlockBegin
  2
*D35
 70
     1
 10
0.0
 20
0.0
 30
0.0
  3
*D35
  1

  0
LINE
  5
D72E
330
BA17
100
AcDbEntity
  8
SIZE
  6
CONTINUOUS
 62
     0
100
AcDbLine
 10
20.0
 20
-0.0000000000000057
 30
0.0
 11
324.6883325590825
 21
-0.000000000000092
 31
0.0
  0
LINE
  5
D72F
330
BA17
100
AcDbEntity
  8
SIZE
  6
CONTINUOUS
 62
     0
100
AcDbLine
 10
-216.3603199999852
 20
-190.0
 30
0.0
 11
324.6883325590824
 21
-190.0000000000001
 31
0.0
  0
LINE
  5
D730
330
BA17
100
AcDbEntity
  8
SIZE
  6
CONTINUOUS
 62
     0
100
AcDbLine
 10
294.6883325590825
 20
-10.00000000000008
 30
0.0
 11
294.6883325590824
 21
-180.0000000000001
 31
0.0
  0
INSERT
  5
D731
330
BA17
100
AcDbEntity
  8
SIZE
  6
CONTINUOUS
 62
     0
100
AcDbBlockReference
  2
_ORIGIN
 10
294.6883325590825
 20
-0.0000000000000835
 30
0.0
 41
10.0
 42
10.0
 43
10.0
 50
90.0
  0
INSERT
  5
D732
330
BA17
100
AcDbEntity
  8
SIZE
  6
CONTINUOUS
 62
     0
100
AcDbBlockReference
  2
_ORIGIN
 10
294.6883325590824
 20
-190.0000000000001
 30
0.0
 41
10.0
 42
10.0
 43
10.0
 50
270.0
  0
MTEXT
  5
D733
330
BA17
100
AcDbEntity
  8
SIZE
  6
CONTINUOUS
 62
     0
100
AcDbMText
 10
242.6883325590825
 20
-95.00000000000007
 30
0.0
 40
64.0
 41
0.0
 71
     5
 72
     1
  1
\A1;190
 11
0.0000000000000001
 21
1.0
 31
0.0
1001
ACAD
1000
MTEXTBEGIN
1070
    73
1070
     1
1070
    44
1040
1.0
1070
    74
1070
     0
1000
MTEXTEND
  0
POINT
  5
D734
330
BA17
100
AcDbEntity
  8
DEFPOINTS
  6
CONTINUOUS
 62
     0
100
AcDbPoint
 10
0.0
 20
0.0
 30
0.0
  0
POINT
  5
D735
330
BA17
100
AcDbEntity
  8
DEFPOINTS
  6
CONTINUOUS
 62
     0
100
AcDbPoint
 10
-236.3603199999852
 20
-190.0
 30
0.0
  0
POINT
  5
D736
330
BA17
100
AcDbEntity
  8
DEFPOINTS
  6
CONTINUOUS
 62
     0
100
AcDbPoint
 10
294.6883325590824
 20
-190.0000000000001
 30
0.0
  0
ENDBLK
  5
BA22
330
BA17
100
AcDbEntity
  8
0
100
AcDbBlockEnd
  0
BLOCK
  5
BA2F
330
BA23
100
AcDbEntity
  8
0
100
AcDbBlockBegin
  2
*D36
 70
     1
 10
0.0
 20
0.0
 30
0.0
  3
*D36
  1

  0
LINE
  5
D780
330
BA23
100
AcDbEntity
  8
SIZE
  6
CONTINUOUS
 62
     0
100
AcDbLine
 10
20.0
 20
-0.0000000000000057
 30
0.0
 11
179.9198508175395
 21
-0.000000000000051
 31
0.0
  0
LINE
  5
D781
330
BA23
100
AcDbEntity
  8
SIZE
  6
CONTINUOUS
 62
     0
100
AcDbLine
 10
-155.3121199999987
 20
-125.9999999999945
 30
0.0
 11
179.9198508175395
 21
-125.9999999999946
 31
0.0
  0
LINE
  5
D782
330
BA23
100
AcDbEntity
  8
SIZE
  6
CONTINUOUS
 62
     0
100
AcDbLine
 10
149.9198508175395
 20
9.999999999999957
 30
0.0
 11
149.9198508175395
 21
19.99999999999995
 31
0.0
  0
LINE
  5
D783
330
BA23
100
AcDbEntity
  8
SIZE
  6
CONTINUOUS
 62
     0
100
AcDbLine
 10
149.9198508175395
 20
-135.9999999999946
 30
0.0
 11
149.9198508175395
 21
-145.9999999999946
 31
0.0
  0
LINE
  5
D784
330
BA23
100
AcDbEntity
  8
SIZE
  6
CONTINUOUS
 62
     0
100
AcDbLine
 10
149.9198508175395
 20
-0.0000000000000425
 30
0.0
 11
149.9198508175395
 21
-125.9999999999946
 31
0.0
  0
INSERT
  5
D785
330
BA23
100
AcDbEntity
  8
SIZE
  6
CONTINUOUS
 62
     0
100
AcDbBlockReference
  2
_ORIGIN
 10
149.9198508175395
 20
-0.0000000000000425
 30
0.0
 41
10.0
 42
10.0
 43
10.0
 50
270.0
  0
INSERT
  5
D786
330
BA23
100
AcDbEntity
  8
SIZE
  6
CONTINUOUS
 62
     0
100
AcDbBlockReference
  2
_ORIGIN
 10
149.9198508175395
 20
-125.9999999999946
 30
0.0
 41
10.0
 42
10.0
 43
10.0
 50
90.0
  0
MTEXT
  5
D787
330
BA23
100
AcDbEntity
  8
SIZE
  6
CONTINUOUS
 62
     0
100
AcDbMText
 10
97.91985081753958
 20
-62.99999999999731
 30
0.0
 40
64.0
 41
0.0
 71
     5
 72
     1
  1
\A1;126
 11
0.0000000000000001
 21
1.0
 31
0.0
1001
ACAD
1000
MTEXTBEGIN
1070
    73
1070
     1
1070
    44
1040
1.0
1070
    74
1070
     0
1000
MTEXTEND
  0
POINT
  5
D788
330
BA23
100
AcDbEntity
  8
DEFPOINTS
  6
CONTINUOUS
 62
     0
100
AcDbPoint
 10
0.0
 20
0.0
 30
0.0
  0
POINT
  5
D789
330
BA23
100
AcDbEntity
  8
DEFPOINTS
  6
CONTINUOUS
 62
     0
100
AcDbPoint
 10
-175.3121199999986
 20
-125.9999999999945
 30
0.0
  0
POINT
  5
D78A
330
BA23
100
AcDbEntity
  8
DEFPOINTS
  6
CONTINUOUS
 62
     0
100
AcDbPoint
 10
149.9198508175395
 20
-125.9999999999946
 30
0.0
  0
ENDBLK
  5
BA30
330
BA23
100
AcDbEntity
  8
0
100
AcDbBlockEnd
  0
BLOCK
  5
BA3B
330
BA31
100
AcDbEntity
  8
0
100
AcDbBlockBegin
  2
*D37
 70
     1
 10
0.0
 20
0.0
 30
0.0
  3
*D37
  1

  0
LINE
  5
D6E7
330
BA31
100
AcDbEntity
  8
SIZE
  6
CONTINUOUS
 62
     0
100
AcDbLine
 10
-246.3999999999941
 20
-210.0
 30
0.0
 11
-246.3999999999942
 21
-655.1438765124258
 31
0.0
  0
LINE
  5
D6E8
330
BA31
100
AcDbEntity
  8
SIZE
  6
CONTINUOUS
 62
     0
100
AcDbLine
 10
0.0000000000145507
 20
-255.0
 30
0.0
 11
0.0000000000145262
 21
-655.1438765124258
 31
0.0
  0
LINE
  5
D6E9
330
BA31
100
AcDbEntity
  8
SIZE
  6
CONTINUOUS
 62
     0
100
AcDbLine
 10
-236.3999999999942
 20
-625.1438765124257
 30
0.0
 11
-9.999999999985471
 21
-625.1438765124257
 31
0.0
  0
INSERT
  5
D6EA
330
BA31
100
AcDbEntity
  8
SIZE
  6
CONTINUOUS
 62
     0
100
AcDbBlockReference
  2
_ORIGIN
 10
-246.3999999999942
 20
-625.1438765124257
 30
0.0
 41
10.0
 42
10.0
 43
10.0
 50
180.0
  0
INSERT
  5
D6EB
330
BA31
100
AcDbEntity
  8
SIZE
  6
CONTINUOUS
 62
     0
100
AcDbBlockReference
  2
_ORIGIN
 10
0.000000000014528
 20
-625.1438765124257
 30
0.0
 41
10.0
 42
10.0
 43
10.0
  0
MTEXT
  5
D6EC
330
BA31
100
AcDbEntity
  8
SIZE
  6
CONTINUOUS
 62
     0
100
AcDbMText
 10
-123.1999999999898
 20
-573.1438765124257
 30
0.0
 40
64.0
 41
0.0
 71
     5
 72
     1
  1
\A1;246
1001
ACAD
1000
MTEXTBEGIN
1070
    73
1070
     1
1070
    44
1040
1.0
1070
    74
1070
     0
1000
MTEXTEND
  0
POINT
  5
D6ED
330
BA31
100
AcDbEntity
  8
DEFPOINTS
  6
CONTINUOUS
 62
     0
100
AcDbPoint
 10
-246.3999999999941
 20
-190.0
 30
0.0
  0
POINT
  5
D6EE
330
BA31
100
AcDbEntity
  8
DEFPOINTS
  6
CONTINUOUS
 62
     0
100
AcDbPoint
 10
0.0000000000145519
 20
-235.0
 30
0.0
  0
POINT
  5
D6EF
330
BA31
100
AcDbEntity
  8
DEFPOINTS
  6
CONTINUOUS
 62
     0
100
AcDbPoint
 10
0.000000000014528
 20
-625.1438765124257
 30
0.0
  0
ENDBLK
  5
BA3C
330
BA31
100
AcDbEntity
  8
0
100
AcDbBlockEnd
  0
BLOCK
  5
BA47
330
BA3D
100
AcDbEntity
  8
0
100
AcDbBlockBegin
  2
*D38
 70
     1
 10
0.0
 20
0.0
 30
0.0
  3
*D38
  1

  0
LINE
  5
D737
330
BA3D
100
AcDbEntity
  8
SIZE
  6
CONTINUOUS
 62
     0
100
AcDbLine
 10
0.0000000000000012
 20
20.0
 30
0.0
 11
0.0000000000000234
 21
382.4137325057163
 31
0.0
  0
LINE
  5
D738
330
BA3D
100
AcDbEntity
  8
SIZE
  6
CONTINUOUS
 62
     0
100
AcDbLine
 10
-680.0
 20
-25.99999999999454
 30
0.0
 11
-680.0
 21
382.4137325057163
 31
0.0
  0
LINE
  5
D739
330
BA3D
100
AcDbEntity
  8
SIZE
  6
CONTINUOUS
 62
     0
100
AcDbLine
 10
-9.999999999999978
 20
352.4137325057163
 30
0.0
 11
-670.0
 21
352.4137325057163
 31
0.0
  0
INSERT
  5
D73A
330
BA3D
100
AcDbEntity
  8
SIZE
  6
CONTINUOUS
 62
     0
100
AcDbBlockReference
  2
_ORIGIN
 10
0.0000000000000216
 20
352.4137325057163
 30
0.0
 41
10.0
 42
10.0
 43
10.0
  0
INSERT
  5
D73B
330
BA3D
100
AcDbEntity
  8
SIZE
  6
CONTINUOUS
 62
     0
100
AcDbBlockReference
  2
_ORIGIN
 10
-680.0
 20
352.4137325057163
 30
0.0
 41
10.0
 42
10.0
 43
10.0
 50
180.0
  0
MTEXT
  5
D73C
330
BA3D
100
AcDbEntity
  8
SIZE
  6
CONTINUOUS
 62
     0
100
AcDbMText
 10
-340.0
 20
404.4137325057163
 30
0.0
 40
64.0
 41
0.0
 71
     5
 72
     1
  1
\A1;680
1001
ACAD
1000
MTEXTBEGIN
1070
    73
1070
     1
1070
    44
1040
1.0
1070
    74
1070
     0
1000
MTEXTEND
  0
POINT
  5
D73D
330
BA3D
100
AcDbEntity
  8
DEFPOINTS
  6
CONTINUOUS
 62
     0
100
AcDbPoint
 10
0.0
 20
0.0
 30
0.0
  0
POINT
  5
D73E
330
BA3D
100
AcDbEntity
  8
DEFPOINTS
  6
CONTINUOUS
 62
     0
100
AcDbPoint
 10
-680.0
 20
-45.99999999999454
 30
0.0
  0
POINT
  5
D73F
330
BA3D
100
AcDbEntity
  8
DEFPOINTS
  6
CONTINUOUS
 62
     0
100
AcDbPoint
 10
-680.0
 20
352.4137325057163
 30
0.0
  0
ENDBLK
  5
BA48
330
BA3D
100
AcDbEntity
  8
0
100
AcDbBlockEnd
  0
BLOCK
  5
BA53
330
BA49
100
AcDbEntity
  8
0
100
AcDbBlockBegin
  2
*D39
 70
     1
 10
0.0
 20
0.0
 30
0.0
  3
*D39
  1

  0
LINE
  5
D6F0
330
BA49
100
AcDbEntity
  8
SIZE
  6
CONTINUOUS
 62
     0
100
AcDbLine
 10
-190.0001799999881
 20
-235.9999999999945
 30
0.0
 11
-1081.834630791585
 21
-235.9999999999943
 31
0.0
  0
LINE
  5
D6F1
330
BA49
100
AcDbEntity
  8
SIZE
  6
CONTINUOUS
 62
     0
100
AcDbLine
 10
-648.9999999999963
 20
0.0000000000000057
 30
0.0
 11
-1081.834630791585
 21
0.0000000000001283
 31
0.0
  0
LINE
  5
D6F2
330
BA49
100
AcDbEntity
  8
SIZE
  6
CONTINUOUS
 62
     0
100
AcDbLine
 10
-1051.834630791585
 20
-225.9999999999942
 30
0.0
 11
-1051.834630791585
 21
-9.99999999999988
 31
0.0
  0
INSERT
  5
D6F3
330
BA49
100
AcDbEntity
  8
SIZE
  6
CONTINUOUS
 62
     0
100
AcDbBlockReference
  2
_ORIGIN
 10
-1051.834630791585
 20
-235.9999999999943
 30
0.0
 41
10.0
 42
10.0
 43
10.0
 50
270.0
  0
INSERT
  5
D6F4
330
BA49
100
AcDbEntity
  8
SIZE
  6
CONTINUOUS
 62
     0
100
AcDbBlockReference
  2
_ORIGIN
 10
-1051.834630791585
 20
0.0000000000001198
 30
0.0
 41
10.0
 42
10.0
 43
10.0
 50
90.0
  0
MTEXT
  5
D6F5
330
BA49
100
AcDbEntity
  8
SIZE
  6
CONTINUOUS
 62
     0
100
AcDbMText
 10
-1103.834630791585
 20
-117.9999999999972
 30
0.0
 40
64.0
 41
0.0
 71
     5
 72
     1
  1
\A1;236
 11
0.0000000000000001
 21
1.0
 31
0.0
1001
ACAD
1000
MTEXTBEGIN
1070
    73
1070
     1
1070
    44
1040
1.0
1070
    74
1070
     0
1000
MTEXTEND
  0
POINT
  5
D6F6
330
BA49
100
AcDbEntity
  8
DEFPOINTS
  6
CONTINUOUS
 62
     0
100
AcDbPoint
 10
-170.0001799999881
 20
-235.9999999999945
 30
0.0
  0
POINT
  5
D6F7
330
BA49
100
AcDbEntity
  8
DEFPOINTS
  6
CONTINUOUS
 62
     0
100
AcDbPoint
 10
-628.9999999999963
 20
0.0
 30
0.0
  0
POINT
  5
D6F8
330
BA49
100
AcDbEntity
  8
DEFPOINTS
  6
CONTINUOUS
 62
     0
100
AcDbPoint
 10
-1051.834630791585
 20
0.0000000000001198
 30
0.0
  0
ENDBLK
  5
BA54
330
BA49
100
AcDbEntity
  8
0
100
AcDbBlockEnd
  0
BLOCK
  5
BA61
330
BA55
100
AcDbEntity
  8
0
100
AcDbBlockBegin
  2
*D40
 70
     1
 10
0.0
 20
0.0
 30
0.0
  3
*D40
  1

  0
LINE
  5
D6F9
330
BA55
100
AcDbEntity
  8
SIZE
  6
CONTINUOUS
 62
     0
100
AcDbLine
 10
-650.4231477300891
 20
-194.7305747867421
 30
0.0
 11
-933.0603729508238
 21
-194.7305747867421
 31
0.0
  0
LINE
  5
D6FA
330
BA55
100
AcDbEntity
  8
SIZE
  6
CONTINUOUS
 62
     0
100
AcDbLine
 10
-699.7814949999974
 20
-45.78149499999653
 30
0.0
 11
-933.0603729508238
 21
-45.78149499999646
 31
0.0
  0
LINE
  5
D6FB
330
BA55
100
AcDbEntity
  8
SIZE
  6
CONTINUOUS
 62
     0
100
AcDbLine
 10
-903.0603729508239
 20
-204.7305747867421
 30
0.0
 11
-903.0603729508239
 21
-214.7305747867421
 31
0.0
  0
LINE
  5
D6FC
330
BA55
100
AcDbEntity
  8
SIZE
  6
CONTINUOUS
 62
     0
100
AcDbLine
 10
-903.0603729508239
 20
-35.78149499999647
 30
0.0
 11
-903.0603729508239
 21
-25.78149499999647
 31
0.0
  0
LINE
  5
D6FD
330
BA55
100
AcDbEntity
  8
SIZE
  6
CONTINUOUS
 62
     0
100
AcDbLine
 10
-903.0603729508239
 20
-194.7305747867421
 30
0.0
 11
-903.0603729508239
 21
-45.78149499999647
 31
0.0
  0
INSERT
  5
D6FE
330
BA55
100
AcDbEntity
  8
SIZE
  6
CONTINUOUS
 62
     0
100
AcDbBlockReference
  2
_ORIGIN
 10
-903.0603729508239
 20
-194.7305747867421
 30
0.0
 41
10.0
 42
10.0
 43
10.0
 50
90.0
  0
INSERT
  5
D6FF
330
BA55
100
AcDbEntity
  8
SIZE
  6
CONTINUOUS
 62
     0
100
AcDbBlockReference
  2
_ORIGIN
 10
-903.0603729508239
 20
-45.78149499999647
 30
0.0
 41
10.0
 42
10.0
 43
10.0
 50
270.0
  0
MTEXT
  5
D700
330
BA55
100
AcDbEntity
  8
SIZE
  6
CONTINUOUS
 62
     0
100
AcDbMText
 10
-955.0603729508239
 20
-120.2560348933694
 30
0.0
 40
64.0
 41
0.0
 71
     5
 72
     1
  1
\A1;149
 11
0.0000000000000001
 21
1.0
 31
0.0
1001
ACAD
1000
MTEXTBEGIN
1070
    73
1070
     1
1070
    44
1040
1.0
1070
    74
1070
     0
1000
MTEXTEND
  0
POINT
  5
D701
330
BA55
100
AcDbEntity
  8
DEFPOINTS
  6
CONTINUOUS
 62
     0
100
AcDbPoint
 10
-630.423147730089
 20
-194.7305747867421
 30
0.0
  0
POINT
  5
D702
330
BA55
100
AcDbEntity
  8
DEFPOINTS
  6
CONTINUOUS
 62
     0
100
AcDbPoint
 10
-679.7814949999974
 20
-45.78149499999653
 30
0.0
  0
POINT
  5
D703
330
BA55
100
AcDbEntity
  8
DEFPOINTS
  6
CONTINUOUS
 62
     0
100
AcDbPoint
 10
-903.0603729508239
 20
-45.78149499999647
 30
0.0
  0
ENDBLK
  5
BA62
330
BA55
100
AcDbEntity
  8
0
100
AcDbBlockEnd
  0
BLOCK
  5
BA6F
330
BA63
100
AcDbEntity
  8
0
100
AcDbBlockBegin
  2
*D41
 70
     1
 10
0.0
 20
0.0
 30
0.0
  3
*D41
  1

  0
LINE
  5
D74B
330
BA63
100
AcDbEntity
  8
SIZE
  6
CONTINUOUS
 62
     0
100
AcDbLine
 10
-648.9999999999963
 20
0.0000000000000057
 30
0.0
 11
-933.0603729508238
 21
0.0000000000000861
 31
0.0
  0
LINE
  5
D74C
330
BA63
100
AcDbEntity
  8
SIZE
  6
CONTINUOUS
 62
     0
100
AcDbLine
 10
-700.0
 20
-45.99999999999453
 30
0.0
 11
-933.0603729508238
 21
-45.99999999999447
 31
0.0
  0
LINE
  5
D74D
330
BA63
100
AcDbEntity
  8
SIZE
  6
CONTINUOUS
 62
     0
100
AcDbLine
 10
-903.0603729508239
 20
-55.99999999999448
 30
0.0
 11
-903.0603729508239
 21
-65.99999999999448
 31
0.0
  0
LINE
  5
D74E
330
BA63
100
AcDbEntity
  8
SIZE
  6
CONTINUOUS
 62
     0
100
AcDbLine
 10
-903.0603729508239
 20
10.00000000000007
 30
0.0
 11
-903.0603729508239
 21
150.5142857142884
 31
0.0
  0
LINE
  5
D74F
330
BA63
100
AcDbEntity
  8
SIZE
  6
CONTINUOUS
 62
     0
100
AcDbLine
 10
-903.0603729508239
 20
-45.99999999999448
 30
0.0
 11
-903.0603729508239
 21
0.0000000000000776
 31
0.0
  0
INSERT
  5
D750
330
BA63
100
AcDbEntity
  8
SIZE
  6
CONTINUOUS
 62
     0
100
AcDbBlockReference
  2
_ORIGIN
 10
-903.0603729508239
 20
-45.99999999999448
 30
0.0
 41
10.0
 42
10.0
 43
10.0
 50
90.0
  0
INSERT
  5
D751
330
BA63
100
AcDbEntity
  8
SIZE
  6
CONTINUOUS
 62
     0
100
AcDbBlockReference
  2
_ORIGIN
 10
-903.0603729508239
 20
0.0000000000000776
 30
0.0
 41
10.0
 42
10.0
 43
10.0
 50
270.0
  0
MTEXT
  5
D752
330
BA63
100
AcDbEntity
  8
SIZE
  6
CONTINUOUS
 62
     0
100
AcDbMText
 10
-955.0603729508239
 20
85.25714285714547
 30
0.0
 40
64.0
 41
0.0
 71
     5
 72
     1
  1
\A1;46
 11
0.0000000000000001
 21
1.0
 31
0.0
1001
ACAD
1000
MTEXTBEGIN
1070
    73
1070
     1
1070
    44
1040
1.0
1070
    74
1070
     0
1000
MTEXTEND
  0
POINT
  5
D753
330
BA63
100
AcDbEntity
  8
DEFPOINTS
  6
CONTINUOUS
 62
     0
100
AcDbPoint
 10
-628.9999999999963
 20
0.0
 30
0.0
  0
POINT
  5
D754
330
BA63
100
AcDbEntity
  8
DEFPOINTS
  6
CONTINUOUS
 62
     0
100
AcDbPoint
 10
-680.0
 20
-45.99999999999454
 30
0.0
  0
POINT
  5
D755
330
BA63
100
AcDbEntity
  8
DEFPOINTS
  6
CONTINUOUS
 62
     0
100
AcDbPoint
 10
-903.0603729508239
 20
-45.99999999999448
 30
0.0
  0
ENDBLK
  5
BA70
330
BA63
100
AcDbEntity
  8
0
100
AcDbBlockEnd
  0
BLOCK
  5
BA7D
330
BA71
100
AcDbEntity
  8
0
100
AcDbBlockBegin
  2
*D42
 70
     1
 10
0.0
 20
0.0
 30
0.0
  3
*D42
  1

  0
LINE
  5
D756
330
BA71
100
AcDbEntity
  8
SIZE
  6
CONTINUOUS
 62
     0
100
AcDbLine
 10
-670.0
 20
-20.99999999999454
 30
0.0
 11
-670.0
 21
126.0017896369172
 31
0.0
  0
LINE
  5
D757
330
BA71
100
AcDbEntity
  8
SIZE
  6
CONTINUOUS
 62
     0
100
AcDbLine
 10
-680.0
 20
-25.99999999999454
 30
0.0
 11
-680.0
 21
126.0017896369172
 31
0.0
  0
LINE
  5
D758
330
BA71
100
AcDbEntity
  8
SIZE
  6
CONTINUOUS
 62
     0
100
AcDbLine
 10
-660.0
 20
96.00178963691725
 30
0.0
 11
-650.0
 21
96.00178963691725
 31
0.0
  0
LINE
  5
D759
330
BA71
100
AcDbEntity
  8
SIZE
  6
CONTINUOUS
 62
     0
100
AcDbLine
 10
-690.0
 20
96.00178963691725
 30
0.0
 11
-700.0
 21
96.00178963691725
 31
0.0
  0
LINE
  5
D75A
330
BA71
100
AcDbEntity
  8
SIZE
  6
CONTINUOUS
 62
     0
100
AcDbLine
 10
-670.0
 20
96.00178963691725
 30
0.0
 11
-680.0
 21
96.00178963691725
 31
0.0
  0
INSERT
  5
D75B
330
BA71
100
AcDbEntity
  8
SIZE
  6
CONTINUOUS
 62
     0
100
AcDbBlockReference
  2
_ORIGIN
 10
-670.0
 20
96.00178963691725
 30
0.0
 41
10.0
 42
10.0
 43
10.0
 50
180.0
  0
INSERT
  5
D75C
330
BA71
100
AcDbEntity
  8
SIZE
  6
CONTINUOUS
 62
     0
100
AcDbBlockReference
  2
_ORIGIN
 10
-680.0
 20
96.00178963691725
 30
0.0
 41
10.0
 42
10.0
 43
10.0
  0
MTEXT
  5
D75D
330
BA71
100
AcDbEntity
  8
SIZE
  6
CONTINUOUS
 62
     0
100
AcDbMText
 10
-675.0
 20
148.0017896369172
 30
0.0
 40
64.0
 41
0.0
 71
     5
 72
     1
  1
\A1;10
1001
ACAD
1000
MTEXTBEGIN
1070
    73
1070
     1
1070
    44
1040
1.0
1070
    74
1070
     0
1000
MTEXTEND
  0
POINT
  5
D75E
330
BA71
100
AcDbEntity
  8
DEFPOINTS
  6
CONTINUOUS
 62
     0
100
AcDbPoint
 10
-670.0
 20
-40.99999999999454
 30
0.0
  0
POINT
  5
D75F
330
BA71
100
AcDbEntity
  8
DEFPOINTS
  6
CONTINUOUS
 62
     0
100
AcDbPoint
 10
-680.0
 20
-45.99999999999454
 30
0.0
  0
POINT
  5
D760
330
BA71
100
AcDbEntity
  8
DEFPOINTS
  6
CONTINUOUS
 62
     0
100
AcDbPoint
 10
-680.0
 20
96.00178963691725
 30
0.0
  0
ENDBLK
  5
BA7E
330
BA71
100
AcDbEntity
  8
0
100
AcDbBlockEnd
  0
BLOCK
  5
BA8B
330
BA7F
100
AcDbEntity
  8
0
100
AcDbBlockBegin
  2
*D43
 70
     1
 10
0.0
 20
0.0
 30
0.0
  3
*D43
  1

  0
LINE
  5
D740
330
BA7F
100
AcDbEntity
  8
SIZE
  6
CONTINUOUS
 62
     0
100
AcDbLine
 10
-680.0
 20
-25.99999999999454
 30
0.0
 11
-680.0
 21
254.4995261157382
 31
0.0
  0
LINE
  5
D741
330
BA7F
100
AcDbEntity
  8
SIZE
  6
CONTINUOUS
 62
     0
100
AcDbLine
 10
-628.9999999999963
 20
20.0
 30
0.0
 11
-628.9999999999963
 21
254.4995261157382
 31
0.0
  0
LINE
  5
D742
330
BA7F
100
AcDbEntity
  8
SIZE
  6
CONTINUOUS
 62
     0
100
AcDbLine
 10
-690.0
 20
224.4995261157382
 30
0.0
 11
-700.0
 21
224.4995261157382
 31
0.0
  0
LINE
  5
D743
330
BA7F
100
AcDbEntity
  8
SIZE
  6
CONTINUOUS
 62
     0
100
AcDbLine
 10
-618.9999999999963
 20
224.4995261157382
 30
0.0
 11
-608.9999999999963
 21
224.4995261157382
 31
0.0
  0
LINE
  5
D744
330
BA7F
100
AcDbEntity
  8
SIZE
  6
CONTINUOUS
 62
     0
100
AcDbLine
 10
-680.0
 20
224.4995261157382
 30
0.0
 11
-628.9999999999963
 21
224.4995261157382
 31
0.0
  0
INSERT
  5
D745
330
BA7F
100
AcDbEntity
  8
SIZE
  6
CONTINUOUS
 62
     0
100
AcDbBlockReference
  2
_ORIGIN
 10
-680.0
 20
224.4995261157382
 30
0.0
 41
10.0
 42
10.0
 43
10.0
  0
INSERT
  5
D746
330
BA7F
100
AcDbEntity
  8
SIZE
  6
CONTINUOUS
 62
     0
100
AcDbBlockReference
  2
_ORIGIN
 10
-628.9999999999963
 20
224.4995261157382
 30
0.0
 41
10.0
 42
10.0
 43
10.0
 50
180.0
  0
MTEXT
  5
D747
330
BA7F
100
AcDbEntity
  8
SIZE
  6
CONTINUOUS
 62
     0
100
AcDbMText
 10
-654.4999999999982
 20
276.4995261157382
 30
0.0
 40
64.0
 41
0.0
 71
     5
 72
     1
  1
\A1;51
1001
ACAD
1000
MTEXTBEGIN
1070
    73
1070
     1
1070
    44
1040
1.0
1070
    74
1070
     0
1000
MTEXTEND
  0
POINT
  5
D748
330
BA7F
100
AcDbEntity
  8
DEFPOINTS
  6
CONTINUOUS
 62
     0
100
AcDbPoint
 10
-680.0
 20
-45.99999999999454
 30
0.0
  0
POINT
  5
D749
330
BA7F
100
AcDbEntity
  8
DEFPOINTS
  6
CONTINUOUS
 62
     0
100
AcDbPoint
 10
-628.9999999999963
 20
0.0
 30
0.0
  0
POINT
  5
D74A
330
BA7F
100
AcDbEntity
  8
DEFPOINTS
  6
CONTINUOUS
 62
     0
100
AcDbPoint
 10
-628.9999999999963
 20
224.4995261157382
 30
0.0
  0
ENDBLK
  5
BA8C
330
BA7F
100
AcDbEntity
  8
0
100
AcDbBlockEnd
  0
BLOCK
  5
BA99
330
BA8D
100
AcDbEntity
  8
0
100
AcDbBlockBegin
  2
*D44
 70
     1
 10
0.0
 20
0.0
 30
0.0
  3
*D44
  1

  0
LINE
  5
D761
330
BA8D
100
AcDbEntity
  8
SIZE
  6
CONTINUOUS
 62
     0
100
AcDbLine
 10
-648.9999999999963
 20
0.0000000000000057
 30
0.0
 11
-800.9229659928022
 21
0.0000000000000487
 31
0.0
  0
LINE
  5
D762
330
BA8D
100
AcDbEntity
  8
SIZE
  6
CONTINUOUS
 62
     0
100
AcDbLine
 10
-690.0
 20
-40.99999999999453
 30
0.0
 11
-800.9229659928022
 21
-40.9999999999945
 31
0.0
  0
LINE
  5
D763
330
BA8D
100
AcDbEntity
  8
SIZE
  6
CONTINUOUS
 62
     0
100
AcDbLine
 10
-770.9229659928023
 20
-50.99999999999451
 30
0.0
 11
-770.9229659928023
 21
-60.99999999999451
 31
0.0
  0
LINE
  5
D764
330
BA8D
100
AcDbEntity
  8
SIZE
  6
CONTINUOUS
 62
     0
100
AcDbLine
 10
-770.9229659928023
 20
10.00000000000003
 30
0.0
 11
-770.9229659928023
 21
128.5714285714313
 31
0.0
  0
LINE
  5
D765
330
BA8D
100
AcDbEntity
  8
SIZE
  6
CONTINUOUS
 62
     0
100
AcDbLine
 10
-770.9229659928023
 20
-40.99999999999451
 30
0.0
 11
-770.9229659928023
 21
0.0000000000000402
 31
0.0
  0
INSERT
  5
D766
330
BA8D
100
AcDbEntity
  8
SIZE
  6
CONTINUOUS
 62
     0
100
AcDbBlockReference
  2
_ORIGIN
 10
-770.9229659928023
 20
-40.99999999999451
 30
0.0
 41
10.0
 42
10.0
 43
10.0
 50
90.0
  0
INSERT
  5
D767
330
BA8D
100
AcDbEntity
  8
SIZE
  6
CONTINUOUS
 62
     0
100
AcDbBlockReference
  2
_ORIGIN
 10
-770.9229659928023
 20
0.0000000000000402
 30
0.0
 41
10.0
 42
10.0
 43
10.0
 50
270.0
  0
MTEXT
  5
D768
330
BA8D
100
AcDbEntity
  8
SIZE
  6
CONTINUOUS
 62
     0
100
AcDbMText
 10
-822.9229659928023
 20
74.28571428571697
 30
0.0
 40
64.0
 41
0.0
 71
     5
 72
     1
  1
\A1;41
 11
0.0000000000000001
 21
1.0
 31
0.0
1001
ACAD
1000
MTEXTBEGIN
1070
    73
1070
     1
1070
    44
1040
1.0
1070
    74
1070
     0
1000
MTEXTEND
  0
POINT
  5
D769
330
BA8D
100
AcDbEntity
  8
DEFPOINTS
  6
CONTINUOUS
 62
     0
100
AcDbPoint
 10
-628.9999999999963
 20
0.0
 30
0.0
  0
POINT
  5
D76A
330
BA8D
100
AcDbEntity
  8
DEFPOINTS
  6
CONTINUOUS
 62
     0
100
AcDbPoint
 10
-670.0
 20
-40.99999999999454
 30
0.0
  0
POINT
  5
D76B
330
BA8D
100
AcDbEntity
  8
DEFPOINTS
  6
CONTINUOUS
 62
     0
100
AcDbPoint
 10
-770.9229659928023
 20
-40.99999999999451
 30
0.0
  0
ENDBLK
  5
BA9A
330
BA8D
100
AcDbEntity
  8
0
100
AcDbBlockEnd
  0
BLOCK
  5
BAA7
330
BA9B
100
AcDbEntity
  8
0
100
AcDbBlockBegin
  2
*D45
 70
     1
 10
0.0
 20
0.0
 30
0.0
  3
*D45
  1

  0
LINE
  5
D704
330
BA9B
100
AcDbEntity
  8
SIZE
  6
CONTINUOUS
 62
     0
100
AcDbLine
 10
-200.0
 20
-165.9999999999945
 30
0.0
 11
-200.0
 21
-518.0081508692019
 31
0.0
  0
LINE
  5
D705
330
BA9B
100
AcDbEntity
  8
SIZE
  6
CONTINUOUS
 62
     0
100
AcDbLine
 10
0.0000000000145507
 20
-255.0
 30
0.0
 11
0.0000000000145346
 21
-518.0081508692019
 31
0.0
  0
LINE
  5
D706
330
BA9B
100
AcDbEntity
  8
SIZE
  6
CONTINUOUS
 62
     0
100
AcDbLine
 10
-210.0
 20
-488.0081508692019
 30
0.0
 11
-220.0
 21
-488.0081508692019
 31
0.0
  0
LINE
  5
D707
330
BA9B
100
AcDbEntity
  8
SIZE
  6
CONTINUOUS
 62
     0
100
AcDbLine
 10
10.00000000001453
 20
-488.0081508692019
 30
0.0
 11
20.00000000001453
 21
-488.0081508692019
 31
0.0
  0
LINE
  5
D708
330
BA9B
100
AcDbEntity
  8
SIZE
  6
CONTINUOUS
 62
     0
100
AcDbLine
 10
-200.0
 20
-488.0081508692019
 30
0.0
 11
0.0000000000145364
 21
-488.0081508692019
 31
0.0
  0
INSERT
  5
D709
330
BA9B
100
AcDbEntity
  8
SIZE
  6
CONTINUOUS
 62
     0
100
AcDbBlockReference
  2
_ORIGIN
 10
-200.0
 20
-488.0081508692019
 30
0.0
 41
10.0
 42
10.0
 43
10.0
  0
INSERT
  5
D70A
330
BA9B
100
AcDbEntity
  8
SIZE
  6
CONTINUOUS
 62
     0
100
AcDbBlockReference
  2
_ORIGIN
 10
0.0000000000145364
 20
-488.0081508692019
 30
0.0
 41
10.0
 42
10.0
 43
10.0
 50
180.0
  0
MTEXT
  5
D70B
330
BA9B
100
AcDbEntity
  8
SIZE
  6
CONTINUOUS
 62
     0
100
AcDbMText
 10
-101.2499999999927
 20
-436.0081508692019
 30
0.0
 40
64.0
 41
0.0
 71
     5
 72
     1
  1
\A1;200
1001
ACAD
1000
MTEXTBEGIN
1070
    73
1070
     1
1070
    44
1040
1.0
1070
    74
1070
     0
1000
MTEXTEND
  0
POINT
  5
D70C
330
BA9B
100
AcDbEntity
  8
DEFPOINTS
  6
CONTINUOUS
 62
     0
100
AcDbPoint
 10
-200.0
 20
-145.9999999999945
 30
0.0
  0
POINT
  5
D70D
330
BA9B
100
AcDbEntity
  8
DEFPOINTS
  6
CONTINUOUS
 62
     0
100
AcDbPoint
 10
0.0000000000145519
 20
-235.0
 30
0.0
  0
POINT
  5
D70E
330
BA9B
100
AcDbEntity
  8
DEFPOINTS
  6
CONTINUOUS
 62
     0
100
AcDbPoint
 10
0.0000000000145364
 20
-488.0081508692019
 30
0.0
  0
ENDBLK
  5
BAA8
330
BA9B
100
AcDbEntity
  8
0
100
AcDbBlockEnd
  0
BLOCK
  5
BAB5
330
BAA9
100
AcDbEntity
  8
0
100
AcDbBlockBegin
  2
*D46
 70
     1
 10
0.0
 20
0.0
 30
0.0
  3
*D46
  1

  0
LINE
  5
D70F
330
BAA9
100
AcDbEntity
  8
SIZE
  6
CONTINUOUS
 62
     0
100
AcDbLine
 10
-180.0
 20
-165.9999999999981
 30
0.0
 11
-180.0
 21
-375.2313657067934
 31
0.0
  0
LINE
  5
D710
330
BAA9
100
AcDbEntity
  8
SIZE
  6
CONTINUOUS
 62
     0
100
AcDbLine
 10
-0.0000000000000012
 20
-255.0
 30
0.0
 11
-0.0000000000000086
 21
-375.2313657067934
 31
0.0
  0
LINE
  5
D711
330
BAA9
100
AcDbEntity
  8
SIZE
  6
CONTINUOUS
 62
     0
100
AcDbLine
 10
-190.0
 20
-345.2313657067934
 30
0.0
 11
-200.0
 21
-345.2313657067934
 31
0.0
  0
LINE
  5
D712
330
BAA9
100
AcDbEntity
  8
SIZE
  6
CONTINUOUS
 62
     0
100
AcDbLine
 10
9.999999999999992
 20
-345.2313657067934
 30
0.0
 11
19.99999999999999
 21
-345.2313657067934
 31
0.0
  0
LINE
  5
D713
330
BAA9
100
AcDbEntity
  8
SIZE
  6
CONTINUOUS
 62
     0
100
AcDbLine
 10
-180.0
 20
-345.2313657067934
 30
0.0
 11
-0.0000000000000067
 21
-345.2313657067934
 31
0.0
  0
INSERT
  5
D714
330
BAA9
100
AcDbEntity
  8
SIZE
  6
CONTINUOUS
 62
     0
100
AcDbBlockReference
  2
_ORIGIN
 10
-180.0
 20
-345.2313657067934
 30
0.0
 41
10.0
 42
10.0
 43
10.0
  0
INSERT
  5
D715
330
BAA9
100
AcDbEntity
  8
SIZE
  6
CONTINUOUS
 62
     0
100
AcDbBlockReference
  2
_ORIGIN
 10
-0.0000000000000067
 20
-345.2313657067934
 30
0.0
 41
10.0
 42
10.0
 43
10.0
 50
180.0
  0
MTEXT
  5
D716
330
BAA9
100
AcDbEntity
  8
SIZE
  6
CONTINUOUS
 62
     0
100
AcDbMText
 10
-91.99999999999818
 20
-293.2313657067934
 30
0.0
 40
64.0
 41
0.0
 71
     5
 72
     1
  1
\A1;180
1001
ACAD
1000
MTEXTBEGIN
1070
    73
1070
     1
1070
    44
1040
1.0
1070
    74
1070
     0
1000
MTEXTEND
  0
POINT
  5
D717
330
BAA9
100
AcDbEntity
  8
DEFPOINTS
  6
CONTINUOUS
 62
     0
100
AcDbPoint
 10
-180.0
 20
-145.9999999999981
 30
0.0
  0
POINT
  5
D718
330
BAA9
100
AcDbEntity
  8
DEFPOINTS
  6
CONTINUOUS
 62
     0
100
AcDbPoint
 10
0.0
 20
-235.0
 30
0.0
  0
POINT
  5
D719
330
BAA9
100
AcDbEntity
  8
DEFPOINTS
  6
CONTINUOUS
 62
     0
100
AcDbPoint
 10
-0.0000000000000067
 20
-345.2313657067934
 30
0.0
  0
ENDBLK
  5
BAB6
330
BAA9
100
AcDbEntity
  8
0
100
AcDbBlockEnd
  0
BLOCK
  5
BAC1
330
BAB7
100
AcDbEntity
  8
0
100
AcDbBlockBegin
  2
*D47
 70
     1
 10
0.0
 20
0.0
 30
0.0
  3
*D47
  1

  0
LINE
  5
D777
330
BAB7
100
AcDbEntity
  8
SIZE
  6
CONTINUOUS
 62
     0
100
AcDbLine
 10
-80.00003227272827
 20
40.0
 30
0.0
 11
-80.00003227272827
 21
118.0605342262788
 31
0.0
  0
LINE
  5
D778
330
BAB7
100
AcDbEntity
  8
SIZE
  6
CONTINUOUS
 62
     0
100
AcDbLine
 10
-399.9999990909163
 20
40.0
 30
0.0
 11
-399.9999990909163
 21
118.0605342262788
 31
0.0
  0
LINE
  5
D779
330
BAB7
100
AcDbEntity
  8
SIZE
  6
CONTINUOUS
 62
     0
100
AcDbLine
 10
-90.00003227272827
 20
88.06053422627883
 30
0.0
 11
-389.9999990909163
 21
88.06053422627883
 31
0.0
  0
INSERT
  5
D77A
330
BAB7
100
AcDbEntity
  8
SIZE
  6
CONTINUOUS
 62
     0
100
AcDbBlockReference
  2
_ORIGIN
 10
-80.00003227272827
 20
88.06053422627883
 30
0.0
 41
10.0
 42
10.0
 43
10.0
  0
INSERT
  5
D77B
330
BAB7
100
AcDbEntity
  8
SIZE
  6
CONTINUOUS
 62
     0
100
AcDbBlockReference
  2
_ORIGIN
 10
-399.9999990909163
 20
88.06053422627883
 30
0.0
 41
10.0
 42
10.0
 43
10.0
 50
180.0
  0
MTEXT
  5
D77C
330
BAB7
100
AcDbEntity
  8
SIZE
  6
CONTINUOUS
 62
     0
100
AcDbMText
 10
-240.0000156818223
 20
140.0605342262788
 30
0.0
 40
64.0
 41
0.0
 71
     5
 72
     1
  1
\A1;320
1001
ACAD
1000
MTEXTBEGIN
1070
    73
1070
     1
1070
    44
1040
1.0
1070
    74
1070
     0
1000
MTEXTEND
  0
POINT
  5
D77D
330
BAB7
100
AcDbEntity
  8
DEFPOINTS
  6
CONTINUOUS
 62
     0
100
AcDbPoint
 10
-80.00003227272827
 20
20.0
 30
0.0
  0
POINT
  5
D77E
330
BAB7
100
AcDbEntity
  8
DEFPOINTS
  6
CONTINUOUS
 62
     0
100
AcDbPoint
 10
-399.9999990909163
 20
20.0
 30
0.0
  0
POINT
  5
D77F
330
BAB7
100
AcDbEntity
  8
DEFPOINTS
  6
CONTINUOUS
 62
     0
100
AcDbPoint
 10
-399.9999990909163
 20
88.06053422627883
 30
0.0
  0
ENDBLK
  5
BAC2
330
BAB7
100
AcDbEntity
  8
0
100
AcDbBlockEnd
  0
BLOCK
  5
BACF
330
BAC3
100
AcDbEntity
  8
0
100
AcDbBlockBegin
  2
*D48
 70
     1
 10
0.0
 20
0.0
 30
0.0
  3
*D48
  1

  0
LINE
  5
D76C
330
BAC3
100
AcDbEntity
  8
SIZE
  6
CONTINUOUS
 62
     0
100
AcDbLine
 10
0.0000000000000012
 20
20.0
 30
0.0
 11
0.0000000000000072
 21
118.0605342262788
 31
0.0
  0
LINE
  5
D76D
330
BAC3
100
AcDbEntity
  8
SIZE
  6
CONTINUOUS
 62
     0
100
AcDbLine
 10
-80.00003227272827
 20
40.0
 30
0.0
 11
-80.00003227272827
 21
118.0605342262788
 31
0.0
  0
LINE
  5
D76E
330
BAC3
100
AcDbEntity
  8
SIZE
  6
CONTINUOUS
 62
     0
100
AcDbLine
 10
10.0
 20
88.06053422627883
 30
0.0
 11
20.0
 21
88.06053422627883
 31
0.0
  0
LINE
  5
D76F
330
BAC3
100
AcDbEntity
  8
SIZE
  6
CONTINUOUS
 62
     0
100
AcDbLine
 10
-90.00003227272827
 20
88.06053422627883
 30
0.0
 11
-100.0000322727282
 21
88.06053422627883
 31
0.0
  0
LINE
  5
D770
330
BAC3
100
AcDbEntity
  8
SIZE
  6
CONTINUOUS
 62
     0
100
AcDbLine
 10
0.0000000000000054
 20
88.06053422627883
 30
0.0
 11
-80.00003227272827
 21
88.06053422627883
 31
0.0
  0
INSERT
  5
D771
330
BAC3
100
AcDbEntity
  8
SIZE
  6
CONTINUOUS
 62
     0
100
AcDbBlockReference
  2
_ORIGIN
 10
0.0000000000000054
 20
88.06053422627883
 30
0.0
 41
10.0
 42
10.0
 43
10.0
 50
180.0
  0
INSERT
  5
D772
330
BAC3
100
AcDbEntity
  8
SIZE
  6
CONTINUOUS
 62
     0
100
AcDbBlockReference
  2
_ORIGIN
 10
-80.00003227272827
 20
88.06053422627883
 30
0.0
 41
10.0
 42
10.0
 43
10.0
  0
MTEXT
  5
D773
330
BAC3
100
AcDbEntity
  8
SIZE
  6
CONTINUOUS
 62
     0
100
AcDbMText
 10
-40.00001613636413
 20
140.0605342262788
 30
0.0
 40
64.0
 41
0.0
 71
     5
 72
     1
  1
\A1;80
1001
ACAD
1000
MTEXTBEGIN
1070
    73
1070
     1
1070
    44
1040
1.0
1070
    74
1070
     0
1000
MTEXTEND
  0
POINT
  5
D774
330
BAC3
100
AcDbEntity
  8
DEFPOINTS
  6
CONTINUOUS
 62
     0
100
AcDbPoint
 10
0.0
 20
0.0
 30
0.0
  0
POINT
  5
D775
330
BAC3
100
AcDbEntity
  8
DEFPOINTS
  6
CONTINUOUS
 62
     0
100
AcDbPoint
 10
-80.00003227272827
 20
20.0
 30
0.0
  0
POINT
  5
D776
330
BAC3
100
AcDbEntity
  8
DEFPOINTS
  6
CONTINUOUS
 62
     0
100
AcDbPoint
 10
-80.00003227272827
 20
88.06053422627883
 30
0.0
  0
ENDBLK
  5
BAD0
330
BAC3
100
AcDbEntity
  8
0
100
AcDbBlockEnd
  0
BLOCK
  5
BC8D
330
BC83
100
AcDbEntity
  8
0
100
AcDbBlockBegin
  2
*D49
 70
     1
 10
0.0
 20
0.0
 30
0.0
  3
*D49
  1

  0
LINE
  5
D35E
330
BC83
100
AcDbEntity
  8
SIZE
  6
CONTINUOUS
 62
     0
100
AcDbLine
 10
-1897.239322714038
 20
-3131.307778352429
 30
0.0
 11
-1005.404871922441
 21
-3131.30777835243
 31
0.0
  0
LINE
  5
D35F
330
BC83
100
AcDbEntity
  8
SIZE
  6
CONTINUOUS
 62
     0
100
AcDbLine
 10
-1438.23950271403
 20
-2895.307778352435
 30
0.0
 11
-1005.404871922441
 21
-2895.307778352435
 31
0.0
  0
LINE
  5
D360
330
BC83
100
AcDbEntity
  8
SIZE
  6
CONTINUOUS
 62
     0
100
AcDbLine
 10
-1035.404871922441
 20
-3121.307778352429
 30
0.0
 11
-1035.404871922441
 21
-2905.307778352435
 31
0.0
  0
INSERT
  5
D361
330
BC83
100
AcDbEntity
  8
SIZE
  6
CONTINUOUS
 62
     0
100
AcDbBlockReference
  2
_ORIGIN
 10
-1035.404871922441
 20
-3131.307778352429
 30
0.0
 41
10.0
 42
10.0
 43
10.0
 50
270.0
  0
INSERT
  5
D362
330
BC83
100
AcDbEntity
  8
SIZE
  6
CONTINUOUS
 62
     0
100
AcDbBlockReference
  2
_ORIGIN
 10
-1035.404871922441
 20
-2895.307778352435
 30
0.0
 41
10.0
 42
10.0
 43
10.0
 50
90.0
  0
MTEXT
  5
D363
330
BC83
100
AcDbEntity
  8
SIZE
  6
CONTINUOUS
 62
     0
100
AcDbMText
 10
-1087.40487192244
 20
-3013.307778352432
 30
0.0
 40
64.0
 41
0.0
 71
     5
 72
     1
  1
\A1;236
 11
0.0000000000000001
 21
1.0
 31
0.0
1001
ACAD
1000
MTEXTBEGIN
1070
    73
1070
     1
1070
    44
1040
1.0
1070
    74
1070
     0
1000
MTEXTEND
  0
POINT
  5
D364
330
BC83
100
AcDbEntity
  8
DEFPOINTS
  6
CONTINUOUS
 62
     0
100
AcDbPoint
 10
-1917.239322714038
 20
-3131.307778352429
 30
0.0
  0
POINT
  5
D365
330
BC83
100
AcDbEntity
  8
DEFPOINTS
  6
CONTINUOUS
 62
     0
100
AcDbPoint
 10
-1458.23950271403
 20
-2895.307778352435
 30
0.0
  0
POINT
  5
D366
330
BC83
100
AcDbEntity
  8
DEFPOINTS
  6
CONTINUOUS
 62
     0
100
AcDbPoint
 10
-1035.404871922441
 20
-2895.307778352435
 30
0.0
  0
ENDBLK
  5
BC8E
330
BC83
100
AcDbEntity
  8
0
100
AcDbBlockEnd
  0
BLOCK
  5
BC99
330
BC8F
100
AcDbEntity
  8
0
100
AcDbBlockBegin
  2
*D50
 70
     1
 10
0.0
 20
0.0
 30
0.0
  3
*D50
  1

  0
LINE
  5
D341
330
BC8F
100
AcDbEntity
  8
SIZE
  6
CONTINUOUS
 62
     0
100
AcDbLine
 10
-2087.239502714026
 20
-2875.307778352435
 30
0.0
 11
-2087.239502714026
 21
-2512.894045846719
 31
0.0
  0
LINE
  5
D342
330
BC8F
100
AcDbEntity
  8
SIZE
  6
CONTINUOUS
 62
     0
100
AcDbLine
 10
-1407.239502714026
 20
-2921.307778352429
 30
0.0
 11
-1407.239502714026
 21
-2512.894045846719
 31
0.0
  0
LINE
  5
D343
330
BC8F
100
AcDbEntity
  8
SIZE
  6
CONTINUOUS
 62
     0
100
AcDbLine
 10
-2077.239502714026
 20
-2542.894045846718
 30
0.0
 11
-1417.239502714026
 21
-2542.894045846718
 31
0.0
  0
INSERT
  5
D344
330
BC8F
100
AcDbEntity
  8
SIZE
  6
CONTINUOUS
 62
     0
100
AcDbBlockReference
  2
_ORIGIN
 10
-2087.239502714026
 20
-2542.894045846718
 30
0.0
 41
10.0
 42
10.0
 43
10.0
 50
180.0
  0
INSERT
  5
D345
330
BC8F
100
AcDbEntity
  8
SIZE
  6
CONTINUOUS
 62
     0
100
AcDbBlockReference
  2
_ORIGIN
 10
-1407.239502714026
 20
-2542.894045846718
 30
0.0
 41
10.0
 42
10.0
 43
10.0
  0
MTEXT
  5
D346
330
BC8F
100
AcDbEntity
  8
SIZE
  6
CONTINUOUS
 62
     0
100
AcDbMText
 10
-1747.239502714026
 20
-2490.894045846718
 30
0.0
 40
64.0
 41
0.0
 71
     5
 72
     1
  1
\A1;680
1001
ACAD
1000
MTEXTBEGIN
1070
    73
1070
     1
1070
    44
1040
1.0
1070
    74
1070
     0
1000
MTEXTEND
  0
POINT
  5
D347
330
BC8F
100
AcDbEntity
  8
DEFPOINTS
  6
CONTINUOUS
 62
     0
100
AcDbPoint
 10
-2087.239502714026
 20
-2895.307778352435
 30
0.0
  0
POINT
  5
D348
330
BC8F
100
AcDbEntity
  8
DEFPOINTS
  6
CONTINUOUS
 62
     0
100
AcDbPoint
 10
-1407.239502714026
 20
-2941.307778352429
 30
0.0
  0
POINT
  5
D349
330
BC8F
100
AcDbEntity
  8
DEFPOINTS
  6
CONTINUOUS
 62
     0
100
AcDbPoint
 10
-1407.239502714026
 20
-2542.894045846718
 30
0.0
  0
ENDBLK
  5
BC9A
330
BC8F
100
AcDbEntity
  8
0
100
AcDbBlockEnd
  0
BLOCK
  5
BCA7
330
BC9B
100
AcDbEntity
  8
0
100
AcDbBlockBegin
  2
*D51
 70
     1
 10
0.0
 20
0.0
 30
0.0
  3
*D51
  1

  0
LINE
  5
D353
330
BC9B
100
AcDbEntity
  8
SIZE
  6
CONTINUOUS
 62
     0
100
AcDbLine
 10
-1792.739502714028
 20
-2895.307778352435
 30
0.0
 11
-1954.477269161595
 21
-2895.307778352435
 31
0.0
  0
LINE
  5
D354
330
BC9B
100
AcDbEntity
  8
SIZE
  6
CONTINUOUS
 62
     0
100
AcDbLine
 10
-1880.839502714037
 20
-3085.307778352409
 30
0.0
 11
-1954.477269161595
 21
-3085.307778352409
 31
0.0
  0
LINE
  5
D355
330
BC9B
100
AcDbEntity
  8
SIZE
  6
CONTINUOUS
 62
     0
100
AcDbLine
 10
-1924.477269161594
 20
-2885.307778352435
 30
0.0
 11
-1924.477269161594
 21
-2875.307778352435
 31
0.0
  0
LINE
  5
D356
330
BC9B
100
AcDbEntity
  8
SIZE
  6
CONTINUOUS
 62
     0
100
AcDbLine
 10
-1924.477269161594
 20
-3095.30777835241
 30
0.0
 11
-1924.477269161594
 21
-3105.307778352409
 31
0.0
  0
LINE
  5
D357
330
BC9B
100
AcDbEntity
  8
SIZE
  6
CONTINUOUS
 62
     0
100
AcDbLine
 10
-1924.477269161594
 20
-2895.307778352435
 30
0.0
 11
-1924.477269161594
 21
-3085.307778352409
 31
0.0
  0
INSERT
  5
D358
330
BC9B
100
AcDbEntity
  8
SIZE
  6
CONTINUOUS
 62
     0
100
AcDbBlockReference
  2
_ORIGIN
 10
-1924.477269161594
 20
-2895.307778352435
 30
0.0
 41
10.0
 42
10.0
 43
10.0
 50
270.0
  0
INSERT
  5
D359
330
BC9B
100
AcDbEntity
  8
SIZE
  6
CONTINUOUS
 62
     0
100
AcDbBlockReference
  2
_ORIGIN
 10
-1924.477269161594
 20
-3085.307778352409
 30
0.0
 41
10.0
 42
10.0
 43
10.0
 50
90.0
  0
MTEXT
  5
D35A
330
BC9B
100
AcDbEntity
  8
SIZE
  6
CONTINUOUS
 62
     0
100
AcDbMText
 10
-1976.477269161594
 20
-2991.457505507125
 30
0.0
 40
64.0
 41
0.0
 71
     5
 72
     1
  1
\A1;190
 11
0.0000000000000001
 21
1.0
 31
0.0
1001
ACAD
1000
MTEXTBEGIN
1070
    73
1070
     1
1070
    44
1040
1.0
1070
    74
1070
     0
1000
MTEXTEND
  0
POINT
  5
D35B
330
BC9B
100
AcDbEntity
  8
DEFPOINTS
  6
CONTINUOUS
 62
     0
100
AcDbPoint
 10
-1772.739502714028
 20
-2895.307778352435
 30
0.0
  0
POINT
  5
D35C
330
BC9B
100
AcDbEntity
  8
DEFPOINTS
  6
CONTINUOUS
 62
     0
100
AcDbPoint
 10
-1860.839502714037
 20
-3085.307778352409
 30
0.0
  0
POINT
  5
D35D
330
BC9B
100
AcDbEntity
  8
DEFPOINTS
  6
CONTINUOUS
 62
     0
100
AcDbPoint
 10
-1924.477269161594
 20
-3085.307778352409
 30
0.0
  0
ENDBLK
  5
BCA8
330
BC9B
100
AcDbEntity
  8
0
100
AcDbBlockEnd
  0
BLOCK
  5
BCB3
330
BCA9
100
AcDbEntity
  8
0
100
AcDbBlockBegin
  2
*D52
 70
     1
 10
0.0
 20
0.0
 30
0.0
  3
*D52
  1

  0
LINE
  5
D338
330
BCA9
100
AcDbEntity
  8
SIZE
  6
CONTINUOUS
 62
     0
100
AcDbLine
 10
-2007.239470441298
 20
-2855.307778352435
 30
0.0
 11
-2007.239470441298
 21
-2777.247244126156
 31
0.0
  0
LINE
  5
D339
330
BCA9
100
AcDbEntity
  8
SIZE
  6
CONTINUOUS
 62
     0
100
AcDbLine
 10
-1687.23950362311
 20
-2855.307778352435
 30
0.0
 11
-1687.23950362311
 21
-2777.247244126156
 31
0.0
  0
LINE
  5
D33A
330
BCA9
100
AcDbEntity
  8
SIZE
  6
CONTINUOUS
 62
     0
100
AcDbLine
 10
-1997.239470441298
 20
-2807.247244126156
 30
0.0
 11
-1697.23950362311
 21
-2807.247244126156
 31
0.0
  0
INSERT
  5
D33B
330
BCA9
100
AcDbEntity
  8
SIZE
  6
CONTINUOUS
 62
     0
100
AcDbBlockReference
  2
_ORIGIN
 10
-2007.239470441298
 20
-2807.247244126156
 30
0.0
 41
10.0
 42
10.0
 43
10.0
 50
180.0
  0
INSERT
  5
D33C
330
BCA9
100
AcDbEntity
  8
SIZE
  6
CONTINUOUS
 62
     0
100
AcDbBlockReference
  2
_ORIGIN
 10
-1687.23950362311
 20
-2807.247244126156
 30
0.0
 41
10.0
 42
10.0
 43
10.0
  0
MTEXT
  5
D33D
330
BCA9
100
AcDbEntity
  8
SIZE
  6
CONTINUOUS
 62
     0
100
AcDbMText
 10
-1847.239487032204
 20
-2755.247244126156
 30
0.0
 40
64.0
 41
0.0
 71
     5
 72
     1
  1
\A1;320
1001
ACAD
1000
MTEXTBEGIN
1070
    73
1070
     1
1070
    44
1040
1.0
1070
    74
1070
     0
1000
MTEXTEND
  0
POINT
  5
D33E
330
BCA9
100
AcDbEntity
  8
DEFPOINTS
  6
CONTINUOUS
 62
     0
100
AcDbPoint
 10
-2007.239470441298
 20
-2875.307778352435
 30
0.0
  0
POINT
  5
D33F
330
BCA9
100
AcDbEntity
  8
DEFPOINTS
  6
CONTINUOUS
 62
     0
100
AcDbPoint
 10
-1687.23950362311
 20
-2875.307778352435
 30
0.0
  0
POINT
  5
D340
330
BCA9
100
AcDbEntity
  8
DEFPOINTS
  6
CONTINUOUS
 62
     0
100
AcDbPoint
 10
-1687.23950362311
 20
-2807.247244126156
 30
0.0
  0
ENDBLK
  5
BCB4
330
BCA9
100
AcDbEntity
  8
0
100
AcDbBlockEnd
  0
BLOCK
  5
BCBF
330
BCB5
100
AcDbEntity
  8
0
100
AcDbBlockBegin
  2
*D53
 70
     1
 10
0.0
 20
0.0
 30
0.0
  3
*D53
  1

  0
LINE
  5
D372
330
BCB5
100
AcDbEntity
  8
SIZE
  6
CONTINUOUS
 62
     0
100
AcDbLine
 10
-2127.239502714026
 20
-3094.307778352429
 30
0.0
 11
-2369.048153489799
 21
-3094.307778352429
 31
0.0
  0
LINE
  5
D373
330
BCB5
100
AcDbEntity
  8
SIZE
  6
CONTINUOUS
 62
     0
100
AcDbLine
 10
-2127.239502714026
 20
-2925.307778352429
 30
0.0
 11
-2369.048153489799
 21
-2925.307778352429
 31
0.0
  0
LINE
  5
D374
330
BCB5
100
AcDbEntity
  8
SIZE
  6
CONTINUOUS
 62
     0
100
AcDbLine
 10
-2339.048153489799
 20
-3084.307778352429
 30
0.0
 11
-2339.048153489799
 21
-2935.307778352429
 31
0.0
  0
INSERT
  5
D375
330
BCB5
100
AcDbEntity
  8
SIZE
  6
CONTINUOUS
 62
     0
100
AcDbBlockReference
  2
_ORIGIN
 10
-2339.048153489799
 20
-3094.307778352429
 30
0.0
 41
10.0
 42
10.0
 43
10.0
 50
270.0
  0
INSERT
  5
D376
330
BCB5
100
AcDbEntity
  8
SIZE
  6
CONTINUOUS
 62
     0
100
AcDbBlockReference
  2
_ORIGIN
 10
-2339.048153489799
 20
-2925.307778352429
 30
0.0
 41
10.0
 42
10.0
 43
10.0
 50
90.0
  0
MTEXT
  5
D377
330
BCB5
100
AcDbEntity
  8
SIZE
  6
CONTINUOUS
 62
     0
100
AcDbMText
 10
-2391.048153489799
 20
-3009.807778352429
 30
0.0
 40
64.0
 41
0.0
 71
     5
 72
     1
  1
\A1;169
 11
0.0000000000000001
 21
1.0
 31
0.0
1001
ACAD
1000
MTEXTBEGIN
1070
    73
1070
     1
1070
    44
1040
1.0
1070
    74
1070
     0
1000
MTEXTEND
  0
POINT
  5
D378
330
BCB5
100
AcDbEntity
  8
DEFPOINTS
  6
CONTINUOUS
 62
     0
100
AcDbPoint
 10
-2107.239502714026
 20
-3094.307778352429
 30
0.0
  0
POINT
  5
D379
330
BCB5
100
AcDbEntity
  8
DEFPOINTS
  6
CONTINUOUS
 62
     0
100
AcDbPoint
 10
-2107.239502714026
 20
-2925.307778352429
 30
0.0
  0
POINT
  5
D37A
330
BCB5
100
AcDbEntity
  8
DEFPOINTS
  6
CONTINUOUS
 62
     0
100
AcDbPoint
 10
-2339.048153489799
 20
-2925.307778352429
 30
0.0
  0
ENDBLK
  5
BCC0
330
BCB5
100
AcDbEntity
  8
0
100
AcDbBlockEnd
  0
BLOCK
  5
BCCD
330
BCC1
100
AcDbEntity
  8
0
100
AcDbBlockBegin
  2
*D54
 70
     1
 10
0.0
 20
0.0
 30
0.0
  3
*D54
  1

  0
LINE
  5
D367
330
BCC1
100
AcDbEntity
  8
SIZE
  6
CONTINUOUS
 62
     0
100
AcDbLine
 10
-2106.239502714041
 20
-3131.307778352435
 30
0.0
 11
-2369.048153489799
 21
-3131.307778352435
 31
0.0
  0
LINE
  5
D368
330
BCC1
100
AcDbEntity
  8
SIZE
  6
CONTINUOUS
 62
     0
100
AcDbLine
 10
-2127.239502714026
 20
-3094.307778352429
 30
0.0
 11
-2369.048153489799
 21
-3094.307778352429
 31
0.0
  0
LINE
  5
D369
330
BCC1
100
AcDbEntity
  8
SIZE
  6
CONTINUOUS
 62
     0
100
AcDbLine
 10
-2339.048153489799
 20
-3084.307778352429
 30
0.0
 11
-2339.048153489799
 21
-3074.307778352429
 31
0.0
  0
LINE
  5
D36A
330
BCC1
100
AcDbEntity
  8
SIZE
  6
CONTINUOUS
 62
     0
100
AcDbLine
 10
-2339.048153489799
 20
-3141.307778352435
 30
0.0
 11
-2339.048153489799
 21
-3284.564921209577
 31
0.0
  0
LINE
  5
D36B
330
BCC1
100
AcDbEntity
  8
SIZE
  6
CONTINUOUS
 62
     0
100
AcDbLine
 10
-2339.048153489799
 20
-3094.307778352429
 30
0.0
 11
-2339.048153489799
 21
-3131.307778352435
 31
0.0
  0
INSERT
  5
D36C
330
BCC1
100
AcDbEntity
  8
SIZE
  6
CONTINUOUS
 62
     0
100
AcDbBlockReference
  2
_ORIGIN
 10
-2339.048153489799
 20
-3094.307778352429
 30
0.0
 41
10.0
 42
10.0
 43
10.0
 50
270.0
  0
INSERT
  5
D36D
330
BCC1
100
AcDbEntity
  8
SIZE
  6
CONTINUOUS
 62
     0
100
AcDbBlockReference
  2
_ORIGIN
 10
-2339.048153489799
 20
-3131.307778352435
 30
0.0
 41
10.0
 42
10.0
 43
10.0
 50
90.0
  0
MTEXT
  5
D36E
330
BCC1
100
AcDbEntity
  8
SIZE
  6
CONTINUOUS
 62
     0
100
AcDbMText
 10
-2391.048153489799
 20
-3217.936349781006
 30
0.0
 40
64.0
 41
0.0
 71
     5
 72
     1
  1
\A1;37
 11
0.0000000000000001
 21
1.0
 31
0.0
1001
ACAD
1000
MTEXTBEGIN
1070
    73
1070
     1
1070
    44
1040
1.0
1070
    74
1070
     0
1000
MTEXTEND
  0
POINT
  5
D36F
330
BCC1
100
AcDbEntity
  8
DEFPOINTS
  6
CONTINUOUS
 62
     0
100
AcDbPoint
 10
-2086.239502714041
 20
-3131.307778352435
 30
0.0
  0
POINT
  5
D370
330
BCC1
100
AcDbEntity
  8
DEFPOINTS
  6
CONTINUOUS
 62
     0
100
AcDbPoint
 10
-2107.239502714026
 20
-3094.307778352429
 30
0.0
  0
POINT
  5
D371
330
BCC1
100
AcDbEntity
  8
DEFPOINTS
  6
CONTINUOUS
 62
     0
100
AcDbPoint
 10
-2339.048153489799
 20
-3094.307778352429
 30
0.0
  0
ENDBLK
  5
BCCE
330
BCC1
100
AcDbEntity
  8
0
100
AcDbBlockEnd
  0
BLOCK
  5
BCD9
330
BCCF
100
AcDbEntity
  8
0
100
AcDbBlockBegin
  2
*D55
 70
     1
 10
0.0
 20
0.0
 30
0.0
  3
*D55
  1

  0
LINE
  5
D34A
330
BCCF
100
AcDbEntity
  8
SIZE
  6
CONTINUOUS
 62
     0
100
AcDbLine
 10
-1840.839502714038
 20
-3105.307778352404
 30
0.0
 11
-1840.839502714038
 21
-3318.961302842501
 31
0.0
  0
LINE
  5
D34B
330
BCCF
100
AcDbEntity
  8
SIZE
  6
CONTINUOUS
 62
     0
100
AcDbLine
 10
-2087.23950271404
 20
-3150.307778352435
 30
0.0
 11
-2087.23950271404
 21
-3318.961302842501
 31
0.0
  0
LINE
  5
D34C
330
BCCF
100
AcDbEntity
  8
SIZE
  6
CONTINUOUS
 62
     0
100
AcDbLine
 10
-1850.839502714037
 20
-3288.961302842501
 30
0.0
 11
-2077.239502714041
 21
-3288.961302842501
 31
0.0
  0
INSERT
  5
D34D
330
BCCF
100
AcDbEntity
  8
SIZE
  6
CONTINUOUS
 62
     0
100
AcDbBlockReference
  2
_ORIGIN
 10
-1840.839502714038
 20
-3288.961302842501
 30
0.0
 41
10.0
 42
10.0
 43
10.0
  0
INSERT
  5
D34E
330
BCCF
100
AcDbEntity
  8
SIZE
  6
CONTINUOUS
 62
     0
100
AcDbBlockReference
  2
_ORIGIN
 10
-2087.23950271404
 20
-3288.961302842501
 30
0.0
 41
10.0
 42
10.0
 43
10.0
 50
180.0
  0
MTEXT
  5
D34F
330
BCCF
100
AcDbEntity
  8
SIZE
  6
CONTINUOUS
 62
     0
100
AcDbMText
 10
-1965.841204589938
 20
-3236.9613028425
 30
0.0
 40
64.0
 41
0.0
 71
     5
 72
     1
  1
\A1;246
1001
ACAD
1000
MTEXTBEGIN
1070
    73
1070
     1
1070
    44
1040
1.0
1070
    74
1070
     0
1000
MTEXTEND
  0
POINT
  5
D350
330
BCCF
100
AcDbEntity
  8
DEFPOINTS
  6
CONTINUOUS
 62
     0
100
AcDbPoint
 10
-1840.839502714038
 20
-3085.307778352404
 30
0.0
  0
POINT
  5
D351
330
BCCF
100
AcDbEntity
  8
DEFPOINTS
  6
CONTINUOUS
 62
     0
100
AcDbPoint
 10
-2087.23950271404
 20
-3130.307778352435
 30
0.0
  0
POINT
  5
D352
330
BCCF
100
AcDbEntity
  8
DEFPOINTS
  6
CONTINUOUS
 62
     0
100
AcDbPoint
 10
-2087.23950271404
 20
-3288.961302842501
 30
0.0
  0
ENDBLK
  5
BCDA
330
BCCF
100
AcDbEntity
  8
0
100
AcDbBlockEnd
  0
BLOCK
  5
BCE7
330
BCDB
100
AcDbEntity
  8
0
100
AcDbBlockBegin
  2
*D56
 70
     1
 10
0.0
 20
0.0
 30
0.0
  3
*D56
  1

  0
LINE
  5
D37B
330
BCDB
100
AcDbEntity
  8
SIZE
  6
CONTINUOUS
 62
     0
100
AcDbLine
 10
-2087.239502714026
 20
-2875.307778352435
 30
0.0
 11
-2087.239502714026
 21
-2777.247244126156
 31
0.0
  0
LINE
  5
D37C
330
BCDB
100
AcDbEntity
  8
SIZE
  6
CONTINUOUS
 62
     0
100
AcDbLine
 10
-2007.239470441298
 20
-2855.307778352435
 30
0.0
 11
-2007.239470441298
 21
-2777.247244126156
 31
0.0
  0
LINE
  5
D37D
330
BCDB
100
AcDbEntity
  8
SIZE
  6
CONTINUOUS
 62
     0
100
AcDbLine
 10
-2097.239502714026
 20
-2807.247244126156
 30
0.0
 11
-2107.239502714026
 21
-2807.247244126156
 31
0.0
  0
LINE
  5
D37E
330
BCDB
100
AcDbEntity
  8
SIZE
  6
CONTINUOUS
 62
     0
100
AcDbLine
 10
-1997.239470441298
 20
-2807.247244126156
 30
0.0
 11
-1987.239470441298
 21
-2807.247244126156
 31
0.0
  0
LINE
  5
D37F
330
BCDB
100
AcDbEntity
  8
SIZE
  6
CONTINUOUS
 62
     0
100
AcDbLine
 10
-2087.239502714026
 20
-2807.247244126156
 30
0.0
 11
-2007.239470441298
 21
-2807.247244126156
 31
0.0
  0
INSERT
  5
D380
330
BCDB
100
AcDbEntity
  8
SIZE
  6
CONTINUOUS
 62
     0
100
AcDbBlockReference
  2
_ORIGIN
 10
-2087.239502714026
 20
-2807.247244126156
 30
0.0
 41
10.0
 42
10.0
 43
10.0
  0
INSERT
  5
D381
330
BCDB
100
AcDbEntity
  8
SIZE
  6
CONTINUOUS
 62
     0
100
AcDbBlockReference
  2
_ORIGIN
 10
-2007.239470441298
 20
-2807.247244126156
 30
0.0
 41
10.0
 42
10.0
 43
10.0
 50
180.0
  0
MTEXT
  5
D382
330
BCDB
100
AcDbEntity
  8
SIZE
  6
CONTINUOUS
 62
     0
100
AcDbMText
 10
-2047.239486577662
 20
-2755.247244126156
 30
0.0
 40
64.0
 41
0.0
 71
     5
 72
     1
  1
\A1;80
1001
ACAD
1000
MTEXTBEGIN
1070
    73
1070
     1
1070
    44
1040
1.0
1070
    74
1070
     0
1000
MTEXTEND
  0
POINT
  5
D383
330
BCDB
100
AcDbEntity
  8
DEFPOINTS
  6
CONTINUOUS
 62
     0
100
AcDbPoint
 10
-2087.239502714026
 20
-2895.307778352435
 30
0.0
  0
POINT
  5
D384
330
BCDB
100
AcDbEntity
  8
DEFPOINTS
  6
CONTINUOUS
 62
     0
100
AcDbPoint
 10
-2007.239470441298
 20
-2875.307778352435
 30
0.0
  0
POINT
  5
D385
330
BCDB
100
AcDbEntity
  8
DEFPOINTS
  6
CONTINUOUS
 62
     0
100
AcDbPoint
 10
-2007.239470441298
 20
-2807.247244126156
 30
0.0
  0
ENDBLK
  5
BCE8
330
BCDB
100
AcDbEntity
  8
0
100
AcDbBlockEnd
  0
BLOCK
  5
BCF5
330
BCE9
100
AcDbEntity
  8
0
100
AcDbBlockBegin
  2
*D57
 70
     1
 10
0.0
 20
0.0
 30
0.0
  3
*D57
  1

  0
LINE
  5
D391
330
BCE9
100
AcDbEntity
  8
SIZE
  6
CONTINUOUS
 62
     0
100
AcDbLine
 10
-1436.816354983937
 20
-3090.038353139177
 30
0.0
 11
-1154.179129763202
 21
-3090.038353139177
 31
0.0
  0
LINE
  5
D392
330
BCE9
100
AcDbEntity
  8
SIZE
  6
CONTINUOUS
 62
     0
100
AcDbLine
 10
-1387.458007714029
 20
-2941.089273352432
 30
0.0
 11
-1154.179129763202
 21
-2941.089273352432
 31
0.0
  0
LINE
  5
D393
330
BCE9
100
AcDbEntity
  8
SIZE
  6
CONTINUOUS
 62
     0
100
AcDbLine
 10
-1184.179129763202
 20
-3100.038353139177
 30
0.0
 11
-1184.179129763202
 21
-3110.038353139177
 31
0.0
  0
LINE
  5
D394
330
BCE9
100
AcDbEntity
  8
SIZE
  6
CONTINUOUS
 62
     0
100
AcDbLine
 10
-1184.179129763202
 20
-2931.089273352431
 30
0.0
 11
-1184.179129763202
 21
-2921.089273352431
 31
0.0
  0
LINE
  5
D395
330
BCE9
100
AcDbEntity
  8
SIZE
  6
CONTINUOUS
 62
     0
100
AcDbLine
 10
-1184.179129763202
 20
-3090.038353139177
 30
0.0
 11
-1184.179129763202
 21
-2941.089273352432
 31
0.0
  0
INSERT
  5
D396
330
BCE9
100
AcDbEntity
  8
SIZE
  6
CONTINUOUS
 62
     0
100
AcDbBlockReference
  2
_ORIGIN
 10
-1184.179129763202
 20
-3090.038353139177
 30
0.0
 41
10.0
 42
10.0
 43
10.0
 50
90.0
  0
INSERT
  5
D397
330
BCE9
100
AcDbEntity
  8
SIZE
  6
CONTINUOUS
 62
     0
100
AcDbBlockReference
  2
_ORIGIN
 10
-1184.179129763202
 20
-2941.089273352432
 30
0.0
 41
10.0
 42
10.0
 43
10.0
 50
270.0
  0
MTEXT
  5
D398
330
BCE9
100
AcDbEntity
  8
SIZE
  6
CONTINUOUS
 62
     0
100
AcDbMText
 10
-1236.179129763202
 20
-3015.563813245805
 30
0.0
 40
64.0
 41
0.0
 71
     5
 72
     1
  1
\A1;149
 11
0.0000000000000001
 21
1.0
 31
0.0
1001
ACAD
1000
MTEXTBEGIN
1070
    73
1070
     1
1070
    44
1040
1.0
1070
    74
1070
     0
1000
MTEXTEND
  0
POINT
  5
D399
330
BCE9
100
AcDbEntity
  8
DEFPOINTS
  6
CONTINUOUS
 62
     0
100
AcDbPoint
 10
-1456.816354983937
 20
-3090.038353139177
 30
0.0
  0
POINT
  5
D39A
330
BCE9
100
AcDbEntity
  8
DEFPOINTS
  6
CONTINUOUS
 62
     0
100
AcDbPoint
 10
-1407.458007714029
 20
-2941.089273352432
 30
0.0
  0
POINT
  5
D39B
330
BCE9
100
AcDbEntity
  8
DEFPOINTS
  6
CONTINUOUS
 62
     0
100
AcDbPoint
 10
-1184.179129763202
 20
-2941.089273352432
 30
0.0
  0
ENDBLK
  5
BCF6
330
BCE9
100
AcDbEntity
  8
0
100
AcDbBlockEnd
  0
BLOCK
  5
BD03
330
BCF7
100
AcDbEntity
  8
0
100
AcDbBlockBegin
  2
*D58
 70
     1
 10
0.0
 20
0.0
 30
0.0
  3
*D58
  1

  0
LINE
  5
D39C
330
BCF7
100
AcDbEntity
  8
SIZE
  6
CONTINUOUS
 62
     0
100
AcDbLine
 10
-1438.23950271403
 20
-2895.307778352435
 30
0.0
 11
-1286.316536721224
 21
-2895.307778352435
 31
0.0
  0
LINE
  5
D39D
330
BCF7
100
AcDbEntity
  8
SIZE
  6
CONTINUOUS
 62
     0
100
AcDbLine
 10
-1397.239502714026
 20
-2936.307778352429
 30
0.0
 11
-1286.316536721224
 21
-2936.307778352429
 31
0.0
  0
LINE
  5
D39E
330
BCF7
100
AcDbEntity
  8
SIZE
  6
CONTINUOUS
 62
     0
100
AcDbLine
 10
-1316.316536721224
 20
-2946.307778352429
 30
0.0
 11
-1316.316536721224
 21
-2956.307778352429
 31
0.0
  0
LINE
  5
D39F
330
BCF7
100
AcDbEntity
  8
SIZE
  6
CONTINUOUS
 62
     0
100
AcDbLine
 10
-1316.316536721224
 20
-2885.307778352435
 30
0.0
 11
-1316.316536721224
 21
-2766.736349781003
 31
0.0
  0
LINE
  5
D3A0
330
BCF7
100
AcDbEntity
  8
SIZE
  6
CONTINUOUS
 62
     0
100
AcDbLine
 10
-1316.316536721224
 20
-2936.307778352429
 30
0.0
 11
-1316.316536721224
 21
-2895.307778352435
 31
0.0
  0
INSERT
  5
D3A1
330
BCF7
100
AcDbEntity
  8
SIZE
  6
CONTINUOUS
 62
     0
100
AcDbBlockReference
  2
_ORIGIN
 10
-1316.316536721224
 20
-2936.307778352429
 30
0.0
 41
10.0
 42
10.0
 43
10.0
 50
90.0
  0
INSERT
  5
D3A2
330
BCF7
100
AcDbEntity
  8
SIZE
  6
CONTINUOUS
 62
     0
100
AcDbBlockReference
  2
_ORIGIN
 10
-1316.316536721224
 20
-2895.307778352435
 30
0.0
 41
10.0
 42
10.0
 43
10.0
 50
270.0
  0
MTEXT
  5
D3A3
330
BCF7
100
AcDbEntity
  8
SIZE
  6
CONTINUOUS
 62
     0
100
AcDbMText
 10
-1368.316536721224
 20
-2821.022064066718
 30
0.0
 40
64.0
 41
0.0
 71
     5
 72
     1
  1
\A1;41
 11
0.0000000000000001
 21
1.0
 31
0.0
1001
ACAD
1000
MTEXTBEGIN
1070
    73
1070
     1
1070
    44
1040
1.0
1070
    74
1070
     0
1000
MTEXTEND
  0
POINT
  5
D3A4
330
BCF7
100
AcDbEntity
  8
DEFPOINTS
  6
CONTINUOUS
 62
     0
100
AcDbPoint
 10
-1458.23950271403
 20
-2895.307778352435
 30
0.0
  0
POINT
  5
D3A5
330
BCF7
100
AcDbEntity
  8
DEFPOINTS
  6
CONTINUOUS
 62
     0
100
AcDbPoint
 10
-1417.239502714026
 20
-2936.307778352429
 30
0.0
  0
POINT
  5
D3A6
330
BCF7
100
AcDbEntity
  8
DEFPOINTS
  6
CONTINUOUS
 62
     0
100
AcDbPoint
 10
-1316.316536721224
 20
-2936.307778352429
 30
0.0
  0
ENDBLK
  5
BD04
330
BCF7
100
AcDbEntity
  8
0
100
AcDbBlockEnd
  0
BLOCK
  5
BD11
330
BD05
100
AcDbEntity
  8
0
100
AcDbBlockBegin
  2
*D59
 70
     1
 10
0.0
 20
0.0
 30
0.0
  3
*D59
  1

  0
LINE
  5
D386
330
BD05
100
AcDbEntity
  8
SIZE
  6
CONTINUOUS
 62
     0
100
AcDbLine
 10
-1438.23950271403
 20
-2895.307778352435
 30
0.0
 11
-1154.179129763203
 21
-2895.307778352435
 31
0.0
  0
LINE
  5
D387
330
BD05
100
AcDbEntity
  8
SIZE
  6
CONTINUOUS
 62
     0
100
AcDbLine
 10
-1387.239502714026
 20
-2941.307778352429
 30
0.0
 11
-1154.179129763203
 21
-2941.307778352429
 31
0.0
  0
LINE
  5
D388
330
BD05
100
AcDbEntity
  8
SIZE
  6
CONTINUOUS
 62
     0
100
AcDbLine
 10
-1184.179129763202
 20
-2951.307778352429
 30
0.0
 11
-1184.179129763202
 21
-2961.307778352429
 31
0.0
  0
LINE
  5
D389
330
BD05
100
AcDbEntity
  8
SIZE
  6
CONTINUOUS
 62
     0
100
AcDbLine
 10
-1184.179129763202
 20
-2885.307778352435
 30
0.0
 11
-1184.179129763202
 21
-2744.793492638146
 31
0.0
  0
LINE
  5
D38A
330
BD05
100
AcDbEntity
  8
SIZE
  6
CONTINUOUS
 62
     0
100
AcDbLine
 10
-1184.179129763202
 20
-2941.307778352429
 30
0.0
 11
-1184.179129763202
 21
-2895.307778352435
 31
0.0
  0
INSERT
  5
D38B
330
BD05
100
AcDbEntity
  8
SIZE
  6
CONTINUOUS
 62
     0
100
AcDbBlockReference
  2
_ORIGIN
 10
-1184.179129763202
 20
-2941.307778352429
 30
0.0
 41
10.0
 42
10.0
 43
10.0
 50
90.0
  0
INSERT
  5
D38C
330
BD05
100
AcDbEntity
  8
SIZE
  6
CONTINUOUS
 62
     0
100
AcDbBlockReference
  2
_ORIGIN
 10
-1184.179129763202
 20
-2895.307778352435
 30
0.0
 41
10.0
 42
10.0
 43
10.0
 50
270.0
  0
MTEXT
  5
D38D
330
BD05
100
AcDbEntity
  8
SIZE
  6
CONTINUOUS
 62
     0
100
AcDbMText
 10
-1236.179129763202
 20
-2810.050635495289
 30
0.0
 40
64.0
 41
0.0
 71
     5
 72
     1
  1
\A1;46
 11
0.0000000000000001
 21
1.0
 31
0.0
1001
ACAD
1000
MTEXTBEGIN
1070
    73
1070
     1
1070
    44
1040
1.0
1070
    74
1070
     0
1000
MTEXTEND
  0
POINT
  5
D38E
330
BD05
100
AcDbEntity
  8
DEFPOINTS
  6
CONTINUOUS
 62
     0
100
AcDbPoint
 10
-1458.23950271403
 20
-2895.307778352435
 30
0.0
  0
POINT
  5
D38F
330
BD05
100
AcDbEntity
  8
DEFPOINTS
  6
CONTINUOUS
 62
     0
100
AcDbPoint
 10
-1407.239502714026
 20
-2941.307778352429
 30
0.0
  0
POINT
  5
D390
330
BD05
100
AcDbEntity
  8
DEFPOINTS
  6
CONTINUOUS
 62
     0
100
AcDbPoint
 10
-1184.179129763202
 20
-2941.307778352429
 30
0.0
  0
ENDBLK
  5
BD12
330
BD05
100
AcDbEntity
  8
0
100
AcDbBlockEnd
  0
BLOCK
  5
BD1F
330
BD13
100
AcDbEntity
  8
0
100
AcDbBlockBegin
  2
*D60
 70
     1
 10
0.0
 20
0.0
 30
0.0
  3
*D60
  1

  0
LINE
  5
D3B2
330
BD13
100
AcDbEntity
  8
SIZE
  6
CONTINUOUS
 62
     0
100
AcDbLine
 10
-1407.239502714026
 20
-2921.307778352429
 30
0.0
 11
-1407.239502714026
 21
-2640.808252236697
 31
0.0
  0
LINE
  5
D3B3
330
BD13
100
AcDbEntity
  8
SIZE
  6
CONTINUOUS
 62
     0
100
AcDbLine
 10
-1458.23950271403
 20
-2875.307778352435
 30
0.0
 11
-1458.23950271403
 21
-2640.808252236697
 31
0.0
  0
LINE
  5
D3B4
330
BD13
100
AcDbEntity
  8
SIZE
  6
CONTINUOUS
 62
     0
100
AcDbLine
 10
-1397.239502714026
 20
-2670.808252236696
 30
0.0
 11
-1387.239502714026
 21
-2670.808252236696
 31
0.0
  0
LINE
  5
D3B5
330
BD13
100
AcDbEntity
  8
SIZE
  6
CONTINUOUS
 62
     0
100
AcDbLine
 10
-1468.23950271403
 20
-2670.808252236696
 30
0.0
 11
-1478.23950271403
 21
-2670.808252236696
 31
0.0
  0
LINE
  5
D3B6
330
BD13
100
AcDbEntity
  8
SIZE
  6
CONTINUOUS
 62
     0
100
AcDbLine
 10
-1407.239502714026
 20
-2670.808252236696
 30
0.0
 11
-1458.23950271403
 21
-2670.808252236696
 31
0.0
  0
INSERT
  5
D3B7
330
BD13
100
AcDbEntity
  8
SIZE
  6
CONTINUOUS
 62
     0
100
AcDbBlockReference
  2
_ORIGIN
 10
-1407.239502714026
 20
-2670.808252236696
 30
0.0
 41
10.0
 42
10.0
 43
10.0
 50
180.0
  0
INSERT
  5
D3B8
330
BD13
100
AcDbEntity
  8
SIZE
  6
CONTINUOUS
 62
     0
100
AcDbBlockReference
  2
_ORIGIN
 10
-1458.23950271403
 20
-2670.808252236696
 30
0.0
 41
10.0
 42
10.0
 43
10.0
  0
MTEXT
  5
D3B9
330
BD13
100
AcDbEntity
  8
SIZE
  6
CONTINUOUS
 62
     0
100
AcDbMText
 10
-1432.739502714028
 20
-2618.808252236696
 30
0.0
 40
64.0
 41
0.0
 71
     5
 72
     1
  1
\A1;51
1001
ACAD
1000
MTEXTBEGIN
1070
    73
1070
     1
1070
    44
1040
1.0
1070
    74
1070
     0
1000
MTEXTEND
  0
POINT
  5
D3BA
330
BD13
100
AcDbEntity
  8
DEFPOINTS
  6
CONTINUOUS
 62
     0
100
AcDbPoint
 10
-1407.239502714026
 20
-2941.307778352429
 30
0.0
  0
POINT
  5
D3BB
330
BD13
100
AcDbEntity
  8
DEFPOINTS
  6
CONTINUOUS
 62
     0
100
AcDbPoint
 10
-1458.23950271403
 20
-2895.307778352435
 30
0.0
  0
POINT
  5
D3BC
330
BD13
100
AcDbEntity
  8
DEFPOINTS
  6
CONTINUOUS
 62
     0
100
AcDbPoint
 10
-1458.23950271403
 20
-2670.808252236696
 30
0.0
  0
ENDBLK
  5
BD20
330
BD13
100
AcDbEntity
  8
0
100
AcDbBlockEnd
  0
BLOCK
  5
BD2D
330
BD21
100
AcDbEntity
  8
0
100
AcDbBlockBegin
  2
*D61
 70
     1
 10
0.0
 20
0.0
 30
0.0
  3
*D61
  1

  0
LINE
  5
D3A7
330
BD21
100
AcDbEntity
  8
SIZE
  6
CONTINUOUS
 62
     0
100
AcDbLine
 10
-1417.239502714026
 20
-2916.307778352429
 30
0.0
 11
-1417.239502714026
 21
-2769.305988715518
 31
0.0
  0
LINE
  5
D3A8
330
BD21
100
AcDbEntity
  8
SIZE
  6
CONTINUOUS
 62
     0
100
AcDbLine
 10
-1407.239502714026
 20
-2921.307778352429
 30
0.0
 11
-1407.239502714026
 21
-2769.305988715518
 31
0.0
  0
LINE
  5
D3A9
330
BD21
100
AcDbEntity
  8
SIZE
  6
CONTINUOUS
 62
     0
100
AcDbLine
 10
-1427.239502714026
 20
-2799.305988715517
 30
0.0
 11
-1437.239502714026
 21
-2799.305988715517
 31
0.0
  0
LINE
  5
D3AA
330
BD21
100
AcDbEntity
  8
SIZE
  6
CONTINUOUS
 62
     0
100
AcDbLine
 10
-1397.239502714026
 20
-2799.305988715517
 30
0.0
 11
-1387.239502714026
 21
-2799.305988715517
 31
0.0
  0
LINE
  5
D3AB
330
BD21
100
AcDbEntity
  8
SIZE
  6
CONTINUOUS
 62
     0
100
AcDbLine
 10
-1417.239502714026
 20
-2799.305988715517
 30
0.0
 11
-1407.239502714026
 21
-2799.305988715517
 31
0.0
  0
INSERT
  5
D3AC
330
BD21
100
AcDbEntity
  8
SIZE
  6
CONTINUOUS
 62
     0
100
AcDbBlockReference
  2
_ORIGIN
 10
-1417.239502714026
 20
-2799.305988715517
 30
0.0
 41
10.0
 42
10.0
 43
10.0
  0
INSERT
  5
D3AD
330
BD21
100
AcDbEntity
  8
SIZE
  6
CONTINUOUS
 62
     0
100
AcDbBlockReference
  2
_ORIGIN
 10
-1407.239502714026
 20
-2799.305988715517
 30
0.0
 41
10.0
 42
10.0
 43
10.0
 50
180.0
  0
MTEXT
  5
D3AE
330
BD21
100
AcDbEntity
  8
SIZE
  6
CONTINUOUS
 62
     0
100
AcDbMText
 10
-1412.239502714026
 20
-2747.305988715517
 30
0.0
 40
64.0
 41
0.0
 71
     5
 72
     1
  1
\A1;10
1001
ACAD
1000
MTEXTBEGIN
1070
    73
1070
     1
1070
    44
1040
1.0
1070
    74
1070
     0
1000
MTEXTEND
  0
POINT
  5
D3AF
330
BD21
100
AcDbEntity
  8
DEFPOINTS
  6
CONTINUOUS
 62
     0
100
AcDbPoint
 10
-1417.239502714026
 20
-2936.307778352429
 30
0.0
  0
POINT
  5
D3B0
330
BD21
100
AcDbEntity
  8
DEFPOINTS
  6
CONTINUOUS
 62
     0
100
AcDbPoint
 10
-1407.239502714026
 20
-2941.307778352429
 30
0.0
  0
POINT
  5
D3B1
330
BD21
100
AcDbEntity
  8
DEFPOINTS
  6
CONTINUOUS
 62
     0
100
AcDbPoint
 10
-1407.239502714026
 20
-2799.305988715517
 30
0.0
  0
ENDBLK
  5
BD2E
330
BD21
100
AcDbEntity
  8
0
100
AcDbBlockEnd
  0
BLOCK
  5
C798
330
C78E
100
AcDbEntity
  8
0
100
AcDbBlockBegin
  2
*D62
 70
     1
 10
0.0
 20
0.0
 30
0.0
  3
*D62
  1

  0
LINE
  5
D654
330
C78E
100
AcDbEntity
  8
SIZE
  6
CONTINUOUS
 62
     0
100
AcDbLine
 10
6608.112746567909
 20
-2895.30778412594
 30
0.0
 11
6926.685046076595
 21
-2895.30778412594
 31
0.0
  0
LINE
  5
D655
330
C78E
100
AcDbEntity
  8
SIZE
  6
CONTINUOUS
 62
     0
100
AcDbLine
 10
6569.612746567898
 20
-3131.307784125934
 30
0.0
 11
6926.685046076595
 21
-3131.307784125934
 31
0.0
  0
LINE
  5
D656
330
C78E
100
AcDbEntity
  8
SIZE
  6
CONTINUOUS
 62
     0
100
AcDbLine
 10
6896.685046076595
 20
-2905.307784125939
 30
0.0
 11
6896.685046076595
 21
-3121.307784125934
 31
0.0
  0
INSERT
  5
D657
330
C78E
100
AcDbEntity
  8
SIZE
  6
CONTINUOUS
 62
     0
100
AcDbBlockReference
  2
_ORIGIN
 10
6896.685046076595
 20
-2895.30778412594
 30
0.0
 41
10.0
 42
10.0
 43
10.0
 50
90.0
  0
INSERT
  5
D658
330
C78E
100
AcDbEntity
  8
SIZE
  6
CONTINUOUS
 62
     0
100
AcDbBlockReference
  2
_ORIGIN
 10
6896.685046076595
 20
-3131.307784125934
 30
0.0
 41
10.0
 42
10.0
 43
10.0
 50
270.0
  0
MTEXT
  5
D659
330
C78E
100
AcDbEntity
  8
SIZE
  6
CONTINUOUS
 62
     0
100
AcDbMText
 10
6844.685046076596
 20
-3013.307784125934
 30
0.0
 40
64.0
 41
0.0
 71
     5
 72
     1
  1
\A1;236
 11
0.0000000000000001
 21
1.0
 31
0.0
1001
ACAD
1000
MTEXTBEGIN
1070
    73
1070
     1
1070
    44
1040
1.0
1070
    74
1070
     0
1000
MTEXTEND
  0
POINT
  5
D65A
330
C78E
100
AcDbEntity
  8
DEFPOINTS
  6
CONTINUOUS
 62
     0
100
AcDbPoint
 10
6588.11274656791
 20
-2895.30778412594
 30
0.0
  0
POINT
  5
D65B
330
C78E
100
AcDbEntity
  8
DEFPOINTS
  6
CONTINUOUS
 62
     0
100
AcDbPoint
 10
6549.612746567898
 20
-3131.307784125934
 30
0.0
  0
POINT
  5
D65C
330
C78E
100
AcDbEntity
  8
DEFPOINTS
  6
CONTINUOUS
 62
     0
100
AcDbPoint
 10
6896.685046076595
 20
-3131.307784125934
 30
0.0
  0
ENDBLK
  5
C799
330
C78E
100
AcDbEntity
  8
0
100
AcDbBlockEnd
  0
BLOCK
  5
C7A4
330
C79A
100
AcDbEntity
  8
0
100
AcDbBlockBegin
  2
*D63
 70
     1
 10
0.0
 20
0.0
 30
0.0
  3
*D63
  1

  0
LINE
  5
D5C6
330
C79A
100
AcDbEntity
  8
SIZE
  6
CONTINUOUS
 62
     0
100
AcDbLine
 10
4987.612746567894
 20
-2916.307778352435
 30
0.0
 11
4987.612746567894
 21
-3452.969084813892
 31
0.0
  0
LINE
  5
D5C7
330
C79A
100
AcDbEntity
  8
SIZE
  6
CONTINUOUS
 62
     0
100
AcDbLine
 10
5267.112746567902
 20
-3137.807778352434
 30
0.0
 11
5267.112746567902
 21
-3452.969084813892
 31
0.0
  0
LINE
  5
D5C8
330
C79A
100
AcDbEntity
  8
SIZE
  6
CONTINUOUS
 62
     0
100
AcDbLine
 10
4997.612746567895
 20
-3422.969084813891
 30
0.0
 11
5257.112746567901
 21
-3422.969084813891
 31
0.0
  0
INSERT
  5
D5C9
330
C79A
100
AcDbEntity
  8
SIZE
  6
CONTINUOUS
 62
     0
100
AcDbBlockReference
  2
_ORIGIN
 10
4987.612746567894
 20
-3422.969084813891
 30
0.0
 41
10.0
 42
10.0
 43
10.0
 50
180.0
  0
INSERT
  5
D5CA
330
C79A
100
AcDbEntity
  8
SIZE
  6
CONTINUOUS
 62
     0
100
AcDbBlockReference
  2
_ORIGIN
 10
5267.112746567902
 20
-3422.969084813891
 30
0.0
 41
10.0
 42
10.0
 43
10.0
  0
MTEXT
  5
D5CB
330
C79A
100
AcDbEntity
  8
SIZE
  6
CONTINUOUS
 62
     0
100
AcDbMText
 10
5127.362746567898
 20
-3370.969084813892
 30
0.0
 40
64.0
 41
0.0
 71
     5
 72
     1
  1
\A1;280
1001
ACAD
1000
MTEXTBEGIN
1070
    73
1070
     1
1070
    44
1040
1.0
1070
    74
1070
     0
1000
MTEXTEND
  0
POINT
  5
D5CC
330
C79A
100
AcDbEntity
  8
DEFPOINTS
  6
CONTINUOUS
 62
     0
100
AcDbPoint
 10
4987.612746567894
 20
-2896.307778352435
 30
0.0
  0
POINT
  5
D5CD
330
C79A
100
AcDbEntity
  8
DEFPOINTS
  6
CONTINUOUS
 62
     0
100
AcDbPoint
 10
5267.112746567902
 20
-3117.807778352434
 30
0.0
  0
POINT
  5
D5CE
330
C79A
100
AcDbEntity
  8
DEFPOINTS
  6
CONTINUOUS
 62
     0
100
AcDbPoint
 10
5267.112746567902
 20
-3422.969084813891
 30
0.0
  0
ENDBLK
  5
C7A5
330
C79A
100
AcDbEntity
  8
0
100
AcDbBlockEnd
  0
BLOCK
  5
C7B2
330
C7A6
100
AcDbEntity
  8
0
100
AcDbBlockBegin
  2
*D64
 70
     1
 10
0.0
 20
0.0
 30
0.0
  3
*D64
  1

  0
LINE
  5
D5CF
330
C7A6
100
AcDbEntity
  8
SIZE
  6
CONTINUOUS
 62
     0
100
AcDbLine
 10
5267.112746567902
 20
-3134.30777835243
 30
0.0
 11
5267.112746567902
 21
-3452.969084813892
 31
0.0
  0
LINE
  5
D5D0
330
C7A6
100
AcDbEntity
  8
SIZE
  6
CONTINUOUS
 62
     0
100
AcDbLine
 10
5305.112746567894
 20
-3134.30777835243
 30
0.0
 11
5305.112746567894
 21
-3452.969084813892
 31
0.0
  0
LINE
  5
D5D1
330
C7A6
100
AcDbEntity
  8
SIZE
  6
CONTINUOUS
 62
     0
100
AcDbLine
 10
5257.112746567901
 20
-3422.969084813891
 30
0.0
 11
5247.112746567902
 21
-3422.969084813891
 31
0.0
  0
LINE
  5
D5D2
330
C7A6
100
AcDbEntity
  8
SIZE
  6
CONTINUOUS
 62
     0
100
AcDbLine
 10
5315.112746567894
 20
-3422.969084813891
 30
0.0
 11
5325.112746567895
 21
-3422.969084813891
 31
0.0
  0
LINE
  5
D5D3
330
C7A6
100
AcDbEntity
  8
SIZE
  6
CONTINUOUS
 62
     0
100
AcDbLine
 10
5267.112746567902
 20
-3422.969084813891
 30
0.0
 11
5305.112746567894
 21
-3422.969084813891
 31
0.0
  0
INSERT
  5
D5D4
330
C7A6
100
AcDbEntity
  8
SIZE
  6
CONTINUOUS
 62
     0
100
AcDbBlockReference
  2
_ORIGIN
 10
5267.112746567902
 20
-3422.969084813891
 30
0.0
 41
10.0
 42
10.0
 43
10.0
  0
INSERT
  5
D5D5
330
C7A6
100
AcDbEntity
  8
SIZE
  6
CONTINUOUS
 62
     0
100
AcDbBlockReference
  2
_ORIGIN
 10
5305.112746567894
 20
-3422.969084813891
 30
0.0
 41
10.0
 42
10.0
 43
10.0
 50
180.0
  0
MTEXT
  5
D5D6
330
C7A6
100
AcDbEntity
  8
SIZE
  6
CONTINUOUS
 62
     0
100
AcDbMText
 10
5286.112746567898
 20
-3370.969084813892
 30
0.0
 40
64.0
 41
0.0
 71
     5
 72
     1
  1
\A1;38
1001
ACAD
1000
MTEXTBEGIN
1070
    73
1070
     1
1070
    44
1040
1.0
1070
    74
1070
     0
1000
MTEXTEND
  0
POINT
  5
D5D7
330
C7A6
100
AcDbEntity
  8
DEFPOINTS
  6
CONTINUOUS
 62
     0
100
AcDbPoint
 10
5267.112746567902
 20
-3114.30777835243
 30
0.0
  0
POINT
  5
D5D8
330
C7A6
100
AcDbEntity
  8
DEFPOINTS
  6
CONTINUOUS
 62
     0
100
AcDbPoint
 10
5305.112746567894
 20
-3114.30777835243
 30
0.0
  0
POINT
  5
D5D9
330
C7A6
100
AcDbEntity
  8
DEFPOINTS
  6
CONTINUOUS
 62
     0
100
AcDbPoint
 10
5305.112746567894
 20
-3422.969084813891
 30
0.0
  0
ENDBLK
  5
C7B3
330
C7A6
100
AcDbEntity
  8
0
100
AcDbBlockEnd
  0
BLOCK
  5
C7BE
330
C7B4
100
AcDbEntity
  8
0
100
AcDbBlockBegin
  2
*D65
 70
     1
 10
0.0
 20
0.0
 30
0.0
  3
*D65
  1

  0
LINE
  5
D519
330
C7B4
100
AcDbEntity
  8
SIZE
  6
CONTINUOUS
 62
     0
100
AcDbLine
 10
4971.060456567895
 20
-2895.307778352435
 30
0.0
 11
4706.258026412601
 21
-2895.307778352435
 31
0.0
  0
LINE
  5
D51A
330
C7B4
100
AcDbEntity
  8
SIZE
  6
CONTINUOUS
 62
     0
100
AcDbLine
 10
5087.612746567902
 20
-3085.307778352434
 30
0.0
 11
4706.258026412601
 21
-3085.307778352434
 31
0.0
  0
LINE
  5
D51B
330
C7B4
100
AcDbEntity
  8
SIZE
  6
CONTINUOUS
 62
     0
100
AcDbLine
 10
4736.258026412601
 20
-2905.307778352435
 30
0.0
 11
4736.258026412601
 21
-3075.307778352434
 31
0.0
  0
INSERT
  5
D51C
330
C7B4
100
AcDbEntity
  8
SIZE
  6
CONTINUOUS
 62
     0
100
AcDbBlockReference
  2
_ORIGIN
 10
4736.258026412601
 20
-2895.307778352435
 30
0.0
 41
10.0
 42
10.0
 43
10.0
 50
90.0
  0
INSERT
  5
D51D
330
C7B4
100
AcDbEntity
  8
SIZE
  6
CONTINUOUS
 62
     0
100
AcDbBlockReference
  2
_ORIGIN
 10
4736.258026412601
 20
-3085.307778352434
 30
0.0
 41
10.0
 42
10.0
 43
10.0
 50
270.0
  0
MTEXT
  5
D51E
330
C7B4
100
AcDbEntity
  8
SIZE
  6
CONTINUOUS
 62
     0
100
AcDbMText
 10
4684.258026412602
 20
-2990.307778352434
 30
0.0
 40
64.0
 41
0.0
 71
     5
 72
     1
  1
\A1;190
 11
0.0000000000000001
 21
1.0
 31
0.0
1001
ACAD
1000
MTEXTBEGIN
1070
    73
1070
     1
1070
    44
1040
1.0
1070
    74
1070
     0
1000
MTEXTEND
  0
POINT
  5
D51F
330
C7B4
100
AcDbEntity
  8
DEFPOINTS
  6
CONTINUOUS
 62
     0
100
AcDbPoint
 10
4991.060456567895
 20
-2895.307778352435
 30
0.0
  0
POINT
  5
D520
330
C7B4
100
AcDbEntity
  8
DEFPOINTS
  6
CONTINUOUS
 62
     0
100
AcDbPoint
 10
5107.612746567902
 20
-3085.307778352434
 30
0.0
  0
POINT
  5
D521
330
C7B4
100
AcDbEntity
  8
DEFPOINTS
  6
CONTINUOUS
 62
     0
100
AcDbPoint
 10
4736.258026412601
 20
-3085.307778352434
 30
0.0
  0
ENDBLK
  5
C7BF
330
C7B4
100
AcDbEntity
  8
0
100
AcDbBlockEnd
  0
BLOCK
  5
C7CC
330
C7C0
100
AcDbEntity
  8
0
100
AcDbBlockBegin
  2
*D66
 70
     1
 10
0.0
 20
0.0
 30
0.0
  3
*D66
  1

  0
LINE
  5
D62A
330
C7C0
100
AcDbEntity
  8
SIZE
  6
CONTINUOUS
 62
     0
100
AcDbLine
 10
4971.060456567895
 20
-2895.307778352435
 30
0.0
 11
4854.386615177762
 21
-2895.307778352435
 31
0.0
  0
LINE
  5
D62B
330
C7C0
100
AcDbEntity
  8
SIZE
  6
CONTINUOUS
 62
     0
100
AcDbLine
 10
5032.612746567895
 20
-3021.307778352428
 30
0.0
 11
4854.386615177762
 21
-3021.307778352428
 31
0.0
  0
LINE
  5
D62C
330
C7C0
100
AcDbEntity
  8
SIZE
  6
CONTINUOUS
 62
     0
100
AcDbLine
 10
4884.386615177762
 20
-2885.307778352435
 30
0.0
 11
4884.386615177762
 21
-2875.307778352435
 31
0.0
  0
LINE
  5
D62D
330
C7C0
100
AcDbEntity
  8
SIZE
  6
CONTINUOUS
 62
     0
100
AcDbLine
 10
4884.386615177762
 20
-3031.307778352428
 30
0.0
 11
4884.386615177762
 21
-3041.307778352428
 31
0.0
  0
LINE
  5
D62E
330
C7C0
100
AcDbEntity
  8
SIZE
  6
CONTINUOUS
 62
     0
100
AcDbLine
 10
4884.386615177762
 20
-2895.307778352435
 30
0.0
 11
4884.386615177762
 21
-3021.307778352428
 31
0.0
  0
INSERT
  5
D62F
330
C7C0
100
AcDbEntity
  8
SIZE
  6
CONTINUOUS
 62
     0
100
AcDbBlockReference
  2
_ORIGIN
 10
4884.386615177762
 20
-2895.307778352435
 30
0.0
 41
10.0
 42
10.0
 43
10.0
 50
270.0
  0
INSERT
  5
D630
330
C7C0
100
AcDbEntity
  8
SIZE
  6
CONTINUOUS
 62
     0
100
AcDbBlockReference
  2
_ORIGIN
 10
4884.386615177762
 20
-3021.307778352428
 30
0.0
 41
10.0
 42
10.0
 43
10.0
 50
90.0
  0
MTEXT
  5
D631
330
C7C0
100
AcDbEntity
  8
SIZE
  6
CONTINUOUS
 62
     0
100
AcDbMText
 10
4832.386615177763
 20
-2958.307778352431
 30
0.0
 40
64.0
 41
0.0
 71
     5
 72
     1
  1
\A1;126
 11
0.0000000000000001
 21
1.0
 31
0.0
1001
ACAD
1000
MTEXTBEGIN
1070
    73
1070
     1
1070
    44
1040
1.0
1070
    74
1070
     0
1000
MTEXTEND
  0
POINT
  5
D632
330
C7C0
100
AcDbEntity
  8
DEFPOINTS
  6
CONTINUOUS
 62
     0
100
AcDbPoint
 10
4991.060456567895
 20
-2895.307778352435
 30
0.0
  0
POINT
  5
D633
330
C7C0
100
AcDbEntity
  8
DEFPOINTS
  6
CONTINUOUS
 62
     0
100
AcDbPoint
 10
5052.612746567895
 20
-3021.307778352428
 30
0.0
  0
POINT
  5
D634
330
C7C0
100
AcDbEntity
  8
DEFPOINTS
  6
CONTINUOUS
 62
     0
100
AcDbPoint
 10
4884.386615177762
 20
-3021.307778352428
 30
0.0
  0
ENDBLK
  5
C7CD
330
C7C0
100
AcDbEntity
  8
0
100
AcDbBlockEnd
  0
BLOCK
  5
C7D8
330
C7CE
100
AcDbEntity
  8
0
100
AcDbBlockBegin
  2
*D67
 70
     1
 10
0.0
 20
0.0
 30
0.0
  3
*D67
  1

  0
LINE
  5
D635
330
C7CE
100
AcDbEntity
  8
SIZE
  6
CONTINUOUS
 62
     0
100
AcDbLine
 10
4987.612746567894
 20
-2876.307778352435
 30
0.0
 11
4987.612746567894
 21
-2593.491318437
 31
0.0
  0
LINE
  5
D636
330
C7CE
100
AcDbEntity
  8
SIZE
  6
CONTINUOUS
 62
     0
100
AcDbLine
 10
5273.112746567909
 20
-2881.80777835243
 30
0.0
 11
5273.112746567909
 21
-2593.491318437
 31
0.0
  0
LINE
  5
D637
330
C7CE
100
AcDbEntity
  8
SIZE
  6
CONTINUOUS
 62
     0
100
AcDbLine
 10
4997.612746567895
 20
-2623.491318437
 30
0.0
 11
5263.112746567909
 21
-2623.491318437
 31
0.0
  0
INSERT
  5
D638
330
C7CE
100
AcDbEntity
  8
SIZE
  6
CONTINUOUS
 62
     0
100
AcDbBlockReference
  2
_ORIGIN
 10
4987.612746567894
 20
-2623.491318437
 30
0.0
 41
10.0
 42
10.0
 43
10.0
 50
180.0
  0
INSERT
  5
D639
330
C7CE
100
AcDbEntity
  8
SIZE
  6
CONTINUOUS
 62
     0
100
AcDbBlockReference
  2
_ORIGIN
 10
5273.112746567909
 20
-2623.491318437
 30
0.0
 41
10.0
 42
10.0
 43
10.0
  0
MTEXT
  5
D63A
330
C7CE
100
AcDbEntity
  8
SIZE
  6
CONTINUOUS
 62
     0
100
AcDbMText
 10
5130.362746567902
 20
-2571.491318437001
 30
0.0
 40
64.0
 41
0.0
 71
     5
 72
     1
  1
\A1;286
1001
ACAD
1000
MTEXTBEGIN
1070
    73
1070
     1
1070
    44
1040
1.0
1070
    74
1070
     0
1000
MTEXTEND
  0
POINT
  5
D63B
330
C7CE
100
AcDbEntity
  8
DEFPOINTS
  6
CONTINUOUS
 62
     0
100
AcDbPoint
 10
4987.612746567894
 20
-2896.307778352435
 30
0.0
  0
POINT
  5
D63C
330
C7CE
100
AcDbEntity
  8
DEFPOINTS
  6
CONTINUOUS
 62
     0
100
AcDbPoint
 10
5273.112746567909
 20
-2901.80777835243
 30
0.0
  0
POINT
  5
D63D
330
C7CE
100
AcDbEntity
  8
DEFPOINTS
  6
CONTINUOUS
 62
     0
100
AcDbPoint
 10
5273.112746567909
 20
-2623.491318437
 30
0.0
  0
ENDBLK
  5
C7D9
330
C7CE
100
AcDbEntity
  8
0
100
AcDbBlockEnd
  0
BLOCK
  5
C7E4
330
C7DA
100
AcDbEntity
  8
0
100
AcDbBlockBegin
  2
*D68
 70
     1
 10
0.0
 20
0.0
 30
0.0
  3
*D68
  1

  0
LINE
  5
D6C2
330
C7DA
100
AcDbEntity
  8
SIZE
  6
CONTINUOUS
 62
     0
100
AcDbLine
 10
4987.612746567917
 20
-2876.307784125939
 30
0.0
 11
4987.612746567917
 21
-2245.779645763577
 31
0.0
  0
LINE
  5
D6C3
330
C7DA
100
AcDbEntity
  8
SIZE
  6
CONTINUOUS
 62
     0
100
AcDbLine
 10
6591.612746567912
 20
-2876.307631821095
 30
0.0
 11
6591.612746567912
 21
-2245.779645763577
 31
0.0
  0
LINE
  5
D6C4
330
C7DA
100
AcDbEntity
  8
SIZE
  6
CONTINUOUS
 62
     0
100
AcDbLine
 10
4997.612746567916
 20
-2275.779645763577
 30
0.0
 11
6581.612746567913
 21
-2275.779645763577
 31
0.0
  0
INSERT
  5
D6C5
330
C7DA
100
AcDbEntity
  8
SIZE
  6
CONTINUOUS
 62
     0
100
AcDbBlockReference
  2
_ORIGIN
 10
4987.612746567917
 20
-2275.779645763577
 30
0.0
 41
10.0
 42
10.0
 43
10.0
 50
180.0
  0
INSERT
  5
D6C6
330
C7DA
100
AcDbEntity
  8
SIZE
  6
CONTINUOUS
 62
     0
100
AcDbBlockReference
  2
_ORIGIN
 10
6591.612746567912
 20
-2275.779645763577
 30
0.0
 41
10.0
 42
10.0
 43
10.0
  0
MTEXT
  5
D6C7
330
C7DA
100
AcDbEntity
  8
SIZE
  6
CONTINUOUS
 62
     0
100
AcDbMText
 10
5789.612746567916
 20
-2223.779645763577
 30
0.0
 40
64.0
 41
0.0
 71
     5
 72
     1
  1
\A1;1604
1001
ACAD
1000
MTEXTBEGIN
1070
    73
1070
     1
1070
    44
1040
1.0
1070
    74
1070
     0
1000
MTEXTEND
  0
POINT
  5
D6C8
330
C7DA
100
AcDbEntity
  8
DEFPOINTS
  6
CONTINUOUS
 62
     0
100
AcDbPoint
 10
4987.612746567917
 20
-2896.307784125939
 30
0.0
  0
POINT
  5
D6C9
330
C7DA
100
AcDbEntity
  8
DEFPOINTS
  6
CONTINUOUS
 62
     0
100
AcDbPoint
 10
6591.612746567912
 20
-2896.307631821095
 30
0.0
  0
POINT
  5
D6CA
330
C7DA
100
AcDbEntity
  8
DEFPOINTS
  6
CONTINUOUS
 62
     0
100
AcDbPoint
 10
6591.612746567912
 20
-2275.779645763577
 30
0.0
  0
ENDBLK
  5
C7E5
330
C7DA
100
AcDbEntity
  8
0
100
AcDbBlockEnd
  0
BLOCK
  5
C7F0
330
C7E6
100
AcDbEntity
  8
0
100
AcDbBlockBegin
  2
*D69
 70
     1
 10
0.0
 20
0.0
 30
0.0
  3
*D69
  1

  0
LINE
  5
D6AF
330
C7E6
100
AcDbEntity
  8
SIZE
  6
CONTINUOUS
 62
     0
100
AcDbLine
 10
5011.112746567909
 20
-2855.307784125936
 30
0.0
 11
5011.112746567909
 21
-2449.769970664711
 31
0.0
  0
LINE
  5
D6B0
330
C7E6
100
AcDbEntity
  8
SIZE
  6
CONTINUOUS
 62
     0
100
AcDbLine
 10
6568.112746567909
 20
-2855.307784125939
 30
0.0
 11
6568.112746567909
 21
-2449.769970664711
 31
0.0
  0
LINE
  5
D6B1
330
C7E6
100
AcDbEntity
  8
SIZE
  6
CONTINUOUS
 62
     0
100
AcDbLine
 10
5021.112746567909
 20
-2479.76997066471
 30
0.0
 11
6558.112746567909
 21
-2479.76997066471
 31
0.0
  0
INSERT
  5
D6B2
330
C7E6
100
AcDbEntity
  8
SIZE
  6
CONTINUOUS
 62
     0
100
AcDbBlockReference
  2
_ORIGIN
 10
5011.112746567909
 20
-2479.76997066471
 30
0.0
 41
10.0
 42
10.0
 43
10.0
 50
180.0
  0
INSERT
  5
D6B3
330
C7E6
100
AcDbEntity
  8
SIZE
  6
CONTINUOUS
 62
     0
100
AcDbBlockReference
  2
_ORIGIN
 10
6568.112746567909
 20
-2479.76997066471
 30
0.0
 41
10.0
 42
10.0
 43
10.0
  0
MTEXT
  5
D6B4
330
C7E6
100
AcDbEntity
  8
SIZE
  6
CONTINUOUS
 62
     0
100
AcDbMText
 10
5789.612746567909
 20
-2427.76997066471
 30
0.0
 40
64.0
 41
0.0
 71
     5
 72
     1
  1
\A1;1557
1001
ACAD
1000
MTEXTBEGIN
1070
    73
1070
     1
1070
    44
1040
1.0
1070
    74
1070
     0
1000
MTEXTEND
  0
POINT
  5
D6B5
330
C7E6
100
AcDbEntity
  8
DEFPOINTS
  6
CONTINUOUS
 62
     0
100
AcDbPoint
 10
5011.112746567909
 20
-2875.307784125936
 30
0.0
  0
POINT
  5
D6B6
330
C7E6
100
AcDbEntity
  8
DEFPOINTS
  6
CONTINUOUS
 62
     0
100
AcDbPoint
 10
6568.112746567909
 20
-2875.30778412594
 30
0.0
  0
POINT
  5
D6B7
330
C7E6
100
AcDbEntity
  8
DEFPOINTS
  6
CONTINUOUS
 62
     0
100
AcDbPoint
 10
6568.112746567909
 20
-2479.76997066471
 30
0.0
  0
ENDBLK
  5
C7F1
330
C7E6
100
AcDbEntity
  8
0
100
AcDbBlockEnd
  0
BLOCK
  5
C7FE
330
C7F2
100
AcDbEntity
  8
0
100
AcDbBlockBegin
  2
*D70
 70
     1
 10
0.0
 20
0.0
 30
0.0
  3
*D70
  1

  0
LINE
  5
D63E
330
C7F2
100
AcDbEntity
  8
SIZE
  6
CONTINUOUS
 62
     0
100
AcDbLine
 10
5273.112746567909
 20
-2881.80777835243
 30
0.0
 11
5273.112746567909
 21
-2593.491318437
 31
0.0
  0
LINE
  5
D63F
330
C7F2
100
AcDbEntity
  8
SIZE
  6
CONTINUOUS
 62
     0
100
AcDbLine
 10
5311.112746567902
 20
-2881.80777835243
 30
0.0
 11
5311.112746567902
 21
-2593.491318437
 31
0.0
  0
LINE
  5
D640
330
C7F2
100
AcDbEntity
  8
SIZE
  6
CONTINUOUS
 62
     0
100
AcDbLine
 10
5263.112746567909
 20
-2623.491318437
 30
0.0
 11
5253.112746567909
 21
-2623.491318437
 31
0.0
  0
LINE
  5
D641
330
C7F2
100
AcDbEntity
  8
SIZE
  6
CONTINUOUS
 62
     0
100
AcDbLine
 10
5321.112746567902
 20
-2623.491318437
 30
0.0
 11
5331.112746567902
 21
-2623.491318437
 31
0.0
  0
LINE
  5
D642
330
C7F2
100
AcDbEntity
  8
SIZE
  6
CONTINUOUS
 62
     0
100
AcDbLine
 10
5273.112746567909
 20
-2623.491318437
 30
0.0
 11
5311.112746567902
 21
-2623.491318437
 31
0.0
  0
INSERT
  5
D643
330
C7F2
100
AcDbEntity
  8
SIZE
  6
CONTINUOUS
 62
     0
100
AcDbBlockReference
  2
_ORIGIN
 10
5273.112746567909
 20
-2623.491318437
 30
0.0
 41
10.0
 42
10.0
 43
10.0
  0
INSERT
  5
D644
330
C7F2
100
AcDbEntity
  8
SIZE
  6
CONTINUOUS
 62
     0
100
AcDbBlockReference
  2
_ORIGIN
 10
5311.112746567902
 20
-2623.491318437
 30
0.0
 41
10.0
 42
10.0
 43
10.0
 50
180.0
  0
MTEXT
  5
D645
330
C7F2
100
AcDbEntity
  8
SIZE
  6
CONTINUOUS
 62
     0
100
AcDbMText
 10
5292.112746567905
 20
-2571.491318437001
 30
0.0
 40
64.0
 41
0.0
 71
     5
 72
     1
  1
\A1;38
1001
ACAD
1000
MTEXTBEGIN
1070
    73
1070
     1
1070
    44
1040
1.0
1070
    74
1070
     0
1000
MTEXTEND
  0
POINT
  5
D646
330
C7F2
100
AcDbEntity
  8
DEFPOINTS
  6
CONTINUOUS
 62
     0
100
AcDbPoint
 10
5273.112746567909
 20
-2901.80777835243
 30
0.0
  0
POINT
  5
D647
330
C7F2
100
AcDbEntity
  8
DEFPOINTS
  6
CONTINUOUS
 62
     0
100
AcDbPoint
 10
5311.112746567902
 20
-2901.80777835243
 30
0.0
  0
POINT
  5
D648
330
C7F2
100
AcDbEntity
  8
DEFPOINTS
  6
CONTINUOUS
 62
     0
100
AcDbPoint
 10
5311.112746567902
 20
-2623.491318437
 30
0.0
  0
ENDBLK
  5
C7FF
330
C7F2
100
AcDbEntity
  8
0
100
AcDbBlockEnd
  0
BLOCK
  5
C80A
330
C800
100
AcDbEntity
  8
0
100
AcDbBlockBegin
  2
*D71
 70
     1
 10
0.0
 20
0.0
 30
0.0
  3
*D71
  1

  0
LINE
  5
D5F7
330
C800
100
AcDbEntity
  8
SIZE
  6
CONTINUOUS
 62
     0
100
AcDbLine
 10
5345.112746567895
 20
-3094.30777835243
 30
0.0
 11
5445.685822360013
 21
-3094.30777835243
 31
0.0
  0
LINE
  5
D5F8
330
C800
100
AcDbEntity
  8
SIZE
  6
CONTINUOUS
 62
     0
100
AcDbLine
 10
5354.512746567904
 20
-2925.307778352434
 30
0.0
 11
5445.685822360013
 21
-2925.307778352434
 31
0.0
  0
LINE
  5
D5F9
330
C800
100
AcDbEntity
  8
SIZE
  6
CONTINUOUS
 62
     0
100
AcDbLine
 10
5415.685822360013
 20
-3084.30777835243
 30
0.0
 11
5415.685822360013
 21
-2935.307778352434
 31
0.0
  0
INSERT
  5
D5FA
330
C800
100
AcDbEntity
  8
SIZE
  6
CONTINUOUS
 62
     0
100
AcDbBlockReference
  2
_ORIGIN
 10
5415.685822360013
 20
-3094.30777835243
 30
0.0
 41
10.0
 42
10.0
 43
10.0
 50
270.0
  0
INSERT
  5
D5FB
330
C800
100
AcDbEntity
  8
SIZE
  6
CONTINUOUS
 62
     0
100
AcDbBlockReference
  2
_ORIGIN
 10
5415.685822360013
 20
-2925.307778352434
 30
0.0
 41
10.0
 42
10.0
 43
10.0
 50
90.0
  0
MTEXT
  5
D5FC
330
C800
100
AcDbEntity
  8
SIZE
  6
CONTINUOUS
 62
     0
100
AcDbMText
 10
5363.685822360015
 20
-3009.807778352431
 30
0.0
 40
64.0
 41
0.0
 71
     5
 72
     1
  1
\A1;169
 11
0.0000000000000001
 21
1.0
 31
0.0
1001
ACAD
1000
MTEXTBEGIN
1070
    73
1070
     1
1070
    44
1040
1.0
1070
    74
1070
     0
1000
MTEXTEND
  0
POINT
  5
D5FD
330
C800
100
AcDbEntity
  8
DEFPOINTS
  6
CONTINUOUS
 62
     0
100
AcDbPoint
 10
5325.112746567895
 20
-3094.30777835243
 30
0.0
  0
POINT
  5
D5FE
330
C800
100
AcDbEntity
  8
DEFPOINTS
  6
CONTINUOUS
 62
     0
100
AcDbPoint
 10
5334.512746567903
 20
-2925.307778352434
 30
0.0
  0
POINT
  5
D5FF
330
C800
100
AcDbEntity
  8
DEFPOINTS
  6
CONTINUOUS
 62
     0
100
AcDbPoint
 10
5415.685822360013
 20
-2925.307778352434
 30
0.0
  0
ENDBLK
  5
C80B
330
C800
100
AcDbEntity
  8
0
100
AcDbBlockEnd
  0
BLOCK
  5
C817
330
C80C
100
AcDbEntity
  8
0
100
AcDbBlockBegin
  2
*D72
 70
     1
 10
0.0
 20
0.0
 30
0.0
  3
*D72
  1

  0
LINE
  5
D60B
330
C80C
100
AcDbEntity
  8
SIZE
  6
CONTINUOUS
 62
     0
100
AcDbLine
 10
4987.612746567894
 20
-2916.307778352435
 30
0.0
 11
4987.612746567894
 21
-3309.989830254656
 31
0.0
  0
LINE
  5
D60C
330
C80C
100
AcDbEntity
  8
SIZE
  6
CONTINUOUS
 62
     0
100
AcDbLine
 10
5127.612746567901
 20
-3125.307778352434
 30
0.0
 11
5127.612746567901
 21
-3309.989830254656
 31
0.0
  0
LINE
  5
D60D
330
C80C
100
AcDbEntity
  8
SIZE
  6
CONTINUOUS
 62
     0
100
AcDbLine
 10
4997.612746567895
 20
-3279.989830254656
 30
0.0
 11
5117.612746567902
 21
-3279.989830254656
 31
0.0
  0
LINE
  5
D60E
330
C80C
100
AcDbEntity
  8
SIZE
  6
CONTINUOUS
 62
     0
100
AcDbLine
 10
5127.612746567901
 20
-3279.989830254656
 30
0.0
 11
5314.755603710762
 21
-3279.989830254656
 31
0.0
  0
INSERT
  5
D60F
330
C80C
100
AcDbEntity
  8
SIZE
  6
CONTINUOUS
 62
     0
100
AcDbBlockReference
  2
_ORIGIN
 10
4987.612746567894
 20
-3279.989830254656
 30
0.0
 41
10.0
 42
10.0
 43
10.0
 50
180.0
  0
INSERT
  5
D610
330
C80C
100
AcDbEntity
  8
SIZE
  6
CONTINUOUS
 62
     0
100
AcDbBlockReference
  2
_ORIGIN
 10
5127.612746567901
 20
-3279.989830254656
 30
0.0
 41
10.0
 42
10.0
 43
10.0
  0
MTEXT
  5
D611
330
C80C
100
AcDbEntity
  8
SIZE
  6
CONTINUOUS
 62
     0
100
AcDbMText
 10
5226.184175139334
 20
-3227.989830254656
 30
0.0
 40
64.0
 41
0.0
 71
     5
 72
     1
  1
\A1;140
1001
ACAD
1000
MTEXTBEGIN
1070
    73
1070
     1
1070
    44
1040
1.0
1070
    74
1070
     0
1000
MTEXTEND
  0
POINT
  5
D612
330
C80C
100
AcDbEntity
  8
DEFPOINTS
  6
CONTINUOUS
 62
     0
100
AcDbPoint
 10
4987.612746567894
 20
-2896.307778352435
 30
0.0
  0
POINT
  5
D613
330
C80C
100
AcDbEntity
  8
DEFPOINTS
  6
CONTINUOUS
 62
     0
100
AcDbPoint
 10
5127.612746567901
 20
-3105.307778352434
 30
0.0
  0
POINT
  5
D614
330
C80C
100
AcDbEntity
  8
DEFPOINTS
  6
CONTINUOUS
 62
     0
100
AcDbPoint
 10
5127.612746567901
 20
-3279.989830254656
 30
0.0
  0
ENDBLK
  5
C818
330
C80C
100
AcDbEntity
  8
0
100
AcDbBlockEnd
  0
BLOCK
  5
C825
330
C819
100
AcDbEntity
  8
0
100
AcDbBlockBegin
  2
*D73
 70
     1
 10
0.0
 20
0.0
 30
0.0
  3
*D73
  1

  0
LINE
  5
D600
330
C819
100
AcDbEntity
  8
SIZE
  6
CONTINUOUS
 62
     0
100
AcDbLine
 10
5049.612746567902
 20
-3131.307778352428
 30
0.0
 11
5445.685822360013
 21
-3131.307778352429
 31
0.0
  0
LINE
  5
D601
330
C819
100
AcDbEntity
  8
SIZE
  6
CONTINUOUS
 62
     0
100
AcDbLine
 10
5345.112746567895
 20
-3094.30777835243
 30
0.0
 11
5445.685822360013
 21
-3094.30777835243
 31
0.0
  0
LINE
  5
D602
330
C819
100
AcDbEntity
  8
SIZE
  6
CONTINUOUS
 62
     0
100
AcDbLine
 10
5415.685822360013
 20
-3084.30777835243
 30
0.0
 11
5415.685822360013
 21
-3074.30777835243
 31
0.0
  0
LINE
  5
D603
330
C819
100
AcDbEntity
  8
SIZE
  6
CONTINUOUS
 62
     0
100
AcDbLine
 10
5415.685822360013
 20
-3141.307778352429
 30
0.0
 11
5415.685822360013
 21
-3290.495415604922
 31
0.0
  0
LINE
  5
D604
330
C819
100
AcDbEntity
  8
SIZE
  6
CONTINUOUS
 62
     0
100
AcDbLine
 10
5415.685822360013
 20
-3094.30777835243
 30
0.0
 11
5415.685822360013
 21
-3131.307778352429
 31
0.0
  0
INSERT
  5
D605
330
C819
100
AcDbEntity
  8
SIZE
  6
CONTINUOUS
 62
     0
100
AcDbBlockReference
  2
_ORIGIN
 10
5415.685822360013
 20
-3094.30777835243
 30
0.0
 41
10.0
 42
10.0
 43
10.0
 50
270.0
  0
INSERT
  5
D606
330
C819
100
AcDbEntity
  8
SIZE
  6
CONTINUOUS
 62
     0
100
AcDbBlockReference
  2
_ORIGIN
 10
5415.685822360013
 20
-3131.307778352429
 30
0.0
 41
10.0
 42
10.0
 43
10.0
 50
90.0
  0
MTEXT
  5
D607
330
C819
100
AcDbEntity
  8
SIZE
  6
CONTINUOUS
 62
     0
100
AcDbMText
 10
5363.685822360015
 20
-3223.86684417635
 30
0.0
 40
64.0
 41
0.0
 71
     5
 72
     1
  1
\A1;37
 11
0.0000000000000001
 21
1.0
 31
0.0
1001
ACAD
1000
MTEXTBEGIN
1070
    73
1070
     1
1070
    44
1040
1.0
1070
    74
1070
     0
1000
MTEXTEND
  0
POINT
  5
D608
330
C819
100
AcDbEntity
  8
DEFPOINTS
  6
CONTINUOUS
 62
     0
100
AcDbPoint
 10
5029.612746567902
 20
-3131.307778352428
 30
0.0
  0
POINT
  5
D609
330
C819
100
AcDbEntity
  8
DEFPOINTS
  6
CONTINUOUS
 62
     0
100
AcDbPoint
 10
5325.112746567895
 20
-3094.30777835243
 30
0.0
  0
POINT
  5
D60A
330
C819
100
AcDbEntity
  8
DEFPOINTS
  6
CONTINUOUS
 62
     0
100
AcDbPoint
 10
5415.685822360013
 20
-3094.30777835243
 30
0.0
  0
ENDBLK
  5
C826
330
C819
100
AcDbEntity
  8
0
100
AcDbBlockEnd
  0
BLOCK
  5
C832
330
C827
100
AcDbEntity
  8
0
100
AcDbBlockBegin
  2
*D74
 70
     1
 10
0.0
 20
0.0
 30
0.0
  3
*D74
  1

  0
LINE
  5
D615
330
C827
100
AcDbEntity
  8
SIZE
  6
CONTINUOUS
 62
     0
100
AcDbLine
 10
5075.612746567909
 20
-2978.307778352426
 30
0.0
 11
5075.612746567909
 21
-2722.292543317139
 31
0.0
  0
LINE
  5
D616
330
C827
100
AcDbEntity
  8
SIZE
  6
CONTINUOUS
 62
     0
100
AcDbLine
 10
5160.612746567895
 20
-2981.307778352428
 30
0.0
 11
5160.612746567895
 21
-2722.292543317139
 31
0.0
  0
LINE
  5
D617
330
C827
100
AcDbEntity
  8
SIZE
  6
CONTINUOUS
 62
     0
100
AcDbLine
 10
5085.612746567909
 20
-2752.292543317139
 30
0.0
 11
5150.612746567895
 21
-2752.292543317139
 31
0.0
  0
LINE
  5
D618
330
C827
100
AcDbEntity
  8
SIZE
  6
CONTINUOUS
 62
     0
100
AcDbLine
 10
5160.612746567895
 20
-2752.292543317139
 30
0.0
 11
5303.869889425043
 21
-2752.292543317139
 31
0.0
  0
INSERT
  5
D619
330
C827
100
AcDbEntity
  8
SIZE
  6
CONTINUOUS
 62
     0
100
AcDbBlockReference
  2
_ORIGIN
 10
5075.612746567909
 20
-2752.292543317139
 30
0.0
 41
10.0
 42
10.0
 43
10.0
 50
180.0
  0
INSERT
  5
D61A
330
C827
100
AcDbEntity
  8
SIZE
  6
CONTINUOUS
 62
     0
100
AcDbBlockReference
  2
_ORIGIN
 10
5160.612746567895
 20
-2752.292543317139
 30
0.0
 41
10.0
 42
10.0
 43
10.0
  0
MTEXT
  5
D61B
330
C827
100
AcDbEntity
  8
SIZE
  6
CONTINUOUS
 62
     0
100
AcDbMText
 10
5237.241317996471
 20
-2700.292543317139
 30
0.0
 40
64.0
 41
0.0
 71
     5
 72
     1
  1
\A1;85
1001
ACAD
1000
MTEXTBEGIN
1070
    73
1070
     1
1070
    44
1040
1.0
1070
    74
1070
     0
1000
MTEXTEND
  0
POINT
  5
D61C
330
C827
100
AcDbEntity
  8
DEFPOINTS
  6
CONTINUOUS
 62
     0
100
AcDbPoint
 10
5075.612746567909
 20
-2998.307778352426
 30
0.0
  0
POINT
  5
D61D
330
C827
100
AcDbEntity
  8
DEFPOINTS
  6
CONTINUOUS
 62
     0
100
AcDbPoint
 10
5160.612746567895
 20
-3001.307778352428
 30
0.0
  0
POINT
  5
D61E
330
C827
100
AcDbEntity
  8
DEFPOINTS
  6
CONTINUOUS
 62
     0
100
AcDbPoint
 10
5160.612746567895
 20
-2752.292543317139
 30
0.0
  0
ENDBLK
  5
C833
330
C827
100
AcDbEntity
  8
0
100
AcDbBlockEnd
  0
BLOCK
  5
C840
330
C834
100
AcDbEntity
  8
0
100
AcDbBlockBegin
  2
*D75
 70
     1
 10
0.0
 20
0.0
 30
0.0
  3
*D75
  1

  0
LINE
  5
D61F
330
C834
100
AcDbEntity
  8
SIZE
  6
CONTINUOUS
 62
     0
100
AcDbLine
 10
4987.612746567894
 20
-2876.307778352435
 30
0.0
 11
4987.612746567894
 21
-2722.292543317139
 31
0.0
  0
LINE
  5
D620
330
C834
100
AcDbEntity
  8
SIZE
  6
CONTINUOUS
 62
     0
100
AcDbLine
 10
5075.612746567909
 20
-2978.307778352426
 30
0.0
 11
5075.612746567909
 21
-2722.292543317139
 31
0.0
  0
LINE
  5
D621
330
C834
100
AcDbEntity
  8
SIZE
  6
CONTINUOUS
 62
     0
100
AcDbLine
 10
4977.612746567895
 20
-2752.292543317139
 30
0.0
 11
4967.612746567894
 21
-2752.292543317139
 31
0.0
  0
LINE
  5
D622
330
C834
100
AcDbEntity
  8
SIZE
  6
CONTINUOUS
 62
     0
100
AcDbLine
 10
5085.612746567909
 20
-2752.292543317139
 30
0.0
 11
5095.612746567909
 21
-2752.292543317139
 31
0.0
  0
LINE
  5
D623
330
C834
100
AcDbEntity
  8
SIZE
  6
CONTINUOUS
 62
     0
100
AcDbLine
 10
4987.612746567894
 20
-2752.292543317139
 30
0.0
 11
5075.612746567909
 21
-2752.292543317139
 31
0.0
  0
INSERT
  5
D624
330
C834
100
AcDbEntity
  8
SIZE
  6
CONTINUOUS
 62
     0
100
AcDbBlockReference
  2
_ORIGIN
 10
4987.612746567894
 20
-2752.292543317139
 30
0.0
 41
10.0
 42
10.0
 43
10.0
  0
INSERT
  5
D625
330
C834
100
AcDbEntity
  8
SIZE
  6
CONTINUOUS
 62
     0
100
AcDbBlockReference
  2
_ORIGIN
 10
5075.612746567909
 20
-2752.292543317139
 30
0.0
 41
10.0
 42
10.0
 43
10.0
 50
180.0
  0
MTEXT
  5
D626
330
C834
100
AcDbEntity
  8
SIZE
  6
CONTINUOUS
 62
     0
100
AcDbMText
 10
5031.612746567901
 20
-2700.292543317139
 30
0.0
 40
64.0
 41
0.0
 71
     5
 72
     1
  1
\A1;88
1001
ACAD
1000
MTEXTBEGIN
1070
    73
1070
     1
1070
    44
1040
1.0
1070
    74
1070
     0
1000
MTEXTEND
  0
POINT
  5
D627
330
C834
100
AcDbEntity
  8
DEFPOINTS
  6
CONTINUOUS
 62
     0
100
AcDbPoint
 10
4987.612746567894
 20
-2896.307778352435
 30
0.0
  0
POINT
  5
D628
330
C834
100
AcDbEntity
  8
DEFPOINTS
  6
CONTINUOUS
 62
     0
100
AcDbPoint
 10
5075.612746567909
 20
-2998.307778352426
 30
0.0
  0
POINT
  5
D629
330
C834
100
AcDbEntity
  8
DEFPOINTS
  6
CONTINUOUS
 62
     0
100
AcDbPoint
 10
5075.612746567909
 20
-2752.292543317139
 30
0.0
  0
ENDBLK
  5
C841
330
C834
100
AcDbEntity
  8
0
100
AcDbBlockEnd
  0
BLOCK
  5
C84E
330
C842
100
AcDbEntity
  8
0
100
AcDbBlockBegin
  2
*D76
 70
     1
 10
0.0
 20
0.0
 30
0.0
  3
*D76
  1

  0
LINE
  5
D649
330
C842
100
AcDbEntity
  8
SIZE
  6
CONTINUOUS
 62
     0
100
AcDbLine
 10
6562.476004234141
 20
-3085.307784125939
 30
0.0
 11
6775.851830517024
 21
-3085.307784125939
 31
0.0
  0
LINE
  5
D64A
330
C842
100
AcDbEntity
  8
SIZE
  6
CONTINUOUS
 62
     0
100
AcDbLine
 10
6608.112746567899
 20
-2895.307784125939
 30
0.0
 11
6775.851830517024
 21
-2895.307784125939
 31
0.0
  0
LINE
  5
D64B
330
C842
100
AcDbEntity
  8
SIZE
  6
CONTINUOUS
 62
     0
100
AcDbLine
 10
6745.851830517024
 20
-3095.307784125939
 30
0.0
 11
6745.851830517024
 21
-3105.307784125939
 31
0.0
  0
LINE
  5
D64C
330
C842
100
AcDbEntity
  8
SIZE
  6
CONTINUOUS
 62
     0
100
AcDbLine
 10
6745.851830517024
 20
-2885.307784125939
 30
0.0
 11
6745.851830517024
 21
-2875.307784125939
 31
0.0
  0
LINE
  5
D64D
330
C842
100
AcDbEntity
  8
SIZE
  6
CONTINUOUS
 62
     0
100
AcDbLine
 10
6745.851830517024
 20
-3085.307784125939
 30
0.0
 11
6745.851830517024
 21
-2895.307784125939
 31
0.0
  0
INSERT
  5
D64E
330
C842
100
AcDbEntity
  8
SIZE
  6
CONTINUOUS
 62
     0
100
AcDbBlockReference
  2
_ORIGIN
 10
6745.851830517024
 20
-3085.307784125939
 30
0.0
 41
10.0
 42
10.0
 43
10.0
 50
90.0
  0
INSERT
  5
D64F
330
C842
100
AcDbEntity
  8
SIZE
  6
CONTINUOUS
 62
     0
100
AcDbBlockReference
  2
_ORIGIN
 10
6745.851830517024
 20
-2895.307784125939
 30
0.0
 41
10.0
 42
10.0
 43
10.0
 50
270.0
  0
MTEXT
  5
D650
330
C842
100
AcDbEntity
  8
SIZE
  6
CONTINUOUS
 62
     0
100
AcDbMText
 10
6693.851830517026
 20
-2990.307784125937
 30
0.0
 40
64.0
 41
0.0
 71
     5
 72
     1
  1
\A1;190
 11
0.0000000000000001
 21
1.0
 31
0.0
1001
ACAD
1000
MTEXTBEGIN
1070
    73
1070
     1
1070
    44
1040
1.0
1070
    74
1070
     0
1000
MTEXTEND
  0
POINT
  5
D651
330
C842
100
AcDbEntity
  8
DEFPOINTS
  6
CONTINUOUS
 62
     0
100
AcDbPoint
 10
6542.47600423414
 20
-3085.307784125939
 30
0.0
  0
POINT
  5
D652
330
C842
100
AcDbEntity
  8
DEFPOINTS
  6
CONTINUOUS
 62
     0
100
AcDbPoint
 10
6588.112746567898
 20
-2895.307784125939
 30
0.0
  0
POINT
  5
D653
330
C842
100
AcDbEntity
  8
DEFPOINTS
  6
CONTINUOUS
 62
     0
100
AcDbPoint
 10
6745.851830517024
 20
-2895.307784125939
 30
0.0
  0
ENDBLK
  5
C84F
330
C842
100
AcDbEntity
  8
0
100
AcDbBlockEnd
  0
BLOCK
  5
C85C
330
C850
100
AcDbEntity
  8
0
100
AcDbBlockBegin
  2
*D77
 70
     1
 10
0.0
 20
0.0
 30
0.0
  3
*D77
  1

  0
LINE
  5
D668
330
C850
100
AcDbEntity
  8
SIZE
  6
CONTINUOUS
 62
     0
100
AcDbLine
 10
6514.612746567898
 20
-3133.474815502709
 30
0.0
 11
6514.612746567898
 21
-3336.272460333489
 31
0.0
  0
LINE
  5
D669
330
C850
100
AcDbEntity
  8
SIZE
  6
CONTINUOUS
 62
     0
100
AcDbLine
 10
6591.612746567905
 20
-2919.767214125934
 30
0.0
 11
6591.612746567905
 21
-3336.272460333489
 31
0.0
  0
LINE
  5
D66A
330
C850
100
AcDbEntity
  8
SIZE
  6
CONTINUOUS
 62
     0
100
AcDbLine
 10
6504.612746567898
 20
-3306.27246033349
 30
0.0
 11
6494.612746567899
 21
-3306.27246033349
 31
0.0
  0
LINE
  5
D66B
330
C850
100
AcDbEntity
  8
SIZE
  6
CONTINUOUS
 62
     0
100
AcDbLine
 10
6601.612746567906
 20
-3306.27246033349
 30
0.0
 11
6611.612746567906
 21
-3306.27246033349
 31
0.0
  0
LINE
  5
D66C
330
C850
100
AcDbEntity
  8
SIZE
  6
CONTINUOUS
 62
     0
100
AcDbLine
 10
6514.612746567898
 20
-3306.27246033349
 30
0.0
 11
6591.612746567905
 21
-3306.27246033349
 31
0.0
  0
INSERT
  5
D66D
330
C850
100
AcDbEntity
  8
SIZE
  6
CONTINUOUS
 62
     0
100
AcDbBlockReference
  2
_ORIGIN
 10
6514.612746567898
 20
-3306.27246033349
 30
0.0
 41
10.0
 42
10.0
 43
10.0
  0
INSERT
  5
D66E
330
C850
100
AcDbEntity
  8
SIZE
  6
CONTINUOUS
 62
     0
100
AcDbBlockReference
  2
_ORIGIN
 10
6591.612746567905
 20
-3306.27246033349
 30
0.0
 41
10.0
 42
10.0
 43
10.0
 50
180.0
  0
MTEXT
  5
D66F
330
C850
100
AcDbEntity
  8
SIZE
  6
CONTINUOUS
 62
     0
100
AcDbMText
 10
6553.112746567902
 20
-3254.272460333489
 30
0.0
 40
64.0
 41
0.0
 71
     5
 72
     1
  1
\A1;77
1001
ACAD
1000
MTEXTBEGIN
1070
    73
1070
     1
1070
    44
1040
1.0
1070
    74
1070
     0
1000
MTEXTEND
  0
POINT
  5
D670
330
C850
100
AcDbEntity
  8
DEFPOINTS
  6
CONTINUOUS
 62
     0
100
AcDbPoint
 10
6514.612746567898
 20
-3113.474815502709
 30
0.0
  0
POINT
  5
D671
330
C850
100
AcDbEntity
  8
DEFPOINTS
  6
CONTINUOUS
 62
     0
100
AcDbPoint
 10
6591.612746567905
 20
-2899.767214125935
 30
0.0
  0
POINT
  5
D672
330
C850
100
AcDbEntity
  8
DEFPOINTS
  6
CONTINUOUS
 62
     0
100
AcDbPoint
 10
6591.612746567905
 20
-3306.27246033349
 30
0.0
  0
ENDBLK
  5
C85D
330
C850
100
AcDbEntity
  8
0
100
AcDbBlockEnd
  0
BLOCK
  5
C86A
330
C85E
100
AcDbEntity
  8
0
100
AcDbBlockBegin
  2
*D78
 70
     1
 10
0.0
 20
0.0
 30
0.0
  3
*D78
  1

  0
LINE
  5
D673
330
C85E
100
AcDbEntity
  8
SIZE
  6
CONTINUOUS
 62
     0
100
AcDbLine
 10
6529.612746567898
 20
-2901.307784125934
 30
0.0
 11
6454.609971431967
 21
-2901.307784125934
 31
0.0
  0
LINE
  5
D674
330
C85E
100
AcDbEntity
  8
SIZE
  6
CONTINUOUS
 62
     0
100
AcDbLine
 10
6528.112746567898
 20
-2895.307784125939
 30
0.0
 11
6454.609971431967
 21
-2895.307784125939
 31
0.0
  0
LINE
  5
D675
330
C85E
100
AcDbEntity
  8
SIZE
  6
CONTINUOUS
 62
     0
100
AcDbLine
 10
6484.609971431968
 20
-2911.307784125933
 30
0.0
 11
6484.609971431968
 21
-2921.307784125934
 31
0.0
  0
LINE
  5
D676
330
C85E
100
AcDbEntity
  8
SIZE
  6
CONTINUOUS
 62
     0
100
AcDbLine
 10
6484.609971431968
 20
-2885.307784125939
 30
0.0
 11
6484.609971431968
 21
-2799.650641268794
 31
0.0
  0
LINE
  5
D677
330
C85E
100
AcDbEntity
  8
SIZE
  6
CONTINUOUS
 62
     0
100
AcDbLine
 10
6484.609971431968
 20
-2901.307784125934
 30
0.0
 11
6484.609971431968
 21
-2895.307784125939
 31
0.0
  0
INSERT
  5
D678
330
C85E
100
AcDbEntity
  8
SIZE
  6
CONTINUOUS
 62
     0
100
AcDbBlockReference
  2
_ORIGIN
 10
6484.609971431968
 20
-2901.307784125934
 30
0.0
 41
10.0
 42
10.0
 43
10.0
 50
90.0
  0
INSERT
  5
D679
330
C85E
100
AcDbEntity
  8
SIZE
  6
CONTINUOUS
 62
     0
100
AcDbBlockReference
  2
_ORIGIN
 10
6484.609971431968
 20
-2895.307784125939
 30
0.0
 41
10.0
 42
10.0
 43
10.0
 50
270.0
  0
MTEXT
  5
D67A
330
C85E
100
AcDbEntity
  8
SIZE
  6
CONTINUOUS
 62
     0
100
AcDbMText
 10
6432.609971431968
 20
-2837.479212697364
 30
0.0
 40
64.0
 41
0.0
 71
     5
 72
     1
  1
\A1;6
 11
0.0000000000000001
 21
1.0
 31
0.0
1001
ACAD
1000
MTEXTBEGIN
1070
    73
1070
     1
1070
    44
1040
1.0
1070
    74
1070
     0
1000
MTEXTEND
  0
POINT
  5
D67B
330
C85E
100
AcDbEntity
  8
DEFPOINTS
  6
CONTINUOUS
 62
     0
100
AcDbPoint
 10
6549.612746567898
 20
-2901.307784125934
 30
0.0
  0
POINT
  5
D67C
330
C85E
100
AcDbEntity
  8
DEFPOINTS
  6
CONTINUOUS
 62
     0
100
AcDbPoint
 10
6548.112746567898
 20
-2895.307784125939
 30
0.0
  0
POINT
  5
D67D
330
C85E
100
AcDbEntity
  8
DEFPOINTS
  6
CONTINUOUS
 62
     0
100
AcDbPoint
 10
6484.609971431968
 20
-2895.307784125939
 30
0.0
  0
ENDBLK
  5
C86B
330
C85E
100
AcDbEntity
  8
0
100
AcDbBlockEnd
  0
BLOCK
  5
C878
330
C86C
100
AcDbEntity
  8
0
100
AcDbBlockBegin
  2
*D79
 70
     1
 10
0.0
 20
0.0
 30
0.0
  3
*D79
  1

  0
LINE
  5
D65D
330
C86C
100
AcDbEntity
  8
SIZE
  6
CONTINUOUS
 62
     0
100
AcDbLine
 10
6589.612746567905
 20
-2922.420194125939
 30
0.0
 11
6589.612746567905
 21
-2546.861986407314
 31
0.0
  0
LINE
  5
D65E
330
C86C
100
AcDbEntity
  8
SIZE
  6
CONTINUOUS
 62
     0
100
AcDbLine
 10
6591.61274656791
 20
-2876.307784125939
 30
0.0
 11
6591.61274656791
 21
-2546.861986407314
 31
0.0
  0
LINE
  5
D65F
330
C86C
100
AcDbEntity
  8
SIZE
  6
CONTINUOUS
 62
     0
100
AcDbLine
 10
6579.612746567907
 20
-2576.861986407315
 30
0.0
 11
6569.612746567905
 21
-2576.861986407315
 31
0.0
  0
LINE
  5
D660
330
C86C
100
AcDbEntity
  8
SIZE
  6
CONTINUOUS
 62
     0
100
AcDbLine
 10
6601.612746567909
 20
-2576.861986407315
 30
0.0
 11
6690.01274656791
 21
-2576.861986407315
 31
0.0
  0
LINE
  5
D661
330
C86C
100
AcDbEntity
  8
SIZE
  6
CONTINUOUS
 62
     0
100
AcDbLine
 10
6589.612746567905
 20
-2576.861986407315
 30
0.0
 11
6591.61274656791
 21
-2576.861986407315
 31
0.0
  0
INSERT
  5
D662
330
C86C
100
AcDbEntity
  8
SIZE
  6
CONTINUOUS
 62
     0
100
AcDbBlockReference
  2
_ORIGIN
 10
6589.612746567905
 20
-2576.861986407315
 30
0.0
 41
10.0
 42
10.0
 43
10.0
  0
INSERT
  5
D663
330
C86C
100
AcDbEntity
  8
SIZE
  6
CONTINUOUS
 62
     0
100
AcDbBlockReference
  2
_ORIGIN
 10
6591.61274656791
 20
-2576.861986407315
 30
0.0
 41
10.0
 42
10.0
 43
10.0
 50
180.0
  0
MTEXT
  5
D664
330
C86C
100
AcDbEntity
  8
SIZE
  6
CONTINUOUS
 62
     0
100
AcDbMText
 10
6650.812746567909
 20
-2524.861986407314
 30
0.0
 40
64.0
 41
0.0
 71
     5
 72
     1
  1
\A1;2
1001
ACAD
1000
MTEXTBEGIN
1070
    73
1070
     1
1070
    44
1040
1.0
1070
    74
1070
     0
1000
MTEXTEND
  0
POINT
  5
D665
330
C86C
100
AcDbEntity
  8
DEFPOINTS
  6
CONTINUOUS
 62
     0
100
AcDbPoint
 10
6589.612746567905
 20
-2942.420194125939
 30
0.0
  0
POINT
  5
D666
330
C86C
100
AcDbEntity
  8
DEFPOINTS
  6
CONTINUOUS
 62
     0
100
AcDbPoint
 10
6591.61274656791
 20
-2896.307784125939
 30
0.0
  0
POINT
  5
D667
330
C86C
100
AcDbEntity
  8
DEFPOINTS
  6
CONTINUOUS
 62
     0
100
AcDbPoint
 10
6591.61274656791
 20
-2576.861986407315
 30
0.0
  0
ENDBLK
  5
C879
330
C86C
100
AcDbEntity
  8
0
100
AcDbBlockEnd
  0
BLOCK
  5
C886
330
C87A
100
AcDbEntity
  8
0
100
AcDbBlockBegin
  2
*D80
 70
     1
 10
0.0
 20
0.0
 30
0.0
  3
*D80
  1

  0
LINE
  5
D5EC
330
C87A
100
AcDbEntity
  8
SIZE
  6
CONTINUOUS
 62
     0
100
AcDbLine
 10
4989.612746567916
 20
-2922.420194125939
 30
0.0
 11
4989.612746567916
 21
-2506.63911032917
 31
0.0
  0
LINE
  5
D5ED
330
C87A
100
AcDbEntity
  8
SIZE
  6
CONTINUOUS
 62
     0
100
AcDbLine
 10
4987.612746567917
 20
-2876.307784125939
 30
0.0
 11
4987.612746567917
 21
-2506.63911032917
 31
0.0
  0
LINE
  5
D5EE
330
C87A
100
AcDbEntity
  8
SIZE
  6
CONTINUOUS
 62
     0
100
AcDbLine
 10
4999.612746567916
 20
-2536.63911032917
 30
0.0
 11
5009.612746567917
 21
-2536.63911032917
 31
0.0
  0
LINE
  5
D5EF
330
C87A
100
AcDbEntity
  8
SIZE
  6
CONTINUOUS
 62
     0
100
AcDbLine
 10
4977.612746567917
 20
-2536.63911032917
 30
0.0
 11
4889.212746567916
 21
-2536.63911032917
 31
0.0
  0
LINE
  5
D5F0
330
C87A
100
AcDbEntity
  8
SIZE
  6
CONTINUOUS
 62
     0
100
AcDbLine
 10
4989.612746567916
 20
-2536.63911032917
 30
0.0
 11
4987.612746567917
 21
-2536.63911032917
 31
0.0
  0
INSERT
  5
D5F1
330
C87A
100
AcDbEntity
  8
SIZE
  6
CONTINUOUS
 62
     0
100
AcDbBlockReference
  2
_ORIGIN
 10
4989.612746567916
 20
-2536.63911032917
 30
0.0
 41
10.0
 42
10.0
 43
10.0
 50
180.0
  0
INSERT
  5
D5F2
330
C87A
100
AcDbEntity
  8
SIZE
  6
CONTINUOUS
 62
     0
100
AcDbBlockReference
  2
_ORIGIN
 10
4987.612746567917
 20
-2536.63911032917
 30
0.0
 41
10.0
 42
10.0
 43
10.0
  0
MTEXT
  5
D5F3
330
C87A
100
AcDbEntity
  8
SIZE
  6
CONTINUOUS
 62
     0
100
AcDbMText
 10
4928.412746567915
 20
-2484.639110329171
 30
0.0
 40
64.0
 41
0.0
 71
     5
 72
     1
  1
\A1;2
1001
ACAD
1000
MTEXTBEGIN
1070
    73
1070
     1
1070
    44
1040
1.0
1070
    74
1070
     0
1000
MTEXTEND
  0
POINT
  5
D5F4
330
C87A
100
AcDbEntity
  8
DEFPOINTS
  6
CONTINUOUS
 62
     0
100
AcDbPoint
 10
4989.612746567916
 20
-2942.420194125939
 30
0.0
  0
POINT
  5
D5F5
330
C87A
100
AcDbEntity
  8
DEFPOINTS
  6
CONTINUOUS
 62
     0
100
AcDbPoint
 10
4987.612746567917
 20
-2896.307784125939
 30
0.0
  0
POINT
  5
D5F6
330
C87A
100
AcDbEntity
  8
DEFPOINTS
  6
CONTINUOUS
 62
     0
100
AcDbPoint
 10
4987.612746567917
 20
-2536.63911032917
 30
0.0
  0
ENDBLK
  5
C887
330
C87A
100
AcDbEntity
  8
0
100
AcDbBlockEnd
  0
BLOCK
  5
D026
330
D01B
100
AcDbEntity
  8
0
100
AcDbBlockBegin
  2
*D81
 70
     1
 10
0.0
 20
0.0
 30
0.0
  3
*D81
  1

  0
LINE
  5
D6A2
330
D01B
100
AcDbEntity
  8
SIZE
  6
CONTINUOUS
 62
     0
100
AcDbLine
 10
1080.039538075499
 20
-4594.87052703862
 30
0.0
 11
1080.039538075499
 21
-4786.383707639019
 31
0.0
  0
LINE
  5
D6A3
330
D01B
100
AcDbEntity
  8
SIZE
  6
CONTINUOUS
 62
     0
100
AcDbLine
 10
1220.0395380755
 20
-4737.241407038623
 30
0.0
 11
1220.0395380755
 21
-4726.383707639018
 31
0.0
  0
LINE
  5
D6A4
330
D01B
100
AcDbEntity
  8
SIZE
  6
CONTINUOUS
 62
     0
100
AcDbLine
 10
1210.0395380755
 20
-4756.383707639019
 30
0.0
 11
1090.039538075499
 21
-4756.383707639019
 31
0.0
  0
LINE
  5
D6A5
330
D01B
100
AcDbEntity
  8
SIZE
  6
CONTINUOUS
 62
     0
100
AcDbLine
 10
1080.039538075499
 20
-4756.383707639019
 30
0.0
 11
892.8966809326421
 21
-4756.383707639019
 31
0.0
  0
INSERT
  5
D6A6
330
D01B
100
AcDbEntity
  8
SIZE
  6
CONTINUOUS
 62
     0
100
AcDbBlockReference
  2
_ORIGIN
 10
1220.0395380755
 20
-4756.383707639019
 30
0.0
 41
10.0
 42
10.0
 43
10.0
  0
INSERT
  5
D6A7
330
D01B
100
AcDbEntity
  8
SIZE
  6
CONTINUOUS
 62
     0
100
AcDbBlockReference
  2
_ORIGIN
 10
1080.039538075499
 20
-4756.383707639019
 30
0.0
 41
10.0
 42
10.0
 43
10.0
 50
180.0
  0
MTEXT
  5
D6A8
330
D01B
100
AcDbEntity
  8
SIZE
  6
CONTINUOUS
 62
     0
100
AcDbMText
 10
981.4681095040706
 20
-4704.383707639019
 30
0.0
 40
64.0
 41
0.0
 71
     5
 72
     1
  1
\A1;140
1001
ACAD
1000
MTEXTBEGIN
1070
    73
1070
     1
1070
    44
1040
1.0
1070
    74
1070
     0
1000
MTEXTEND
  0
POINT
  5
D6A9
330
D01B
100
AcDbEntity
  8
DEFPOINTS
  6
CONTINUOUS
 62
     0
100
AcDbPoint
 10
1080.039538075499
 20
-4574.870527038621
 30
0.0
  0
POINT
  5
D6AA
330
D01B
100
AcDbEntity
  8
DEFPOINTS
  6
CONTINUOUS
 62
     0
100
AcDbPoint
 10
1220.0395380755
 20
-4757.241407038622
 30
0.0
  0
POINT
  5
D6AB
330
D01B
100
AcDbEntity
  8
DEFPOINTS
  6
CONTINUOUS
 62
     0
100
AcDbPoint
 10
1220.0395380755
 20
-4756.383707639019
 30
0.0
  0
ENDBLK
  5
D027
330
D01B
100
AcDbEntity
  8
0
100
AcDbBlockEnd
  0
BLOCK
  5
D032
330
D028
100
AcDbEntity
  8
0
100
AcDbBlockBegin
  2
*D82
 70
     1
 10
0.0
 20
0.0
 30
0.0
  3
*D82
  1

  0
LINE
  5
D312
330
D028
100
AcDbEntity
  8
SIZE
  6
CONTINUOUS
 62
     0
100
AcDbLine
 10
-361.9604619245074
 20
-4308.87052703862
 30
0.0
 11
-867.7557457011497
 21
-4308.87052703862
 31
0.0
  0
LINE
  5
D313
330
D028
100
AcDbEntity
  8
SIZE
  6
CONTINUOUS
 62
     0
100
AcDbLine
 10
-360.7604619244994
 20
-4988.870527038621
 30
0.0
 11
-867.7557457011499
 21
-4988.870527038621
 31
0.0
  0
LINE
  5
D314
330
D028
100
AcDbEntity
  8
SIZE
  6
CONTINUOUS
 62
     0
100
AcDbLine
 10
-837.7557457011496
 20
-4318.870527038621
 30
0.0
 11
-837.7557457011498
 21
-4978.870527038621
 31
0.0
  0
INSERT
  5
D315
330
D028
100
AcDbEntity
  8
SIZE
  6
CONTINUOUS
 62
     0
100
AcDbBlockReference
  2
_ORIGIN
 10
-837.7557457011496
 20
-4308.87052703862
 30
0.0
 41
10.0
 42
10.0
 43
10.0
 50
90.0
  0
INSERT
  5
D316
330
D028
100
AcDbEntity
  8
SIZE
  6
CONTINUOUS
 62
     0
100
AcDbBlockReference
  2
_ORIGIN
 10
-837.7557457011498
 20
-4988.870527038621
 30
0.0
 41
10.0
 42
10.0
 43
10.0
 50
270.0
  0
MTEXT
  5
D317
330
D028
100
AcDbEntity
  8
SIZE
  6
CONTINUOUS
 62
     0
100
AcDbMText
 10
-889.755745701149
 20
-4648.870527038621
 30
0.0
 40
64.0
 41
0.0
 71
     5
 72
     1
  1
\A1;680
 11
0.0000000000000001
 21
1.0
 31
0.0
1001
ACAD
1000
MTEXTBEGIN
1070
    73
1070
     1
1070
    44
1040
1.0
1070
    74
1070
     0
1000
MTEXTEND
  0
POINT
  5
D318
330
D028
100
AcDbEntity
  8
DEFPOINTS
  6
CONTINUOUS
 62
     0
100
AcDbPoint
 10
-341.9604619245073
 20
-4308.87052703862
 30
0.0
  0
POINT
  5
D319
330
D028
100
AcDbEntity
  8
DEFPOINTS
  6
CONTINUOUS
 62
     0
100
AcDbPoint
 10
-340.7604619244994
 20
-4988.870527038621
 30
0.0
  0
POINT
  5
D31A
330
D028
100
AcDbEntity
  8
DEFPOINTS
  6
CONTINUOUS
 62
     0
100
AcDbPoint
 10
-837.7557457011498
 20
-4988.870527038621
 30
0.0
  0
ENDBLK
  5
D033
330
D028
100
AcDbEntity
  8
0
100
AcDbBlockEnd
  0
BLOCK
  5
D03E
330
D034
100
AcDbEntity
  8
0
100
AcDbBlockBegin
  2
*D83
 70
     1
 10
0.0
 20
0.0
 30
0.0
  3
*D83
  1

  0
LINE
  5
D2C4
330
D034
100
AcDbEntity
  8
SIZE
  6
CONTINUOUS
 62
     0
100
AcDbLine
 10
-381.960461924491
 20
-4784.513004815617
 30
0.0
 11
-381.960461924491
 21
-5353.744445915822
 31
0.0
  0
LINE
  5
D2C5
330
D034
100
AcDbEntity
  8
SIZE
  6
CONTINUOUS
 62
     0
100
AcDbLine
 10
1218.039538075492
 20
-4791.24140703862
 30
0.0
 11
1218.039538075492
 21
-5353.744445915822
 31
0.0
  0
LINE
  5
D2C6
330
D034
100
AcDbEntity
  8
SIZE
  6
CONTINUOUS
 62
     0
100
AcDbLine
 10
-371.960461924491
 20
-5323.744445915821
 30
0.0
 11
1208.039538075492
 21
-5323.744445915821
 31
0.0
  0
INSERT
  5
D2C7
330
D034
100
AcDbEntity
  8
SIZE
  6
CONTINUOUS
 62
     0
100
AcDbBlockReference
  2
_ORIGIN
 10
-381.960461924491
 20
-5323.744445915821
 30
0.0
 41
10.0
 42
10.0
 43
10.0
 50
180.0
  0
INSERT
  5
D2C8
330
D034
100
AcDbEntity
  8
SIZE
  6
CONTINUOUS
 62
     0
100
AcDbBlockReference
  2
_ORIGIN
 10
1218.039538075492
 20
-5323.744445915821
 30
0.0
 41
10.0
 42
10.0
 43
10.0
  0
MTEXT
  5
D2C9
330
D034
100
AcDbEntity
  8
SIZE
  6
CONTINUOUS
 62
     0
100
AcDbMText
 10
418.0395380755007
 20
-5271.744445915821
 30
0.0
 40
64.0
 41
0.0
 71
     5
 72
     1
  1
\A1;1600
1001
ACAD
1000
MTEXTBEGIN
1070
    73
1070
     1
1070
    44
1040
1.0
1070
    74
1070
     0
1000
MTEXTEND
  0
POINT
  5
D2CA
330
D034
100
AcDbEntity
  8
DEFPOINTS
  6
CONTINUOUS
 62
     0
100
AcDbPoint
 10
-381.960461924491
 20
-4764.513004815618
 30
0.0
  0
POINT
  5
D2CB
330
D034
100
AcDbEntity
  8
DEFPOINTS
  6
CONTINUOUS
 62
     0
100
AcDbPoint
 10
1218.039538075492
 20
-4771.241407038619
 30
0.0
  0
POINT
  5
D2CC
330
D034
100
AcDbEntity
  8
DEFPOINTS
  6
CONTINUOUS
 62
     0
100
AcDbPoint
 10
1218.039538075492
 20
-5323.744445915821
 30
0.0
  0
ENDBLK
  5
D03F
330
D034
100
AcDbEntity
  8
0
100
AcDbBlockEnd
  0
BLOCK
  5
D04A
330
D040
100
AcDbEntity
  8
0
100
AcDbBlockBegin
  2
*D84
 70
     1
 10
0.0
 20
0.0
 30
0.0
  3
*D84
  1

  0
LINE
  5
D2B0
330
D040
100
AcDbEntity
  8
SIZE
  6
CONTINUOUS
 62
     0
100
AcDbLine
 10
-383.9604619244965
 20
-4777.241407038618
 30
0.0
 11
-383.9604619244965
 21
-5500.891397576684
 31
0.0
  0
LINE
  5
D2B1
330
D040
100
AcDbEntity
  8
SIZE
  6
CONTINUOUS
 62
     0
100
AcDbLine
 10
1220.0395380755
 20
-4777.241407038623
 30
0.0
 11
1220.0395380755
 21
-5500.891397576684
 31
0.0
  0
LINE
  5
D2B2
330
D040
100
AcDbEntity
  8
SIZE
  6
CONTINUOUS
 62
     0
100
AcDbLine
 10
-373.9604619244965
 20
-5470.891397576685
 30
0.0
 11
1210.0395380755
 21
-5470.891397576685
 31
0.0
  0
INSERT
  5
D2B3
330
D040
100
AcDbEntity
  8
SIZE
  6
CONTINUOUS
 62
     0
100
AcDbBlockReference
  2
_ORIGIN
 10
-383.9604619244965
 20
-5470.891397576685
 30
0.0
 41
10.0
 42
10.0
 43
10.0
 50
180.0
  0
INSERT
  5
D2B4
330
D040
100
AcDbEntity
  8
SIZE
  6
CONTINUOUS
 62
     0
100
AcDbBlockReference
  2
_ORIGIN
 10
1220.0395380755
 20
-5470.891397576685
 30
0.0
 41
10.0
 42
10.0
 43
10.0
  0
MTEXT
  5
D2B5
330
D040
100
AcDbEntity
  8
SIZE
  6
CONTINUOUS
 62
     0
100
AcDbMText
 10
418.0395380755016
 20
-5418.891397576684
 30
0.0
 40
64.0
 41
0.0
 71
     5
 72
     1
  1
\A1;1604
1001
ACAD
1000
MTEXTBEGIN
1070
    73
1070
     1
1070
    44
1040
1.0
1070
    74
1070
     0
1000
MTEXTEND
  0
POINT
  5
D2B6
330
D040
100
AcDbEntity
  8
DEFPOINTS
  6
CONTINUOUS
 62
     0
100
AcDbPoint
 10
-383.9604619244965
 20
-4757.241407038619
 30
0.0
  0
POINT
  5
D2B7
330
D040
100
AcDbEntity
  8
DEFPOINTS
  6
CONTINUOUS
 62
     0
100
AcDbPoint
 10
1220.0395380755
 20
-4757.241407038622
 30
0.0
  0
POINT
  5
D2B8
330
D040
100
AcDbEntity
  8
DEFPOINTS
  6
CONTINUOUS
 62
     0
100
AcDbPoint
 10
1220.0395380755
 20
-5470.891397576685
 30
0.0
  0
ENDBLK
  5
D04B
330
D040
100
AcDbEntity
  8
0
100
AcDbBlockEnd
  0
BLOCK
  5
D056
330
D04C
100
AcDbEntity
  8
0
100
AcDbBlockBegin
  2
*D85
 70
     1
 10
0.0
 20
0.0
 30
0.0
  3
*D85
  1

  0
LINE
  5
D2A7
330
D04C
100
AcDbEntity
  8
SIZE
  6
CONTINUOUS
 62
     0
100
AcDbLine
 10
-360.2604619245066
 20
-4748.870527038621
 30
0.0
 11
-360.2604619245066
 21
-5164.436622786561
 31
0.0
  0
LINE
  5
D2A8
330
D04C
100
AcDbEntity
  8
SIZE
  6
CONTINUOUS
 62
     0
100
AcDbLine
 10
1196.791828075504
 20
-4748.870527038621
 30
0.0
 11
1196.791828075504
 21
-5164.436622786561
 31
0.0
  0
LINE
  5
D2A9
330
D04C
100
AcDbEntity
  8
SIZE
  6
CONTINUOUS
 62
     0
100
AcDbLine
 10
-350.2604619245066
 20
-5134.436622786561
 30
0.0
 11
1186.791828075503
 21
-5134.436622786561
 31
0.0
  0
INSERT
  5
D2AA
330
D04C
100
AcDbEntity
  8
SIZE
  6
CONTINUOUS
 62
     0
100
AcDbBlockReference
  2
_ORIGIN
 10
-360.2604619245066
 20
-5134.436622786561
 30
0.0
 41
10.0
 42
10.0
 43
10.0
 50
180.0
  0
INSERT
  5
D2AB
330
D04C
100
AcDbEntity
  8
SIZE
  6
CONTINUOUS
 62
     0
100
AcDbBlockReference
  2
_ORIGIN
 10
1196.791828075504
 20
-5134.436622786561
 30
0.0
 41
10.0
 42
10.0
 43
10.0
  0
MTEXT
  5
D2AC
330
D04C
100
AcDbEntity
  8
SIZE
  6
CONTINUOUS
 62
     0
100
AcDbMText
 10
418.2656830754986
 20
-5082.436622786561
 30
0.0
 40
64.0
 41
0.0
 71
     5
 72
     1
  1
\A1;1557
1001
ACAD
1000
MTEXTBEGIN
1070
    73
1070
     1
1070
    44
1040
1.0
1070
    74
1070
     0
1000
MTEXTEND
  0
POINT
  5
D2AD
330
D04C
100
AcDbEntity
  8
DEFPOINTS
  6
CONTINUOUS
 62
     0
100
AcDbPoint
 10
-360.2604619245066
 20
-4728.870527038621
 30
0.0
  0
POINT
  5
D2AE
330
D04C
100
AcDbEntity
  8
DEFPOINTS
  6
CONTINUOUS
 62
     0
100
AcDbPoint
 10
1196.791828075504
 20
-4728.870527038621
 30
0.0
  0
POINT
  5
D2AF
330
D04C
100
AcDbEntity
  8
DEFPOINTS
  6
CONTINUOUS
 62
     0
100
AcDbPoint
 10
1196.791828075504
 20
-5134.436622786561
 30
0.0
  0
ENDBLK
  5
D057
330
D04C
100
AcDbEntity
  8
0
100
AcDbBlockEnd
  0
BLOCK
  5
D064
330
D058
100
AcDbEntity
  8
0
100
AcDbBlockBegin
  2
*D86
 70
     1
 10
0.0
 20
0.0
 30
0.0
  3
*D86
  1

  0
LINE
  5
D2B9
330
D058
100
AcDbEntity
  8
SIZE
  6
CONTINUOUS
 62
     0
100
AcDbLine
 10
-381.960461924491
 20
-4784.513004815617
 30
0.0
 11
-381.960461924491
 21
-5353.744445915822
 31
0.0
  0
LINE
  5
D2BA
330
D058
100
AcDbEntity
  8
SIZE
  6
CONTINUOUS
 62
     0
100
AcDbLine
 10
-383.9604619244965
 20
-4777.241407038618
 30
0.0
 11
-383.9604619244965
 21
-5353.744445915822
 31
0.0
  0
LINE
  5
D2BB
330
D058
100
AcDbEntity
  8
SIZE
  6
CONTINUOUS
 62
     0
100
AcDbLine
 10
-371.960461924491
 20
-5323.744445915821
 30
0.0
 11
-361.960461924491
 21
-5323.744445915821
 31
0.0
  0
LINE
  5
D2BC
330
D058
100
AcDbEntity
  8
SIZE
  6
CONTINUOUS
 62
     0
100
AcDbLine
 10
-393.9604619244965
 20
-5323.744445915821
 30
0.0
 11
-485.8030940362325
 21
-5323.744445915821
 31
0.0
  0
LINE
  5
D2BD
330
D058
100
AcDbEntity
  8
SIZE
  6
CONTINUOUS
 62
     0
100
AcDbLine
 10
-381.960461924491
 20
-5323.744445915821
 30
0.0
 11
-383.9604619244965
 21
-5323.744445915821
 31
0.0
  0
INSERT
  5
D2BE
330
D058
100
AcDbEntity
  8
SIZE
  6
CONTINUOUS
 62
     0
100
AcDbBlockReference
  2
_ORIGIN
 10
-381.960461924491
 20
-5323.744445915821
 30
0.0
 41
10.0
 42
10.0
 43
10.0
 50
180.0
  0
INSERT
  5
D2BF
330
D058
100
AcDbEntity
  8
SIZE
  6
CONTINUOUS
 62
     0
100
AcDbBlockReference
  2
_ORIGIN
 10
-383.9604619244965
 20
-5323.744445915821
 30
0.0
 41
10.0
 42
10.0
 43
10.0
  0
MTEXT
  5
D2C0
330
D058
100
AcDbEntity
  8
SIZE
  6
CONTINUOUS
 62
     0
100
AcDbMText
 10
-446.6030940362324
 20
-5271.744445915821
 30
0.0
 40
64.0
 41
0.0
 71
     5
 72
     1
  1
\A1;2
1001
ACAD
1000
MTEXTBEGIN
1070
    73
1070
     1
1070
    44
1040
1.0
1070
    74
1070
     0
1000
MTEXTEND
  0
POINT
  5
D2C1
330
D058
100
AcDbEntity
  8
DEFPOINTS
  6
CONTINUOUS
 62
     0
100
AcDbPoint
 10
-381.960461924491
 20
-4764.513004815618
 30
0.0
  0
POINT
  5
D2C2
330
D058
100
AcDbEntity
  8
DEFPOINTS
  6
CONTINUOUS
 62
     0
100
AcDbPoint
 10
-383.9604619244965
 20
-4757.241407038619
 30
0.0
  0
POINT
  5
D2C3
330
D058
100
AcDbEntity
  8
DEFPOINTS
  6
CONTINUOUS
 62
     0
100
AcDbPoint
 10
-383.9604619244965
 20
-5323.744445915821
 30
0.0
  0
ENDBLK
  5
D065
330
D058
100
AcDbEntity
  8
0
100
AcDbBlockEnd
  0
BLOCK
  5
D072
330
D066
100
AcDbEntity
  8
0
100
AcDbBlockBegin
  2
*D87
 70
     1
 10
0.0
 20
0.0
 30
0.0
  3
*D87
  1

  0
LINE
  5
D29C
330
D066
100
AcDbEntity
  8
SIZE
  6
CONTINUOUS
 62
     0
100
AcDbLine
 10
1218.039538075492
 20
-4791.24140703865
 30
0.0
 11
1218.039538075492
 21
-5353.744445915822
 31
0.0
  0
LINE
  5
D29D
330
D066
100
AcDbEntity
  8
SIZE
  6
CONTINUOUS
 62
     0
100
AcDbLine
 10
1220.039538075501
 20
-4777.241407038623
 30
0.0
 11
1220.039538075501
 21
-5353.744445915822
 31
0.0
  0
LINE
  5
D29E
330
D066
100
AcDbEntity
  8
SIZE
  6
CONTINUOUS
 62
     0
100
AcDbLine
 10
1208.039538075492
 20
-5323.744445915821
 30
0.0
 11
1198.039538075492
 21
-5323.744445915821
 31
0.0
  0
LINE
  5
D29F
330
D066
100
AcDbEntity
  8
SIZE
  6
CONTINUOUS
 62
     0
100
AcDbLine
 10
1230.039538075501
 20
-5323.744445915821
 30
0.0
 11
1319.810966646931
 21
-5323.744445915821
 31
0.0
  0
LINE
  5
D2A0
330
D066
100
AcDbEntity
  8
SIZE
  6
CONTINUOUS
 62
     0
100
AcDbLine
 10
1218.039538075492
 20
-5323.744445915821
 30
0.0
 11
1220.039538075501
 21
-5323.744445915821
 31
0.0
  0
INSERT
  5
D2A1
330
D066
100
AcDbEntity
  8
SIZE
  6
CONTINUOUS
 62
     0
100
AcDbBlockReference
  2
_ORIGIN
 10
1218.039538075492
 20
-5323.744445915821
 30
0.0
 41
10.0
 42
10.0
 43
10.0
  0
INSERT
  5
D2A2
330
D066
100
AcDbEntity
  8
SIZE
  6
CONTINUOUS
 62
     0
100
AcDbBlockReference
  2
_ORIGIN
 10
1220.039538075501
 20
-5323.744445915821
 30
0.0
 41
10.0
 42
10.0
 43
10.0
 50
180.0
  0
MTEXT
  5
D2A3
330
D066
100
AcDbEntity
  8
SIZE
  6
CONTINUOUS
 62
     0
100
AcDbMText
 10
1280.610966646931
 20
-5271.744445915821
 30
0.0
 40
64.0
 41
0.0
 71
     5
 72
     1
  1
\A1;2
1001
ACAD
1000
MTEXTBEGIN
1070
    73
1070
     1
1070
    44
1040
1.0
1070
    74
1070
     0
1000
MTEXTEND
  0
POINT
  5
D2A4
330
D066
100
AcDbEntity
  8
DEFPOINTS
  6
CONTINUOUS
 62
     0
100
AcDbPoint
 10
1218.039538075492
 20
-4771.24140703865
 30
0.0
  0
POINT
  5
D2A5
330
D066
100
AcDbEntity
  8
DEFPOINTS
  6
CONTINUOUS
 62
     0
100
AcDbPoint
 10
1220.039538075501
 20
-4757.241407038622
 30
0.0
  0
POINT
  5
D2A6
330
D066
100
AcDbEntity
  8
DEFPOINTS
  6
CONTINUOUS
 62
     0
100
AcDbPoint
 10
1220.039538075501
 20
-5323.744445915821
 30
0.0
  0
ENDBLK
  5
D073
330
D066
100
AcDbEntity
  8
0
100
AcDbBlockEnd
  0
BLOCK
  5
D07F
330
D074
100
AcDbEntity
  8
0
100
AcDbBlockBegin
  2
*D88
 70
     1
 10
0.0
 20
0.0
 30
0.0
  3
*D88
  1

  0
LINE
  5
D308
330
D074
100
AcDbEntity
  8
SIZE
  6
CONTINUOUS
 62
     0
100
AcDbLine
 10
-383.9604619244965
 20
-4574.870527038622
 30
0.0
 11
-383.9604619244965
 21
-4695.849397442599
 31
0.0
  0
LINE
  5
D309
330
D074
100
AcDbEntity
  8
SIZE
  6
CONTINUOUS
 62
     0
100
AcDbLine
 10
-306.9604619244965
 20
-4594.20143717171
 30
0.0
 11
-306.9604619244965
 21
-4695.849397442599
 31
0.0
  0
LINE
  5
D30A
330
D074
100
AcDbEntity
  8
SIZE
  6
CONTINUOUS
 62
     0
100
AcDbLine
 10
-316.9604619244964
 20
-4665.849397442599
 30
0.0
 11
-373.9604619244965
 21
-4665.849397442599
 31
0.0
  0
LINE
  5
D30B
330
D074
100
AcDbEntity
  8
SIZE
  6
CONTINUOUS
 62
     0
100
AcDbLine
 10
-383.9604619244965
 20
-4665.849397442599
 30
0.0
 11
-584.1971663165077
 21
-4665.849397442599
 31
0.0
  0
INSERT
  5
D30C
330
D074
100
AcDbEntity
  8
SIZE
  6
CONTINUOUS
 62
     0
100
AcDbBlockReference
  2
_ORIGIN
 10
-306.9604619244965
 20
-4665.849397442599
 30
0.0
 41
10.0
 42
10.0
 43
10.0
  0
INSERT
  5
D30D
330
D074
100
AcDbEntity
  8
SIZE
  6
CONTINUOUS
 62
     0
100
AcDbBlockReference
  2
_ORIGIN
 10
-383.9604619244965
 20
-4665.849397442599
 30
0.0
 41
10.0
 42
10.0
 43
10.0
 50
180.0
  0
MTEXT
  5
D30E
330
D074
100
AcDbEntity
  8
SIZE
  6
CONTINUOUS
 62
     0
100
AcDbMText
 10
-517.5685948879363
 20
-4613.849397442598
 30
0.0
 40
64.0
 41
0.0
 71
     5
 72
     1
  1
\A1;77
1001
ACAD
1000
MTEXTBEGIN
1070
    73
1070
     1
1070
    44
1040
1.0
1070
    74
1070
     0
1000
MTEXTEND
  0
POINT
  5
D30F
330
D074
100
AcDbEntity
  8
DEFPOINTS
  6
CONTINUOUS
 62
     0
100
AcDbPoint
 10
-383.9604619244965
 20
-4554.870527038622
 30
0.0
  0
POINT
  5
D310
330
D074
100
AcDbEntity
  8
DEFPOINTS
  6
CONTINUOUS
 62
     0
100
AcDbPoint
 10
-306.9604619244965
 20
-4574.201437171709
 30
0.0
  0
POINT
  5
D311
330
D074
100
AcDbEntity
  8
DEFPOINTS
  6
CONTINUOUS
 62
     0
100
AcDbPoint
 10
-306.9604619244965
 20
-4665.849397442599
 30
0.0
  0
ENDBLK
  5
D080
330
D074
100
AcDbEntity
  8
0
100
AcDbBlockEnd
  0
BLOCK
  5
D08B
330
D081
100
AcDbEntity
  8
0
100
AcDbBlockBegin
  2
*D89
 70
     1
 10
0.0
 20
0.0
 30
0.0
  3
*D89
  1

  0
LINE
  5
D32F
330
D081
100
AcDbEntity
  8
SIZE
  6
CONTINUOUS
 62
     0
100
AcDbLine
 10
-399.3604619245052
 20
-4388.870527038621
 30
0.0
 11
-652.6316045525826
 21
-4388.870527038621
 31
0.0
  0
LINE
  5
D330
330
D081
100
AcDbEntity
  8
SIZE
  6
CONTINUOUS
 62
     0
100
AcDbLine
 10
-400.2604619245066
 20
-4708.87052703862
 30
0.0
 11
-652.6316045525826
 21
-4708.87052703862
 31
0.0
  0
LINE
  5
D331
330
D081
100
AcDbEntity
  8
SIZE
  6
CONTINUOUS
 62
     0
100
AcDbLine
 10
-622.6316045525826
 20
-4398.870527038621
 30
0.0
 11
-622.6316045525826
 21
-4698.870527038621
 31
0.0
  0
INSERT
  5
D332
330
D081
100
AcDbEntity
  8
SIZE
  6
CONTINUOUS
 62
     0
100
AcDbBlockReference
  2
_ORIGIN
 10
-622.6316045525826
 20
-4388.870527038621
 30
0.0
 41
10.0
 42
10.0
 43
10.0
 50
90.0
  0
INSERT
  5
D333
330
D081
100
AcDbEntity
  8
SIZE
  6
CONTINUOUS
 62
     0
100
AcDbBlockReference
  2
_ORIGIN
 10
-622.6316045525826
 20
-4708.87052703862
 30
0.0
 41
10.0
 42
10.0
 43
10.0
 50
270.0
  0
MTEXT
  5
D334
330
D081
100
AcDbEntity
  8
SIZE
  6
CONTINUOUS
 62
     0
100
AcDbMText
 10
-674.6316045525818
 20
-4548.870527038618
 30
0.0
 40
64.0
 41
0.0
 71
     5
 72
     1
  1
\A1;320
 11
0.0000000000000001
 21
1.0
 31
0.0
1001
ACAD
1000
MTEXTBEGIN
1070
    73
1070
     1
1070
    44
1040
1.0
1070
    74
1070
     0
1000
MTEXTEND
  0
POINT
  5
D335
330
D081
100
AcDbEntity
  8
DEFPOINTS
  6
CONTINUOUS
 62
     0
100
AcDbPoint
 10
-379.3604619245052
 20
-4388.870527038621
 30
0.0
  0
POINT
  5
D336
330
D081
100
AcDbEntity
  8
DEFPOINTS
  6
CONTINUOUS
 62
     0
100
AcDbPoint
 10
-380.2604619245066
 20
-4708.87052703862
 30
0.0
  0
POINT
  5
D337
330
D081
100
AcDbEntity
  8
DEFPOINTS
  6
CONTINUOUS
 62
     0
100
AcDbPoint
 10
-622.6316045525826
 20
-4708.87052703862
 30
0.0
  0
ENDBLK
  5
D08C
330
D081
100
AcDbEntity
  8
0
100
AcDbBlockEnd
  0
BLOCK
  5
D099
330
D08D
100
AcDbEntity
  8
0
100
AcDbBlockBegin
  2
*D90
 70
     1
 10
0.0
 20
0.0
 30
0.0
  3
*D90
  1

  0
LINE
  5
D31B
330
D08D
100
AcDbEntity
  8
SIZE
  6
CONTINUOUS
 62
     0
100
AcDbLine
 10
-361.9604619245074
 20
-4308.87052703862
 30
0.0
 11
-652.6316045525817
 21
-4308.87052703862
 31
0.0
  0
LINE
  5
D31C
330
D08D
100
AcDbEntity
  8
SIZE
  6
CONTINUOUS
 62
     0
100
AcDbLine
 10
-400.2604619245066
 20
-4388.870527038621
 30
0.0
 11
-652.6316045525818
 21
-4388.870527038621
 31
0.0
  0
LINE
  5
D31D
330
D08D
100
AcDbEntity
  8
SIZE
  6
CONTINUOUS
 62
     0
100
AcDbLine
 10
-622.6316045525817
 20
-4298.870527038621
 30
0.0
 11
-622.6316045525817
 21
-4288.87052703862
 31
0.0
  0
LINE
  5
D31E
330
D08D
100
AcDbEntity
  8
SIZE
  6
CONTINUOUS
 62
     0
100
AcDbLine
 10
-622.6316045525818
 20
-4398.870527038621
 30
0.0
 11
-622.6316045525818
 21
-4408.870527038621
 31
0.0
  0
LINE
  5
D31F
330
D08D
100
AcDbEntity
  8
SIZE
  6
CONTINUOUS
 62
     0
100
AcDbLine
 10
-622.6316045525817
 20
-4308.87052703862
 30
0.0
 11
-622.6316045525818
 21
-4388.870527038621
 31
0.0
  0
INSERT
  5
D320
330
D08D
100
AcDbEntity
  8
SIZE
  6
CONTINUOUS
 62
     0
100
AcDbBlockReference
  2
_ORIGIN
 10
-622.6316045525817
 20
-4308.87052703862
 30
0.0
 41
10.0
 42
10.0
 43
10.0
 50
270.0
  0
INSERT
  5
D321
330
D08D
100
AcDbEntity
  8
SIZE
  6
CONTINUOUS
 62
     0
100
AcDbBlockReference
  2
_ORIGIN
 10
-622.6316045525818
 20
-4388.870527038621
 30
0.0
 41
10.0
 42
10.0
 43
10.0
 50
90.0
  0
MTEXT
  5
D322
330
D08D
100
AcDbEntity
  8
SIZE
  6
CONTINUOUS
 62
     0
100
AcDbMText
 10
-674.631604552581
 20
-4348.870527038621
 30
0.0
 40
64.0
 41
0.0
 71
     5
 72
     1
  1
\A1;80
 11
0.0000000000000001
 21
1.0
 31
0.0
1001
ACAD
1000
MTEXTBEGIN
1070
    73
1070
     1
1070
    44
1040
1.0
1070
    74
1070
     0
1000
MTEXTEND
  0
POINT
  5
D323
330
D08D
100
AcDbEntity
  8
DEFPOINTS
  6
CONTINUOUS
 62
     0
100
AcDbPoint
 10
-341.9604619245073
 20
-4308.87052703862
 30
0.0
  0
POINT
  5
D324
330
D08D
100
AcDbEntity
  8
DEFPOINTS
  6
CONTINUOUS
 62
     0
100
AcDbPoint
 10
-380.2604619245066
 20
-4388.870527038621
 30
0.0
  0
POINT
  5
D325
330
D08D
100
AcDbEntity
  8
DEFPOINTS
  6
CONTINUOUS
 62
     0
100
AcDbPoint
 10
-622.6316045525818
 20
-4388.870527038621
 30
0.0
  0
ENDBLK
  5
D09A
330
D08D
100
AcDbEntity
  8
0
100
AcDbBlockEnd
  0
BLOCK
  5
D0A5
330
D09B
100
AcDbEntity
  8
0
100
AcDbBlockBegin
  2
*D91
 70
     1
 10
0.0
 20
0.0
 30
0.0
  3
*D91
  1

  0
LINE
  5
D326
330
D09B
100
AcDbEntity
  8
SIZE
  6
CONTINUOUS
 62
     0
100
AcDbLine
 10
-361.9604619245074
 20
-4308.87052703862
 30
0.0
 11
-519.5042706333769
 21
-4308.87052703862
 31
0.0
  0
LINE
  5
D327
330
D09B
100
AcDbEntity
  8
SIZE
  6
CONTINUOUS
 62
     0
100
AcDbLine
 10
-346.9604619244964
 20
-4554.870527038622
 30
0.0
 11
-519.504270633377
 21
-4554.870527038622
 31
0.0
  0
LINE
  5
D328
330
D09B
100
AcDbEntity
  8
SIZE
  6
CONTINUOUS
 62
     0
100
AcDbLine
 10
-489.5042706333769
 20
-4318.870527038621
 30
0.0
 11
-489.504270633377
 21
-4544.870527038622
 31
0.0
  0
INSERT
  5
D329
330
D09B
100
AcDbEntity
  8
SIZE
  6
CONTINUOUS
 62
     0
100
AcDbBlockReference
  2
_ORIGIN
 10
-489.5042706333769
 20
-4308.87052703862
 30
0.0
 41
10.0
 42
10.0
 43
10.0
 50
90.0
  0
INSERT
  5
D32A
330
D09B
100
AcDbEntity
  8
SIZE
  6
CONTINUOUS
 62
     0
100
AcDbBlockReference
  2
_ORIGIN
 10
-489.504270633377
 20
-4554.870527038622
 30
0.0
 41
10.0
 42
10.0
 43
10.0
 50
270.0
  0
MTEXT
  5
D32B
330
D09B
100
AcDbEntity
  8
SIZE
  6
CONTINUOUS
 62
     0
100
AcDbMText
 10
-541.5042706333762
 20
-4431.870527038621
 30
0.0
 40
64.0
 41
0.0
 71
     5
 72
     1
  1
\A1;246
 11
0.0000000000000001
 21
1.0
 31
0.0
1001
ACAD
1000
MTEXTBEGIN
1070
    73
1070
     1
1070
    44
1040
1.0
1070
    74
1070
     0
1000
MTEXTEND
  0
POINT
  5
D32C
330
D09B
100
AcDbEntity
  8
DEFPOINTS
  6
CONTINUOUS
 62
     0
100
AcDbPoint
 10
-341.9604619245073
 20
-4308.87052703862
 30
0.0
  0
POINT
  5
D32D
330
D09B
100
AcDbEntity
  8
DEFPOINTS
  6
CONTINUOUS
 62
     0
100
AcDbPoint
 10
-326.9604619244964
 20
-4554.870527038622
 30
0.0
  0
POINT
  5
D32E
330
D09B
100
AcDbEntity
  8
DEFPOINTS
  6
CONTINUOUS
 62
     0
100
AcDbPoint
 10
-489.504270633377
 20
-4554.870527038622
 30
0.0
  0
ENDBLK
  5
D0A6
330
D09B
100
AcDbEntity
  8
0
100
AcDbBlockEnd
  0
BLOCK
  5
D0B1
330
D0A7
100
AcDbEntity
  8
0
100
AcDbBlockBegin
  2
*D92
 70
     1
 10
0.0
 20
0.0
 30
0.0
  3
*D92
  1

  0
LINE
  5
D401
330
D0A7
100
AcDbEntity
  8
SIZE
  6
CONTINUOUS
 62
     0
100
AcDbLine
 10
1198.039538075492
 20
-4308.87052703862
 30
0.0
 11
1591.625749167222
 21
-4308.87052703862
 31
0.0
  0
LINE
  5
D402
330
D0A7
100
AcDbEntity
  8
SIZE
  6
CONTINUOUS
 62
     0
100
AcDbLine
 10
1172.039538075499
 20
-4508.87052703862
 30
0.0
 11
1591.625749167222
 21
-4508.87052703862
 31
0.0
  0
LINE
  5
D403
330
D0A7
100
AcDbEntity
  8
SIZE
  6
CONTINUOUS
 62
     0
100
AcDbLine
 10
1561.625749167222
 20
-4318.870527038621
 30
0.0
 11
1561.625749167222
 21
-4498.870527038621
 31
0.0
  0
INSERT
  5
D404
330
D0A7
100
AcDbEntity
  8
SIZE
  6
CONTINUOUS
 62
     0
100
AcDbBlockReference
  2
_ORIGIN
 10
1561.625749167222
 20
-4308.87052703862
 30
0.0
 41
10.0
 42
10.0
 43
10.0
 50
90.0
  0
INSERT
  5
D405
330
D0A7
100
AcDbEntity
  8
SIZE
  6
CONTINUOUS
 62
     0
100
AcDbBlockReference
  2
_ORIGIN
 10
1561.625749167222
 20
-4508.87052703862
 30
0.0
 41
10.0
 42
10.0
 43
10.0
 50
270.0
  0
MTEXT
  5
D406
330
D0A7
100
AcDbEntity
  8
SIZE
  6
CONTINUOUS
 62
     0
100
AcDbMText
 10
1509.625749167223
 20
-4408.870527038621
 30
0.0
 40
64.0
 41
0.0
 71
     5
 72
     1
  1
\A1;200
 11
0.0000000000000001
 21
1.0
 31
0.0
1001
ACAD
1000
MTEXTBEGIN
1070
    73
1070
     1
1070
    44
1040
1.0
1070
    74
1070
     0
1000
MTEXTEND
  0
POINT
  5
D407
330
D0A7
100
AcDbEntity
  8
DEFPOINTS
  6
CONTINUOUS
 62
     0
100
AcDbPoint
 10
1178.039538075492
 20
-4308.87052703862
 30
0.0
  0
POINT
  5
D408
330
D0A7
100
AcDbEntity
  8
DEFPOINTS
  6
CONTINUOUS
 62
     0
100
AcDbPoint
 10
1152.039538075499
 20
-4508.87052703862
 30
0.0
  0
POINT
  5
D409
330
D0A7
100
AcDbEntity
  8
DEFPOINTS
  6
CONTINUOUS
 62
     0
100
AcDbPoint
 10
1561.625749167222
 20
-4508.87052703862
 30
0.0
  0
ENDBLK
  5
D0B2
330
D0A7
100
AcDbEntity
  8
0
100
AcDbBlockEnd
  0
BLOCK
  5
D0BD
330
D0B3
100
AcDbEntity
  8
0
100
AcDbBlockBegin
  2
*D93
 70
     1
 10
0.0
 20
0.0
 30
0.0
  3
*D93
  1

  0
LINE
  5
D41D
330
D0B3
100
AcDbEntity
  8
SIZE
  6
CONTINUOUS
 62
     0
100
AcDbLine
 10
1198.039538075492
 20
-4308.87052703862
 30
0.0
 11
1438.014684926915
 21
-4308.87052703862
 31
0.0
  0
LINE
  5
D41E
330
D0B3
100
AcDbEntity
  8
SIZE
  6
CONTINUOUS
 62
     0
100
AcDbLine
 10
1087.0395380755
 20
-4488.870527038621
 30
0.0
 11
1438.014684926915
 21
-4488.870527038621
 31
0.0
  0
LINE
  5
D41F
330
D0B3
100
AcDbEntity
  8
SIZE
  6
CONTINUOUS
 62
     0
100
AcDbLine
 10
1408.014684926915
 20
-4318.870527038621
 30
0.0
 11
1408.014684926915
 21
-4478.870527038621
 31
0.0
  0
INSERT
  5
D420
330
D0B3
100
AcDbEntity
  8
SIZE
  6
CONTINUOUS
 62
     0
100
AcDbBlockReference
  2
_ORIGIN
 10
1408.014684926915
 20
-4308.87052703862
 30
0.0
 41
10.0
 42
10.0
 43
10.0
 50
90.0
  0
INSERT
  5
D421
330
D0B3
100
AcDbEntity
  8
SIZE
  6
CONTINUOUS
 62
     0
100
AcDbBlockReference
  2
_ORIGIN
 10
1408.014684926915
 20
-4488.870527038621
 30
0.0
 41
10.0
 42
10.0
 43
10.0
 50
270.0
  0
MTEXT
  5
D422
330
D0B3
100
AcDbEntity
  8
SIZE
  6
CONTINUOUS
 62
     0
100
AcDbMText
 10
1356.014684926915
 20
-4398.870527038621
 30
0.0
 40
64.0
 41
0.0
 71
     5
 72
     1
  1
\A1;180
 11
0.0000000000000001
 21
1.0
 31
0.0
1001
ACAD
1000
MTEXTBEGIN
1070
    73
1070
     1
1070
    44
1040
1.0
1070
    74
1070
     0
1000
MTEXTEND
  0
POINT
  5
D423
330
D0B3
100
AcDbEntity
  8
DEFPOINTS
  6
CONTINUOUS
 62
     0
100
AcDbPoint
 10
1178.039538075492
 20
-4308.87052703862
 30
0.0
  0
POINT
  5
D424
330
D0B3
100
AcDbEntity
  8
DEFPOINTS
  6
CONTINUOUS
 62
     0
100
AcDbPoint
 10
1067.039538075499
 20
-4488.870527038621
 30
0.0
  0
POINT
  5
D425
330
D0B3
100
AcDbEntity
  8
DEFPOINTS
  6
CONTINUOUS
 62
     0
100
AcDbPoint
 10
1408.014684926915
 20
-4488.870527038621
 30
0.0
  0
ENDBLK
  5
D0BE
330
D0B3
100
AcDbEntity
  8
0
100
AcDbBlockEnd
  0
BLOCK
  5
D0C9
330
D0BF
100
AcDbEntity
  8
0
100
AcDbBlockBegin
  2
*D94
 70
     1
 10
0.0
 20
0.0
 30
0.0
  3
*D94
  1

  0
LINE
  5
D40A
330
D0BF
100
AcDbEntity
  8
SIZE
  6
CONTINUOUS
 62
     0
100
AcDbLine
 10
1198.039538075492
 20
-4308.87052703862
 30
0.0
 11
1744.092623777738
 21
-4308.87052703862
 31
0.0
  0
LINE
  5
D40B
330
D0BF
100
AcDbEntity
  8
SIZE
  6
CONTINUOUS
 62
     0
100
AcDbLine
 10
1122.039538075499
 20
-4554.87052703862
 30
0.0
 11
1744.092623777738
 21
-4554.87052703862
 31
0.0
  0
LINE
  5
D40C
330
D0BF
100
AcDbEntity
  8
SIZE
  6
CONTINUOUS
 62
     0
100
AcDbLine
 10
1714.092623777738
 20
-4318.870527038621
 30
0.0
 11
1714.092623777738
 21
-4544.870527038621
 31
0.0
  0
INSERT
  5
D40D
330
D0BF
100
AcDbEntity
  8
SIZE
  6
CONTINUOUS
 62
     0
100
AcDbBlockReference
  2
_ORIGIN
 10
1714.092623777738
 20
-4308.87052703862
 30
0.0
 41
10.0
 42
10.0
 43
10.0
 50
90.0
  0
INSERT
  5
D40E
330
D0BF
100
AcDbEntity
  8
SIZE
  6
CONTINUOUS
 62
     0
100
AcDbBlockReference
  2
_ORIGIN
 10
1714.092623777738
 20
-4554.87052703862
 30
0.0
 41
10.0
 42
10.0
 43
10.0
 50
270.0
  0
MTEXT
  5
D40F
330
D0BF
100
AcDbEntity
  8
SIZE
  6
CONTINUOUS
 62
     0
100
AcDbMText
 10
1662.092623777739
 20
-4431.870527038621
 30
0.0
 40
64.0
 41
0.0
 71
     5
 72
     1
  1
\A1;246
 11
0.0000000000000001
 21
1.0
 31
0.0
1001
ACAD
1000
MTEXTBEGIN
1070
    73
1070
     1
1070
    44
1040
1.0
1070
    74
1070
     0
1000
MTEXTEND
  0
POINT
  5
D410
330
D0BF
100
AcDbEntity
  8
DEFPOINTS
  6
CONTINUOUS
 62
     0
100
AcDbPoint
 10
1178.039538075492
 20
-4308.87052703862
 30
0.0
  0
POINT
  5
D411
330
D0BF
100
AcDbEntity
  8
DEFPOINTS
  6
CONTINUOUS
 62
     0
100
AcDbPoint
 10
1102.039538075499
 20
-4554.87052703862
 30
0.0
  0
POINT
  5
D412
330
D0BF
100
AcDbEntity
  8
DEFPOINTS
  6
CONTINUOUS
 62
     0
100
AcDbPoint
 10
1714.092623777738
 20
-4554.87052703862
 30
0.0
  0
ENDBLK
  5
D0CA
330
D0BF
100
AcDbEntity
  8
0
100
AcDbBlockEnd
  0
BLOCK
  5
D0D6
330
D0CB
100
AcDbEntity
  8
0
100
AcDbBlockBegin
  2
*D95
 70
     1
 10
0.0
 20
0.0
 30
0.0
  3
*D95
  1

  0
LINE
  5
D3EE
330
D0CB
100
AcDbEntity
  8
SIZE
  6
CONTINUOUS
 62
     0
100
AcDbLine
 10
1220.0395380755
 20
-4290.586337038626
 30
0.0
 11
1220.0395380755
 21
-4179.882036438107
 31
0.0
  0
LINE
  5
D3EF
330
D0CB
100
AcDbEntity
  8
SIZE
  6
CONTINUOUS
 62
     0
100
AcDbLine
 10
1132.039538075499
 20
-4471.87052703862
 30
0.0
 11
1132.039538075499
 21
-4179.882036438107
 31
0.0
  0
LINE
  5
D3F0
330
D0CB
100
AcDbEntity
  8
SIZE
  6
CONTINUOUS
 62
     0
100
AcDbLine
 10
1142.039538075499
 20
-4209.882036438107
 30
0.0
 11
1210.0395380755
 21
-4209.882036438107
 31
0.0
  0
LINE
  5
D3F1
330
D0CB
100
AcDbEntity
  8
SIZE
  6
CONTINUOUS
 62
     0
100
AcDbLine
 10
1220.0395380755
 20
-4209.882036438107
 30
0.0
 11
1363.296680932642
 21
-4209.882036438107
 31
0.0
  0
INSERT
  5
D3F2
330
D0CB
100
AcDbEntity
  8
SIZE
  6
CONTINUOUS
 62
     0
100
AcDbBlockReference
  2
_ORIGIN
 10
1132.039538075499
 20
-4209.882036438107
 30
0.0
 41
10.0
 42
10.0
 43
10.0
 50
180.0
  0
INSERT
  5
D3F3
330
D0CB
100
AcDbEntity
  8
SIZE
  6
CONTINUOUS
 62
     0
100
AcDbBlockReference
  2
_ORIGIN
 10
1220.0395380755
 20
-4209.882036438107
 30
0.0
 41
10.0
 42
10.0
 43
10.0
  0
MTEXT
  5
D3F4
330
D0CB
100
AcDbEntity
  8
SIZE
  6
CONTINUOUS
 62
     0
100
AcDbMText
 10
1296.668109504071
 20
-4157.882036438107
 30
0.0
 40
64.0
 41
0.0
 71
     5
 72
     1
  1
\A1;88
1001
ACAD
1000
MTEXTBEGIN
1070
    73
1070
     1
1070
    44
1040
1.0
1070
    74
1070
     0
1000
MTEXTEND
  0
POINT
  5
D3F5
330
D0CB
100
AcDbEntity
  8
DEFPOINTS
  6
CONTINUOUS
 62
     0
100
AcDbPoint
 10
1220.0395380755
 20
-4310.586337038626
 30
0.0
  0
POINT
  5
D3F6
330
D0CB
100
AcDbEntity
  8
DEFPOINTS
  6
CONTINUOUS
 62
     0
100
AcDbPoint
 10
1132.039538075499
 20
-4491.870527038621
 30
0.0
  0
POINT
  5
D3F7
330
D0CB
100
AcDbEntity
  8
DEFPOINTS
  6
CONTINUOUS
 62
     0
100
AcDbPoint
 10
1132.039538075499
 20
-4209.882036438107
 30
0.0
  0
ENDBLK
  5
D0D7
330
D0CB
100
AcDbEntity
  8
0
100
AcDbBlockEnd
  0
BLOCK
  5
D0E2
330
D0D8
100
AcDbEntity
  8
0
100
AcDbBlockBegin
  2
*D96
 70
     1
 10
0.0
 20
0.0
 30
0.0
  3
*D96
  1

  0
LINE
  5
D3F8
330
D0D8
100
AcDbEntity
  8
SIZE
  6
CONTINUOUS
 62
     0
100
AcDbLine
 10
1132.039538075499
 20
-4471.87052703862
 30
0.0
 11
1132.039538075499
 21
-4179.882036438107
 31
0.0
  0
LINE
  5
D3F9
330
D0D8
100
AcDbEntity
  8
SIZE
  6
CONTINUOUS
 62
     0
100
AcDbLine
 10
1047.039538075499
 20
-4452.870527038621
 30
0.0
 11
1047.039538075499
 21
-4179.882036438107
 31
0.0
  0
LINE
  5
D3FA
330
D0D8
100
AcDbEntity
  8
SIZE
  6
CONTINUOUS
 62
     0
100
AcDbLine
 10
1122.039538075499
 20
-4209.882036438107
 30
0.0
 11
1057.039538075499
 21
-4209.882036438107
 31
0.0
  0
INSERT
  5
D3FB
330
D0D8
100
AcDbEntity
  8
SIZE
  6
CONTINUOUS
 62
     0
100
AcDbBlockReference
  2
_ORIGIN
 10
1132.039538075499
 20
-4209.882036438107
 30
0.0
 41
10.0
 42
10.0
 43
10.0
  0
INSERT
  5
D3FC
330
D0D8
100
AcDbEntity
  8
SIZE
  6
CONTINUOUS
 62
     0
100
AcDbBlockReference
  2
_ORIGIN
 10
1047.039538075499
 20
-4209.882036438107
 30
0.0
 41
10.0
 42
10.0
 43
10.0
 50
180.0
  0
MTEXT
  5
D3FD
330
D0D8
100
AcDbEntity
  8
SIZE
  6
CONTINUOUS
 62
     0
100
AcDbMText
 10
1089.539538075499
 20
-4157.882036438107
 30
0.0
 40
64.0
 41
0.0
 71
     5
 72
     1
  1
\A1;85
1001
ACAD
1000
MTEXTBEGIN
1070
    73
1070
     1
1070
    44
1040
1.0
1070
    74
1070
     0
1000
MTEXTEND
  0
POINT
  5
D3FE
330
D0D8
100
AcDbEntity
  8
DEFPOINTS
  6
CONTINUOUS
 62
     0
100
AcDbPoint
 10
1132.039538075499
 20
-4491.870527038621
 30
0.0
  0
POINT
  5
D3FF
330
D0D8
100
AcDbEntity
  8
DEFPOINTS
  6
CONTINUOUS
 62
     0
100
AcDbPoint
 10
1047.039538075499
 20
-4472.870527038621
 30
0.0
  0
POINT
  5
D400
330
D0D8
100
AcDbEntity
  8
DEFPOINTS
  6
CONTINUOUS
 62
     0
100
AcDbPoint
 10
1047.039538075499
 20
-4209.882036438107
 30
0.0
  0
ENDBLK
  5
D0E3
330
D0D8
100
AcDbEntity
  8
0
100
AcDbBlockEnd
  0
BLOCK
  5
D0EE
330
D0E4
100
AcDbEntity
  8
0
100
AcDbBlockBegin
  2
*D97
 70
     1
 10
0.0
 20
0.0
 30
0.0
  3
*D97
  1

  0
LINE
  5
D3E5
330
D0E4
100
AcDbEntity
  8
SIZE
  6
CONTINUOUS
 62
     0
100
AcDbLine
 10
1220.039538075496
 20
-4290.586337038626
 30
0.0
 11
1220.039538075496
 21
-4037.702077789607
 31
0.0
  0
LINE
  5
D3E6
330
D0E4
100
AcDbEntity
  8
SIZE
  6
CONTINUOUS
 62
     0
100
AcDbLine
 10
940.0395380754998
 20
-4268.870527038621
 30
0.0
 11
940.0395380754998
 21
-4037.702077789607
 31
0.0
  0
LINE
  5
D3E7
330
D0E4
100
AcDbEntity
  8
SIZE
  6
CONTINUOUS
 62
     0
100
AcDbLine
 10
1210.039538075496
 20
-4067.702077789607
 30
0.0
 11
950.0395380754998
 21
-4067.702077789607
 31
0.0
  0
INSERT
  5
D3E8
330
D0E4
100
AcDbEntity
  8
SIZE
  6
CONTINUOUS
 62
     0
100
AcDbBlockReference
  2
_ORIGIN
 10
1220.039538075496
 20
-4067.702077789607
 30
0.0
 41
10.0
 42
10.0
 43
10.0
  0
INSERT
  5
D3E9
330
D0E4
100
AcDbEntity
  8
SIZE
  6
CONTINUOUS
 62
     0
100
AcDbBlockReference
  2
_ORIGIN
 10
940.0395380754998
 20
-4067.702077789607
 30
0.0
 41
10.0
 42
10.0
 43
10.0
 50
180.0
  0
MTEXT
  5
D3EA
330
D0E4
100
AcDbEntity
  8
SIZE
  6
CONTINUOUS
 62
     0
100
AcDbMText
 10
1080.039538075498
 20
-4015.702077789607
 30
0.0
 40
64.0
 41
0.0
 71
     5
 72
     1
  1
\A1;280
1001
ACAD
1000
MTEXTBEGIN
1070
    73
1070
     1
1070
    44
1040
1.0
1070
    74
1070
     0
1000
MTEXTEND
  0
POINT
  5
D3EB
330
D0E4
100
AcDbEntity
  8
DEFPOINTS
  6
CONTINUOUS
 62
     0
100
AcDbPoint
 10
1220.039538075496
 20
-4310.586337038626
 30
0.0
  0
POINT
  5
D3EC
330
D0E4
100
AcDbEntity
  8
DEFPOINTS
  6
CONTINUOUS
 62
     0
100
AcDbPoint
 10
940.0395380754998
 20
-4288.87052703862
 30
0.0
  0
POINT
  5
D3ED
330
D0E4
100
AcDbEntity
  8
DEFPOINTS
  6
CONTINUOUS
 62
     0
100
AcDbPoint
 10
940.0395380754998
 20
-4067.702077789607
 30
0.0
  0
ENDBLK
  5
D0EF
330
D0E4
100
AcDbEntity
  8
0
100
AcDbBlockEnd
  0
BLOCK
  5
D0FA
330
D0F0
100
AcDbEntity
  8
0
100
AcDbBlockBegin
  2
*D98
 70
     1
 10
0.0
 20
0.0
 30
0.0
  3
*D98
  1

  0
LINE
  5
D3DC
330
D0F0
100
AcDbEntity
  8
SIZE
  6
CONTINUOUS
 62
     0
100
AcDbLine
 10
934.0395380754998
 20
-4268.870527038621
 30
0.0
 11
934.0395380754998
 21
-3924.315601791093
 31
0.0
  0
LINE
  5
D3DD
330
D0F0
100
AcDbEntity
  8
SIZE
  6
CONTINUOUS
 62
     0
100
AcDbLine
 10
1220.0395380755
 20
-4290.586337038626
 30
0.0
 11
1220.0395380755
 21
-3924.315601791093
 31
0.0
  0
LINE
  5
D3DE
330
D0F0
100
AcDbEntity
  8
SIZE
  6
CONTINUOUS
 62
     0
100
AcDbLine
 10
944.0395380754999
 20
-3954.315601791092
 30
0.0
 11
1210.0395380755
 21
-3954.315601791092
 31
0.0
  0
INSERT
  5
D3DF
330
D0F0
100
AcDbEntity
  8
SIZE
  6
CONTINUOUS
 62
     0
100
AcDbBlockReference
  2
_ORIGIN
 10
934.0395380754998
 20
-3954.315601791092
 30
0.0
 41
10.0
 42
10.0
 43
10.0
 50
180.0
  0
INSERT
  5
D3E0
330
D0F0
100
AcDbEntity
  8
SIZE
  6
CONTINUOUS
 62
     0
100
AcDbBlockReference
  2
_ORIGIN
 10
1220.0395380755
 20
-3954.315601791092
 30
0.0
 41
10.0
 42
10.0
 43
10.0
  0
MTEXT
  5
D3E1
330
D0F0
100
AcDbEntity
  8
SIZE
  6
CONTINUOUS
 62
     0
100
AcDbMText
 10
1077.0395380755
 20
-3902.315601791093
 30
0.0
 40
64.0
 41
0.0
 71
     5
 72
     1
  1
\A1;286
1001
ACAD
1000
MTEXTBEGIN
1070
    73
1070
     1
1070
    44
1040
1.0
1070
    74
1070
     0
1000
MTEXTEND
  0
POINT
  5
D3E2
330
D0F0
100
AcDbEntity
  8
DEFPOINTS
  6
CONTINUOUS
 62
     0
100
AcDbPoint
 10
934.0395380754998
 20
-4288.87052703862
 30
0.0
  0
POINT
  5
D3E3
330
D0F0
100
AcDbEntity
  8
DEFPOINTS
  6
CONTINUOUS
 62
     0
100
AcDbPoint
 10
1220.0395380755
 20
-4310.586337038626
 30
0.0
  0
POINT
  5
D3E4
330
D0F0
100
AcDbEntity
  8
DEFPOINTS
  6
CONTINUOUS
 62
     0
100
AcDbPoint
 10
1220.0395380755
 20
-3954.315601791092
 30
0.0
  0
ENDBLK
  5
D0FB
330
D0F0
100
AcDbEntity
  8
0
100
AcDbBlockEnd
  0
BLOCK
  5
D108
330
D0FC
100
AcDbEntity
  8
0
100
AcDbBlockBegin
  2
*D99
 70
     1
 10
0.0
 20
0.0
 30
0.0
  3
*D99
  1

  0
LINE
  5
D3C6
330
D0FC
100
AcDbEntity
  8
SIZE
  6
CONTINUOUS
 62
     0
100
AcDbLine
 10
896.0395380754999
 20
-4268.870527038621
 30
0.0
 11
896.0395380754999
 21
-3924.315601791093
 31
0.0
  0
LINE
  5
D3C7
330
D0FC
100
AcDbEntity
  8
SIZE
  6
CONTINUOUS
 62
     0
100
AcDbLine
 10
934.0395380754998
 20
-4268.870527038621
 30
0.0
 11
934.0395380754998
 21
-3924.315601791093
 31
0.0
  0
LINE
  5
D3C8
330
D0FC
100
AcDbEntity
  8
SIZE
  6
CONTINUOUS
 62
     0
100
AcDbLine
 10
886.0395380754999
 20
-3954.315601791092
 30
0.0
 11
876.0395380754998
 21
-3954.315601791092
 31
0.0
  0
LINE
  5
D3C9
330
D0FC
100
AcDbEntity
  8
SIZE
  6
CONTINUOUS
 62
     0
100
AcDbLine
 10
944.0395380754999
 20
-3954.315601791092
 30
0.0
 11
954.0395380754999
 21
-3954.315601791092
 31
0.0
  0
LINE
  5
D3CA
330
D0FC
100
AcDbEntity
  8
SIZE
  6
CONTINUOUS
 62
     0
100
AcDbLine
 10
896.0395380754999
 20
-3954.315601791092
 30
0.0
 11
934.0395380754998
 21
-3954.315601791092
 31
0.0
  0
INSERT
  5
D3CB
330
D0FC
100
AcDbEntity
  8
SIZE
  6
CONTINUOUS
 62
     0
100
AcDbBlockReference
  2
_ORIGIN
 10
896.0395380754999
 20
-3954.315601791092
 30
0.0
 41
10.0
 42
10.0
 43
10.0
  0
INSERT
  5
D3CC
330
D0FC
100
AcDbEntity
  8
SIZE
  6
CONTINUOUS
 62
     0
100
AcDbBlockReference
  2
_ORIGIN
 10
934.0395380754998
 20
-3954.315601791092
 30
0.0
 41
10.0
 42
10.0
 43
10.0
 50
180.0
  0
MTEXT
  5
D3CD
330
D0FC
100
AcDbEntity
  8
SIZE
  6
CONTINUOUS
 62
     0
100
AcDbMText
 10
915.0395380754998
 20
-3902.315601791093
 30
0.0
 40
64.0
 41
0.0
 71
     5
 72
     1
  1
\A1;38
1001
ACAD
1000
MTEXTBEGIN
1070
    73
1070
     1
1070
    44
1040
1.0
1070
    74
1070
     0
1000
MTEXTEND
  0
POINT
  5
D3CE
330
D0FC
100
AcDbEntity
  8
DEFPOINTS
  6
CONTINUOUS
 62
     0
100
AcDbPoint
 10
896.0395380754999
 20
-4288.87052703862
 30
0.0
  0
POINT
  5
D3CF
330
D0FC
100
AcDbEntity
  8
DEFPOINTS
  6
CONTINUOUS
 62
     0
100
AcDbPoint
 10
934.0395380754998
 20
-4288.87052703862
 30
0.0
  0
POINT
  5
D3D0
330
D0FC
100
AcDbEntity
  8
DEFPOINTS
  6
CONTINUOUS
 62
     0
100
AcDbPoint
 10
934.0395380754998
 20
-3954.315601791092
 30
0.0
  0
ENDBLK
  5
D109
330
D0FC
100
AcDbEntity
  8
0
100
AcDbBlockEnd
  0
BLOCK
  5
D116
330
D10A
100
AcDbEntity
  8
0
100
AcDbBlockBegin
  2
*D100
 70
     1
 10
0.0
 20
0.0
 30
0.0
  3
*D100
  1

  0
LINE
  5
D3D1
330
D10A
100
AcDbEntity
  8
SIZE
  6
CONTINUOUS
 62
     0
100
AcDbLine
 10
940.0395380754998
 20
-4268.870527038621
 30
0.0
 11
940.0395380754998
 21
-4037.702077789607
 31
0.0
  0
LINE
  5
D3D2
330
D10A
100
AcDbEntity
  8
SIZE
  6
CONTINUOUS
 62
     0
100
AcDbLine
 10
902.0395380754999
 20
-4268.870527038621
 30
0.0
 11
902.0395380754999
 21
-4037.702077789607
 31
0.0
  0
LINE
  5
D3D3
330
D10A
100
AcDbEntity
  8
SIZE
  6
CONTINUOUS
 62
     0
100
AcDbLine
 10
950.0395380754998
 20
-4067.702077789607
 30
0.0
 11
960.0395380754999
 21
-4067.702077789607
 31
0.0
  0
LINE
  5
D3D4
330
D10A
100
AcDbEntity
  8
SIZE
  6
CONTINUOUS
 62
     0
100
AcDbLine
 10
892.0395380754998
 20
-4067.702077789607
 30
0.0
 11
882.0395380754998
 21
-4067.702077789607
 31
0.0
  0
LINE
  5
D3D5
330
D10A
100
AcDbEntity
  8
SIZE
  6
CONTINUOUS
 62
     0
100
AcDbLine
 10
940.0395380754998
 20
-4067.702077789607
 30
0.0
 11
902.0395380754999
 21
-4067.702077789607
 31
0.0
  0
INSERT
  5
D3D6
330
D10A
100
AcDbEntity
  8
SIZE
  6
CONTINUOUS
 62
     0
100
AcDbBlockReference
  2
_ORIGIN
 10
940.0395380754998
 20
-4067.702077789607
 30
0.0
 41
10.0
 42
10.0
 43
10.0
 50
180.0
  0
INSERT
  5
D3D7
330
D10A
100
AcDbEntity
  8
SIZE
  6
CONTINUOUS
 62
     0
100
AcDbBlockReference
  2
_ORIGIN
 10
902.0395380754999
 20
-4067.702077789607
 30
0.0
 41
10.0
 42
10.0
 43
10.0
  0
MTEXT
  5
D3D8
330
D10A
100
AcDbEntity
  8
SIZE
  6
CONTINUOUS
 62
     0
100
AcDbMText
 10
921.0395380754999
 20
-4015.702077789607
 30
0.0
 40
64.0
 41
0.0
 71
     5
 72
     1
  1
\A1;38
1001
ACAD
1000
MTEXTBEGIN
1070
    73
1070
     1
1070
    44
1040
1.0
1070
    74
1070
     0
1000
MTEXTEND
  0
POINT
  5
D3D9
330
D10A
100
AcDbEntity
  8
DEFPOINTS
  6
CONTINUOUS
 62
     0
100
AcDbPoint
 10
940.0395380754998
 20
-4288.87052703862
 30
0.0
  0
POINT
  5
D3DA
330
D10A
100
AcDbEntity
  8
DEFPOINTS
  6
CONTINUOUS
 62
     0
100
AcDbPoint
 10
902.0395380754999
 20
-4288.87052703862
 30
0.0
  0
POINT
  5
D3DB
330
D10A
100
AcDbEntity
  8
DEFPOINTS
  6
CONTINUOUS
 62
     0
100
AcDbPoint
 10
902.0395380754999
 20
-4067.702077789607
 30
0.0
  0
ENDBLK
  5
D117
330
D10A
100
AcDbEntity
  8
0
100
AcDbBlockEnd
  0
ENDSEC
  0
SECTION
  2
ENTITIES
  0
CIRCLE
  5
B930
330
1E
100
AcDbEntity
  8
ARRANGE
  6
CONTINUOUS
100
AcDbCircle
 10
0.0
 20
0.0000002857141226
 30
0.0
 40
40.0
  0
LWPOLYLINE
  5
B931
330
1E
100
AcDbEntity
  8
NOTE
  6
CONTINUOUS
100
AcDbPolyline
 90
        3
 70
     0
 43
0.0
 10
28.04845390840637
 20
-1.481861488289723
 10
0.0
 20
-29.99999999999454
 10
38.54974316520383
 20
-19.32679356518383
  0
LWPOLYLINE
  5
B932
330
1E
100
AcDbEntity
  8
NOTE
  6
CONTINUOUS
100
AcDbPolyline
 90
        3
 70
     0
 43
0.0
 10
21.58405017256154
 20
-165.3231716313202
 10
0.0
 20
-198.9999999999945
 10
35.53075003265258
 20
-180.6270351924104
  0
POINT
  5
B933
330
1E
100
AcDbEntity
  8
ARRANGE
  6
CONTINUOUS
100
AcDbPoint
 10
0.0
 20
0.0000002857141226
 30
0.0
  0
LINE
  5
B934
330
1E
100
AcDbEntity
  8
NOTE
  6
CONTINUOUS
100
AcDbLine
 10
-80.00006444015525
 20
-0.0000026049292501
 30
0.0
 11
118.4072179915892
 21
184.5769439604955
 31
0.0
  0
LINE
  5
B936
330
1E
100
AcDbEntity
  8
NOTE
  6
CONTINUOUS
100
AcDbLine
 10
-200.0006041725118
 20
-126.0231664395623
 30
0.0
 11
154.1983917965481
 21
-617.7908614142752
 31
0.0
  0
LINE
  5
B937
330
1E
100
AcDbEntity
  8
NOTE
  6
CONTINUOUS
100
AcDbLine
 10
-179.9999999999981
 20
-125.9999999999981
 30
0.0
 11
157.4851914667706
 21
-489.0518313114462
 31
0.0
  0
LINE
  5
B93A
330
1E
100
AcDbEntity
  8
NOTE
  6
CONTINUOUS
100
AcDbLine
 10
0.0
 20
-198.9999999999945
 30
0.0
 11
244.7349388701477
 21
22.43779846665711
 31
0.0
  0
LINE
  5
B93B
330
1E
100
AcDbEntity
  8
NOTE
  6
CONTINUOUS
100
AcDbLine
 10
0.0
 20
-29.99999999999454
 30
0.0
 11
278.0043995513551
 21
132.4562292551636
 31
0.0
  0
LINE
  5
B93F
330
1E
100
AcDbEntity
  8
NOTE
  6
CONTINUOUS
100
AcDbLine
 10
-246.3999999999923
 20
-169.999999999999
 30
0.0
 11
-246.3999999999923
 21
-209.999999999999
 31
0.0
  0
LINE
  5
B940
330
1E
100
AcDbEntity
  8
BASIS
  6
DASHDOT
100
AcDbLine
 10
-339.8045632970643
 20
20.35704916188297
 30
0.0
 11
-339.8045632970643
 21
-266.8274599183114
 31
0.0
  0
ARC
  5
B943
330
1E
100
AcDbEntity
  8
DETAIL
100
AcDbCircle
 10
-170.0001799999881
 20
2792.918290000001
 30
0.0
 40
2997.9183
100
AcDbArc
 50
261.0049710000021
 51
267.6185660000127
  0
ARC
  5
B944
330
1E
100
AcDbEntity
  8
DETAIL
100
AcDbCircle
 10
-170.0001799999881
 20
2792.918290000001
 30
0.0
 40
3002.9183
100
AcDbArc
 50
261.0428839999798
 51
267.6236550000039
  0
LINE
  5
B945
330
1E
100
AcDbEntity
  8
DETAIL
100
AcDbLine
 10
-630.7584999999926
 20
-193.7245200000006
 30
0.0
 11
-637.3998299999948
 21
-173.8005100000009
 31
0.0
  0
LINE
  5
B946
330
1E
100
AcDbEntity
  8
DETAIL
100
AcDbLine
 10
0.0
 20
0.0
 30
0.0
 11
0.0
 21
-235.0
 31
0.0
  0
LINE
  5
B947
330
1E
100
AcDbEntity
  8
DETAIL
100
AcDbLine
 10
-242.9465299999901
 20
-172.3546399999986
 30
0.0
 11
-220.9289299999909
 21
-194.3722399999978
 31
0.0
  0
LINE
  5
B948
330
1E
100
AcDbEntity
  8
DETAIL
100
AcDbLine
 10
-31.87545999999201
 20
-210.999999999999
 30
0.0
 11
-31.87545999999201
 21
-79.7967699999981
 31
0.0
  0
SPLINE
  5
B949
330
1E
100
AcDbEntity
  8
DETAIL
100
AcDbSpline
210
0.0
220
0.0
230
1.0
 70
     8
 71
     3
 72
     8
 73
     4
 74
     0
 42
0.0000000001
 43
0.0000000001
 40
0.0
 40
0.0
 40
0.0
 40
0.0
 40
1.0
 40
1.0
 40
1.0
 40
1.0
 10
-310.944572858607
 20
-145.7041905202349
 30
0.0
 10
-312.2319632902726
 20
-165.4086493916984
 30
0.0
 10
-302.7504137028663
 20
-176.0334227305247
 30
0.0
 10
-298.2723037589821
 20
-186.0250467463592
 30
0.0
  0
LINE
  5
B94A
330
1E
100
AcDbEntity
  8
DETAIL
100
AcDbLine
 10
-248.3999999999832
 20
-175.999999999999
 30
0.0
 11
-248.3999999999832
 21
-204.0000000000008
 31
0.0
  0
LINE
  5
B94B
330
1E
100
AcDbEntity
  8
DETAIL
100
AcDbLine
 10
-249.3999999999869
 20
-204.0000000000008
 30
0.0
 11
-249.3999999999869
 21
-175.999999999999
 31
0.0
  0
LINE
  5
B94C
330
1E
100
AcDbEntity
  8
DETAIL
100
AcDbLine
 10
-248.3999999999832
 20
-175.999999999999
 30
0.0
 11
-246.3999999999941
 21
-177.9999999999972
 31
0.0
  0
ARC
  5
B94D
330
1E
100
AcDbEntity
  8
DETAIL
100
AcDbCircle
 10
-170.0001799999881
 20
2792.918290000001
 30
0.0
 40
3022.9183
100
AcDbArc
 50
261.2391379999945
 51
267.6199819999803
  0
ARC
  5
B94E
330
1E
100
AcDbEntity
  8
DETAIL
100
AcDbCircle
 10
-628.8611299999866
 20
-193.092059999999
 30
0.0
 40
2.0
100
AcDbArc
 50
198.434949000002
 51
254.3033489999789
  0
LINE
  5
B950
330
1E
100
AcDbEntity
  8
NOTE
  6
CONTINUOUS
100
AcDbLine
 10
-246.3999999999941
 20
-190.0
 30
0.0
 11
-304.5551986518348
 21
-385.4654131667412
 31
0.0
  0
ARC
  5
B951
330
1E
100
AcDbEntity
  8
DETAIL
100
AcDbCircle
 10
-170.0001799999881
 20
2792.918290000001
 30
0.0
 40
3028.918299999999
100
AcDbArc
 50
262.1169069999763
 51
270.0
  0
LINE
  5
B952
330
1E
100
AcDbEntity
  8
DETAIL
100
AcDbLine
 10
-279.3999999999869
 20
-182.9999999999972
 30
0.0
 11
-304.8107799999888
 21
-182.9999999999972
 31
0.0
  0
LINE
  5
B953
330
1E
100
AcDbEntity
  8
DETAIL
100
AcDbLine
 10
-249.3999999999869
 20
-202.9999999999972
 30
0.0
 11
-306.7355299999872
 21
-202.9999999999972
 31
0.0
  0
LINE
  5
B954
330
1E
100
AcDbEntity
  8
NOTE
  6
CONTINUOUS
100
AcDbLine
 10
-565.1803606518314
 20
-385.4654131667412
 30
0.0
 11
-304.5551986518348
 21
-385.4654131667412
 31
0.0
  0
TEXT
  5
B955
330
1E
100
AcDbEntity
  8
NOTE
  6
CONTINUOUS
100
AcDbText
 10
-568.2760250879746
 20
-368.8330514242488
 30
0.0
 40
64.0
  1
D φ26
 41
0.9
100
AcDbText
  0
LINE
  5
B95C
330
1E
100
AcDbEntity
  8
DETAIL
100
AcDbLine
 10
-629.4022199999926
 20
-195.0174799999967
 30
0.0
 11
-585.4231499999878
 21
-207.3766599999999
 31
0.0
  0
ARC
  5
B95D
330
1E
100
AcDbEntity
  8
DETAIL
100
AcDbCircle
 10
-306.7355299999872
 20
-204.0000000000008
 30
0.0
 40
1.0
100
AcDbArc
 50
90.0
 51
175.0000000000016
  0
ARC
  5
B95E
330
1E
100
AcDbEntity
  8
DETAIL
100
AcDbCircle
 10
-304.8107799999888
 20
-181.9999999999981
 30
0.0
 40
1.0
100
AcDbArc
 50
175.0000000000016
 51
270.0
  0
LINE
  5
B95F
330
1E
100
AcDbEntity
  8
DETAIL
100
AcDbLine
 10
-305.4646499999944
 20
-177.9999999999972
 30
0.0
 11
-308.0893099999957
 21
-207.9999999999972
 31
0.0
  0
LINE
  5
B960
330
1E
100
AcDbEntity
  8
DETAIL
100
AcDbLine
 10
-307.4722899999869
 20
-177.9999999999972
 30
0.0
 11
-305.4646499999944
 21
-177.9999999999972
 31
0.0
  0
LINE
  5
B961
330
1E
100
AcDbEntity
  8
DETAIL
100
AcDbLine
 10
-310.0969499999882
 20
-207.9999999999972
 30
0.0
 11
-308.0893099999957
 21
-207.9999999999972
 31
0.0
  0
LINE
  5
B962
330
1E
100
AcDbEntity
  8
DETAIL
100
AcDbLine
 10
-307.4799099999836
 20
-178.08716
 30
0.0
 11
-310.1045699999849
 21
-208.08716
 31
0.0
  0
LINE
  5
B963
330
1E
100
AcDbEntity
  8
NOTE
  6
CONTINUOUS
100
AcDbLine
 10
0.0
 20
-178.9999999999945
 30
0.0
 11
0.0
 21
-218.9999999999945
 31
0.0
  0
LINE
  5
B964
330
1E
100
AcDbEntity
  8
NOTE
  6
CONTINUOUS
100
AcDbLine
 10
20.0
 20
-198.9999999999945
 30
0.0
 11
-20.0
 21
-198.9999999999945
 31
0.0
  0
LWPOLYLINE
  5
B965
330
1E
100
AcDbEntity
  8
NOTE
  6
CONTINUOUS
100
AcDbPolyline
 90
        3
 70
     0
 43
0.0
 10
-246.8900822542946
 20
-229.9969975238364
 10
-246.3999999999941
 20
-189.9999999999981
 10
-266.8229229312837
 20
-224.3933746123293
  0
LINE
  5
B966
330
1E
100
AcDbEntity
  8
NOTE
  6
CONTINUOUS
100
AcDbLine
 10
-226.3999999999923
 20
-189.9999999999991
 30
0.0
 11
-266.3999999999923
 21
-189.9999999999991
 31
0.0
  0
LINE
  5
B967
330
1E
100
AcDbEntity
  8
DETAIL
100
AcDbLine
 10
-0.999999999985448
 20
-235.999999999999
 30
0.0
 11
-170.0001799999881
 21
-235.999999999999
 31
0.0
  0
ARC
  5
B968
330
1E
100
AcDbEntity
  8
DETAIL
100
AcDbCircle
 10
-0.999999999985448
 20
-235.0
 30
0.0
 40
1.0
100
AcDbArc
 50
270.0
 51
0.0
  0
ARC
  5
B969
330
1E
100
AcDbEntity
  8
DETAIL
100
AcDbCircle
 10
-227.9999999999927
 20
-201.4433000000008
 30
0.0
 40
10.0
100
AcDbArc
 50
0.0
 51
45.0
  0
LINE
  5
B96A
330
1E
100
AcDbEntity
  8
DETAIL
100
AcDbLine
 10
-217.9999999999909
 20
-211.0
 30
0.0
 11
-217.9999999999927
 21
-201.4433000000008
 31
0.0
  0
LINE
  5
B96B
330
1E
100
AcDbEntity
  8
DETAIL
100
AcDbLine
 10
-31.87545999999201
 20
-210.999999999999
 30
0.0
 11
-217.9999999999909
 21
-211.0
 31
0.0
  0
SPLINE
  5
B96C
330
1E
100
AcDbEntity
  8
DETAIL
100
AcDbSpline
210
0.0
220
0.0
230
1.0
 70
     8
 71
     3
 72
     8
 73
     4
 74
     0
 42
0.0000000001
 43
0.0000000001
 40
0.0
 40
0.0
 40
0.0
 40
0.0
 40
1.0
 40
1.0
 40
1.0
 40
1.0
 10
-298.2723037589821
 20
-186.0250467463592
 30
0.0
 10
-293.7941938150979
 20
-196.0166707621901
 30
0.0
 10
-294.3195235147359
 20
-205.3751454550365
 30
0.0
 10
-294.8162303681529
 20
-214.8256583364418
 30
0.0
  0
SPLINE
  5
B96D
330
1E
100
AcDbEntity
  8
DETAIL
100
AcDbSpline
210
0.0
220
0.0
230
1.0
 70
     8
 71
     3
 72
     8
 73
     4
 74
     0
 42
0.0000000001
 43
0.0000000001
 40
0.0
 40
0.0
 40
0.0
 40
0.0
 40
1.0
 40
1.0
 40
1.0
 40
1.0
 10
-294.8162303681529
 20
-214.8256583364418
 30
0.0
 10
-295.1384056109745
 20
-220.9554736614882
 30
0.0
 10
-295.4485389031979
 20
-227.1240104788885
 30
0.0
 10
-295.9921692725256
 20
-233.3784661420031
 30
0.0
  0
LINE
  5
B96E
330
1E
100
AcDbEntity
  8
DETAIL
100
AcDbLine
 10
-279.5745399999941
 20
-202.9999999999972
 30
0.0
 11
-279.3476399999963
 21
-176.9999999999981
 31
0.0
  0
LINE
  5
B96F
330
1E
100
AcDbEntity
  8
DETAIL
100
AcDbLine
 10
-249.3999999999869
 20
-176.9999999999981
 30
0.0
 11
-279.3476399999963
 21
-176.9999999999981
 31
0.0
  0
LINE
  5
B970
330
1E
100
AcDbEntity
  8
DETAIL
100
AcDbLine
 10
-248.3999999999832
 20
-204.0000000000008
 30
0.0
 11
-249.3999999999869
 21
-204.0000000000008
 31
0.0
  0
LINE
  5
B971
330
1E
100
AcDbEntity
  8
BASIS
100
AcDbLine
 10
-289.4993499999873
 20
-190.0
 30
0.0
 11
-236.3603199999852
 21
-190.0
 31
0.0
  0
LINE
  5
B972
330
1E
100
AcDbEntity
  8
DETAIL
100
AcDbLine
 10
-246.3999999999941
 20
-201.9999999999981
 30
0.0
 11
-246.3999999999941
 21
-177.9999999999972
 31
0.0
  0
LINE
  5
B973
330
1E
100
AcDbEntity
  8
DETAIL
100
AcDbLine
 10
-248.3999999999832
 20
-204.0000000000008
 30
0.0
 11
-246.3999999999941
 21
-201.9999999999981
 31
0.0
  0
LINE
  5
B978
330
1E
100
AcDbEntity
  8
DETAIL
100
AcDbLine
 10
-680.0
 20
-45.99999999999909
 30
0.0
 11
-259.9804999999832
 21
-45.99999999999909
 31
0.0
  0
LINE
  5
B979
330
1E
100
AcDbEntity
  8
DETAIL
100
AcDbLine
 10
-674.5857899999828
 20
-40.99999999999909
 30
0.0
 11
-256.9321899999886
 21
-40.99999999999909
 31
0.0
  0
LINE
  5
B97A
330
1E
100
AcDbEntity
  8
DETAIL
100
AcDbLine
 10
-670.0
 20
-40.99999999999909
 30
0.0
 11
-628.9999999999963
 21
0.0
 31
0.0
  0
LINE
  5
B97C
330
1E
100
AcDbEntity
  8
DETAIL
100
AcDbLine
 10
-637.3224499999923
 20
-172.9935399999976
 30
0.0
 11
-634.9212499999885
 21
-168.7303199999996
 31
0.0
  0
ARC
  5
B97D
330
1E
100
AcDbEntity
  8
DETAIL
100
AcDbCircle
 10
-636.4511499999935
 20
-173.4842799999978
 30
0.0
 40
1.0
100
AcDbArc
 50
150.610170000001
 51
198.434949000002
  0
LINE
  5
B97E
330
1E
100
AcDbEntity
  8
DETAIL
100
AcDbLine
 10
-639.3212499999935
 20
-168.0362599999989
 30
0.0
 11
-639.5133799999894
 21
-167.459859999999
 31
0.0
  0
ARC
  5
B97F
330
1E
100
AcDbEntity
  8
DETAIL
100
AcDbCircle
 10
-170.0001799999881
 20
2792.918290000001
 30
0.0
 40
2997.9183
100
AcDbArc
 50
260.9933569999819
 51
261.0049710000021
  0
LINE
  5
B980
330
1E
100
AcDbEntity
  8
DETAIL
100
AcDbLine
 10
-639.5133799999894
 20
-167.459859999999
 30
0.0
 11
-679.8045599999932
 21
-46.5863199999967
 31
0.0
  0
ARC
  5
B981
330
1E
100
AcDbEntity
  8
DETAIL
100
AcDbCircle
 10
-638.564699999988
 20
-167.1436300000005
 30
0.0
 40
1.0
100
AcDbArc
 50
198.434949000002
 51
261.0049710000021
  0
LINE
  5
B982
330
1E
100
AcDbEntity
  8
DETAIL
100
AcDbLine
 10
-679.5629899999949
 20
-45.56298999999853
 30
0.0
 11
-675.2928899999824
 21
-41.29289999999855
 31
0.0
  0
LINE
  5
B983
330
1E
100
AcDbEntity
  8
DETAIL
100
AcDbLine
 10
-680.0
 20
-45.99999999999909
 30
0.0
 11
-679.5629899999949
 21
-45.56298999999853
 31
0.0
  0
LINE
  5
B984
330
1E
100
AcDbEntity
  8
DETAIL
100
AcDbLine
 10
-679.8045599999932
 20
-46.5863199999967
 30
0.0
 11
-680.0
 21
-45.99999999999909
 31
0.0
  0
ARC
  5
B985
330
1E
100
AcDbEntity
  8
DETAIL
100
AcDbCircle
 10
-678.8558799999918
 20
-46.270099999997
 30
0.0
 40
1.0
100
AcDbArc
 50
135.0
 51
198.434949000002
  0
ARC
  5
B986
330
1E
100
AcDbEntity
  8
DETAIL
100
AcDbCircle
 10
-674.5857899999828
 20
-41.99999999999818
 30
0.0
 40
1.0
100
AcDbArc
 50
90.0
 51
135.0
  0
LINE
  5
B987
330
1E
100
AcDbEntity
  8
DETAIL
100
AcDbLine
 10
-675.2928899999824
 20
-41.29289999999855
 30
0.0
 11
-675.0
 21
-40.99999999999909
 31
0.0
  0
LINE
  5
B988
330
1E
100
AcDbEntity
  8
DETAIL
100
AcDbLine
 10
-675.0
 20
-40.99999999999909
 30
0.0
 11
-674.5857899999828
 21
-40.99999999999909
 31
0.0
  0
TEXT
  5
B989
330
1E
100
AcDbEntity
  8
NOTE
  6
CONTINUOUS
100
AcDbText
 10
-544.1446735127647
 20
210.0345374029766
 30
0.0
 40
64.0
  1
吊りボルトピッチ
 41
0.9
100
AcDbText
  0
LINE
  5
B98B
330
1E
100
AcDbEntity
  8
DETAIL
100
AcDbLine
 10
-448.7077799999861
 20
-9.000000000000909
 30
0.0
 11
-247.0661699999982
 21
-9.000000000000909
 31
0.0
  0
LINE
  5
B98C
330
1E
100
AcDbEntity
  8
DETAIL
100
AcDbLine
 10
-497.6291199999832
 20
-12.99999999999727
 30
0.0
 11
-247.5859399999899
 21
-12.99999999999727
 31
0.0
  0
LINE
  5
B98D
330
1E
100
AcDbEntity
  8
DETAIL
100
AcDbLine
 10
-628.9999999999963
 20
0.0
 30
0.0
 11
0.0
 21
0.0
 31
0.0
  0
LINE
  5
B98E
330
1E
100
AcDbEntity
  8
DETAIL
100
AcDbLine
 10
-628.9999999999963
 20
-5.99999999999909
 30
0.0
 11
-246.7293299999983
 21
-5.99999999999909
 31
0.0
  0
SPLINE
  5
B98F
330
1E
100
AcDbEntity
  8
DETAIL
100
AcDbSpline
210
0.0
220
0.0
230
1.0
 70
     8
 71
     3
 72
     8
 73
     4
 74
     0
 42
0.0000000001
 43
0.0000000001
 40
0.0
 40
0.0
 40
0.0
 40
0.0
 40
1.0
 40
1.0
 40
1.0
 40
1.0
 10
-283.2959857321329
 20
-81.19082055844774
 30
0.0
 10
-291.1624924989519
 20
-91.62679889352876
 30
0.0
 10
-299.7502948657129
 20
-100.8951006084025
 30
0.0
 10
-306.3364750042019
 20
-122.6637012481696
 30
0.0
  0
LINE
  5
B990
330
1E
100
AcDbEntity
  8
DETAIL
100
AcDbLine
 10
-338.9573699999891
 20
-149.4999999999981
 30
0.0
 11
-245.8754599999883
 21
-149.4999999999981
 31
0.0
  0
LINE
  5
B991
330
1E
100
AcDbEntity
  8
DETAIL
100
AcDbLine
 10
-338.9573699999891
 20
-102.4999999999999
 30
0.0
 11
-245.8754599999883
 21
-102.4999999999999
 31
0.0
  0
LINE
  5
B992
330
1E
100
AcDbEntity
  8
NOTE
  6
CONTINUOUS
100
AcDbLine
 10
-399.9999990909163
 20
20.0
 30
0.0
 11
-399.9999990909163
 21
-20.0
 31
0.0
  0
CIRCLE
  5
B993
330
1E
100
AcDbEntity
  8
FIX
  6
CONTINUOUS
100
AcDbCircle
 10
-399.9999990909163
 20
0.0
 30
0.0
 40
5.0
  0
LINE
  5
B994
330
1E
100
AcDbEntity
  8
NOTE
  6
CONTINUOUS
100
AcDbLine
 10
-379.9999990909164
 20
0.0
 30
0.0
 11
-419.9999990909163
 21
0.0
 31
0.0
  0
LINE
  5
B995
330
1E
100
AcDbEntity
  8
NOTE
  6
CONTINUOUS
100
AcDbLine
 10
-399.9999990909163
 20
0.0
 30
0.0
 11
-463.2876795198535
 21
104.9354898947894
 31
0.0
  0
LWPOLYLINE
  5
B996
330
1E
100
AcDbEntity
  8
NOTE
  6
CONTINUOUS
100
AcDbPolyline
 90
        3
 70
     0
 43
0.0
 10
-428.7846830909147
 20
27.77484400000048
 10
-399.9999990909163
 20
0.0
 10
-411.0408450909162
 20
38.44606300000032
  0
TEXT
  5
B997
330
1E
100
AcDbEntity
  8
NOTE
  6
CONTINUOUS
100
AcDbText
 10
-600.4479949569613
 20
116.7895267372841
 30
0.0
 40
64.0
  1
AH
 41
0.9
100
AcDbText
  0
LINE
  5
B998
330
1E
100
AcDbEntity
  8
NOTE
  6
CONTINUOUS
100
AcDbLine
 10
-617.4248749569633
 20
104.9354898947894
 30
0.0
 11
-463.2876795198535
 21
104.9354898947894
 31
0.0
  0
ARC
  5
B999
330
1E
100
AcDbEntity
  8
DETAIL
100
AcDbCircle
 10
-448.7077799999861
 20
-149.0000000000009
 30
0.0
 40
140.0
100
AcDbArc
 50
90.0
 51
97.59464300000187
  0
LINE
  5
B99A
330
1E
100
AcDbEntity
  8
DETAIL
100
AcDbLine
 10
-478.7892999999894
 20
-11.77190999999766
 30
0.0
 11
-467.2107099999993
 21
-10.22809999999935
 31
0.0
  0
ARC
  5
B99B
330
1E
100
AcDbEntity
  8
DETAIL
100
AcDbCircle
 10
-497.2922199999993
 20
127.0000000000027
 30
0.0
 40
140.0
100
AcDbArc
 50
270.0
 51
277.5946430000018
  0
LINE
  5
B99C
330
1E
100
AcDbEntity
  8
DETAIL
100
AcDbLine
 10
-487.9999999999927
 20
0.0
 30
0.0
 11
-487.9999999999927
 21
-12.99999999999727
 31
0.0
  0
LINE
  5
B99D
330
1E
100
AcDbEntity
  8
DETAIL
100
AcDbLine
 10
-457.9999999999927
 20
-9.000000000000909
 30
0.0
 11
-457.9999999999927
 21
0.0
 31
0.0
  0
SPLINE
  5
B99E
330
1E
100
AcDbEntity
  8
DETAIL
100
AcDbSpline
210
0.0
220
0.0
230
1.0
 70
     8
 71
     3
 72
     8
 73
     4
 74
     0
 42
0.0000000001
 43
0.0000000001
 40
0.0
 40
0.0
 40
0.0
 40
0.0
 40
1.0
 40
1.0
 40
1.0
 40
1.0
 10
-306.3364750042019
 20
-122.6637012481696
 30
0.0
 10
-308.5110584981084
 20
-129.8511207601914
 30
0.0
 10
-310.4674357952535
 20
-138.4012562975658
 30
0.0
 10
-310.944572858607
 20
-145.7041905202349
 30
0.0
  0
LINE
  5
B9A0
330
1E
100
AcDbEntity
  8
NOTE
  6
CONTINUOUS
100
AcDbLine
 10
-80.00003227272827
 20
20.0
 30
0.0
 11
-80.00003227272827
 21
-20.0
 31
0.0
  0
CIRCLE
  5
B9A1
330
1E
100
AcDbEntity
  8
FIX
  6
CONTINUOUS
100
AcDbCircle
 10
-80.00003227272827
 20
0.0
 30
0.0
 40
5.0
  0
LINE
  5
B9A2
330
1E
100
AcDbEntity
  8
NOTE
  6
CONTINUOUS
100
AcDbLine
 10
-60.00003227272827
 20
0.0
 30
0.0
 11
-100.0000322727282
 21
0.0
 31
0.0
  0
LWPOLYLINE
  5
B9A3
330
1E
100
AcDbEntity
  8
NOTE
  6
CONTINUOUS
100
AcDbPolyline
 90
        3
 70
     0
 43
0.0
 10
-58.63373482887254
 20
33.81537952803319
 10
-80.00006454508911
 20
-0.0000001540001904
 10
-44.58859023396508
 20
18.60181348512196
  0
LINE
  5
B9A4
330
1E
100
AcDbEntity
  8
NOTE
  6
CONTINUOUS
100
AcDbLine
 10
20.0
 20
-29.99999999999454
 30
0.0
 11
-20.0
 21
-29.99999999999454
 31
0.0
  0
LINE
  5
B9A5
330
1E
100
AcDbEntity
  8
NOTE
  6
CONTINUOUS
100
AcDbLine
 10
0.0
 20
-9.999999999994543
 30
0.0
 11
0.0
 21
-49.99999999999454
 31
0.0
  0
LINE
  5
B9A6
330
1E
100
AcDbEntity
  8
NOTE
  6
CONTINUOUS
100
AcDbLine
 10
-160.0
 20
-125.9999999999981
 30
0.0
 11
-200.0
 21
-125.9999999999981
 31
0.0
  0
LWPOLYLINE
  5
B9A7
330
1E
100
AcDbEntity
  8
NOTE
  6
CONTINUOUS
100
AcDbPolyline
 90
        3
 70
     0
 43
0.0
 10
-146.5573511968777
 20
-147.9451421504163
 10
-179.9999999999981
 20
-125.9999999999981
 10
-162.0103876179109
 20
-161.7263751339705
  0
LWPOLYLINE
  5
B9A8
330
1E
100
AcDbEntity
  8
NOTE
  6
CONTINUOUS
100
AcDbPolyline
 90
        3
 70
     0
 43
0.0
 10
-168.5268515281986
 20
-150.7092547356796
 10
-200.0006041725118
 20
-126.0231664395623
 10
-185.08657822653
 20
-163.1388216752811
  0
LINE
  5
B9A9
330
1E
100
AcDbEntity
  8
NOTE
  6
CONTINUOUS
100
AcDbLine
 10
-180.0
 20
-125.9999999999945
 30
0.0
 11
-220.0
 21
-125.9999999999945
 31
0.0
  0
LINE
  5
B9AA
330
1E
100
AcDbEntity
  8
NOTE
  6
CONTINUOUS
100
AcDbLine
 10
-180.0
 20
-105.9999999999981
 30
0.0
 11
-180.0
 21
-145.9999999999981
 31
0.0
  0
LINE
  5
B9AB
330
1E
100
AcDbEntity
  8
NOTE
  6
CONTINUOUS
100
AcDbLine
 10
-200.0
 20
-105.9999999999945
 30
0.0
 11
-200.0
 21
-145.9999999999945
 31
0.0
  0
LINE
  5
B9AC
330
1E
100
AcDbEntity
  8
DETAIL
100
AcDbLine
 10
-246.7293299999983
 20
-5.99999999999909
 30
0.0
 11
0.0
 21
-5.99999999999909
 31
0.0
  0
ARC
  5
B9AD
330
1E
100
AcDbEntity
  8
DETAIL
100
AcDbCircle
 10
-235.8754599999883
 20
-165.2835699999968
 30
0.0
 40
10.0
100
AcDbArc
 50
180.0
 51
225.0
  0
LINE
  5
B9AE
330
1E
100
AcDbEntity
  8
DETAIL
100
AcDbLine
 10
-245.8754599999883
 20
-165.2835699999968
 30
0.0
 11
-245.8754599999883
 21
-162.1967700000004
 31
0.0
  0
LINE
  5
B9AF
330
1E
100
AcDbEntity
  8
DETAIL
100
AcDbLine
 10
-245.8754599999883
 20
-162.1967700000004
 30
0.0
 11
-245.8754599999883
 21
-79.7967699999981
 31
0.0
  0
ARC
  5
B9B0
330
1E
100
AcDbEntity
  8
DETAIL
100
AcDbCircle
 10
-235.8754599999883
 20
-79.7967699999981
 30
0.0
 40
10.0
100
AcDbArc
 50
90.0
 51
180.0
  0
ARC
  5
B9B1
330
1E
100
AcDbEntity
  8
DETAIL
100
AcDbCircle
 10
-41.87545999999201
 20
-79.7967699999981
 30
0.0
 40
10.0
100
AcDbArc
 50
0.0
 51
90.0
  0
LINE
  5
B9B2
330
1E
100
AcDbEntity
  8
DETAIL
100
AcDbLine
 10
-41.87545999999201
 20
-69.7967699999981
 30
0.0
 11
-235.8754599999883
 21
-69.7967699999981
 31
0.0
  0
SPLINE
  5
B9B3
330
1E
100
AcDbEntity
  8
DETAIL
100
AcDbSpline
210
0.0
220
0.0
230
1.0
 70
     8
 71
     3
 72
     8
 73
     4
 74
     0
 42
0.0000000001
 43
0.0000000001
 40
0.0
 40
0.0
 40
0.0
 40
0.0
 40
1.0
 40
1.0
 40
1.0
 40
1.0
 10
-246.1530152000996
 20
-0.0000048310830607
 30
0.0
 10
-246.952484791509
 20
-9.112275052182667
 30
0.0
 10
-247.9937112693078
 20
-17.75487813211657
 30
0.0
 10
-249.8872762876489
 20
-24.74162184188753
 30
0.0
  0
SPLINE
  5
B9B4
330
1E
100
AcDbEntity
  8
DETAIL
100
AcDbSpline
210
0.0
220
0.0
230
1.0
 70
     8
 71
     3
 72
     8
 73
     4
 74
     0
 42
0.0000000001
 43
0.0000000001
 40
0.0
 40
0.0
 40
0.0
 40
0.0
 40
1.0
 40
1.0
 40
1.0
 40
1.0
 10
-249.8872762876489
 20
-24.74162184188753
 30
0.0
 10
-252.5305893206896
 20
-34.49473331565968
 30
0.0
 10
-256.8348229761249
 20
-41.0211328142359
 30
0.0
 10
-262.5595453872738
 20
-50.08616004116629
 30
0.0
  0
SPLINE
  5
B9B5
330
1E
100
AcDbEntity
  8
DETAIL
100
AcDbSpline
210
0.0
220
0.0
230
1.0
 70
     8
 71
     3
 72
     8
 73
     4
 74
     0
 42
0.0000000001
 43
0.0000000001
 40
0.0
 40
0.0
 40
0.0
 40
0.0
 40
1.0
 40
1.0
 40
1.0
 40
1.0
 10
-262.5595453872738
 20
-50.08616004116629
 30
0.0
 10
-268.2842677984226
 20
-59.15118726809305
 30
0.0
 10
-275.429478965314
 20
-70.754842223374
 30
0.0
 10
-283.2959857321329
 20
-81.19082055844774
 30
0.0
  0
LINE
  5
B9B6
330
1E
100
AcDbEntity
  8
DETAIL
100
AcDbLine
 10
-245.8754599999883
 20
-102.4999999999999
 30
0.0
 11
-238.9573699999891
 21
-102.4999999999999
 31
0.0
  0
LINE
  5
B9B7
330
1E
100
AcDbEntity
  8
DETAIL
100
AcDbLine
 10
-245.8754599999883
 20
-149.4999999999981
 30
0.0
 11
-238.9573699999891
 21
-149.4999999999981
 31
0.0
  0
LINE
  5
B9B8
330
1E
100
AcDbEntity
  8
DETAIL
100
AcDbLine
 10
-238.9573699999891
 20
-149.4999999999981
 30
0.0
 11
-238.9573699999891
 21
-102.4999999999999
 31
0.0
  0
LINE
  5
B9B9
330
1E
100
AcDbEntity
  8
BASIS
100
AcDbLine
 10
-175.3121199999986
 20
-125.999999999999
 30
0.0
 11
-243.9999999999963
 21
-125.999999999999
 31
0.0
  0
LINE
  5
B9BA
330
1E
100
AcDbEntity
  8
DETAIL
100
AcDbLine
 10
-200.0
 20
-119.2499999999972
 30
0.0
 11
-202.7999999999883
 21
-116.4499999999998
 31
0.0
  0
LINE
  5
B9BB
330
1E
100
AcDbEntity
  8
DETAIL
100
AcDbLine
 10
-202.7999999999883
 20
-116.4499999999998
 30
0.0
 11
-206.9999999999891
 21
-116.4499999999998
 31
0.0
  0
LINE
  5
B9BC
330
1E
100
AcDbEntity
  8
DETAIL
100
AcDbLine
 10
-206.9999999999891
 20
-116.4499999999998
 30
0.0
 11
-208.5624999999891
 21
-114.8874999999998
 31
0.0
  0
LINE
  5
B9BD
330
1E
100
AcDbEntity
  8
DETAIL
100
AcDbLine
 10
-207.580999999991
 20
-115.8689999999978
 30
0.0
 11
-219.4999999999891
 21
-115.8689999999978
 31
0.0
  0
LINE
  5
B9BE
330
1E
100
AcDbEntity
  8
DETAIL
100
AcDbLine
 10
-208.5624999999891
 20
-114.8874999999998
 30
0.0
 11
-221.999999999989
 21
-114.8874999999998
 31
0.0
  0
LINE
  5
B9BF
330
1E
100
AcDbEntity
  8
DETAIL
100
AcDbLine
 10
-219.4999999999891
 20
-115.8689999999978
 30
0.0
 11
-221.2000099999932
 21
-114.8874999999998
 31
0.0
  0
LINE
  5
B9C0
330
1E
100
AcDbEntity
  8
DETAIL
100
AcDbLine
 10
-221.999999999989
 20
-114.4999999999981
 30
0.0
 11
-225.0
 21
-112.720949999998
 31
0.0
  0
ARC
  5
B9C1
330
1E
100
AcDbEntity
  8
DETAIL
100
AcDbCircle
 10
-225.3368099999897
 20
-116.0407099999974
 30
0.0
 40
3.336809999999999
100
AcDbArc
 50
275.7931020000162
 51
0.0
  0
LINE
  5
B9C2
330
1E
100
AcDbEntity
  8
DETAIL
100
AcDbLine
 10
-238.9999999999963
 20
-119.3604800000002
 30
0.0
 11
-225.0
 21
-119.3604800000002
 31
0.0
  0
LINE
  5
B9C3
330
1E
100
AcDbEntity
  8
DETAIL
100
AcDbLine
 10
-238.9999999999963
 20
-112.720949999998
 30
0.0
 11
-225.0
 21
-112.720949999998
 31
0.0
  0
LINE
  5
B9C4
330
1E
100
AcDbEntity
  8
DETAIL
100
AcDbLine
 10
-206.9999999999891
 20
-135.5499999999983
 30
0.0
 11
-208.5624999999891
 21
-137.1124999999983
 31
0.0
  0
LINE
  5
B9C5
330
1E
100
AcDbEntity
  8
DETAIL
100
AcDbLine
 10
-207.580999999991
 20
-136.1310000000003
 30
0.0
 11
-219.4999999999891
 21
-136.1310000000003
 31
0.0
  0
LINE
  5
B9C6
330
1E
100
AcDbEntity
  8
DETAIL
100
AcDbLine
 10
-219.4999999999891
 20
-136.1310000000003
 30
0.0
 11
-221.2000099999932
 21
-137.1124999999983
 31
0.0
  0
LINE
  5
B9C7
330
1E
100
AcDbEntity
  8
DETAIL
100
AcDbLine
 10
-200.0
 20
-119.2499999999972
 30
0.0
 11
-200.0
 21
-132.7500000000009
 31
0.0
  0
LINE
  5
B9C8
330
1E
100
AcDbEntity
  8
DETAIL
100
AcDbLine
 10
-200.0
 20
-132.7500000000009
 30
0.0
 11
-202.7999999999883
 21
-135.5499999999983
 31
0.0
  0
LINE
  5
B9C9
330
1E
100
AcDbEntity
  8
DETAIL
100
AcDbLine
 10
-202.7499999999963
 20
-116.4499999999998
 30
0.0
 11
-202.7499999999963
 21
-135.5499999999983
 31
0.0
  0
LINE
  5
B9CA
330
1E
100
AcDbEntity
  8
DETAIL
100
AcDbLine
 10
-206.9999999999891
 20
-116.4499999999998
 30
0.0
 11
-206.9999999999891
 21
-135.5499999999983
 31
0.0
  0
LINE
  5
B9CB
330
1E
100
AcDbEntity
  8
DETAIL
100
AcDbLine
 10
-202.7999999999883
 20
-135.5499999999983
 30
0.0
 11
-206.9999999999891
 21
-135.5499999999983
 31
0.0
  0
LINE
  5
B9CC
330
1E
100
AcDbEntity
  8
DETAIL
100
AcDbLine
 10
-208.5624999999891
 20
-114.8874999999998
 30
0.0
 11
-208.5624999999891
 21
-137.1124999999983
 31
0.0
  0
LINE
  5
B9CD
330
1E
100
AcDbEntity
  8
DETAIL
100
AcDbLine
 10
-219.4999999999891
 20
-114.8874999999998
 30
0.0
 11
-219.4999999999891
 21
-137.1124999999983
 31
0.0
  0
LINE
  5
B9CE
330
1E
100
AcDbEntity
  8
DETAIL
100
AcDbLine
 10
-208.5624999999891
 20
-137.1124999999983
 30
0.0
 11
-221.999999999989
 21
-137.1124999999983
 31
0.0
  0
LINE
  5
B9CF
330
1E
100
AcDbEntity
  8
DETAIL
100
AcDbLine
 10
-221.999999999989
 20
-114.4999999999981
 30
0.0
 11
-221.999999999989
 21
-137.5
 31
0.0
  0
LINE
  5
B9D0
330
1E
100
AcDbEntity
  8
DETAIL
100
AcDbLine
 10
-221.999999999989
 20
-137.5
 30
0.0
 11
-225.0
 21
-139.2790599999989
 31
0.0
  0
LINE
  5
B9D1
330
1E
100
AcDbEntity
  8
DETAIL
100
AcDbLine
 10
-238.9999999999963
 20
-139.2790599999989
 30
0.0
 11
-225.0
 21
-139.2790599999989
 31
0.0
  0
LINE
  5
B9D2
330
1E
100
AcDbEntity
  8
DETAIL
100
AcDbLine
 10
-238.9999999999963
 20
-132.6395299999967
 30
0.0
 11
-225.0
 21
-132.6395299999967
 31
0.0
  0
ARC
  5
B9D3
330
1E
100
AcDbEntity
  8
DETAIL
100
AcDbCircle
 10
-230.847219999996
 20
-125.999999999999
 30
0.0
 40
8.847219999999998
100
AcDbArc
 50
311.3693509999891
 51
48.63064900001087
  0
ARC
  5
B9D4
330
1E
100
AcDbEntity
  8
DETAIL
100
AcDbCircle
 10
-225.3368099999897
 20
-135.9592999999995
 30
0.0
 40
3.336809999999999
100
AcDbArc
 50
0.0
 51
84.20689799998369
  0
LINE
  5
B9D5
330
1E
100
AcDbEntity
  8
DETAIL
100
AcDbLine
 10
-180.0
 20
-121.9999999999981
 30
0.0
 11
-180.0
 21
-130.0
 31
0.0
  0
LINE
  5
B9D6
330
1E
100
AcDbEntity
  8
DETAIL
100
AcDbLine
 10
-184.7999999999956
 20
-119.2499999999972
 30
0.0
 11
-185.9874999999919
 21
-118.0625000000009
 31
0.0
  0
LINE
  5
B9D7
330
1E
100
AcDbEntity
  8
DETAIL
100
AcDbLine
 10
-185.9874999999919
 20
-118.0625000000009
 30
0.0
 11
-196.4999999999963
 21
-118.0625000000009
 31
0.0
  0
LINE
  5
B9D8
330
1E
100
AcDbEntity
  8
DETAIL
100
AcDbLine
 10
-193.9999999999963
 20
-118.8259999999991
 30
0.0
 11
-195.3224199999931
 21
-118.0625000000009
 31
0.0
  0
LINE
  5
B9D9
330
1E
100
AcDbEntity
  8
DETAIL
100
AcDbLine
 10
-182.7499999999963
 20
-119.2499999999972
 30
0.0
 11
-184.7999999999956
 21
-119.2499999999972
 31
0.0
  0
LINE
  5
B9DA
330
1E
100
AcDbEntity
  8
DETAIL
100
AcDbLine
 10
-180.0
 20
-121.9999999999981
 30
0.0
 11
-182.7499999999963
 21
-119.2499999999972
 31
0.0
  0
LINE
  5
B9DB
330
1E
100
AcDbEntity
  8
DETAIL
100
AcDbLine
 10
-185.2239999999983
 20
-118.8259999999991
 30
0.0
 11
-193.9999999999963
 21
-118.8259999999991
 31
0.0
  0
LINE
  5
B9DC
330
1E
100
AcDbEntity
  8
DETAIL
100
AcDbLine
 10
-185.9874999999919
 20
-118.0625000000009
 30
0.0
 11
-185.9874999999919
 21
-133.9374999999972
 31
0.0
  0
LINE
  5
B9DD
330
1E
100
AcDbEntity
  8
DETAIL
100
AcDbLine
 10
-193.9999999999963
 20
-118.0625000000009
 30
0.0
 11
-193.9999999999963
 21
-133.9374999999972
 31
0.0
  0
LINE
  5
B9DE
330
1E
100
AcDbEntity
  8
DETAIL
100
AcDbLine
 10
-185.9874999999919
 20
-133.9374999999972
 30
0.0
 11
-196.4999999999963
 21
-133.9374999999972
 31
0.0
  0
LINE
  5
B9DF
330
1E
100
AcDbEntity
  8
DETAIL
100
AcDbLine
 10
-184.7999999999956
 20
-132.7500000000009
 30
0.0
 11
-185.9874999999919
 21
-133.9374999999972
 31
0.0
  0
LINE
  5
B9E0
330
1E
100
AcDbEntity
  8
DETAIL
100
AcDbLine
 10
-184.7999999999956
 20
-119.2499999999972
 30
0.0
 11
-184.7999999999956
 21
-132.7500000000009
 31
0.0
  0
LINE
  5
B9E1
330
1E
100
AcDbEntity
  8
DETAIL
100
AcDbLine
 10
-182.7499999999963
 20
-119.2499999999972
 30
0.0
 11
-182.7499999999963
 21
-132.7500000000009
 31
0.0
  0
LINE
  5
B9E2
330
1E
100
AcDbEntity
  8
DETAIL
100
AcDbLine
 10
-182.7499999999963
 20
-132.7500000000009
 30
0.0
 11
-184.7999999999956
 21
-132.7500000000009
 31
0.0
  0
LINE
  5
B9E3
330
1E
100
AcDbEntity
  8
DETAIL
100
AcDbLine
 10
-180.0
 20
-130.0
 30
0.0
 11
-182.7499999999963
 21
-132.7500000000009
 31
0.0
  0
LINE
  5
B9E4
330
1E
100
AcDbEntity
  8
DETAIL
100
AcDbLine
 10
-185.2239999999983
 20
-133.173999999999
 30
0.0
 11
-193.9999999999963
 21
-133.173999999999
 31
0.0
  0
LINE
  5
B9E5
330
1E
100
AcDbEntity
  8
DETAIL
100
AcDbLine
 10
-193.9999999999963
 20
-133.173999999999
 30
0.0
 11
-195.3224199999931
 21
-133.9374999999972
 31
0.0
  0
LINE
  5
B9E6
330
1E
100
AcDbEntity
  8
DETAIL
100
AcDbLine
 10
-200.0
 20
-121.0925300000008
 30
0.0
 11
-198.4999999999854
 21
-121.0925300000008
 31
0.0
  0
ARC
  5
B9E7
330
1E
100
AcDbEntity
  8
DETAIL
100
AcDbCircle
 10
-203.5208299999976
 20
-125.999999999999
 30
0.0
 40
7.02083
100
AcDbArc
 50
315.6541440000057
 51
44.34585599999425
  0
LINE
  5
B9E8
330
1E
100
AcDbEntity
  8
DETAIL
100
AcDbLine
 10
-196.4999999999963
 20
-117.5
 30
0.0
 11
-197.916669999995
 21
-116.1850499999991
 31
0.0
  0
LINE
  5
B9E9
330
1E
100
AcDbEntity
  8
DETAIL
100
AcDbLine
 10
-196.4999999999963
 20
-117.5
 30
0.0
 11
-196.4999999999963
 21
-134.4999999999981
 31
0.0
  0
LINE
  5
B9EA
330
1E
100
AcDbEntity
  8
DETAIL
100
AcDbLine
 10
-207.2649599999931
 20
-116.1850499999991
 30
0.0
 11
-197.916669999995
 21
-116.1850499999991
 31
0.0
  0
ARC
  5
B9EB
330
1E
100
AcDbEntity
  8
DETAIL
100
AcDbCircle
 10
-199.0052099999957
 20
-118.6387899999999
 30
0.0
 40
2.505209999999999
100
AcDbArc
 50
281.6342350000106
 51
0.0
  0
ARC
  5
B9EC
330
1E
100
AcDbEntity
  8
DETAIL
100
AcDbCircle
 10
-199.0052099999957
 20
-133.361219999997
 30
0.0
 40
2.505209999999999
100
AcDbArc
 50
0.0
 51
78.36576499998938
  0
LINE
  5
B9ED
330
1E
100
AcDbEntity
  8
DETAIL
100
AcDbLine
 10
-200.0
 20
-130.9074800000007
 30
0.0
 11
-198.4999999999854
 21
-130.9074800000007
 31
0.0
  0
LINE
  5
B9EE
330
1E
100
AcDbEntity
  8
DETAIL
100
AcDbLine
 10
-196.4999999999963
 20
-134.4999999999981
 30
0.0
 11
-197.916669999995
 21
-135.8149599999978
 31
0.0
  0
LINE
  5
B9EF
330
1E
100
AcDbEntity
  8
DETAIL
100
AcDbLine
 10
-207.2649599999931
 20
-135.8149599999978
 30
0.0
 11
-197.916669999995
 21
-135.8149599999978
 31
0.0
  0
LINE
  5
B9F0
330
1E
100
AcDbEntity
  8
DETAIL
100
AcDbLine
 10
-248.3999999999832
 20
-175.999999999999
 30
0.0
 11
-249.3999999999869
 21
-175.999999999999
 31
0.0
  0
LINE
  5
B9F1
330
1E
100
AcDbEntity
  8
NOTE
  6
CONTINUOUS
100
AcDbLine
 10
612.7914591792213
 20
-617.7908614142743
 30
0.0
 11
154.1983917965481
 21
-617.7908614142752
 31
0.0
  0
LINE
  5
B9F2
330
1E
100
AcDbEntity
  8
NOTE
  6
CONTINUOUS
100
AcDbLine
 10
559.1089725661368
 20
-489.0518313114462
 30
0.0
 11
157.4851914667706
 21
-489.0518313114462
 31
0.0
  0
TEXT
  5
B9F3
330
1E
100
AcDbEntity
  8
NOTE
  6
CONTINUOUS
100
AcDbText
 10
159.4647600612297
 20
-471.9696499028486
 30
0.0
 40
64.0
  1
RL φ9.52
 41
0.9
100
AcDbText
  0
TEXT
  5
B9F4
330
1E
100
AcDbEntity
  8
NOTE
  6
CONTINUOUS
100
AcDbText
 10
160.7047703186253
 20
-596.415484414274
 30
0.0
 40
64.0
  1
RG φ15.88
 41
0.9
100
AcDbText
  0
LINE
  5
B9F5
330
1E
100
AcDbEntity
  8
NOTE
  6
CONTINUOUS
100
AcDbLine
 10
712.1426291682219
 20
22.43779846665711
 30
0.0
 11
244.7349388701477
 21
22.43779846665711
 31
0.0
  0
TEXT
  5
B9F6
330
1E
100
AcDbEntity
  8
NOTE
  6
CONTINUOUS
100
AcDbText
 10
285.6623886480847
 20
46.87661339416808
 30
0.0
 40
64.0
  1
EL 2-φ26
 41
0.9
100
AcDbText
  0
LINE
  5
B9F7
330
1E
100
AcDbEntity
  8
NOTE
  6
CONTINUOUS
100
AcDbLine
 10
841.1362624787507
 20
132.6680673841365
 30
0.0
 11
278.0043995513551
 21
132.4562292551636
 31
0.0
  0
TEXT
  5
B9F8
330
1E
100
AcDbEntity
  8
NOTE
  6
CONTINUOUS
100
AcDbText
 10
326.9899284772436
 20
161.212974384136
 30
0.0
 40
64.0
  1
EL 2-φ22.2
 41
0.9
100
AcDbText
  0
TEXT
  5
B9F9
330
1E
100
AcDbEntity
  8
ETC
  6
CONTINUOUS
100
AcDbText
 10
327.5186776226291
 20
424.0078748378327
 30
0.0
 40
64.0
  1
SMPC4704
 41
0.9
100
AcDbText
  0
TEXT
  5
B9FA
330
1E
100
AcDbEntity
  8
NOTE
  6
CONTINUOUS
100
AcDbText
 10
143.0713645511787
 20
198.309941827405
 30
0.0
 40
64.0
  1
AH
 41
0.9
100
AcDbText
  0
LINE
  5
B9FB
330
1E
100
AcDbEntity
  8
NOTE
  6
CONTINUOUS
100
AcDbLine
 10
118.4072179915892
 20
184.5769439604955
 30
0.0
 11
279.9727589313624
 21
184.5769439604955
 31
0.0
  0
TEXT
  5
B9FC
330
1E
100
AcDbEntity
  8
ETC
  6
CONTINUOUS
100
AcDbText
 10
335.2607136790247
 20
551.21395555472
 30
0.0
 40
64.0
  1
PAC
 41
0.9
100
AcDbText
  0
LINE
  5
D78B
330
1E
100
AcDbEntity
  8
SIZE
100
AcDbLine
 10
40.0
 20
-198.9999999999945
 30
0.0
 11
487.7135746855564
 21
-198.9999999999946
 31
0.0
  0
LINE
  5
D78C
330
1E
100
AcDbEntity
  8
SIZE
100
AcDbLine
 10
40.0
 20
-29.99999999999455
 30
0.0
 11
487.7135746855564
 21
-29.99999999999467
 31
0.0
  0
LINE
  5
D78D
330
1E
100
AcDbEntity
  8
SIZE
100
AcDbLine
 10
457.7135746855565
 20
-188.9999999999946
 30
0.0
 11
457.7135746855565
 21
-39.99999999999467
 31
0.0
  0
LINE
  5
D791
330
1E
100
AcDbEntity
  8
SIZE
100
AcDbLine
 10
19.00000000001455
 20
-236.0
 30
0.0
 11
487.7135746855564
 21
-236.0000000000001
 31
0.0
  0
LINE
  5
D792
330
1E
100
AcDbEntity
  8
SIZE
100
AcDbLine
 10
40.0
 20
-198.9999999999945
 30
0.0
 11
487.7135746855564
 21
-198.9999999999946
 31
0.0
  0
LINE
  5
D793
330
1E
100
AcDbEntity
  8
SIZE
100
AcDbLine
 10
457.7135746855565
 20
-188.9999999999946
 30
0.0
 11
457.7135746855565
 21
-178.9999999999946
 31
0.0
  0
LINE
  5
D794
330
1E
100
AcDbEntity
  8
SIZE
100
AcDbLine
 10
457.7135746855565
 20
-246.0000000000001
 30
0.0
 11
457.7135746855564
 21
-389.2571428571429
 31
0.0
  0
LINE
  5
D795
330
1E
100
AcDbEntity
  8
SIZE
100
AcDbLine
 10
457.7135746855565
 20
-198.9999999999946
 30
0.0
 11
457.7135746855565
 21
-236.0000000000001
 31
0.0
  0
LINE
  5
D799
330
1E
100
AcDbEntity
  8
SIZE
100
AcDbLine
 10
-180.0
 20
-165.9999999999981
 30
0.0
 11
-180.0
 21
-375.2313657067934
 31
0.0
  0
LINE
  5
D79A
330
1E
100
AcDbEntity
  8
SIZE
100
AcDbLine
 10
-0.0000000000000012
 20
-255.0
 30
0.0
 11
-0.0000000000000086
 21
-375.2313657067934
 31
0.0
  0
LINE
  5
D79B
330
1E
100
AcDbEntity
  8
SIZE
100
AcDbLine
 10
-190.0
 20
-345.2313657067934
 30
0.0
 11
-200.0
 21
-345.2313657067934
 31
0.0
  0
LINE
  5
D79C
330
1E
100
AcDbEntity
  8
SIZE
100
AcDbLine
 10
9.999999999999992
 20
-345.2313657067934
 30
0.0
 11
19.99999999999999
 21
-345.2313657067934
 31
0.0
  0
LINE
  5
D79D
330
1E
100
AcDbEntity
  8
SIZE
100
AcDbLine
 10
-180.0
 20
-345.2313657067934
 30
0.0
 11
-0.0000000000000067
 21
-345.2313657067934
 31
0.0
  0
LINE
  5
D7A1
330
1E
100
AcDbEntity
  8
SIZE
100
AcDbLine
 10
-200.0
 20
-165.9999999999945
 30
0.0
 11
-200.0
 21
-518.0081508692019
 31
0.0
  0
LINE
  5
D7A2
330
1E
100
AcDbEntity
  8
SIZE
100
AcDbLine
 10
0.0000000000145507
 20
-255.0
 30
0.0
 11
0.0000000000145346
 21
-518.0081508692019
 31
0.0
  0
LINE
  5
D7A3
330
1E
100
AcDbEntity
  8
SIZE
100
AcDbLine
 10
-210.0
 20
-488.0081508692019
 30
0.0
 11
-220.0
 21
-488.0081508692019
 31
0.0
  0
LINE
  5
D7A4
330
1E
100
AcDbEntity
  8
SIZE
100
AcDbLine
 10
10.00000000001453
 20
-488.0081508692019
 30
0.0
 11
20.00000000001453
 21
-488.0081508692019
 31
0.0
  0
LINE
  5
D7A5
330
1E
100
AcDbEntity
  8
SIZE
100
AcDbLine
 10
-200.0
 20
-488.0081508692019
 30
0.0
 11
0.0000000000145364
 21
-488.0081508692019
 31
0.0
  0
LINE
  5
D7A9
330
1E
100
AcDbEntity
  8
SIZE
100
AcDbLine
 10
-246.3999999999941
 20
-210.0
 30
0.0
 11
-246.3999999999942
 21
-655.1438765124258
 31
0.0
  0
LINE
  5
D7AA
330
1E
100
AcDbEntity
  8
SIZE
100
AcDbLine
 10
0.0000000000145507
 20
-255.0
 30
0.0
 11
0.0000000000145262
 21
-655.1438765124258
 31
0.0
  0
LINE
  5
D7AB
330
1E
100
AcDbEntity
  8
SIZE
100
AcDbLine
 10
-236.3999999999942
 20
-625.1438765124257
 30
0.0
 11
-9.999999999985471
 21
-625.1438765124257
 31
0.0
  0
LINE
  5
D7AF
330
1E
100
AcDbEntity
  8
SIZE
100
AcDbLine
 10
-80.00003227272827
 20
40.0
 30
0.0
 11
-80.00003227272827
 21
118.0605342262788
 31
0.0
  0
LINE
  5
D7B0
330
1E
100
AcDbEntity
  8
SIZE
100
AcDbLine
 10
-399.9999990909163
 20
40.0
 30
0.0
 11
-399.9999990909163
 21
118.0605342262788
 31
0.0
  0
LINE
  5
D7B1
330
1E
100
AcDbEntity
  8
SIZE
100
AcDbLine
 10
-90.00003227272827
 20
88.06053422627883
 30
0.0
 11
-389.9999990909163
 21
88.06053422627883
 31
0.0
  0
LINE
  5
D7B5
330
1E
100
AcDbEntity
  8
SIZE
100
AcDbLine
 10
0.0000000000000012
 20
20.0
 30
0.0
 11
0.0000000000000234
 21
382.4137325057163
 31
0.0
  0
LINE
  5
D7B6
330
1E
100
AcDbEntity
  8
SIZE
100
AcDbLine
 10
-680.0
 20
-25.99999999999454
 30
0.0
 11
-680.0
 21
382.4137325057163
 31
0.0
  0
LINE
  5
D7B7
330
1E
100
AcDbEntity
  8
SIZE
100
AcDbLine
 10
-9.999999999999978
 20
352.4137325057163
 30
0.0
 11
-670.0
 21
352.4137325057163
 31
0.0
  0
LINE
  5
D7BB
330
1E
100
AcDbEntity
  8
SIZE
100
AcDbLine
 10
-190.0001799999881
 20
-235.9999999999945
 30
0.0
 11
-1081.834630791585
 21
-235.9999999999943
 31
0.0
  0
LINE
  5
D7BC
330
1E
100
AcDbEntity
  8
SIZE
100
AcDbLine
 10
-648.9999999999963
 20
0.0000000000000057
 30
0.0
 11
-1081.834630791585
 21
0.0000000000001283
 31
0.0
  0
LINE
  5
D7BD
330
1E
100
AcDbEntity
  8
SIZE
100
AcDbLine
 10
-1051.834630791585
 20
-225.9999999999942
 30
0.0
 11
-1051.834630791585
 21
-9.99999999999988
 31
0.0
  0
LINE
  5
D7C1
330
1E
100
AcDbEntity
  8
SIZE
100
AcDbLine
 10
-648.9999999999963
 20
0.0000000000000057
 30
0.0
 11
-800.9229659928022
 21
0.0000000000000487
 31
0.0
  0
LINE
  5
D7C2
330
1E
100
AcDbEntity
  8
SIZE
100
AcDbLine
 10
-690.0
 20
-40.99999999999453
 30
0.0
 11
-800.9229659928022
 21
-40.9999999999945
 31
0.0
  0
LINE
  5
D7C3
330
1E
100
AcDbEntity
  8
SIZE
100
AcDbLine
 10
-770.9229659928023
 20
-50.99999999999451
 30
0.0
 11
-770.9229659928023
 21
-60.99999999999451
 31
0.0
  0
LINE
  5
D7C4
330
1E
100
AcDbEntity
  8
SIZE
100
AcDbLine
 10
-770.9229659928023
 20
10.00000000000003
 30
0.0
 11
-770.9229659928023
 21
128.5714285714313
 31
0.0
  0
LINE
  5
D7C5
330
1E
100
AcDbEntity
  8
SIZE
100
AcDbLine
 10
-770.9229659928023
 20
-40.99999999999451
 30
0.0
 11
-770.9229659928023
 21
0.0000000000000402
 31
0.0
  0
LINE
  5
D7C9
330
1E
100
AcDbEntity
  8
SIZE
100
AcDbLine
 10
-670.0
 20
-20.99999999999454
 30
0.0
 11
-670.0
 21
126.0017896369172
 31
0.0
  0
LINE
  5
D7CA
330
1E
100
AcDbEntity
  8
SIZE
100
AcDbLine
 10
-680.0
 20
-25.99999999999454
 30
0.0
 11
-680.0
 21
126.0017896369172
 31
0.0
  0
LINE
  5
D7CB
330
1E
100
AcDbEntity
  8
SIZE
100
AcDbLine
 10
-660.0
 20
96.00178963691725
 30
0.0
 11
-650.0
 21
96.00178963691725
 31
0.0
  0
LINE
  5
D7CC
330
1E
100
AcDbEntity
  8
SIZE
100
AcDbLine
 10
-690.0
 20
96.00178963691725
 30
0.0
 11
-700.0
 21
96.00178963691725
 31
0.0
  0
LINE
  5
D7CD
330
1E
100
AcDbEntity
  8
SIZE
100
AcDbLine
 10
-670.0
 20
96.00178963691725
 30
0.0
 11
-680.0
 21
96.00178963691725
 31
0.0
  0
LINE
  5
D7D1
330
1E
100
AcDbEntity
  8
SIZE
100
AcDbLine
 10
-648.9999999999963
 20
0.0000000000000057
 30
0.0
 11
-933.0603729508238
 21
0.0000000000000861
 31
0.0
  0
LINE
  5
D7D2
330
1E
100
AcDbEntity
  8
SIZE
100
AcDbLine
 10
-700.0
 20
-45.99999999999453
 30
0.0
 11
-933.0603729508238
 21
-45.99999999999447
 31
0.0
  0
LINE
  5
D7D3
330
1E
100
AcDbEntity
  8
SIZE
100
AcDbLine
 10
-903.0603729508239
 20
-55.99999999999448
 30
0.0
 11
-903.0603729508239
 21
-65.99999999999448
 31
0.0
  0
LINE
  5
D7D4
330
1E
100
AcDbEntity
  8
SIZE
100
AcDbLine
 10
-903.0603729508239
 20
10.00000000000007
 30
0.0
 11
-903.0603729508239
 21
150.5142857142884
 31
0.0
  0
LINE
  5
D7D5
330
1E
100
AcDbEntity
  8
SIZE
100
AcDbLine
 10
-903.0603729508239
 20
-45.99999999999448
 30
0.0
 11
-903.0603729508239
 21
0.0000000000000776
 31
0.0
  0
LINE
  5
D7D9
330
1E
100
AcDbEntity
  8
SIZE
100
AcDbLine
 10
-680.0
 20
-25.99999999999454
 30
0.0
 11
-680.0
 21
254.4995261157382
 31
0.0
  0
LINE
  5
D7DA
330
1E
100
AcDbEntity
  8
SIZE
100
AcDbLine
 10
-628.9999999999963
 20
20.0
 30
0.0
 11
-628.9999999999963
 21
254.4995261157382
 31
0.0
  0
LINE
  5
D7DB
330
1E
100
AcDbEntity
  8
SIZE
100
AcDbLine
 10
-690.0
 20
224.4995261157382
 30
0.0
 11
-700.0
 21
224.4995261157382
 31
0.0
  0
LINE
  5
D7DC
330
1E
100
AcDbEntity
  8
SIZE
100
AcDbLine
 10
-618.9999999999963
 20
224.4995261157382
 30
0.0
 11
-608.9999999999963
 21
224.4995261157382
 31
0.0
  0
LINE
  5
D7DD
330
1E
100
AcDbEntity
  8
SIZE
100
AcDbLine
 10
-680.0
 20
224.4995261157382
 30
0.0
 11
-628.9999999999963
 21
224.4995261157382
 31
0.0
  0
LINE
  5
D7E1
330
1E
100
AcDbEntity
  8
SIZE
100
AcDbLine
 10
-650.4231477300891
 20
-194.7305747867421
 30
0.0
 11
-933.0603729508238
 21
-194.7305747867421
 31
0.0
  0
LINE
  5
D7E2
330
1E
100
AcDbEntity
  8
SIZE
100
AcDbLine
 10
-699.7814949999974
 20
-45.78149499999653
 30
0.0
 11
-933.0603729508238
 21
-45.78149499999646
 31
0.0
  0
LINE
  5
D7E3
330
1E
100
AcDbEntity
  8
SIZE
100
AcDbLine
 10
-903.0603729508239
 20
-204.7305747867421
 30
0.0
 11
-903.0603729508239
 21
-214.7305747867421
 31
0.0
  0
LINE
  5
D7E4
330
1E
100
AcDbEntity
  8
SIZE
100
AcDbLine
 10
-903.0603729508239
 20
-35.78149499999647
 30
0.0
 11
-903.0603729508239
 21
-25.78149499999647
 31
0.0
  0
LINE
  5
D7E5
330
1E
100
AcDbEntity
  8
SIZE
100
AcDbLine
 10
-903.0603729508239
 20
-194.7305747867421
 30
0.0
 11
-903.0603729508239
 21
-45.78149499999647
 31
0.0
  0
LINE
  5
D7E9
330
1E
100
AcDbEntity
  8
SIZE
100
AcDbLine
 10
0.0000000000000012
 20
20.0
 30
0.0
 11
0.0000000000000072
 21
118.0605342262788
 31
0.0
  0
LINE
  5
D7EA
330
1E
100
AcDbEntity
  8
SIZE
100
AcDbLine
 10
-80.00003227272827
 20
40.0
 30
0.0
 11
-80.00003227272827
 21
118.0605342262788
 31
0.0
  0
LINE
  5
D7EB
330
1E
100
AcDbEntity
  8
SIZE
100
AcDbLine
 10
10.0
 20
88.06053422627883
 30
0.0
 11
20.0
 21
88.06053422627883
 31
0.0
  0
LINE
  5
D7EC
330
1E
100
AcDbEntity
  8
SIZE
100
AcDbLine
 10
-90.00003227272827
 20
88.06053422627883
 30
0.0
 11
-100.0000322727282
 21
88.06053422627883
 31
0.0
  0
LINE
  5
D7ED
330
1E
100
AcDbEntity
  8
SIZE
100
AcDbLine
 10
0.0000000000000054
 20
88.06053422627883
 30
0.0
 11
-80.00003227272827
 21
88.06053422627883
 31
0.0
  0
LINE
  5
D7F1
330
1E
100
AcDbEntity
  8
SIZE
100
AcDbLine
 10
20.0
 20
-0.0000000000000057
 30
0.0
 11
179.9198508175395
 21
-0.000000000000051
 31
0.0
  0
LINE
  5
D7F2
330
1E
100
AcDbEntity
  8
SIZE
100
AcDbLine
 10
-155.3121199999987
 20
-125.9999999999945
 30
0.0
 11
179.9198508175395
 21
-125.9999999999946
 31
0.0
  0
LINE
  5
D7F3
330
1E
100
AcDbEntity
  8
SIZE
100
AcDbLine
 10
149.9198508175395
 20
9.999999999999957
 30
0.0
 11
149.9198508175395
 21
19.99999999999995
 31
0.0
  0
LINE
  5
D7F4
330
1E
100
AcDbEntity
  8
SIZE
100
AcDbLine
 10
149.9198508175395
 20
-135.9999999999946
 30
0.0
 11
149.9198508175395
 21
-145.9999999999946
 31
0.0
  0
LINE
  5
D7F5
330
1E
100
AcDbEntity
  8
SIZE
100
AcDbLine
 10
149.9198508175395
 20
-0.0000000000000425
 30
0.0
 11
149.9198508175395
 21
-125.9999999999946
 31
0.0
  0
LINE
  5
D7F9
330
1E
100
AcDbEntity
  8
SIZE
100
AcDbLine
 10
20.0
 20
-0.0000000000000057
 30
0.0
 11
324.6883325590825
 21
-0.000000000000092
 31
0.0
  0
LINE
  5
D7FA
330
1E
100
AcDbEntity
  8
SIZE
100
AcDbLine
 10
-216.3603199999852
 20
-190.0
 30
0.0
 11
324.6883325590824
 21
-190.0000000000001
 31
0.0
  0
LINE
  5
D7FB
330
1E
100
AcDbEntity
  8
SIZE
100
AcDbLine
 10
294.6883325590825
 20
-10.00000000000008
 30
0.0
 11
294.6883325590824
 21
-180.0000000000001
 31
0.0
  0
TEXT
  5
D7FF
330
1E
100
AcDbEntity
  8
SIZE
100
AcDbText
 10
437.7135746855564
 20
-369.2571428571428
 30
0.0
 40
64.0
  1
37
 50
90.0
 41
0.9
100
AcDbText
  0
TEXT
  5
D800
330
1E
100
AcDbEntity
  8
SIZE
100
AcDbText
 10
-195.885714285704
 20
-605.1438765124258
 30
0.0
 40
64.0
  1
246
 41
0.9
100
AcDbText
  0
CIRCLE
  5
D801
330
1E
100
AcDbEntity
  8
SIZE
100
AcDbCircle
 10
-246.3999999999942
 20
-625.1438765124257
 30
0.0
 40
5.0
  0
LINE
  5
D802
330
1E
100
AcDbEntity
  8
SIZE
100
AcDbLine
 10
-246.3999999999942
 20
-625.1438765124257
 30
0.0
 11
-236.3999999999942
 21
-625.1438765124257
 31
0.0
  0
CIRCLE
  5
D803
330
1E
100
AcDbEntity
  8
SIZE
100
AcDbCircle
 10
0.000000000014528
 20
-625.1438765124257
 30
0.0
 40
5.0
  0
LINE
  5
D804
330
1E
100
AcDbEntity
  8
SIZE
100
AcDbLine
 10
0.000000000014528
 20
-625.1438765124257
 30
0.0
 11
-9.999999999985471
 21
-625.1438765124257
 31
0.0
  0
TEXT
  5
D805
330
1E
100
AcDbEntity
  8
SIZE
100
AcDbText
 10
-175.3071428571355
 20
-468.0081508692019
 30
0.0
 40
64.0
  1
200
 41
0.9
100
AcDbText
  0
CIRCLE
  5
D806
330
1E
100
AcDbEntity
  8
SIZE
100
AcDbCircle
 10
-200.0
 20
-488.0081508692019
 30
0.0
 40
5.0
  0
LINE
  5
D807
330
1E
100
AcDbEntity
  8
SIZE
100
AcDbLine
 10
-200.0
 20
-488.0081508692019
 30
0.0
 11
-210.0
 21
-488.0081508692019
 31
0.0
  0
CIRCLE
  5
D808
330
1E
100
AcDbEntity
  8
SIZE
100
AcDbCircle
 10
-180.0
 20
-345.2313657067934
 30
0.0
 40
5.0
  0
LINE
  5
D809
330
1E
100
AcDbEntity
  8
SIZE
100
AcDbLine
 10
-180.0
 20
-345.2313657067934
 30
0.0
 11
-190.0
 21
-345.2313657067934
 31
0.0
  0
CIRCLE
  5
D80A
330
1E
100
AcDbEntity
  8
SIZE
100
AcDbCircle
 10
0.0000000000145364
 20
-488.0081508692019
 30
0.0
 40
5.0
  0
LINE
  5
D80B
330
1E
100
AcDbEntity
  8
SIZE
100
AcDbLine
 10
0.0000000000145364
 20
-488.0081508692019
 30
0.0
 11
10.00000000001453
 21
-488.0081508692019
 31
0.0
  0
CIRCLE
  5
D80C
330
1E
100
AcDbEntity
  8
SIZE
100
AcDbCircle
 10
-0.0000000000000067
 20
-345.2313657067934
 30
0.0
 40
5.0
  0
LINE
  5
D80D
330
1E
100
AcDbEntity
  8
SIZE
100
AcDbLine
 10
-0.0000000000000067
 20
-345.2313657067934
 30
0.0
 11
9.999999999999992
 21
-345.2313657067934
 31
0.0
  0
TEXT
  5
D80E
330
1E
100
AcDbEntity
  8
SIZE
100
AcDbText
 10
-414.0571428571428
 20
372.4137325057163
 30
0.0
 40
64.0
  1
680
 41
0.9
100
AcDbText
  0
TEXT
  5
D80F
330
1E
100
AcDbEntity
  8
SIZE
100
AcDbText
 10
-923.0603729508239
 20
40.00000000000262
 30
0.0
 40
64.0
  1
46
 50
90.0
 41
0.9
100
AcDbText
  0
TEXT
  5
D810
330
1E
100
AcDbEntity
  8
SIZE
100
AcDbText
 10
-716.1428571428571
 20
116.0017896369172
 30
0.0
 40
64.0
  1
10
 41
0.9
100
AcDbText
  0
CIRCLE
  5
D811
330
1E
100
AcDbEntity
  8
SIZE
100
AcDbCircle
 10
-770.9229659928023
 20
0.0000000000000402
 30
0.0
 40
5.0
  0
LINE
  5
D812
330
1E
100
AcDbEntity
  8
SIZE
100
AcDbLine
 10
-770.9229659928023
 20
0.0000000000000402
 30
0.0
 11
-770.9229659928023
 21
10.00000000000004
 31
0.0
  0
CIRCLE
  5
D813
330
1E
100
AcDbEntity
  8
SIZE
100
AcDbCircle
 10
-770.9229659928023
 20
-40.99999999999451
 30
0.0
 40
5.0
  0
LINE
  5
D814
330
1E
100
AcDbEntity
  8
SIZE
100
AcDbLine
 10
-770.9229659928023
 20
-40.99999999999451
 30
0.0
 11
-770.9229659928023
 21
-50.99999999999451
 31
0.0
  0
TEXT
  5
D815
330
1E
100
AcDbEntity
  8
SIZE
100
AcDbText
 10
-923.0603729508239
 20
-187.4560348933694
 30
0.0
 40
64.0
  1
149
 50
90.0
 41
0.9
100
AcDbText
  0
TEXT
  5
D816
330
1E
100
AcDbEntity
  8
SIZE
100
AcDbText
 10
-1071.834630791585
 20
-190.6857142857115
 30
0.0
 40
64.0
  1
236
 50
90.0
 41
0.9
100
AcDbText
  0
CIRCLE
  5
D817
330
1E
100
AcDbEntity
  8
SIZE
100
AcDbCircle
 10
-1051.834630791585
 20
-235.9999999999943
 30
0.0
 40
5.0
  0
LINE
  5
D818
330
1E
100
AcDbEntity
  8
SIZE
100
AcDbLine
 10
-1051.834630791585
 20
-235.9999999999943
 30
0.0
 11
-1051.834630791585
 21
-225.9999999999942
 31
0.0
  0
CIRCLE
  5
D819
330
1E
100
AcDbEntity
  8
SIZE
100
AcDbCircle
 10
-903.0603729508239
 20
-194.7305747867421
 30
0.0
 40
5.0
  0
LINE
  5
D81A
330
1E
100
AcDbEntity
  8
SIZE
100
AcDbLine
 10
-903.0603729508239
 20
-194.7305747867421
 30
0.0
 11
-903.0603729508239
 21
-204.7305747867421
 31
0.0
  0
CIRCLE
  5
D81B
330
1E
100
AcDbEntity
  8
SIZE
100
AcDbCircle
 10
-1051.834630791585
 20
0.0000000000001198
 30
0.0
 40
5.0
  0
LINE
  5
D81C
330
1E
100
AcDbEntity
  8
SIZE
100
AcDbLine
 10
-1051.834630791585
 20
0.0000000000001198
 30
0.0
 11
-1051.834630791585
 21
-9.99999999999988
 31
0.0
  0
CIRCLE
  5
D81D
330
1E
100
AcDbEntity
  8
SIZE
100
AcDbCircle
 10
-903.0603729508239
 20
0.0000000000000776
 30
0.0
 40
5.0
  0
LINE
  5
D81E
330
1E
100
AcDbEntity
  8
SIZE
100
AcDbLine
 10
-903.0603729508239
 20
0.0000000000000776
 30
0.0
 11
-903.0603729508239
 21
10.00000000000007
 31
0.0
  0
CIRCLE
  5
D81F
330
1E
100
AcDbEntity
  8
SIZE
100
AcDbCircle
 10
-903.0603729508239
 20
-45.78149499999647
 30
0.0
 40
5.0
  0
LINE
  5
D820
330
1E
100
AcDbEntity
  8
SIZE
100
AcDbLine
 10
-903.0603729508239
 20
-45.78149499999647
 30
0.0
 11
-903.0603729508239
 21
-35.78149499999647
 31
0.0
  0
CIRCLE
  5
D821
330
1E
100
AcDbEntity
  8
SIZE
100
AcDbCircle
 10
-903.0603729508239
 20
-45.99999999999448
 30
0.0
 40
5.0
  0
LINE
  5
D822
330
1E
100
AcDbEntity
  8
SIZE
100
AcDbLine
 10
-903.0603729508239
 20
-45.99999999999448
 30
0.0
 11
-903.0603729508239
 21
-55.99999999999448
 31
0.0
  0
TEXT
  5
D823
330
1E
100
AcDbEntity
  8
SIZE
100
AcDbText
 10
-790.9229659928024
 20
40.00000000000268
 30
0.0
 40
64.0
  1
41
 50
90.0
 41
0.9
100
AcDbText
  0
CIRCLE
  5
D824
330
1E
100
AcDbEntity
  8
SIZE
100
AcDbCircle
 10
-670.0
 20
96.00178963691725
 30
0.0
 40
5.0
  0
LINE
  5
D825
330
1E
100
AcDbEntity
  8
SIZE
100
AcDbLine
 10
-670.0
 20
96.00178963691725
 30
0.0
 11
-660.0
 21
96.00178963691725
 31
0.0
  0
CIRCLE
  5
D826
330
1E
100
AcDbEntity
  8
SIZE
100
AcDbCircle
 10
-680.0
 20
96.00178963691725
 30
0.0
 40
5.0
  0
LINE
  5
D827
330
1E
100
AcDbEntity
  8
SIZE
100
AcDbLine
 10
-680.0
 20
96.00178963691725
 30
0.0
 11
-690.0
 21
96.00178963691725
 31
0.0
  0
CIRCLE
  5
D828
330
1E
100
AcDbEntity
  8
SIZE
100
AcDbCircle
 10
-399.9999990909163
 20
88.06053422627883
 30
0.0
 40
5.0
  0
LINE
  5
D829
330
1E
100
AcDbEntity
  8
SIZE
100
AcDbLine
 10
-399.9999990909163
 20
88.06053422627883
 30
0.0
 11
-389.9999990909163
 21
88.06053422627883
 31
0.0
  0
CIRCLE
  5
D82A
330
1E
100
AcDbEntity
  8
SIZE
100
AcDbCircle
 10
-680.0
 20
352.4137325057163
 30
0.0
 40
5.0
  0
LINE
  5
D82B
330
1E
100
AcDbEntity
  8
SIZE
100
AcDbLine
 10
-680.0
 20
352.4137325057163
 30
0.0
 11
-670.0
 21
352.4137325057163
 31
0.0
  0
CIRCLE
  5
D82C
330
1E
100
AcDbEntity
  8
SIZE
100
AcDbCircle
 10
-680.0
 20
224.4995261157382
 30
0.0
 40
5.0
  0
LINE
  5
D82D
330
1E
100
AcDbEntity
  8
SIZE
100
AcDbLine
 10
-680.0
 20
224.4995261157382
 30
0.0
 11
-690.0
 21
224.4995261157382
 31
0.0
  0
CIRCLE
  5
D82E
330
1E
100
AcDbEntity
  8
SIZE
100
AcDbCircle
 10
-628.9999999999963
 20
224.4995261157382
 30
0.0
 40
5.0
  0
LINE
  5
D82F
330
1E
100
AcDbEntity
  8
SIZE
100
AcDbLine
 10
-628.9999999999963
 20
224.4995261157382
 30
0.0
 11
-618.9999999999963
 21
224.4995261157382
 31
0.0
  0
TEXT
  5
D830
330
1E
100
AcDbEntity
  8
SIZE
100
AcDbText
 10
-688.7857142857123
 20
244.4995261157382
 30
0.0
 40
64.0
  1
51
 41
0.9
100
AcDbText
  0
TEXT
  5
D831
330
1E
100
AcDbEntity
  8
SIZE
100
AcDbText
 10
-86.62858756493557
 20
108.0605342262788
 30
0.0
 40
64.0
  1
80
 41
0.9
100
AcDbText
  0
TEXT
  5
D832
330
1E
100
AcDbEntity
  8
SIZE
100
AcDbText
 10
-314.0571585389651
 20
108.0605342262788
 30
0.0
 40
64.0
  1
320
 41
0.9
100
AcDbText
  0
TEXT
  5
D833
330
1E
100
AcDbEntity
  8
SIZE
100
AcDbText
 10
-160.5714285714267
 20
-325.2313657067934
 30
0.0
 40
64.0
  1
180
 41
0.9
100
AcDbText
  0
CIRCLE
  5
D834
330
1E
100
AcDbEntity
  8
SIZE
100
AcDbCircle
 10
-80.00003227272827
 20
88.06053422627883
 30
0.0
 40
5.0
  0
LINE
  5
D835
330
1E
100
AcDbEntity
  8
SIZE
100
AcDbLine
 10
-80.00003227272827
 20
88.06053422627883
 30
0.0
 11
-90.00003227272827
 21
88.06053422627883
 31
0.0
  0
CIRCLE
  5
D836
330
1E
100
AcDbEntity
  8
SIZE
100
AcDbCircle
 10
-80.00003227272827
 20
88.06053422627883
 30
0.0
 40
5.0
  0
LINE
  5
D837
330
1E
100
AcDbEntity
  8
SIZE
100
AcDbLine
 10
-80.00003227272827
 20
88.06053422627883
 30
0.0
 11
-90.00003227272827
 21
88.06053422627883
 31
0.0
  0
CIRCLE
  5
D838
330
1E
100
AcDbEntity
  8
SIZE
100
AcDbCircle
 10
0.0000000000000054
 20
88.06053422627883
 30
0.0
 40
5.0
  0
LINE
  5
D839
330
1E
100
AcDbEntity
  8
SIZE
100
AcDbLine
 10
0.0000000000000054
 20
88.06053422627883
 30
0.0
 11
10.0
 21
88.06053422627883
 31
0.0
  0
TEXT
  5
D83A
330
1E
100
AcDbEntity
  8
SIZE
100
AcDbText
 10
274.6883325590825
 20
-163.5714285714286
 30
0.0
 40
64.0
  1
190
 50
90.0
 41
0.9
100
AcDbText
  0
TEXT
  5
D83B
330
1E
100
AcDbEntity
  8
SIZE
100
AcDbText
 10
129.9198508175395
 20
-130.1999999999973
 30
0.0
 40
64.0
  1
126
 50
90.0
 41
0.9
100
AcDbText
  0
TEXT
  5
D83C
330
1E
100
AcDbEntity
  8
SIZE
100
AcDbText
 10
437.7135746855564
 20
-181.6999999999945
 30
0.0
 40
64.0
  1
169
 50
90.0
 41
0.9
100
AcDbText
  0
CIRCLE
  5
D83D
330
1E
100
AcDbEntity
  8
SIZE
100
AcDbCircle
 10
149.9198508175395
 20
-125.9999999999946
 30
0.0
 40
5.0
  0
LINE
  5
D83E
330
1E
100
AcDbEntity
  8
SIZE
100
AcDbLine
 10
149.9198508175395
 20
-125.9999999999946
 30
0.0
 11
149.9198508175395
 21
-135.9999999999946
 31
0.0
  0
CIRCLE
  5
D83F
330
1E
100
AcDbEntity
  8
SIZE
100
AcDbCircle
 10
294.6883325590824
 20
-190.0000000000001
 30
0.0
 40
5.0
  0
LINE
  5
D840
330
1E
100
AcDbEntity
  8
SIZE
100
AcDbLine
 10
294.6883325590824
 20
-190.0000000000001
 30
0.0
 11
294.6883325590824
 21
-180.0000000000001
 31
0.0
  0
CIRCLE
  5
D841
330
1E
100
AcDbEntity
  8
SIZE
100
AcDbCircle
 10
149.9198508175395
 20
-0.0000000000000425
 30
0.0
 40
5.0
  0
LINE
  5
D842
330
1E
100
AcDbEntity
  8
SIZE
100
AcDbLine
 10
149.9198508175395
 20
-0.0000000000000425
 30
0.0
 11
149.9198508175395
 21
9.999999999999957
 31
0.0
  0
CIRCLE
  5
D843
330
1E
100
AcDbEntity
  8
SIZE
100
AcDbCircle
 10
294.6883325590825
 20
-0.0000000000000835
 30
0.0
 40
5.0
  0
LINE
  5
D844
330
1E
100
AcDbEntity
  8
SIZE
100
AcDbLine
 10
294.6883325590825
 20
-0.0000000000000835
 30
0.0
 11
294.6883325590825
 21
-10.00000000000008
 31
0.0
  0
CIRCLE
  5
D845
330
1E
100
AcDbEntity
  8
SIZE
100
AcDbCircle
 10
0.0000000000000216
 20
352.4137325057163
 30
0.0
 40
5.0
  0
LINE
  5
D846
330
1E
100
AcDbEntity
  8
SIZE
100
AcDbLine
 10
0.0000000000000216
 20
352.4137325057163
 30
0.0
 11
-9.999999999999978
 21
352.4137325057163
 31
0.0
  0
CIRCLE
  5
D847
330
1E
100
AcDbEntity
  8
SIZE
100
AcDbCircle
 10
457.7135746855565
 20
-236.0000000000001
 30
0.0
 40
5.0
  0
LINE
  5
D848
330
1E
100
AcDbEntity
  8
SIZE
100
AcDbLine
 10
457.7135746855565
 20
-236.0000000000001
 30
0.0
 11
457.7135746855565
 21
-246.0000000000001
 31
0.0
  0
CIRCLE
  5
D849
330
1E
100
AcDbEntity
  8
SIZE
100
AcDbCircle
 10
457.7135746855565
 20
-198.9999999999946
 30
0.0
 40
5.0
  0
LINE
  5
D84A
330
1E
100
AcDbEntity
  8
SIZE
100
AcDbLine
 10
457.7135746855565
 20
-198.9999999999946
 30
0.0
 11
457.7135746855565
 21
-188.9999999999946
 31
0.0
  0
CIRCLE
  5
D84B
330
1E
100
AcDbEntity
  8
SIZE
100
AcDbCircle
 10
457.7135746855565
 20
-198.9999999999946
 30
0.0
 40
5.0
  0
LINE
  5
D84C
330
1E
100
AcDbEntity
  8
SIZE
100
AcDbLine
 10
457.7135746855565
 20
-198.9999999999946
 30
0.0
 11
457.7135746855565
 21
-188.9999999999946
 31
0.0
  0
CIRCLE
  5
D84D
330
1E
100
AcDbEntity
  8
SIZE
100
AcDbCircle
 10
457.7135746855565
 20
-29.99999999999467
 30
0.0
 40
5.0
  0
LINE
  5
D84E
330
1E
100
AcDbEntity
  8
SIZE
100
AcDbLine
 10
457.7135746855565
 20
-29.99999999999467
 30
0.0
 11
457.7135746855565
 21
-39.99999999999467
 31
0.0
  0
ARC
  5
D850
330
1E
100
AcDbEntity
  8
OUTLINE
100
AcDbCircle
 10
-170.0001799999881
 20
2792.918290000001
 30
0.0
 40
2997.9183
100
AcDbArc
 50
261.0049710000021
 51
261.0784884590455
  0
LINE
  5
D852
330
1E
100
AcDbEntity
  8
OUTLINE
100
AcDbLine
 10
-674.5857899999828
 20
-40.99999999999909
 30
0.0
 11
-670.0
 21
-40.99999999999909
 31
0.0
  0
LINE
  5
D854
330
1E
100
AcDbEntity
  8
OUTLINE
100
AcDbLine
 10
-628.9999999999963
 20
0.0
 30
0.0
 11
0.0
 21
0.0
 31
0.0
  0
ARC
  5
D858
330
1E
100
AcDbEntity
  8
OUTLINE
100
AcDbCircle
 10
-170.0001799999881
 20
2792.918290000001
 30
0.0
 40
3028.918299999999
100
AcDbArc
 50
262.1169069999763
 51
270.0
  0
LINE
  5
D859
330
1E
100
AcDbEntity
  8
OUTLINE
100
AcDbLine
 10
-639.5133799999894
 20
-167.459859999999
 30
0.0
 11
-679.8045599999932
 21
-46.5863199999967
 31
0.0
  0
LINE
  5
D85A
330
1E
100
AcDbEntity
  8
OUTLINE
100
AcDbLine
 10
-630.7584999999926
 20
-193.7245200000006
 30
0.0
 11
-637.3998299999948
 21
-173.8005100000009
 31
0.0
  0
ARC
  5
D85B
330
1E
100
AcDbEntity
  8
OUTLINE
100
AcDbCircle
 10
-628.8611299999866
 20
-193.092059999999
 30
0.0
 40
2.0
100
AcDbArc
 50
198.434949000002
 51
254.3033489999789
  0
LINE
  5
D85C
330
1E
100
AcDbEntity
  8
OUTLINE
100
AcDbLine
 10
-637.3224499999923
 20
-172.9935399999976
 30
0.0
 11
-634.9212499999885
 21
-168.7303199999996
 31
0.0
  0
ARC
  5
D85D
330
1E
100
AcDbEntity
  8
OUTLINE
100
AcDbCircle
 10
-636.4511499999935
 20
-173.4842799999978
 30
0.0
 40
1.0
100
AcDbArc
 50
150.610170000001
 51
198.434949000002
  0
LINE
  5
D85E
330
1E
100
AcDbEntity
  8
OUTLINE
100
AcDbLine
 10
-639.3212499999935
 20
-168.0362599999989
 30
0.0
 11
-639.5133799999894
 21
-167.459859999999
 31
0.0
  0
ARC
  5
D85F
330
1E
100
AcDbEntity
  8
OUTLINE
100
AcDbCircle
 10
-170.0001799999881
 20
2792.918290000001
 30
0.0
 40
2997.9183
100
AcDbArc
 50
260.9933569999819
 51
261.0049710000021
  0
ARC
  5
D860
330
1E
100
AcDbEntity
  8
OUTLINE
100
AcDbCircle
 10
-638.564699999988
 20
-167.1436300000005
 30
0.0
 40
1.0
100
AcDbArc
 50
198.434949000002
 51
261.0049710000021
  0
LINE
  5
D861
330
1E
100
AcDbEntity
  8
OUTLINE
100
AcDbLine
 10
-629.4022199999926
 20
-195.0174799999967
 30
0.0
 11
-585.4231499999878
 21
-207.3766599999999
 31
0.0
  0
LINE
  5
D862
330
1E
100
AcDbEntity
  8
OUTLINE
100
AcDbLine
 10
-670.0
 20
-40.99999999999909
 30
0.0
 11
-628.9999999999963
 21
0.0
 31
0.0
  0
LINE
  5
D863
330
1E
100
AcDbEntity
  8
OUTLINE
100
AcDbLine
 10
-679.5629899999949
 20
-45.56298999999853
 30
0.0
 11
-675.2928899999824
 21
-41.29289999999855
 31
0.0
  0
LINE
  5
D864
330
1E
100
AcDbEntity
  8
OUTLINE
100
AcDbLine
 10
-680.0
 20
-45.99999999999909
 30
0.0
 11
-679.5629899999949
 21
-45.56298999999853
 31
0.0
  0
LINE
  5
D865
330
1E
100
AcDbEntity
  8
OUTLINE
100
AcDbLine
 10
-679.8045599999932
 20
-46.5863199999967
 30
0.0
 11
-680.0
 21
-45.99999999999909
 31
0.0
  0
ARC
  5
D866
330
1E
100
AcDbEntity
  8
OUTLINE
100
AcDbCircle
 10
-678.8558799999918
 20
-46.270099999997
 30
0.0
 40
1.0
100
AcDbArc
 50
135.0
 51
198.434949000002
  0
ARC
  5
D867
330
1E
100
AcDbEntity
  8
OUTLINE
100
AcDbCircle
 10
-674.5857899999828
 20
-41.99999999999818
 30
0.0
 40
1.0
100
AcDbArc
 50
90.0
 51
135.0
  0
LINE
  5
D868
330
1E
100
AcDbEntity
  8
OUTLINE
100
AcDbLine
 10
-675.2928899999824
 20
-41.29289999999855
 30
0.0
 11
-675.0
 21
-40.99999999999909
 31
0.0
  0
LINE
  5
D869
330
1E
100
AcDbEntity
  8
OUTLINE
100
AcDbLine
 10
-675.0
 20
-40.99999999999909
 30
0.0
 11
-674.5857899999828
 21
-40.99999999999909
 31
0.0
  0
LINE
  5
D872
330
1E
100
AcDbEntity
  8
OUTLINE
100
AcDbLine
 10
0.0
 20
0.0
 30
0.0
 11
0.0
 21
-235.0
 31
0.0
  0
LINE
  5
D874
330
1E
100
AcDbEntity
  8
OUTLINE
100
AcDbLine
 10
-0.999999999985448
 20
-235.999999999999
 30
0.0
 11
-170.0001799999881
 21
-235.999999999999
 31
0.0
  0
ARC
  5
D8C8
330
1E
100
AcDbEntity
  8
OUTLINE
100
AcDbCircle
 10
-0.999999999985448
 20
-235.0
 30
0.0
 40
1.0
100
AcDbArc
 50
270.0
 51
0.0
  0
ENDSEC
  0
SECTION
  2
OBJECTS
  0
DICTIONARY
  5
C
330
0
100
AcDbDictionary
  3
ACAD_GROUP
350
D
  3
ACAD_LAYOUT
350
19
  3
ACAD_MLINESTYLE
350
16
  3
ACAD_PLOTSETTINGS
350
18
  3
ACAD_PLOTSTYLENAME
350
E
  3
ACDBHEADERROUNDTRIPXREC
350
D8D6
  0
DICTIONARY
  5
D8F9
330
1E
100
AcDbDictionary
280
     1
  3
ACAD_LAYOUTSELFREF
360
D8FA
  0
DICTIONARY
  5
D8F7
330
1A
100
AcDbDictionary
280
     1
  3
ACAD_LAYOUTSELFREF
360
D8F8
  0
DICTIONARY
  5
D
102
{ACAD_REACTORS
330
C
102
}
330
C
100
AcDbDictionary
  0
DICTIONARY
  5
19
102
{ACAD_REACTORS
330
C
102
}
330
C
100
AcDbDictionary
  0
DICTIONARY
  5
16
102
{ACAD_REACTORS
330
C
102
}
330
C
100
AcDbDictionary
  3
STANDARD
350
17
  0
DICTIONARY
  5
18
102
{ACAD_REACTORS
330
C
102
}
330
C
100
AcDbDictionary
  0
ACDBDICTIONARYWDFLT
  5
E
102
{ACAD_REACTORS
330
C
102
}
330
C
100
AcDbDictionary
281
     1
  3
Normal
350
F
100
AcDbDictionaryWithDefault
340
F
  0
DICTIONARY
  5
D8D6
102
{ACAD_REACTORS
330
C
102
}
330
C
100
AcDbDictionary
  3
CEPSNTYPE
350
D8E0
  3
DIMSTYLEDATA
350
D8E4
  3
FINGERPRINTGUID
350
D8E1
  3
HYPERLINKBASE
350
D8D9
  3
INSUNITS
350
D8DF
  3
LAYOUTDICT
350
D8DB
  3
LWETCUNION
350
D8DE
  3
PLOTSETDICT
350
D8DC
  3
PLOTSTYLNAMDICT
350
D8DD
  3
PSVPSCALE
350
D8E3
  3
PUCSBASE
350
D8E7
  3
PUCSORGBACK
350
D8ED
  3
PUCSORGBOTTOM
350
D8E9
  3
PUCSORGFRONT
350
D8EC
  3
PUCSORGLEFT
350
D8EA
  3
PUCSORGRIGHT
350
D8EB
  3
PUCSORGTOP
350
D8E8
  3
PUCSORTHOREF
350
D8E5
  3
PUCSORTHOVIEW
350
D8E6
  3
STYLESHEET
350
D8DA
  3
TSTACKALIGN
350
D8D7
  3
TSTACKSIZE
350
D8D8
  3
UCSBASE
350
D8F0
  3
UCSORGBACK
350
D8F6
  3
UCSORGBOTTOM
350
D8F2
  3
UCSORGFRONT
350
D8F5
  3
UCSORGLEFT
350
D8F3
  3
UCSORGRIGHT
350
D8F4
  3
UCSORGTOP
350
D8F1
  3
UCSORTHOREF
350
D8EE
  3
UCSORTHOVIEW
350
D8EF
  3
VERSIONGUID
350
D8E2
  0
XRECORD
  5
D8FA
102
{ACAD_REACTORS
330
D8F9
102
}
330
D8F9
100
AcDbXrecord
340
1E
  0
XRECORD
  5
D8F8
102
{ACAD_REACTORS
330
D8F7
102
}
330
D8F7
100
AcDbXrecord
340
1A
  0
MLINESTYLE
  5
17
102
{ACAD_REACTORS
330
16
102
}
330
16
100
AcDbMlineStyle
  2
STANDARD
 70
     0
  3

 62
   256
 51
90.0
 52
90.0
 71
     2
 49
0.5
 62
   256
  6
BYLAYER
 49
-0.5
 62
   256
  6
BYLAYER
  0
ACDBPLACEHOLDER
  5
F
102
{ACAD_REACTORS
330
E
102
}
330
E
100
AcDbPlaceHolder
280
     0
  0
XRECORD
  5
D8E0
102
{ACAD_REACTORS
330
D8D6
102
}
330
D8D6
100
AcDbXrecord
 90
        0
  0
XRECORD
  5
D8E4
102
{ACAD_REACTORS
330
D8D6
102
}
330
D8D6
100
AcDbXrecord
1000
DSTYLE
1002
{
1070
   341
340
125
1070
   342
340
125
1002
}
  0
XRECORD
  5
D8E1
102
{ACAD_REACTORS
330
D8D6
102
}
330
D8D6
100
AcDbXrecord
  1
{A6FF70D2-A361-4CC0-B5C4-66635CB0F7A7}
  0
XRECORD
  5
D8D9
102
{ACAD_REACTORS
330
D8D6
102
}
330
D8D6
100
AcDbXrecord
  1

  0
XRECORD
  5
D8DF
102
{ACAD_REACTORS
330
D8D6
102
}
330
D8D6
100
AcDbXrecord
 90
        0
  0
XRECORD
  5
D8DB
102
{ACAD_REACTORS
330
D8D6
102
}
330
D8D6
100
AcDbXrecord
340
19
  0
XRECORD
  5
D8DE
102
{ACAD_REACTORS
330
D8D6
102
}
330
D8D6
100
AcDbXrecord
 90
     2589
  0
XRECORD
  5
D8DC
102
{ACAD_REACTORS
330
D8D6
102
}
330
D8D6
100
AcDbXrecord
340
18
  0
XRECORD
  5
D8DD
102
{ACAD_REACTORS
330
D8D6
102
}
330
D8D6
100
AcDbXrecord
340
E
  0
XRECORD
  5
D8E3
102
{ACAD_REACTORS
330
D8D6
102
}
330
D8D6
100
AcDbXrecord
 40
0.0
  0
XRECORD
  5
D8E7
102
{ACAD_REACTORS
330
D8D6
102
}
330
D8D6
100
AcDbXrecord
340
0
  0
XRECORD
  5
D8ED
102
{ACAD_REACTORS
330
D8D6
102
}
330
D8D6
100
AcDbXrecord
 10
0.0
 20
0.0
 30
0.0
  0
XRECORD
  5
D8E9
102
{ACAD_REACTORS
330
D8D6
102
}
330
D8D6
100
AcDbXrecord
 10
0.0
 20
0.0
 30
0.0
  0
XRECORD
  5
D8EC
102
{ACAD_REACTORS
330
D8D6
102
}
330
D8D6
100
AcDbXrecord
 10
0.0
 20
0.0
 30
0.0
  0
XRECORD
  5
D8EA
102
{ACAD_REACTORS
330
D8D6
102
}
330
D8D6
100
AcDbXrecord
 10
0.0
 20
0.0
 30
0.0
  0
XRECORD
  5
D8EB
102
{ACAD_REACTORS
330
D8D6
102
}
330
D8D6
100
AcDbXrecord
 10
0.0
 20
0.0
 30
0.0
  0
XRECORD
  5
D8E8
102
{ACAD_REACTORS
330
D8D6
102
}
330
D8D6
100
AcDbXrecord
 10
0.0
 20
0.0
 30
0.0
  0
XRECORD
  5
D8E5
102
{ACAD_REACTORS
330
D8D6
102
}
330
D8D6
100
AcDbXrecord
340
0
  0
XRECORD
  5
D8E6
102
{ACAD_REACTORS
330
D8D6
102
}
330
D8D6
100
AcDbXrecord
 70
     0
  0
XRECORD
  5
D8DA
102
{ACAD_REACTORS
330
D8D6
102
}
330
D8D6
100
AcDbXrecord
  1

  0
XRECORD
  5
D8D7
102
{ACAD_REACTORS
330
D8D6
102
}
330
D8D6
100
AcDbXrecord
 90
        1
  0
XRECORD
  5
D8D8
102
{ACAD_REACTORS
330
D8D6
102
}
330
D8D6
100
AcDbXrecord
 90
       70
  0
XRECORD
  5
D8F0
102
{ACAD_REACTORS
330
D8D6
102
}
330
D8D6
100
AcDbXrecord
340
0
  0
XRECORD
  5
D8F6
102
{ACAD_REACTORS
330
D8D6
102
}
330
D8D6
100
AcDbXrecord
 10
0.0
 20
0.0
 30
0.0
  0
XRECORD
  5
D8F2
102
{ACAD_REACTORS
330
D8D6
102
}
330
D8D6
100
AcDbXrecord
 10
0.0
 20
0.0
 30
0.0
  0
XRECORD
  5
D8F5
102
{ACAD_REACTORS
330
D8D6
102
}
330
D8D6
100
AcDbXrecord
 10
0.0
 20
0.0
 30
0.0
  0
XRECORD
  5
D8F3
102
{ACAD_REACTORS
330
D8D6
102
}
330
D8D6
100
AcDbXrecord
 10
0.0
 20
0.0
 30
0.0
  0
XRECORD
  5
D8F4
102
{ACAD_REACTORS
330
D8D6
102
}
330
D8D6
100
AcDbXrecord
 10
0.0
 20
0.0
 30
0.0
  0
XRECORD
  5
D8F1
102
{ACAD_REACTORS
330
D8D6
102
}
330
D8D6
100
AcDbXrecord
 10
0.0
 20
0.0
 30
0.0
  0
XRECORD
  5
D8EE
102
{ACAD_REACTORS
330
D8D6
102
}
330
D8D6
100
AcDbXrecord
340
0
  0
XRECORD
  5
D8EF
102
{ACAD_REACTORS
330
D8D6
102
}
330
D8D6
100
AcDbXrecord
 70
     0
  0
XRECORD
  5
D8E2
102
{ACAD_REACTORS
330
D8D6
102
}
330
D8D6
100
AcDbXrecord
  1
{2BFC2979-6C20-4F2A-BC57-FF55B6F2D202}
  0
ENDSEC
  0
EOF
