  0
SECTION
  2
HEADER
  9
$ACADVER
  1
AC1009
  9
$INSBASE
 10
0.0
 20
0.0
 30
0.0
  9
$EXTMIN
 10
-1044.961655999999
 20
-530.9925189999999
 30
0.0
  9
$EXTMAX
 10
1669.921714285714
 20
807.54729199999986
 30
0.0
  9
$LIMMIN
 10
-2970.0
 20
-2100.0
  9
$LIMMAX
 10
2970.0
 20
2100.0
  9
$ORTHOMODE
 70
     1
  9
$REGENMODE
 70
     1
  9
$FILLMODE
 70
     1
  9
$QTEXTMODE
 70
     0
  9
$MIRRTEXT
 70
     0
  9
$DRAGMODE
 70
     2
  9
$LTSCALE
 40
20.0
  9
$OSMODE
 70
   119
  9
$ATTMODE
 70
     1
  9
$TEXTSIZE
 40
64.0
  9
$TRACEWID
 40
0.05
  9
$TEXTSTYLE
  7
STANDARD
  9
$CLAYER
  8
DETAIL
  9
$CELTYPE
  6
CONTINUOUS
  9
$CECOLOR
 62
   256
  9
$DIMSCALE
 40
1.0
  9
$DIMASZ
 40
2.0
  9
$DIMEXO
 40
20.0
  9
$DIMDLI
 40
200.0
  9
$DIMRND
 40
0.0
  9
$DIMDLE
 40
0.0
  9
$DIMEXE
 40
30.0
  9
$DIMTP
 40
0.0
  9
$DIMTM
 40
0.0
  9
$DIMTXT
 40
64.0
  9
$DIMCEN
 40
0.09
  9
$DIMTSZ
 40
0.0
  9
$DIMTOL
 70
     0
  9
$DIMLIM
 70
     0
  9
$DIMTIH
 70
     0
  9
$DIMTOH
 70
     0
  9
$DIMSE1
 70
     0
  9
$DIMSE2
 70
     0
  9
$DIMTAD
 70
     1
  9
$DIMZIN
 70
     8
  9
$DIMBLK
  1

  9
$DIMASO
 70
     1
  9
$DIMSHO
 70
     0
  9
$DIMPOST
  1

  9
$DIMAPOST
  1

  9
$DIMALT
 70
     0
  9
$DIMALTD
 70
     2
  9
$DIMALTF
 40
25.399999999999999
  9
$DIMLFAC
 40
1.0
  9
$DIMTOFL
 70
     1
  9
$DIMTVP
 40
0.0
  9
$DIMTIX
 70
     1
  9
$DIMSOXD
 70
     0
  9
$DIMSAH
 70
     0
  9
$DIMBLK1
  1

  9
$DIMBLK2
  1

  9
$DIMSTYLE
  2
STANDARD
  9
$DIMCLRD
 70
     0
  9
$DIMCLRE
 70
     0
  9
$DIMCLRT
 70
     0
  9
$DIMTFAC
 40
1.0
  9
$DIMGAP
 40
0.09
  9
$LUNITS
 70
     2
  9
$LUPREC
 70
     4
  9
$SKETCHINC
 40
0.1
  9
$FILLETRAD
 40
20.0
  9
$AUNITS
 70
     1
  9
$AUPREC
 70
     3
  9
$MENU
  1
ACAD
  9
$ELEVATION
 40
0.0
  9
$PELEVATION
 40
0.0
  9
$THICKNESS
 40
0.0
  9
$LIMCHECK
 70
     1
  9
$BLIPMODE
 70
     0
  9
$CHAMFERA
 40
0.0
  9
$CHAMFERB
 40
0.0
  9
$SKPOLY
 70
     0
  9
$TDCREATE
 40
2450332.7759370022
  9
$TDUPDATE
 40
2453687.6181477779
  9
$TDINDWG
 40
0.0716106597
  9
$TDUSRTIMER
 40
0.0716106597
  9
$USRTIMER
 70
     1
  9
$ANGBASE
 50
0.0
  9
$ANGDIR
 70
     0
  9
$PDMODE
 70
     3
  9
$PDSIZE
 40
-2.0
  9
$PLINEWID
 40
0.0
  9
$COORDS
 70
     0
  9
$SPLFRAME
 70
     0
  9
$SPLINETYPE
 70
     6
  9
$SPLINESEGS
 70
     8
  9
$ATTDIA
 70
     0
  9
$ATTREQ
 70
     1
  9
$HANDLING
 70
-16383
  9
$HANDSEED
  5
2E5
  9
$SURFTAB1
 70
     6
  9
$SURFTAB2
 70
     6
  9
$SURFTYPE
 70
     6
  9
$SURFU
 70
     6
  9
$SURFV
 70
     6
  9
$UCSNAME
  2

  9
$UCSORG
 10
0.0
 20
0.0
 30
0.0
  9
$UCSXDIR
 10
1.0
 20
0.0
 30
0.0
  9
$UCSYDIR
 10
0.0
 20
1.0
 30
0.0
  9
$PUCSNAME
  2

  9
$PUCSORG
 10
0.0
 20
0.0
 30
0.0
  9
$PUCSXDIR
 10
1.0
 20
0.0
 30
0.0
  9
$PUCSYDIR
 10
0.0
 20
1.0
 30
0.0
  9
$USERI1
 70
     0
  9
$USERI2
 70
     0
  9
$USERI3
 70
     0
  9
$USERI4
 70
     0
  9
$USERI5
 70
     0
  9
$USERR1
 40
20.0
  9
$USERR2
 40
0.0
  9
$USERR3
 40
0.0
  9
$USERR4
 40
0.0
  9
$USERR5
 40
0.0
  9
$WORLDVIEW
 70
     1
  9
$SHADEDGE
 70
     3
  9
$SHADEDIF
 70
    70
  9
$TILEMODE
 70
     1
  9
$MAXACTVP
 70
    64
  9
$PLIMCHECK
 70
     0
  9
$PEXTMIN
 10
1.0000000000000000E+020
 20
1.0000000000000000E+020
 30
1.0000000000000000E+020
  9
$PEXTMAX
 10
-1.0000000000000000E+020
 20
-1.0000000000000000E+020
 30
-1.0000000000000000E+020
  9
$PLIMMIN
 10
0.0
 20
0.0
  9
$PLIMMAX
 10
12.0
 20
9.0
  9
$UNITMODE
 70
     0
  9
$VISRETAIN
 70
     1
  9
$PLINEGEN
 70
     0
  9
$PSLTSCALE
 70
     1
  0
ENDSEC
  0
SECTION
  2
TABLES
  0
TABLE
  2
VPORT
 70
     2
  0
VPORT
  2
*ACTIVE
 70
     0
 10
0.0
 20
0.0
 11
1.0
 21
1.0
 12
-121.00493505204849
 22
75.025831481476871
 13
0.0
 23
0.0
 14
400.0
 24
400.0
 15
400.0
 25
400.0
 16
0.0
 26
0.0
 36
1.0
 17
0.0
 27
0.0
 37
0.0
 40
3919.7526620101862
 41
1.314578005115089
 42
50.0
 43
0.0
 44
0.0
 50
0.0
 51
0.0
 71
     0
 72
   500
 73
     1
 74
     0
 75
     0
 76
     0
 77
     0
 78
     1
  0
ENDTAB
  0
TABLE
  2
LTYPE
 70
     7
  0
LTYPE
  2
CONTINUOUS
 70
     0
  3
Ä└É³
 72
    65
 73
     0
 40
0.0
  0
LTYPE
  2
DOT
 70
     0
  3
...............................................
 72
    65
 73
     2
 40
0.8
 49
0.5
 49
-0.3
  0
LTYPE
  2
DASHED
 70
     0
  3
_ _ _ _ _ _ _ _ _ _ _ _ _ _ _ _ _ _ _ _ _ _ _
 72
    65
 73
     2
 40
2.0
 49
1.1999999999999991
 49
-0.8
  0
LTYPE
  2
DASHDOT
 70
     0
  3
____ _ ____ _ ____ _ ____ _ ____ _ ____ _ ____
 72
    65
 73
     4
 40
5.5
 49
4.0
 49
-0.6
 49
0.3
 49
-0.6
  0
LTYPE
  2
DASHDOT1
 70
     0
  3
____ _ ____ _ ____ _ ____ _ ____ _ ____ _ ____
 72
    65
 73
     4
 40
2.0
 49
1.5
 49
-0.2
 49
0.1
 49
-0.2
  0
LTYPE
  2
DIVIDE
 70
     0
  3
_____ _ _ _____ _ _ _____ _ _ _____ _ _ ____
 72
    65
 73
     6
 40
6.4000000000000004
 49
4.0
 49
-0.6
 49
0.3
 49
-0.6
 49
0.3
 49
-0.6
  0
LTYPE
  2
DIVIDE1
 70
     0
  3
_____ _ _ _____ _ _ _____ _ _ _____ _ _ ____
 72
    65
 73
     6
 40
3.2000000000000002
 49
2.0
 49
-0.3
 49
0.15
 49
-0.3
 49
0.15
 49
-0.3
  0
ENDTAB
  0
TABLE
  2
LAYER
 70
    14
  0
LAYER
  2
0
 70
     0
 62
     7
  6
CONTINUOUS
  0
LAYER
  2
OUTLINE
 70
     0
 62
     3
  6
CONTINUOUS
  0
LAYER
  2
DETAIL
 70
     0
 62
     5
  6
CONTINUOUS
  0
LAYER
  2
BASIS
 70
     0
 62
     6
  6
CONTINUOUS
  0
LAYER
  2
SIZE
 70
     0
 62
    32
  6
CONTINUOUS
  0
LAYER
  2
NOTE
 70
     0
 62
     4
  6
CONTINUOUS
  0
LAYER
  2
ARRANGE
 70
     0
 62
     1
  6
CONTINUOUS
  0
LAYER
  2
DEFPOINTS
 70
     0
 62
     7
  6
CONTINUOUS
  0
LAYER
  2
FIX
 70
     0
 62
   241
  6
CONTINUOUS
  0
LAYER
  2
ETC
 70
     0
 62
    83
  6
CONTINUOUS
  0
LAYER
  2
SERVICESPACE
 70
     0
 62
     2
  6
CONTINUOUS
  0
LAYER
  2
SYMBOLLINE
 70
     0
 62
    38
  6
CONTINUOUS
  0
LAYER
  2
SERVICE_SPACE
 70
     0
 62
     2
  6
CONTINUOUS
  0
LAYER
  2
SYMBOL_LINE
 70
     0
 62
    38
  6
CONTINUOUS
  0
ENDTAB
  0
TABLE
  2
STYLE
 70
     1
  0
STYLE
  2
STANDARD
 70
     0
 40
0.0
 41
0.9
 50
0.0
 71
     0
 42
64.0
  3
SIMPLEX
  4
BIGFONT
  0
ENDTAB
  0
TABLE
  2
VIEW
 70
     1
  0
VIEW
  2
ALL
 70
     0
 40
4508.0209999999997
 10
0.0
 20
41.309903999999989
 41
6252.6319999999996
 11
0.0
 21
0.0
 31
1.0
 12
0.0
 22
0.0
 32
0.0
 42
50.0
 43
0.0
 44
0.0
 50
0.0
 71
     0
  0
ENDTAB
  0
TABLE
  2
UCS
 70
     0
  0
ENDTAB
  0
TABLE
  2
APPID
 70
     1
  0
APPID
  2
ACAD
 70
     0
  0
ENDTAB
  0
TABLE
  2
DIMSTYLE
 70
     1
  0
DIMSTYLE
  2
STANDARD
 70
     0
  3

  4

  5

  6

  7

 40
1.0
 41
0.18
 42
0.0625
 43
0.38
 44
0.18
 45
0.0
 46
0.0
 47
0.0
 48
0.0
140
0.18
141
0.09
142
0.0
143
25.399999999999999
144
1.0
145
0.0
146
1.0
147
0.09
 71
     0
 72
     0
 73
     1
 74
     1
 75
     0
 76
     0
 77
     0
 78
     0
170
     0
171
     2
172
     0
173
     0
174
     0
175
     0
176
     0
177
     0
178
     0
  0
ENDTAB
  0
ENDSEC
  0
SECTION
  2
BLOCKS
  0
BLOCK
  8
0
  2
$MODEL_SPACE
 70
     0
 10
0.0
 20
0.0
 30
0.0
  3
$MODEL_SPACE
  1

  0
ENDBLK
  5
189
  8
0
  0
BLOCK
 67
     1
  8
0
  2
$PAPER_SPACE
 70
     0
 10
0.0
 20
0.0
 30
0.0
  3
$PAPER_SPACE
  1

  0
ENDBLK
  5
185
 67
     1
  8
0
  0
BLOCK
  8
0
  2
MTEXT_0
 70
     0
 10
0.0
 20
0.0
 30
0.0
  3
MTEXT_0
  1

  0
TEXT
  5
1B9
  8
0
  6
BYBLOCK
 62
     0
 10
1179.059
 20
-46.809523809523817
 30
0.0
 40
64.0
  1
30
 50
90.0
 72
     1
 11
1179.059
 21
5.0
 31
0.0
  0
ENDBLK
  5
1BA
  8
0
  0
BLOCK
  8
0
  2
MTEXT_1
 70
     0
 10
0.0
 20
0.0
 30
0.0
  3
MTEXT_1
  1

  0
TEXT
  5
1CB
  8
0
  6
BYBLOCK
 62
     0
 10
1279.058
 20
-17.214285714285701
 30
0.0
 40
64.0
  1
17
 50
90.0
 72
     1
 11
1279.058
 21
28.5
 31
0.0
  0
ENDBLK
  5
1CC
  8
0
  0
BLOCK
  8
0
  2
MTEXT_2
 70
     0
 10
0.0
 20
0.0
 30
0.0
  3
MTEXT_2
  1

  0
TEXT
  5
1DB
  8
0
  6
BYBLOCK
 62
     0
 10
1290.168999999999
 20
38.80952380952381
 30
0.0
 40
64.0
  1
190
 50
90.0
 72
     1
 11
1290.168999999999
 21
115.0
 31
0.0
  0
ENDBLK
  5
1DC
  8
0
  0
BLOCK
  8
0
  2
MTEXT_3
 70
     0
 10
0.0
 20
0.0
 30
0.0
  3
MTEXT_3
  1

  0
TEXT
  5
1EB
  8
0
  6
BYBLOCK
 62
     0
 10
1194.3369999999991
 20
66.714285714285722
 30
0.0
 40
64.0
  1
258
 50
90.0
 72
     1
 11
1194.3369999999991
 21
149.0
 31
0.0
  0
ENDBLK
  5
1EC
  8
0
  0
BLOCK
  8
0
 62
     4
  2
12
 70
     0
 10
0.0
 20
0.0
 30
0.0
  3
12
  1

  0
LINE
  5
1EF
  8
DETAIL
  6
CONTINUOUS
 62
     4
 10
159.0
 20
0.0
 30
0.0
 11
159.0
 21
-253.0
 31
0.0
  0
ENDBLK
  5
1F0
  8
0
 62
     4
  0
ENDSEC
  0
SECTION
  2
ENTITIES
  0
LINE
  5
1F1
  8
DETAIL
  6
CONTINUOUS
 10
-475.0
 20
0.0
 30
0.0
 11
-475.0
 21
-35.0
 31
0.0
  0
LINE
  5
1F2
  8
DETAIL
  6
CONTINUOUS
 10
475.0
 20
0.0
 30
0.0
 11
475.0
 21
-35.0
 31
0.0
  0
LINE
  5
1F4
  8
DETAIL
  6
CONTINUOUS
 10
-475.0
 20
0.0
 30
0.0
 11
475.0
 21
0.0
 31
0.0
  0
LINE
  5
1F5
  8
DETAIL
  6
CONTINUOUS
 10
-420.0
 20
258.0
 30
0.0
 11
420.0
 21
258.0
 31
0.0
  0
LINE
  5
1F6
  8
DETAIL
  6
CONTINUOUS
 10
-420.0
 20
258.0
 30
0.0
 11
-420.0
 21
0.0
 31
0.0
  0
LINE
  5
1F7
  8
DETAIL
  6
CONTINUOUS
 10
420.0
 20
258.0
 30
0.0
 11
420.0
 21
0.0
 31
0.0
  0
LINE
  5
1F8
  8
BASIS
  6
DASHDOT
 10
0.0
 20
337.9592889999999
 30
0.0
 11
0.0
 21
-114.8043769999999
 31
0.0
  0
POINT
  5
1F9
  8
ARRANGE
  6
CONTINUOUS
 10
0.0
 20
0.0
 30
0.0
  0
LINE
  5
1FA
  8
BASIS
  6
DASHDOT
 10
-475.0
 20
156.0
 30
0.0
 11
135.74412000000001
 21
156.0
 31
0.0
  0
CIRCLE
  5
1FB
  8
DETAIL
  6
CONTINUOUS
 10
0.0
 20
156.0
 30
0.0
 40
50.0
  0
LINE
  5
1FD
  8
DETAIL
  6
CONTINUOUS
 10
-420.0
 20
17.0
 30
0.0
 11
420.0
 21
17.0
 31
0.0
  0
LINE
  5
1FE
  8
SIZE
  6
CONTINUOUS
 10
574.42388499999981
 20
5.1229980000000523
 30
0.0
 11
574.42388499999981
 21
-188.96357399999971
 31
0.0
  0
LINE
  5
1FF
  8
SIZE
  6
CONTINUOUS
 10
1034.8669999999991
 20
-37.187928000000049
 30
0.0
 11
1034.8669999999991
 21
-201.77450799999991
 31
0.0
  0
LINE
  5
200
  8
SIZE
  6
CONTINUOUS
 10
888.02530800000011
 20
-3.00672099999997
 30
0.0
 11
888.02530800000011
 21
-199.354297
 31
0.0
  0
LINE
  5
201
  8
SIZE
  6
CONTINUOUS
 10
-349.00320499999992
 20
463.42477099999991
 30
0.0
 11
-551.60189200000002
 21
463.42477099999991
 31
0.0
  0
TEXT
  5
202
  8
ETC
  6
CONTINUOUS
 10
1248.69514
 20
403.29914200000002
 30
0.0
 40
64.0
  1
PAC
 41
0.9
  0
TEXT
  5
203
  8
ETC
  6
CONTINUOUS
 10
1242.0360000000001
 20
243.48747299999999
 30
0.0
 40
64.0
  1
SMPL3262
 41
0.9
  0
LINE
  5
206
  8
NOTE
  6
CONTINUOUS
 10
377.0
 20
190.0
 30
0.0
 11
543.04471299999989
 21
401.93754100000001
 31
0.0
  0
LINE
  5
207
  8
NOTE
  6
CONTINUOUS
 10
543.04471299999989
 20
401.93754100000001
 30
0.0
 11
854.14770599999974
 21
401.93754100000001
 31
0.0
  0
LINE
  5
208
  8
NOTE
  6
CONTINUOUS
 10
-344.0
 20
140.0
 30
0.0
 11
-569.16540099999986
 21
-204.05432500000001
 31
0.0
  0
LINE
  5
209
  8
NOTE
  6
CONTINUOUS
 10
-571.16540099999997
 20
-204.05432500000001
 30
0.0
 11
-1041.819999999999
 21
-204.05432500000001
 31
0.0
  0
LINE
  5
20A
  8
NOTE
  6
CONTINUOUS
 10
-284.0
 20
170.0
 30
0.0
 11
-569.16540099999986
 21
-353.20365600000008
 31
0.0
  0
LINE
  5
20B
  8
NOTE
  6
CONTINUOUS
 10
-571.16540099999997
 20
-353.20365600000002
 30
0.0
 11
-957.02739099999985
 21
-353.20365600000002
 31
0.0
  0
TEXT
  5
20C
  8
NOTE
  6
CONTINUOUS
 10
592.75581099999988
 20
436.23723899999987
 30
0.0
 40
64.0
  1
DâË32
 41
0.9
  0
TEXT
  5
20D
  8
NOTE
  6
CONTINUOUS
 10
-940.57340500000032
 20
-336.0504249999999
 30
0.0
 40
64.0
  1
RLâË6.35
 41
0.9
  0
TEXT
  5
20E
  8
NOTE
  6
CONTINUOUS
 10
-1027.2080000000001
 20
-189.43890200000001
 30
0.0
 40
64.0
  1
RGâË12.7
 41
0.9
  0
TEXT
  5
20F
  8
NOTE
  6
CONTINUOUS
 10
-707.64254699999981
 20
-80.556679999999901
 30
0.0
 40
64.0
  1
AH
 41
0.9
  0
TEXT
  5
210
  8
NOTE
  6
CONTINUOUS
 10
192.0748149999998
 20
-153.43318199999999
 30
0.0
 40
64.0
  1
AH
 41
0.9
  0
LINE
  5
211
  8
NOTE
  6
CONTINUOUS
 10
405.0
 20
105.0
 30
0.0
 11
323.80913299999992
 21
-170.25083599999991
 31
0.0
  0
LINE
  5
212
  8
NOTE
  6
CONTINUOUS
 10
323.80913299999992
 20
-170.25083599999991
 30
0.0
 11
166.84909499999989
 21
-170.25083599999991
 31
0.0
  0
LINE
  5
213
  8
NOTE
  6
CONTINUOUS
 10
-405.0
 20
105.0
 30
0.0
 11
-584.31680300000005
 21
-100.177277
 31
0.0
  0
LINE
  5
214
  8
NOTE
  6
CONTINUOUS
 10
-584.31680300000005
 20
-100.177277
 30
0.0
 11
-724.45969400000001
 21
-100.177277
 31
0.0
  0
CIRCLE
  5
215
  8
DETAIL
  6
CONTINUOUS
 10
377.0
 20
190.0
 30
0.0
 40
16.0
  0
CIRCLE
  5
216
  8
ARRANGE
  6
CONTINUOUS
 10
0.0
 20
0.0
 30
0.0
 40
40.0
  0
LINE
  5
217
  8
NOTE
  6
CONTINUOUS
 10
420.0
 20
110.0
 30
0.0
 11
420.0
 21
70.0
 31
0.0
  0
LINE
  5
218
  8
NOTE
  6
CONTINUOUS
 10
400.0
 20
90.0
 30
0.0
 11
440.0
 21
90.0
 31
0.0
  0
LINE
  5
219
  8
NOTE
  6
CONTINUOUS
 10
420.0
 20
240.0
 30
0.0
 11
420.0
 21
200.0
 31
0.0
  0
LINE
  5
21A
  8
NOTE
  6
CONTINUOUS
 10
400.0
 20
220.0
 30
0.0
 11
440.0
 21
220.0
 31
0.0
  0
LINE
  5
21B
  8
NOTE
  6
CONTINUOUS
 10
-405.0
 20
125.0
 30
0.0
 11
-405.0
 21
85.0
 31
0.0
  0
LINE
  5
21C
  8
NOTE
  6
CONTINUOUS
 10
-425.0
 20
105.0
 30
0.0
 11
-385.0
 21
105.0
 31
0.0
  0
LINE
  5
21D
  8
NOTE
  6
CONTINUOUS
 10
405.0
 20
125.0
 30
0.0
 11
405.0
 21
85.0
 31
0.0
  0
LINE
  5
21E
  8
NOTE
  6
CONTINUOUS
 10
385.0
 20
105.0
 30
0.0
 11
425.0
 21
105.0
 31
0.0
  0
LINE
  5
21F
  8
NOTE
  6
CONTINUOUS
 10
377.0
 20
210.0
 30
0.0
 11
377.0
 21
170.0
 31
0.0
  0
LINE
  5
220
  8
NOTE
  6
CONTINUOUS
 10
357.0
 20
190.0
 30
0.0
 11
397.0
 21
190.0
 31
0.0
  0
LINE
  5
221
  8
NOTE
  6
CONTINUOUS
 10
0.0
 20
176.0
 30
0.0
 11
0.0
 21
136.0
 31
0.0
  0
LINE
  5
222
  8
NOTE
  6
CONTINUOUS
 10
-20.0
 20
156.0
 30
0.0
 11
20.0
 21
156.0
 31
0.0
  0
LINE
  5
223
  8
NOTE
  6
CONTINUOUS
 10
-284.0
 20
190.0
 30
0.0
 11
-284.0
 21
150.0
 31
0.0
  0
LINE
  5
224
  8
NOTE
  6
CONTINUOUS
 10
-304.0
 20
170.0
 30
0.0
 11
-264.0
 21
170.0
 31
0.0
  0
LINE
  5
225
  8
NOTE
  6
CONTINUOUS
 10
-344.0
 20
160.0
 30
0.0
 11
-344.0
 21
120.0
 31
0.0
  0
LINE
  5
226
  8
NOTE
  6
CONTINUOUS
 10
-364.0
 20
140.0
 30
0.0
 11
-324.0
 21
140.0
 31
0.0
  0
CIRCLE
  5
227
  8
FIX
  6
CONTINUOUS
 10
405.0
 20
105.0
 30
0.0
 40
40.0
  0
CIRCLE
  5
228
  8
FIX
  6
CONTINUOUS
 10
-405.0
 20
105.0
 30
0.0
 40
40.0
  0
LINE
  5
229
  8
OUTLINE
  6
CONTINUOUS
 10
420.0
 20
258.0
 30
0.0
 11
420.0
 21
0.0
 31
0.0
  0
LINE
  5
22A
  8
OUTLINE
  6
CONTINUOUS
 10
-420.0
 20
258.0
 30
0.0
 11
-420.0
 21
0.0
 31
0.0
  0
LINE
  5
22B
  8
OUTLINE
  6
CONTINUOUS
 10
-475.0
 20
0.0
 30
0.0
 11
-420.0
 21
0.0
 31
0.0
  0
LINE
  5
22D
  8
OUTLINE
  6
CONTINUOUS
 10
475.0
 20
0.0
 30
0.0
 11
475.0
 21
-35.0
 31
0.0
  0
LINE
  5
22E
  8
OUTLINE
  6
CONTINUOUS
 10
-475.0
 20
0.0
 30
0.0
 11
-475.0
 21
-35.0
 31
0.0
  0
LINE
  5
22F
  8
OUTLINE
  6
CONTINUOUS
 10
420.0
 20
0.0
 30
0.0
 11
475.0
 21
0.0
 31
0.0
  0
LINE
  5
230
  8
SIZE
  6
BYBLOCK
 10
-420.0
 20
290.0
 30
0.0
 11
-420.0
 21
741.54729199999986
 31
0.0
  0
LINE
  5
231
  8
SIZE
  6
BYBLOCK
 10
420.0
 20
290.0
 30
0.0
 11
420.0
 21
741.54729199999986
 31
0.0
  0
LINE
  5
232
  8
SIZE
  6
BYBLOCK
 10
-418.0
 20
711.54729199999997
 30
0.0
 11
418.0
 21
711.54729199999997
 31
0.0
  0
TEXT
  5
233
  8
SIZE
  6
BYBLOCK
 10
-74.057142999999982
 20
743.54729199999986
 30
0.0
 40
64.0
  1
840
 41
0.9
  0
LINE
  5
234
  8
SIZE
  6
BYBLOCK
 10
-475.0
 20
-50.0
 30
0.0
 11
-475.0
 21
-530.9925189999999
 31
0.0
  0
LINE
  5
235
  8
SIZE
  6
BYBLOCK
 10
475.0
 20
-50.0
 30
0.0
 11
475.0
 21
-530.9925189999999
 31
0.0
  0
LINE
  5
236
  8
SIZE
  6
BYBLOCK
 10
-473.0
 20
-500.99251899999967
 30
0.0
 11
473.0
 21
-500.99251899999967
 31
0.0
  0
TEXT
  5
237
  8
SIZE
  6
BYBLOCK
 10
-74.057142999999982
 20
-468.99251899999979
 30
0.0
 40
64.0
  1
950
 41
0.9
  0
LINE
  5
238
  8
SIZE
  6
BYBLOCK
 10
-405.0
 20
65.0
 30
0.0
 11
-405.0
 21
-345.28409199999982
 31
0.0
  0
LINE
  5
239
  8
SIZE
  6
BYBLOCK
 10
405.0
 20
65.0
 30
0.0
 11
405.0
 21
-345.28409199999982
 31
0.0
  0
LINE
  5
23A
  8
SIZE
  6
BYBLOCK
 10
-403.0
 20
-315.28409199999982
 30
0.0
 11
403.0
 21
-315.28409199999982
 31
0.0
  0
TEXT
  5
23B
  8
SIZE
  6
BYBLOCK
 10
-68.57142900000008
 20
-283.28409199999982
 30
0.0
 40
64.0
  1
810
 41
0.9
  0
LINE
  5
23C
  8
SIZE
  6
BYBLOCK
 10
0.0
 20
357.95928899999979
 30
0.0
 11
0.0
 21
492.62739199999982
 31
0.0
  0
LINE
  5
23D
  8
SIZE
  6
BYBLOCK
 10
377.0
 20
238.0
 30
0.0
 11
377.0
 21
492.62739199999982
 31
0.0
  0
LINE
  5
23E
  8
SIZE
  6
BYBLOCK
 10
2.0
 20
462.62739199999999
 30
0.0
 11
372.0
 21
462.62739199999999
 31
0.0
  0
TEXT
  5
23F
  8
SIZE
  6
BYBLOCK
 10
111.5714289999999
 20
494.62739199999999
 30
0.0
 40
64.0
  1
377
 41
0.9
  0
LINE
  5
240
  8
SIZE
  6
BYBLOCK
 10
-22.437186000000111
 20
113.5668439999999
 30
0.0
 11
22.437186000000111
 21
198.433156
 31
0.0
  0
LINE
  5
241
  8
SIZE
  6
BYBLOCK
 10
23.37206900000001
 20
200.2012039999999
 30
0.0
 11
103.3025079999999
 21
351.36547300000001
 31
0.0
  0
LINE
  5
242
  8
SIZE
  6
BYBLOCK
 10
103.3025079999999
 20
385.36547300000001
 30
0.0
 11
102.3676259999999
 21
383.59742499999987
 31
0.0
  0
TEXT
  5
243
  8
SIZE
  6
BYBLOCK
 10
107.3025079999998
 20
353.36547300000001
 30
0.0
 40
64.0
  1
âË100
 41
0.9
  0
LINE
  5
244
  8
SIZE
  6
BYBLOCK
 10
-0.0899999999999182
 20
156.0
 30
0.0
 11
0.0899999999999182
 21
156.0
 31
0.0
  0
LINE
  5
245
  8
SIZE
  6
BYBLOCK
 10
0.0
 20
155.90999999999991
 30
0.0
 11
0.0
 21
156.0899999999998
 31
0.0
  0
LINE
  5
246
  8
SIZE
  6
BYBLOCK
 10
-495.0
 20
0.0
 30
0.0
 11
-629.72296899999981
 21
0.0
 31
0.0
  0
LINE
  5
247
  8
SIZE
  6
BYBLOCK
 10
-386.0
 20
140.0
 30
0.0
 11
-629.72296899999981
 21
140.0
 31
0.0
  0
LINE
  5
248
  8
SIZE
  6
BYBLOCK
 10
-599.72296899999981
 20
2.0
 30
0.0
 11
-599.72296899999981
 21
70.0
 31
0.0
  0
LINE
  5
249
  8
SIZE
  6
BYBLOCK
 10
-599.72296899999981
 20
138.0
 30
0.0
 11
-599.72296899999981
 21
70.0
 31
0.0
  0
TEXT
  5
24A
  8
SIZE
  6
BYBLOCK
 10
-631.72296899999969
 20
1.4285709999999181
 30
0.0
 40
64.0
  1
140
 50
90.0
 41
0.9
  0
LINE
  5
24B
  8
SIZE
  6
BYBLOCK
 10
-495.0
 20
0.0
 30
0.0
 11
-788.173855
 21
0.0
 31
0.0
  0
LINE
  5
24C
  8
SIZE
  6
BYBLOCK
 10
-326.0
 20
170.0
 30
0.0
 11
-978.96165599999983
 21
170.0
 31
0.0
  0
LINE
  5
24D
  8
SIZE
  6
BYBLOCK
 10
-758.17385499999989
 20
2.0
 30
0.0
 11
-758.17385499999989
 21
85.0
 31
0.0
  0
LINE
  5
24E
  8
SIZE
  6
BYBLOCK
 10
-758.17385499999989
 20
156.0
 30
0.0
 11
-758.17385499999989
 21
85.0
 31
0.0
  0
TEXT
  5
24F
  8
SIZE
  6
BYBLOCK
 10
-790.173855
 20
16.42857099999992
 30
0.0
 40
64.0
  1
156
 50
90.0
 41
0.9
  0
LINE
  5
250
  8
SIZE
  6
BYBLOCK
 10
-495.0
 20
0.0
 30
0.0
 11
-978.96165599999983
 21
0.0
 31
0.0
  0
LINE
  5
251
  8
SIZE
  6
BYBLOCK
 10
-495.0
 20
156.0
 30
0.0
 11
-788.173855
 21
156.0
 31
0.0
  0
LINE
  5
252
  8
SIZE
  6
BYBLOCK
 10
-948.96165599999995
 20
2.0
 30
0.0
 11
-948.96165599999995
 21
170.0
 31
0.0
  0
TEXT
  5
253
  8
SIZE
  6
BYBLOCK
 10
-980.96165599999995
 20
26.42857099999992
 30
0.0
 40
64.0
  1
170
 50
90.0
 41
0.9
  0
LINE
  5
254
  8
SIZE
  6
BYBLOCK
 10
440.0
 20
17.0
 30
0.0
 11
918.02530799999988
 21
17.0
 31
0.0
  0
LINE
  5
255
  8
SIZE
  6
BYBLOCK
 10
495.0
 20
0.0
 30
0.0
 11
918.02530799999988
 21
0.0
 31
0.0
  0
LINE
  5
256
  8
SIZE
  6
BYBLOCK
 10
888.02530800000011
 20
15.0
 30
0.0
 11
888.02530800000011
 21
-1.5
 31
0.0
  0
LINE
  5
257
  8
SIZE
  6
BYBLOCK
 10
888.02530800000011
 20
2.0
 30
0.0
 11
888.02530800000011
 21
18.5
 31
0.0
  0
TEXT
  5
258
  8
SIZE
  6
BYBLOCK
 10
856.025308
 20
-152.2788009999999
 30
0.0
 40
64.0
  1
17
 50
90.0
 41
0.9
  0
LINE
  5
259
  8
SIZE
  6
BYBLOCK
 10
495.0
 20
-35.0
 30
0.0
 11
1064.867
 21
-35.0
 31
0.0
  0
LINE
  5
25A
  8
SIZE
  6
BYBLOCK
 10
495.0
 20
0.0
 30
0.0
 11
1064.867
 21
0.0
 31
0.0
  0
LINE
  5
25B
  8
SIZE
  6
BYBLOCK
 10
1034.8669999999991
 20
-28.0
 30
0.0
 11
1034.8669999999991
 21
-15.0
 31
0.0
  0
LINE
  5
25C
  8
SIZE
  6
BYBLOCK
 10
1034.8669999999991
 20
-2.0
 30
0.0
 11
1034.8669999999991
 21
-15.0
 31
0.0
  0
TEXT
  5
25D
  8
SIZE
  6
BYBLOCK
 10
1002.8669999999991
 20
-150.97813599999981
 30
0.0
 40
64.0
  1
35
 50
90.0
 41
0.9
  0
LINE
  5
25E
  8
SIZE
  6
BYBLOCK
 10
445.0
 20
105.0
 30
0.0
 11
604.42388499999981
 21
105.0
 31
0.0
  0
LINE
  5
25F
  8
SIZE
  6
BYBLOCK
 10
495.0
 20
0.0
 30
0.0
 11
604.42388499999981
 21
0.0
 31
0.0
  0
LINE
  5
260
  8
SIZE
  6
BYBLOCK
 10
574.42388499999981
 20
105.0
 30
0.0
 11
574.42388499999981
 21
49.0
 31
0.0
  0
LINE
  5
261
  8
SIZE
  6
BYBLOCK
 10
574.42388499999981
 20
2.0
 30
0.0
 11
574.42388499999981
 21
49.0
 31
0.0
  0
TEXT
  5
262
  8
SIZE
  6
BYBLOCK
 10
560.06761200000005
 20
-189.84595100000001
 30
0.0
 40
64.0
  1
105
 50
90.0
 41
0.9
  0
LINE
  5
263
  8
SIZE
  6
BYBLOCK
 10
387.0
 20
190.0
 30
0.0
 11
763.924623
 21
190.0
 31
0.0
  0
LINE
  5
264
  8
SIZE
  6
BYBLOCK
 10
495.0
 20
0.0
 30
0.0
 11
763.924623
 21
0.0
 31
0.0
  0
LINE
  5
265
  8
SIZE
  6
BYBLOCK
 10
733.924623
 20
190.0
 30
0.0
 11
733.924623
 21
109.0
 31
0.0
  0
LINE
  5
266
  8
SIZE
  6
BYBLOCK
 10
733.924623
 20
2.0
 30
0.0
 11
733.924623
 21
109.0
 31
0.0
  0
TEXT
  5
267
  8
SIZE
  6
BYBLOCK
 10
701.924623
 20
42.197946000000002
 30
0.0
 40
64.0
  1
190
 50
90.0
 41
0.9
  0
LINE
  5
268
  8
SIZE
  6
BYBLOCK
 10
440.0
 20
17.0
 30
0.0
 11
918.3618459999999
 21
17.0
 31
0.0
  0
LINE
  5
269
  8
SIZE
  6
BYBLOCK
 10
888.36184600000001
 20
258.0
 30
0.0
 11
888.36184600000001
 21
143.5
 31
0.0
  0
LINE
  5
26A
  8
SIZE
  6
BYBLOCK
 10
888.36184600000001
 20
19.0
 30
0.0
 11
888.36184600000001
 21
143.5
 31
0.0
  0
TEXT
  5
26B
  8
SIZE
  6
BYBLOCK
 10
856.36184600000001
 20
69.442857000000004
 30
0.0
 40
64.0
  1
241
 50
90.0
 41
0.9
  0
LINE
  5
26C
  8
SIZE
  6
BYBLOCK
 10
495.0
 20
0.0
 30
0.0
 11
1065.204
 21
0.0
 31
0.0
  0
LINE
  5
26D
  8
SIZE
  6
BYBLOCK
 10
1035.204
 20
258.0
 30
0.0
 11
1035.204
 21
125.0
 31
0.0
  0
LINE
  5
26E
  8
SIZE
  6
BYBLOCK
 10
1035.204
 20
2.0
 30
0.0
 11
1035.204
 21
145.0
 31
0.0
  0
TEXT
  5
26F
  8
SIZE
  6
BYBLOCK
 10
1003.203999999999
 20
50.942856999999997
 30
0.0
 40
64.0
  1
258
 50
90.0
 41
0.9
  0
LINE
  5
270
  8
SIZE
  6
BYBLOCK
 10
-284.0
 20
190.0
 30
0.0
 11
-284.0
 21
493.42477100000002
 31
0.0
  0
LINE
  5
271
  8
SIZE
  6
BYBLOCK
 10
-344.0
 20
160.0
 30
0.0
 11
-344.0
 21
493.42477100000002
 31
0.0
  0
LINE
  5
272
  8
SIZE
  6
BYBLOCK
 10
-286.0
 20
463.42477099999991
 30
0.0
 11
-314.0
 21
463.42477099999991
 31
0.0
  0
LINE
  5
273
  8
SIZE
  6
BYBLOCK
 10
-342.0
 20
463.42477099999991
 30
0.0
 11
-314.0
 21
463.42477099999991
 31
0.0
  0
TEXT
  5
274
  8
SIZE
  6
BYBLOCK
 10
-486.88426600000003
 20
495.42477099999979
 30
0.0
 40
64.0
  1
60
 41
0.9
  0
LINE
  5
275
  8
SIZE
  6
BYBLOCK
 10
0.0
 20
357.95928899999979
 30
0.0
 11
0.0
 21
493.42477100000002
 31
0.0
  0
LINE
  5
276
  8
SIZE
  6
BYBLOCK
 10
-284.0
 20
190.0
 30
0.0
 11
-284.0
 21
493.42477100000002
 31
0.0
  0
LINE
  5
277
  8
SIZE
  6
BYBLOCK
 10
-2.0
 20
463.42477099999991
 30
0.0
 11
-143.0
 21
463.42477099999991
 31
0.0
  0
LINE
  5
278
  8
SIZE
  6
BYBLOCK
 10
-284.0
 20
463.42477099999991
 30
0.0
 11
-143.0
 21
463.42477099999991
 31
0.0
  0
TEXT
  5
279
  8
SIZE
  6
BYBLOCK
 10
-215.6857139999999
 20
495.42477099999979
 30
0.0
 40
64.0
  1
284
 41
0.9
  0
CIRCLE
  5
27A
  8
SIZE
  6
CONTINUOUS
 10
-284.0
 20
463.42477099999991
 30
0.0
 40
6.0
  0
CIRCLE
  5
27B
  8
SIZE
  6
CONTINUOUS
 10
0.0
 20
463.42477099999991
 30
0.0
 40
6.0
  0
CIRCLE
  5
27C
  8
SIZE
  6
CONTINUOUS
 10
-344.0
 20
463.42477099999991
 30
0.0
 40
6.0
  0
CIRCLE
  5
27D
  8
SIZE
  6
CONTINUOUS
 10
-284.0
 20
463.42477099999991
 30
0.0
 40
6.0
  0
CIRCLE
  5
27E
  8
SIZE
  6
CONTINUOUS
 10
1035.204
 20
0.0
 30
0.0
 40
6.0
  0
CIRCLE
  5
27F
  8
SIZE
  6
CONTINUOUS
 10
1035.204
 20
258.0
 30
0.0
 40
6.0
  0
CIRCLE
  5
280
  8
SIZE
  6
CONTINUOUS
 10
888.36184600000001
 20
17.0
 30
0.0
 40
6.0
  0
CIRCLE
  5
281
  8
SIZE
  6
CONTINUOUS
 10
888.36184600000001
 20
258.0
 30
0.0
 40
6.0
  0
CIRCLE
  5
282
  8
SIZE
  6
CONTINUOUS
 10
733.924623
 20
0.0
 30
0.0
 40
6.0
  0
CIRCLE
  5
283
  8
SIZE
  6
CONTINUOUS
 10
733.924623
 20
190.0
 30
0.0
 40
6.0
  0
CIRCLE
  5
284
  8
SIZE
  6
CONTINUOUS
 10
574.42388499999981
 20
0.0
 30
0.0
 40
6.0
  0
CIRCLE
  5
285
  8
SIZE
  6
CONTINUOUS
 10
574.42388499999981
 20
105.0
 30
0.0
 40
6.0
  0
CIRCLE
  5
286
  8
SIZE
  6
CONTINUOUS
 10
1034.8669999999991
 20
0.0
 30
0.0
 40
6.0
  0
CIRCLE
  5
287
  8
SIZE
  6
CONTINUOUS
 10
1034.8669999999991
 20
-35.0
 30
0.0
 40
6.0
  0
CIRCLE
  5
288
  8
SIZE
  6
CONTINUOUS
 10
888.02530800000011
 20
0.0
 30
0.0
 40
6.0
  0
CIRCLE
  5
289
  8
SIZE
  6
CONTINUOUS
 10
888.02530800000011
 20
17.0
 30
0.0
 40
6.0
  0
CIRCLE
  5
28A
  8
SIZE
  6
CONTINUOUS
 10
-948.96165599999995
 20
170.0
 30
0.0
 40
6.0
  0
CIRCLE
  5
28B
  8
SIZE
  6
CONTINUOUS
 10
-948.96165599999995
 20
0.0
 30
0.0
 40
6.0
  0
CIRCLE
  5
28C
  8
SIZE
  6
CONTINUOUS
 10
-758.17385499999989
 20
156.0
 30
0.0
 40
6.0
  0
CIRCLE
  5
28D
  8
SIZE
  6
CONTINUOUS
 10
-758.17385499999989
 20
0.0
 30
0.0
 40
6.0
  0
CIRCLE
  5
28E
  8
SIZE
  6
CONTINUOUS
 10
-599.72296899999981
 20
140.0
 30
0.0
 40
6.0
  0
CIRCLE
  5
28F
  8
SIZE
  6
CONTINUOUS
 10
-599.72296899999981
 20
0.0
 30
0.0
 40
6.0
  0
CIRCLE
  5
290
  8
SIZE
  6
CONTINUOUS
 10
23.37206900000001
 20
200.2012039999999
 30
0.0
 40
6.0
  0
CIRCLE
  5
291
  8
SIZE
  6
CONTINUOUS
 10
-23.37206900000001
 20
111.798796
 30
0.0
 40
6.0
  0
CIRCLE
  5
292
  8
SIZE
  6
CONTINUOUS
 10
377.0
 20
462.62739199999999
 30
0.0
 40
6.0
  0
CIRCLE
  5
293
  8
SIZE
  6
CONTINUOUS
 10
0.0
 20
462.62739199999999
 30
0.0
 40
6.0
  0
CIRCLE
  5
294
  8
SIZE
  6
CONTINUOUS
 10
405.0
 20
-315.28409199999982
 30
0.0
 40
6.0
  0
CIRCLE
  5
295
  8
SIZE
  6
CONTINUOUS
 10
-405.0
 20
-315.28409199999982
 30
0.0
 40
6.0
  0
CIRCLE
  5
296
  8
SIZE
  6
CONTINUOUS
 10
475.0
 20
-500.99251899999967
 30
0.0
 40
6.0
  0
CIRCLE
  5
297
  8
SIZE
  6
CONTINUOUS
 10
-475.0
 20
-500.99251899999967
 30
0.0
 40
6.0
  0
CIRCLE
  5
298
  8
SIZE
  6
CONTINUOUS
 10
420.0
 20
711.54729199999997
 30
0.0
 40
6.0
  0
CIRCLE
  5
299
  8
SIZE
  6
CONTINUOUS
 10
-420.0
 20
711.54729199999997
 30
0.0
 40
6.0
  0
POLYLINE
  5
29A
  8
NOTE
  6
CONTINUOUS
 66
     1
 10
0.0
 20
0.0
 30
0.0
  0
VERTEX
  5
2D1
  8
NOTE
  6
CONTINUOUS
 10
403.76336199999992
 20
65.01911999999993
 30
0.0
  0
VERTEX
  5
2D2
  8
NOTE
  6
CONTINUOUS
 10
405.0
 20
105.0
 30
0.0
  0
VERTEX
  5
2D3
  8
NOTE
  6
CONTINUOUS
 10
383.93860000000001
 20
70.993862000000036
 30
0.0
  0
SEQEND
  5
2D4
  8
NOTE
  6
CONTINUOUS
  0
POLYLINE
  5
29F
  8
NOTE
  6
CONTINUOUS
 66
     1
 10
0.0
 20
0.0
 30
0.0
  0
VERTEX
  5
2D5
  8
NOTE
  6
CONTINUOUS
 10
-425.22871799999979
 20
70.492044999999933
 30
0.0
  0
VERTEX
  5
2D6
  8
NOTE
  6
CONTINUOUS
 10
-405.0
 20
105.0
 30
0.0
  0
VERTEX
  5
2D7
  8
NOTE
  6
CONTINUOUS
 10
-439.77256100000011
 20
85.229592999999994
 30
0.0
  0
SEQEND
  5
2D8
  8
NOTE
  6
CONTINUOUS
  0
POLYLINE
  5
2A4
  8
NOTE
  6
CONTINUOUS
 66
     1
 10
0.0
 20
0.0
 30
0.0
  0
VERTEX
  5
2D9
  8
NOTE
  6
CONTINUOUS
 10
391.602912
 20
227.2391589999998
 30
0.0
  0
VERTEX
  5
2DA
  8
NOTE
  6
CONTINUOUS
 10
377.0
 20
190.0
 30
0.0
  0
VERTEX
  5
2DB
  8
NOTE
  6
CONTINUOUS
 10
408.26607199999989
 20
214.94860199999991
 30
0.0
  0
SEQEND
  5
2DC
  8
NOTE
  6
CONTINUOUS
  0
POLYLINE
  5
2A9
  8
NOTE
  6
CONTINUOUS
 66
     1
 10
0.0
 20
0.0
 30
0.0
  0
VERTEX
  5
2DD
  8
NOTE
  6
CONTINUOUS
 10
-292.88245999999998
 20
130.9986929999998
 30
0.0
  0
VERTEX
  5
2DE
  8
NOTE
  6
CONTINUOUS
 10
-284.0
 20
170.0
 30
0.0
  0
VERTEX
  5
2DF
  8
NOTE
  6
CONTINUOUS
 10
-311.19308899999999
 20
140.6651079999998
 30
0.0
  0
SEQEND
  5
2E0
  8
NOTE
  6
CONTINUOUS
  0
POLYLINE
  5
2AE
  8
NOTE
  6
CONTINUOUS
 66
     1
 10
0.0
 20
0.0
 30
0.0
  0
VERTEX
  5
2E1
  8
NOTE
  6
CONTINUOUS
 10
-356.64073599999978
 20
102.04987800000001
 30
0.0
  0
VERTEX
  5
2E2
  8
NOTE
  6
CONTINUOUS
 10
-344.0
 20
140.0
 30
0.0
  0
VERTEX
  5
2E3
  8
NOTE
  6
CONTINUOUS
 10
-373.92225999999999
 20
113.454598
 30
0.0
  0
SEQEND
  5
2E4
  8
NOTE
  6
CONTINUOUS
  0
LINE
  5
2B3
  8
OUTLINE
  6
CONTINUOUS
 10
-420.0
 20
258.0
 30
0.0
 11
420.0
 21
258.0
 31
0.0
  0
LINE
  5
2B4
  8
SIZE
  6
BYBLOCK
 10
440.0
 20
258.0
 30
0.0
 11
1065.204
 21
258.0
 31
0.0
  0
LINE
  5
2B5
  8
NOTE
  6
CONTINUOUS
 10
-440.0
 20
90.0
 30
0.0
 11
-400.0
 21
90.0
 31
0.0
  0
LINE
  5
2B6
  8
NOTE
  6
CONTINUOUS
 10
-420.0
 20
110.0
 30
0.0
 11
-420.0
 21
70.0
 31
0.0
  0
LINE
  5
2B7
  8
NOTE
  6
CONTINUOUS
 10
-440.0
 20
220.0
 30
0.0
 11
-400.0
 21
220.0
 31
0.0
  0
LINE
  5
2B8
  8
NOTE
  6
CONTINUOUS
 10
-420.0
 20
240.0
 30
0.0
 11
-420.0
 21
200.0
 31
0.0
  0
LINE
  5
2BB
  8
DETAIL
  6
CONTINUOUS
 10
260.0
 20
258.0
 30
0.0
 11
260.0
 21
0.0
 31
0.0
  0
LINE
  5
2BC
  8
DETAIL
  6
CONTINUOUS
 10
-260.0
 20
258.0
 30
0.0
 11
-260.0
 21
0.0
 31
0.0
  0
LINE
  5
2BF
  8
DETAIL
  6
CONTINUOUS
 10
-475.0
 20
-35.0
 30
0.0
 11
475.0
 21
-35.0
 31
0.0
  0
LINE
  5
2C0
  8
OUTLINE
  6
CONTINUOUS
 10
-475.0
 20
-35.0
 30
0.0
 11
475.0
 21
-35.0
 31
0.0
  0
CIRCLE
  5
2C6
  8
DETAIL
  6
CONTINUOUS
 10
-284.0
 20
170.0
 30
0.0
 40
3.1749999999999989
  0
CIRCLE
  5
2C7
  8
DETAIL
  6
CONTINUOUS
 10
-344.0
 20
140.0
 30
0.0
 40
6.3499999999999988
  0
ENDSEC
  0
EOF
