  0
SECTION
  2
HEADER
  9
$ACADVER
  1
AC1009
  9
$INSBASE
 10
0.0
 20
0.0
 30
0.0
  9
$EXTMIN
 10
-617.28075399999989
 20
-373.99237999999991
 30
0.0
  9
$EXTMAX
 10
1456.8397142857141
 20
449.38535499999978
 30
0.0
  9
$LIMMIN
 10
-2970.0
 20
-2100.0
  9
$LIMMAX
 10
2970.0
 20
2100.0
  9
$ORTHOMODE
 70
     1
  9
$REGENMODE
 70
     0
  9
$FILLMODE
 70
     1
  9
$QTEXTMODE
 70
     0
  9
$MIRRTEXT
 70
     0
  9
$DRAGMODE
 70
     2
  9
$LTSCALE
 40
20.0
  9
$OSMODE
 70
   119
  9
$ATTMODE
 70
     1
  9
$TEXTSIZE
 40
64.0
  9
$TRACEWID
 40
0.05
  9
$TEXTSTYLE
  7
STANDARD
  9
$CLAYER
  8
0
  9
$CELTYPE
  6
CONTINUOUS
  9
$CECOLOR
 62
     4
  9
$DIMSCALE
 40
1.0
  9
$DIMASZ
 40
2.0
  9
$DIMEXO
 40
20.0
  9
$DIMDLI
 40
200.0
  9
$DIMRND
 40
0.0
  9
$DIMDLE
 40
0.0
  9
$DIMEXE
 40
30.0
  9
$DIMTP
 40
0.0
  9
$DIMTM
 40
0.0
  9
$DIMTXT
 40
64.0
  9
$DIMCEN
 40
0.09
  9
$DIMTSZ
 40
0.0
  9
$DIMTOL
 70
     0
  9
$DIMLIM
 70
     0
  9
$DIMTIH
 70
     0
  9
$DIMTOH
 70
     0
  9
$DIMSE1
 70
     0
  9
$DIMSE2
 70
     0
  9
$DIMTAD
 70
     1
  9
$DIMZIN
 70
     8
  9
$DIMBLK
  1

  9
$DIMASO
 70
     1
  9
$DIMSHO
 70
     0
  9
$DIMPOST
  1

  9
$DIMAPOST
  1

  9
$DIMALT
 70
     0
  9
$DIMALTD
 70
     2
  9
$DIMALTF
 40
25.399999999999999
  9
$DIMLFAC
 40
1.0
  9
$DIMTOFL
 70
     1
  9
$DIMTVP
 40
0.0
  9
$DIMTIX
 70
     1
  9
$DIMSOXD
 70
     0
  9
$DIMSAH
 70
     0
  9
$DIMBLK1
  1

  9
$DIMBLK2
  1

  9
$DIMSTYLE
  2
STANDARD
  9
$DIMCLRD
 70
     0
  9
$DIMCLRE
 70
     0
  9
$DIMCLRT
 70
     0
  9
$DIMTFAC
 40
1.0
  9
$DIMGAP
 40
0.09
  9
$LUNITS
 70
     2
  9
$LUPREC
 70
     4
  9
$SKETCHINC
 40
0.1
  9
$FILLETRAD
 40
20.0
  9
$AUNITS
 70
     1
  9
$AUPREC
 70
     3
  9
$MENU
  1
ACAD
  9
$ELEVATION
 40
0.0
  9
$PELEVATION
 40
0.0
  9
$THICKNESS
 40
0.0
  9
$LIMCHECK
 70
     0
  9
$BLIPMODE
 70
     0
  9
$CHAMFERA
 40
0.0
  9
$CHAMFERB
 40
0.0
  9
$SKPOLY
 70
     0
  9
$TDCREATE
 40
2450332.7760649999
  9
$TDUPDATE
 40
2453687.6228155671
  9
$TDINDWG
 40
0.1364145139
  9
$TDUSRTIMER
 40
0.1364141435
  9
$USRTIMER
 70
     1
  9
$ANGBASE
 50
0.0
  9
$ANGDIR
 70
     0
  9
$PDMODE
 70
     3
  9
$PDSIZE
 40
-2.0
  9
$PLINEWID
 40
0.0
  9
$COORDS
 70
     0
  9
$SPLFRAME
 70
     0
  9
$SPLINETYPE
 70
     6
  9
$SPLINESEGS
 70
     8
  9
$ATTDIA
 70
     0
  9
$ATTREQ
 70
     1
  9
$HANDLING
 70
-16383
  9
$HANDSEED
  5
18D
  9
$SURFTAB1
 70
     6
  9
$SURFTAB2
 70
     6
  9
$SURFTYPE
 70
     6
  9
$SURFU
 70
     6
  9
$SURFV
 70
     6
  9
$UCSNAME
  2

  9
$UCSORG
 10
0.0
 20
0.0
 30
0.0
  9
$UCSXDIR
 10
1.0
 20
0.0
 30
0.0
  9
$UCSYDIR
 10
0.0
 20
1.0
 30
0.0
  9
$PUCSNAME
  2

  9
$PUCSORG
 10
0.0
 20
0.0
 30
0.0
  9
$PUCSXDIR
 10
1.0
 20
0.0
 30
0.0
  9
$PUCSYDIR
 10
0.0
 20
1.0
 30
0.0
  9
$USERI1
 70
     0
  9
$USERI2
 70
     0
  9
$USERI3
 70
     0
  9
$USERI4
 70
     0
  9
$USERI5
 70
     0
  9
$USERR1
 40
20.0
  9
$USERR2
 40
0.0
  9
$USERR3
 40
0.0
  9
$USERR4
 40
0.0
  9
$USERR5
 40
0.0
  9
$WORLDVIEW
 70
     1
  9
$SHADEDGE
 70
     3
  9
$SHADEDIF
 70
    70
  9
$TILEMODE
 70
     1
  9
$MAXACTVP
 70
    64
  9
$PLIMCHECK
 70
     0
  9
$PEXTMIN
 10
1.0000000000000000E+020
 20
1.0000000000000000E+020
 30
1.0000000000000000E+020
  9
$PEXTMAX
 10
-1.0000000000000000E+020
 20
-1.0000000000000000E+020
 30
-1.0000000000000000E+020
  9
$PLIMMIN
 10
0.0
 20
0.0
  9
$PLIMMAX
 10
12.0
 20
9.0
  9
$UNITMODE
 70
     0
  9
$VISRETAIN
 70
     1
  9
$PLINEGEN
 70
     0
  9
$PSLTSCALE
 70
     1
  0
ENDSEC
  0
SECTION
  2
TABLES
  0
TABLE
  2
VPORT
 70
     2
  0
VPORT
  2
*ACTIVE
 70
     0
 10
0.0
 20
0.0
 11
1.0
 21
1.0
 12
334.35350190923867
 22
-62.40703726778338
 13
0.0
 23
0.0
 14
400.0
 24
400.0
 15
200.0
 25
200.0
 16
0.0
 26
0.0
 36
1.0
 17
0.0
 27
0.0
 37
0.0
 40
1919.363284214025
 41
1.314578005115089
 42
50.0
 43
0.0
 44
0.0
 50
0.0
 51
0.0
 71
     0
 72
   500
 73
     1
 74
     0
 75
     0
 76
     0
 77
     0
 78
     1
  0
ENDTAB
  0
TABLE
  2
LTYPE
 70
     7
  0
LTYPE
  2
CONTINUOUS
 70
     0
  3
実線
 72
    65
 73
     0
 40
0.0
  0
LTYPE
  2
DOT
 70
     0
  3
...............................................
 72
    65
 73
     2
 40
0.8
 49
0.5
 49
-0.3
  0
LTYPE
  2
DASHED
 70
     0
  3
_ _ _ _ _ _ _ _ _ _ _ _ _ _ _ _ _ _ _ _ _ _ _
 72
    65
 73
     2
 40
2.0
 49
1.1999999999999991
 49
-0.8
  0
LTYPE
  2
DASHDOT
 70
     0
  3
____ _ ____ _ ____ _ ____ _ ____ _ ____ _ ____
 72
    65
 73
     4
 40
5.5
 49
4.0
 49
-0.6
 49
0.3
 49
-0.6
  0
LTYPE
  2
DASHDOT1
 70
     0
  3
____ _ ____ _ ____ _ ____ _ ____ _ ____ _ ____
 72
    65
 73
     4
 40
2.0
 49
1.5
 49
-0.2
 49
0.1
 49
-0.2
  0
LTYPE
  2
DIVIDE
 70
     0
  3
_____ _ _ _____ _ _ _____ _ _ _____ _ _ ____
 72
    65
 73
     6
 40
6.4000000000000004
 49
4.0
 49
-0.6
 49
0.3
 49
-0.6
 49
0.3
 49
-0.6
  0
LTYPE
  2
DIVIDE1
 70
     0
  3
_____ _ _ _____ _ _ _____ _ _ _____ _ _ ____
 72
    65
 73
     6
 40
3.2000000000000002
 49
2.0
 49
-0.3
 49
0.15
 49
-0.3
 49
0.15
 49
-0.3
  0
ENDTAB
  0
TABLE
  2
LAYER
 70
    14
  0
LAYER
  2
0
 70
     0
 62
     7
  6
CONTINUOUS
  0
LAYER
  2
OUTLINE
 70
     0
 62
     3
  6
CONTINUOUS
  0
LAYER
  2
DETAIL
 70
     0
 62
     5
  6
CONTINUOUS
  0
LAYER
  2
BASIS
 70
     0
 62
     6
  6
CONTINUOUS
  0
LAYER
  2
SIZE
 70
     0
 62
    32
  6
CONTINUOUS
  0
LAYER
  2
NOTE
 70
     0
 62
     4
  6
CONTINUOUS
  0
LAYER
  2
ARRANGE
 70
     0
 62
     1
  6
CONTINUOUS
  0
LAYER
  2
DEFPOINTS
 70
     0
 62
     7
  6
CONTINUOUS
  0
LAYER
  2
FIX
 70
     0
 62
   241
  6
CONTINUOUS
  0
LAYER
  2
ETC
 70
     0
 62
    83
  6
CONTINUOUS
  0
LAYER
  2
SERVICESPACE
 70
     0
 62
     2
  6
CONTINUOUS
  0
LAYER
  2
SYMBOLLINE
 70
     0
 62
    38
  6
CONTINUOUS
  0
LAYER
  2
SERVICE_SPACE
 70
     0
 62
     2
  6
CONTINUOUS
  0
LAYER
  2
SYMBOL_LINE
 70
     0
 62
    38
  6
CONTINUOUS
  0
ENDTAB
  0
TABLE
  2
STYLE
 70
     1
  0
STYLE
  2
STANDARD
 70
     0
 40
0.0
 41
0.9
 50
0.0
 71
     0
 42
64.0
  3
SIMPLEX
  4
BIGFONT
  0
ENDTAB
  0
TABLE
  2
VIEW
 70
     1
  0
VIEW
  2
ALL
 70
     0
 40
4282.6199999999999
 10
0.0
 20
41.309903999999989
 41
5940.0
 11
0.0
 21
0.0
 31
1.0
 12
0.0
 22
0.0
 32
0.0
 42
50.0
 43
0.0
 44
0.0
 50
0.0
 71
     0
  0
ENDTAB
  0
TABLE
  2
UCS
 70
     0
  0
ENDTAB
  0
TABLE
  2
APPID
 70
     1
  0
APPID
  2
ACAD
 70
     0
  0
ENDTAB
  0
TABLE
  2
DIMSTYLE
 70
     1
  0
DIMSTYLE
  2
STANDARD
 70
     0
  3

  4

  5

  6

  7

 40
1.0
 41
0.18
 42
0.0625
 43
0.38
 44
0.18
 45
0.0
 46
0.0
 47
0.0
 48
0.0
140
0.18
141
0.09
142
0.0
143
25.399999999999999
144
1.0
145
0.0
146
1.0
147
0.09
 71
     0
 72
     0
 73
     1
 74
     1
 75
     0
 76
     0
 77
     0
 78
     0
170
     0
171
     2
172
     0
173
     0
174
     0
175
     0
176
     0
177
     0
178
     0
  0
ENDTAB
  0
ENDSEC
  0
SECTION
  2
BLOCKS
  0
BLOCK
  8
0
  2
$MODEL_SPACE
 70
     0
 10
0.0
 20
0.0
 30
0.0
  3
$MODEL_SPACE
  1

  0
ENDBLK
  5
20
  8
0
  0
BLOCK
 67
     1
  8
0
  2
$PAPER_SPACE
 70
     0
 10
0.0
 20
0.0
 30
0.0
  3
$PAPER_SPACE
  1

  0
ENDBLK
  5
1C
 67
     1
  8
0
  0
BLOCK
  8
0
  2
MTEXT_0
 70
     0
 10
0.0
 20
0.0
 30
0.0
  3
MTEXT_0
  1

  0
TEXT
  5
4D
  8
0
  6
BYBLOCK
 62
     0
 10
-651.29131199999995
 20
72.714285714285722
 30
0.0
 40
64.0
  1
270
 50
90.0
 72
     1
 11
-651.29131199999995
 21
155.0
 31
0.0
  0
ENDBLK
  5
4E
  8
0
  0
BLOCK
  8
0
  2
MTEXT_1
 70
     0
 10
0.0
 20
0.0
 30
0.0
  3
MTEXT_1
  1

  0
TEXT
  5
5D
  8
0
  6
BYBLOCK
 62
     0
 10
894.87978399999986
 20
66.714285714285722
 30
0.0
 40
64.0
  1
258
 50
90.0
 72
     1
 11
894.87978399999986
 21
149.0
 31
0.0
  0
ENDBLK
  5
5E
  8
0
  0
BLOCK
  8
0
  2
MTEXT_2
 70
     0
 10
0.0
 20
0.0
 30
0.0
  3
MTEXT_2
  1

  0
TEXT
  5
6D
  8
0
  6
BYBLOCK
 62
     0
 10
-680.76568199999997
 20
23.333333333333339
 30
0.0
 40
64.0
  1
156
 50
90.0
 72
     1
 11
-680.76568199999997
 21
98.0
 31
0.0
  0
ENDBLK
  5
6E
  8
0
  0
BLOCK
  8
0
  2
MTEXT_3
 70
     0
 10
0.0
 20
0.0
 30
0.0
  3
MTEXT_3
  1

  0
TEXT
  5
7F
  8
0
  6
BYBLOCK
 62
     0
 10
-310.14015999999992
 20
105.9047619047619
 30
0.0
 40
64.0
  1
112
 50
90.0
 72
     1
 11
-310.14015999999992
 21
176.0
 31
0.0
  0
ENDBLK
  5
80
  8
0
  0
BLOCK
  8
0
  2
MTEXT_4
 70
     0
 10
0.0
 20
0.0
 30
0.0
  3
MTEXT_4
  1

  0
TEXT
  5
91
  8
0
  6
BYBLOCK
 62
     0
 10
-580.854287
 20
153.71428571428569
 30
0.0
 40
64.0
  1
56
 50
90.0
 72
     1
 11
-580.854287
 21
204.0
 31
0.0
  0
ENDBLK
  5
92
  8
0
  0
BLOCK
  8
0
  2
MTEXT_5
 70
     0
 10
0.0
 20
0.0
 30
0.0
  3
MTEXT_5
  1

  0
TEXT
  5
A3
  8
0
  6
BYBLOCK
 62
     0
 10
-468.48328900000001
 20
-17.214285714285701
 30
0.0
 40
64.0
  1
17
 50
90.0
 72
     1
 11
-468.48328900000001
 21
28.5
 31
0.0
  0
ENDBLK
  5
A4
  8
0
  0
BLOCK
  8
0
  2
MTEXT_6
 70
     0
 10
0.0
 20
0.0
 30
0.0
  3
MTEXT_6
  1

  0
TEXT
  5
B3
  8
0
  6
BYBLOCK
 62
     0
 10
-460.50500299999999
 20
88.928571428571445
 30
0.0
 40
64.0
  1
241
 50
90.0
 72
     1
 11
-460.50500299999999
 21
157.5
 31
0.0
  0
ENDBLK
  5
B4
  8
0
  0
BLOCK
  8
0
  2
MTEXT_7
 70
     0
 10
0.0
 20
0.0
 30
0.0
  3
MTEXT_7
  1

  0
TEXT
  5
C5
  8
0
  6
BYBLOCK
 62
     0
 10
-508.374707
 20
157.71428571428569
 30
0.0
 40
64.0
  1
66
 50
90.0
 72
     1
 11
-508.374707
 21
208.0
 31
0.0
  0
ENDBLK
  5
C6
  8
0
  0
BLOCK
  8
0
  2
MTEXT_8
 70
     0
 10
0.0
 20
0.0
 30
0.0
  3
MTEXT_8
  1

  0
TEXT
  5
D5
  8
0
  6
BYBLOCK
 62
     0
 10
-508.374707
 20
21.309523809523821
 30
0.0
 40
64.0
  1
155
 50
90.0
 72
     1
 11
-508.374707
 21
97.5
 31
0.0
  0
ENDBLK
  5
D6
  8
0
  0
BLOCK
  8
0
  2
MTEXT_9
 70
     0
 10
0.0
 20
0.0
 30
0.0
  3
MTEXT_9
  1

  0
TEXT
  5
E7
  8
0
  6
BYBLOCK
 62
     0
 10
-500.39642099999992
 20
155.69047619047609
 30
0.0
 40
64.0
  1
65
 50
90.0
 72
     1
 11
-500.39642099999992
 21
207.5
 31
0.0
  0
ENDBLK
  5
E8
  8
0
  0
BLOCK
  8
0
  2
MTEXT_10
 70
     0
 10
0.0
 20
0.0
 30
0.0
  3
MTEXT_10
  1

  0
TEXT
  5
F9
  8
0
  6
BYBLOCK
 62
     0
 10
-495.0899999999998
 20
98.809523809523796
 30
0.0
 40
64.0
  1
130
 50
90.0
 72
     1
 11
-495.0899999999998
 21
175.0
 31
0.0
  0
ENDBLK
  5
FA
  8
0
  0
ENDSEC
  0
SECTION
  2
ENTITIES
  0
LINE
  5
FB
  8
DETAIL
  6
CONTINUOUS
 10
-420.0
 20
17.0
 30
0.0
 11
420.0
 21
17.0
 31
0.0
  0
CIRCLE
  5
FD
  8
DETAIL
  6
CONTINUOUS
 10
0.0048084999992533
 20
156.08228800000001
 30
0.0
 40
50.0
  0
POINT
  5
FE
  8
ARRANGE
  6
CONTINUOUS
 10
0.0
 20
0.0
 30
0.0
  0
LINE
  5
FF
  8
BASIS
  6
DASHDOT
 10
0.0
 20
335.0211020000001
 30
0.0
 11
0.0
 21
-114.8043769999999
 31
0.0
  0
LINE
  5
100
  8
DETAIL
  6
CONTINUOUS
 10
420.0
 20
258.00000000000023
 30
0.0
 11
420.0
 21
0.0
 31
0.0
  0
LINE
  5
101
  8
DETAIL
  6
CONTINUOUS
 10
-420.0
 20
258.00000000000023
 30
0.0
 11
-420.0
 21
0.0
 31
0.0
  0
LINE
  5
102
  8
DETAIL
  6
CONTINUOUS
 10
-475.0
 20
0.0
 30
0.0
 11
475.0
 21
0.0
 31
0.0
  0
LINE
  5
104
  8
DETAIL
  6
CONTINUOUS
 10
475.0
 20
0.0
 30
0.0
 11
475.0
 21
-35.0
 31
0.0
  0
LINE
  5
105
  8
DETAIL
  6
CONTINUOUS
 10
-475.0
 20
0.0
 30
0.0
 11
-475.0
 21
-35.0
 31
0.0
  0
TEXT
  5
107
  8
ETC
  6
CONTINUOUS
 10
1035.6130000000001
 20
203.79350899999989
 30
0.0
 40
64.0
  1
PAC
 41
0.9
  0
TEXT
  5
108
  8
ETC
  6
CONTINUOUS
 10
1028.954
 20
43.981840000000133
 30
0.0
 40
64.0
  1
SMPL3333
 41
0.9
  0
LINE
  5
109
  8
NOTE
  6
CONTINUOUS
 10
405.0
 20
105.0
 30
0.0
 11
494.08667800000001
 21
48.807919000000091
 31
0.0
  0
LINE
  5
10A
  8
NOTE
  6
CONTINUOUS
 10
494.08667800000001
 20
48.807919000000091
 30
0.0
 11
623.91372399999977
 21
48.807919000000091
 31
0.0
  0
LINE
  5
10B
  8
NOTE
  6
CONTINUOUS
 10
-405.0
 20
105.0
 30
0.0
 11
-504.45960999999988
 21
42.397724000000117
 31
0.0
  0
LINE
  5
10C
  8
NOTE
  6
CONTINUOUS
 10
-504.45960999999988
 20
42.397724000000117
 30
0.0
 11
-616.65582199999994
 21
42.397724000000117
 31
0.0
  0
TEXT
  5
10D
  8
NOTE
  6
CONTINUOUS
 10
-617.28075399999989
 20
54.018214000000171
 30
0.0
 40
64.0
  1
AH
 41
0.9
  0
TEXT
  5
10E
  8
NOTE
  6
CONTINUOUS
 10
507.95763399999998
 20
74.923619000000144
 30
0.0
 40
64.0
  1
AH
 41
0.9
  0
CIRCLE
  5
10F
  8
ARRANGE
  6
CONTINUOUS
 10
0.0
 20
0.0
 30
0.0
 40
40.0
  0
LINE
  5
110
  8
NOTE
  6
CONTINUOUS
 10
-420.0
 20
200.0
 30
0.0
 11
-420.0
 21
240.0000000000002
 31
0.0
  0
LINE
  5
111
  8
NOTE
  6
CONTINUOUS
 10
-400.0
 20
220.0
 30
0.0
 11
-440.0
 21
220.0
 31
0.0
  0
LINE
  5
112
  8
NOTE
  6
CONTINUOUS
 10
-420.0
 20
71.0
 30
0.0
 11
-420.0
 21
111.0
 31
0.0
  0
LINE
  5
113
  8
NOTE
  6
CONTINUOUS
 10
-400.0
 20
90.0
 30
0.0
 11
-440.0
 21
90.0
 31
0.0
  0
LINE
  5
114
  8
NOTE
  6
CONTINUOUS
 10
405.0
 20
125.0000000000002
 30
0.0
 11
405.0
 21
85.0
 31
0.0
  0
LINE
  5
115
  8
NOTE
  6
CONTINUOUS
 10
385.0
 20
105.0
 30
0.0
 11
425.0
 21
105.0
 31
0.0
  0
LINE
  5
116
  8
NOTE
  6
CONTINUOUS
 10
-405.0
 20
125.0000000000002
 30
0.0
 11
-405.0
 21
85.0
 31
0.0
  0
LINE
  5
117
  8
NOTE
  6
CONTINUOUS
 10
-425.0
 20
105.0
 30
0.0
 11
-385.0
 21
105.0
 31
0.0
  0
CIRCLE
  5
118
  8
FIX
  6
CONTINUOUS
 10
-405.0
 20
105.0
 30
0.0
 40
40.0
  0
CIRCLE
  5
119
  8
FIX
  6
CONTINUOUS
 10
405.0
 20
105.0
 30
0.0
 40
40.0
  0
LINE
  5
11A
  8
SIZE
  6
BYBLOCK
 10
440.0
 20
258.00000000000023
 30
0.0
 11
798.61788799999988
 21
258.00000000000023
 31
0.0
  0
LINE
  5
11B
  8
SIZE
  6
BYBLOCK
 10
762.75483499999984
 20
-155.17833299999981
 30
0.0
 11
762.75483499999984
 21
258.00000000000023
 31
0.0
  0
TEXT
  5
11C
  8
SIZE
  6
BYBLOCK
 10
744.54911399999969
 20
50.942856999999997
 30
0.0
 40
64.0
  1
258
 50
90.0
 41
0.9
  0
LINE
  5
11D
  8
SIZE
  6
BYBLOCK
 10
324.35645548948548
 20
0.0
 30
0.0
 11
190.17331200000001
 21
0.0
 31
0.0
  0
LINE
  5
11E
  8
SIZE
  6
BYBLOCK
 10
365.0
 20
105.0
 30
0.0
 11
190.17331200000001
 21
105.0
 31
0.0
  0
LINE
  5
11F
  8
SIZE
  6
BYBLOCK
 10
220.17331200000001
 20
2.0
 30
0.0
 11
220.17331200000001
 21
105.0
 31
0.0
  0
TEXT
  5
120
  8
SIZE
  6
BYBLOCK
 10
188.1733119999999
 20
13.36782700000002
 30
0.0
 40
64.0
  1
105
 50
90.0
 41
0.9
  0
LINE
  5
121
  8
SIZE
  6
BYBLOCK
 10
495.0
 20
-35.0
 30
0.0
 11
798.61788799999988
 21
-35.0
 31
0.0
  0
LINE
  5
122
  8
SIZE
  6
BYBLOCK
 10
495.0
 20
0.0
 30
0.0
 11
798.61788799999988
 21
0.0
 31
0.0
  0
LINE
  5
123
  8
SIZE
  6
BYBLOCK
 10
762.75483499999984
 20
-30.0
 30
0.0
 11
762.75483499999984
 21
-32.0
 31
0.0
  0
TEXT
  5
124
  8
SIZE
  6
BYBLOCK
 10
736.80111799999975
 20
-141.4157909999999
 30
0.0
 40
64.0
  1
35
 50
90.0
 41
0.9
  0
LINE
  5
125
  8
SIZE
  6
BYBLOCK
 10
-475.0
 20
-49.999999999999773
 30
0.0
 11
-475.0
 21
-373.99237999999991
 31
0.0
  0
LINE
  5
126
  8
SIZE
  6
BYBLOCK
 10
475.0
 20
-49.999999999999773
 30
0.0
 11
475.0
 21
-373.99237999999991
 31
0.0
  0
LINE
  5
127
  8
SIZE
  6
BYBLOCK
 10
-473.0
 20
-343.9923799999998
 30
0.0
 11
473.0
 21
-343.9923799999998
 31
0.0
  0
TEXT
  5
128
  8
SIZE
  6
BYBLOCK
 10
-74.057143000000025
 20
-311.99237999999991
 30
0.0
 40
64.0
  1
950
 41
0.9
  0
LINE
  5
129
  8
SIZE
  6
BYBLOCK
 10
-405.0
 20
65.0
 30
0.0
 11
-405.0
 21
-260.5830879999998
 31
0.0
  0
LINE
  5
12A
  8
SIZE
  6
BYBLOCK
 10
405.0
 20
65.0
 30
0.0
 11
405.0
 21
-260.5830879999998
 31
0.0
  0
LINE
  5
12B
  8
SIZE
  6
BYBLOCK
 10
-403.0
 20
-230.5830879999998
 30
0.0
 11
403.0
 21
-230.5830879999998
 31
0.0
  0
TEXT
  5
12C
  8
SIZE
  6
BYBLOCK
 10
-68.571429000000023
 20
-198.5830879999998
 30
0.0
 40
64.0
  1
810
 41
0.9
  0
LINE
  5
12D
  8
SIZE
  6
BYBLOCK
 10
-34.014808000000379
 20
122.1375469999998
 30
0.0
 11
34.024424999999631
 21
189.8624530000001
 31
0.0
  0
LINE
  5
12E
  8
SIZE
  6
BYBLOCK
 10
35.44190900000001
 20
191.19109900000001
 30
0.0
 11
229.03325099999981
 21
383.8880860000001
 31
0.0
  0
TEXT
  5
12F
  8
SIZE
  6
BYBLOCK
 10
231.46713199999991
 20
385.385355
 30
0.0
 40
64.0
  1
φ100
 41
0.9
  0
CIRCLE
  5
132
  8
SIZE
  6
CONTINUOUS
 10
35.44190900000001
 20
191.19109900000001
 30
0.0
 40
6.0
  0
CIRCLE
  5
133
  8
SIZE
  6
CONTINUOUS
 10
-35.432292000000011
 20
120.644324
 30
0.0
 40
6.0
  0
CIRCLE
  5
134
  8
SIZE
  6
CONTINUOUS
 10
405.0
 20
-230.5830879999998
 30
0.0
 40
6.0
  0
CIRCLE
  5
135
  8
SIZE
  6
CONTINUOUS
 10
-405.0
 20
-230.5830879999998
 30
0.0
 40
6.0
  0
CIRCLE
  5
136
  8
SIZE
  6
CONTINUOUS
 10
475.0
 20
-343.9923799999998
 30
0.0
 40
6.0
  0
CIRCLE
  5
137
  8
SIZE
  6
CONTINUOUS
 10
-475.0
 20
-343.9923799999998
 30
0.0
 40
6.0
  0
CIRCLE
  5
138
  8
SIZE
  6
CONTINUOUS
 10
762.75483499999984
 20
-35.0
 30
0.0
 40
6.0
  0
CIRCLE
  5
139
  8
SIZE
  6
CONTINUOUS
 10
220.17331200000001
 20
105.0
 30
0.0
 40
6.0
  0
CIRCLE
  5
13A
  8
SIZE
  6
CONTINUOUS
 10
220.17331200000001
 20
0.0
 30
0.0
 40
6.0
  0
CIRCLE
  5
13B
  8
SIZE
  6
CONTINUOUS
 10
762.75483499999984
 20
258.00000000000023
 30
0.0
 40
6.0
  0
CIRCLE
  5
13C
  8
SIZE
  6
CONTINUOUS
 10
762.75483499999984
 20
0.0
 30
0.0
 40
6.0
  0
POLYLINE
  5
13D
  8
NOTE
  6
CONTINUOUS
 66
     1
 10
0.0
 20
0.0
 30
0.0
  0
VERTEX
  5
181
  8
NOTE
  6
CONTINUOUS
 10
-430.56947699999989
 20
74.239606000000094
 30
0.0
  0
VERTEX
  5
182
  8
NOTE
  6
CONTINUOUS
 10
-405.0
 20
105.0
 30
0.0
  0
VERTEX
  5
183
  8
NOTE
  6
CONTINUOUS
 10
-442.5240139999998
 20
91.145456000000195
 30
0.0
  0
SEQEND
  5
184
  8
NOTE
  6
CONTINUOUS
  0
POLYLINE
  5
142
  8
NOTE
  6
CONTINUOUS
 66
     1
 10
0.0
 20
0.0
 30
0.0
  0
VERTEX
  5
185
  8
NOTE
  6
CONTINUOUS
 10
443.08636399999989
 20
92.775891000000001
 30
0.0
  0
VERTEX
  5
186
  8
NOTE
  6
CONTINUOUS
 10
405.0
 20
105.0
 30
0.0
  0
VERTEX
  5
187
  8
NOTE
  6
CONTINUOUS
 10
431.87170500000002
 20
75.370429000000073
 30
0.0
  0
SEQEND
  5
188
  8
NOTE
  6
CONTINUOUS
  0
LINE
  5
147
  8
NOTE
  6
CONTINUOUS
 10
420.0
 20
200.0
 30
0.0
 11
420.0
 21
240.0000000000002
 31
0.0
  0
LINE
  5
148
  8
NOTE
  6
CONTINUOUS
 10
440.0
 20
220.0
 30
0.0
 11
400.0
 21
220.0
 31
0.0
  0
LINE
  5
149
  8
NOTE
  6
CONTINUOUS
 10
420.0
 20
70.0
 30
0.0
 11
420.0
 21
110.0
 31
0.0
  0
LINE
  5
14A
  8
NOTE
  6
CONTINUOUS
 10
440.0
 20
90.0
 30
0.0
 11
400.0
 21
90.0
 31
0.0
  0
LINE
  5
14B
  8
DETAIL
  6
CONTINUOUS
 10
-420.0
 20
258.00000000000023
 30
0.0
 11
420.0
 21
258.00000000000023
 31
0.0
  0
LINE
  5
14C
  8
NOTE
  6
CONTINUOUS
 10
319.9999999999996
 20
157.99999999999949
 30
0.0
 11
359.99999999999949
 21
157.99999999999949
 31
0.0
  0
LINE
  5
14D
  8
NOTE
  6
CONTINUOUS
 10
339.99999999999949
 20
177.99999999999949
 30
0.0
 11
339.99999999999949
 21
137.99999999999949
 31
0.0
  0
POLYLINE
  5
14E
  8
SIZE
  6
CONTINUOUS
 66
     1
 10
0.0
 20
0.0
 30
0.0
  0
VERTEX
  5
189
  8
SIZE
  6
CONTINUOUS
 10
358.65202499999953
 20
193.38505199999949
 30
0.0
  0
VERTEX
  5
18A
  8
SIZE
  6
CONTINUOUS
 10
339.99999999999949
 20
157.99999999999969
 30
0.0
  0
VERTEX
  5
18B
  8
SIZE
  6
CONTINUOUS
 10
373.84565399999963
 20
179.31834199999949
 30
0.0
  0
SEQEND
  5
18C
  8
SIZE
  6
CONTINUOUS
  0
LINE
  5
153
  8
SIZE
  6
CONTINUOUS
 10
339.99999999999949
 20
157.99999999999949
 30
0.0
 11
537.74467699999946
 21
375.76112699999942
 31
0.0
  0
TEXT
  5
154
  8
SIZE
  6
BYBLOCK
 10
519.26392799999985
 20
385.385355
 30
0.0
 40
64.0
  1
φ100
 41
0.9
  0
LINE
  5
155
  8
OUTLINE
  6
CONTINUOUS
 10
-420.0
 20
258.00000000000023
 30
0.0
 11
420.0
 21
258.00000000000023
 31
0.0
  0
LINE
  5
157
  8
OUTLINE
  6
CONTINUOUS
 10
-475.0
 20
0.0
 30
0.0
 11
-420.00000000000011
 21
0.0
 31
0.0
  0
LINE
  5
158
  8
OUTLINE
  6
CONTINUOUS
 10
-420.0
 20
258.00000000000023
 30
0.0
 11
-420.00000000000011
 21
0.0
 31
0.0
  0
LINE
  5
159
  8
OUTLINE
  6
CONTINUOUS
 10
-475.0
 20
0.0
 30
0.0
 11
-475.0
 21
-35.0
 31
0.0
  0
LINE
  5
15A
  8
OUTLINE
  6
CONTINUOUS
 10
420.0
 20
258.00000000000023
 30
0.0
 11
419.99999999999989
 21
0.0
 31
0.0
  0
LINE
  5
15B
  8
OUTLINE
  6
CONTINUOUS
 10
475.0
 20
0.0
 30
0.0
 11
475.0
 21
-35.0
 31
0.0
  0
LINE
  5
15E
  8
DETAIL
  6
CONTINUOUS
 10
260.0
 20
258.00000000000023
 30
0.0
 11
260.0
 21
0.0
 31
0.0
  0
LINE
  5
15F
  8
DETAIL
  6
CONTINUOUS
 10
-260.0
 20
258.00000000000023
 30
0.0
 11
-260.0
 21
0.0
 31
0.0
  0
LINE
  5
166
  8
DETAIL
  6
CONTINUOUS
 10
-475.0
 20
-35.0
 30
0.0
 11
475.0
 21
-35.0
 31
0.0
  0
LINE
  5
167
  8
NOTE
  6
CONTINUOUS
 10
-19.99519150000074
 20
155.99999999999949
 30
0.0
 11
20.004808499999189
 21
155.99999999999949
 31
0.0
  0
LINE
  5
168
  8
NOTE
  6
CONTINUOUS
 10
0.0048084999992533
 20
175.99999999999949
 30
0.0
 11
0.0048084999992533
 21
135.99999999999949
 31
0.0
  0
LINE
  5
16A
  8
SIZE
  6
BYBLOCK
 10
-37.507969917267467
 20
155.99999999999949
 30
0.0
 11
-194.8218795000007
 21
155.99999999999949
 31
0.0
  0
CIRCLE
  5
16B
  8
SIZE
  6
CONTINUOUS
 10
-164.8218795000007
 20
155.99999999999949
 30
0.0
 40
6.0
  0
TEXT
  5
16C
  8
SIZE
  6
BYBLOCK
 10
-184.15999286205951
 20
18.41543682541441
 30
0.0
 40
64.0
  1
156
 50
90.0
 41
0.9
  0
LINE
  5
16D
  8
SIZE
  6
BYBLOCK
 10
-164.8218795000007
 20
2.8916760787005842
 30
0.0
 11
-164.8218795000007
 21
155.99999999999949
 31
0.0
  0
CIRCLE
  5
16E
  8
SIZE
  6
CONTINUOUS
 10
-164.8218795000007
 20
0.0
 30
0.0
 40
6.0
  0
LINE
  5
16F
  8
SIZE
  6
BYBLOCK
 10
-58.113442375986779
 20
0.0
 30
0.0
 11
-194.8218795000007
 21
0.0
 31
0.0
  0
LINE
  5
171
  8
OUTLINE
  6
CONTINUOUS
 10
-475.0
 20
-35.0
 30
0.0
 11
475.0
 21
-35.0
 31
0.0
  0
LINE
  5
177
  8
OUTLINE
  6
CONTINUOUS
 10
419.99999999999989
 20
0.0
 30
0.0
 11
475.0
 21
0.0
 31
0.0
  0
ENDSEC
  0
EOF
