  0
SECTION
  2
HEADER
  9
$ACADVER
  1
AC1009
  9
$INSBASE
 10
0.0
 20
0.0
 30
0.0
  9
$EXTMIN
 10
-1072.549655
 20
-350.79248799999999
 30
0.0
  9
$EXTMAX
 10
1558.891714285714
 20
816.22521962772521
 30
0.0
  9
$LIMMIN
 10
-4200.0
 20
-2970.0
  9
$LIMMAX
 10
4200.0
 20
2970.0
  9
$ORTHOMODE
 70
     1
  9
$REGENMODE
 70
     0
  9
$FILLMODE
 70
     1
  9
$QTEXTMODE
 70
     0
  9
$MIRRTEXT
 70
     0
  9
$DRAGMODE
 70
     2
  9
$LTSCALE
 40
20.0
  9
$OSMODE
 70
    37
  9
$ATTMODE
 70
     1
  9
$TEXTSIZE
 40
64.0
  9
$TRACEWID
 40
0.05
  9
$TEXTSTYLE
  7
STANDARD
  9
$CLAYER
  8
0
  9
$CELTYPE
  6
CONTINUOUS
  9
$CECOLOR
 62
     4
  9
$DIMSCALE
 40
1.0
  9
$DIMASZ
 40
2.0
  9
$DIMEXO
 40
20.0
  9
$DIMDLI
 40
200.0
  9
$DIMRND
 40
0.0
  9
$DIMDLE
 40
0.0
  9
$DIMEXE
 40
30.0
  9
$DIMTP
 40
0.0
  9
$DIMTM
 40
0.0
  9
$DIMTXT
 40
64.0
  9
$DIMCEN
 40
0.09
  9
$DIMTSZ
 40
0.0
  9
$DIMTOL
 70
     0
  9
$DIMLIM
 70
     0
  9
$DIMTIH
 70
     0
  9
$DIMTOH
 70
     0
  9
$DIMSE1
 70
     0
  9
$DIMSE2
 70
     0
  9
$DIMTAD
 70
     1
  9
$DIMZIN
 70
     8
  9
$DIMBLK
  1

  9
$DIMASO
 70
     1
  9
$DIMSHO
 70
     0
  9
$DIMPOST
  1

  9
$DIMAPOST
  1

  9
$DIMALT
 70
     0
  9
$DIMALTD
 70
     2
  9
$DIMALTF
 40
25.399999999999999
  9
$DIMLFAC
 40
1.0
  9
$DIMTOFL
 70
     1
  9
$DIMTVP
 40
0.0
  9
$DIMTIX
 70
     1
  9
$DIMSOXD
 70
     0
  9
$DIMSAH
 70
     0
  9
$DIMBLK1
  1

  9
$DIMBLK2
  1

  9
$DIMSTYLE
  2
STANDARD
  9
$DIMCLRD
 70
     0
  9
$DIMCLRE
 70
     0
  9
$DIMCLRT
 70
     0
  9
$DIMTFAC
 40
1.0
  9
$DIMGAP
 40
0.09
  9
$LUNITS
 70
     2
  9
$LUPREC
 70
     4
  9
$SKETCHINC
 40
0.1
  9
$FILLETRAD
 40
0.0
  9
$AUNITS
 70
     1
  9
$AUPREC
 70
     3
  9
$MENU
  1
ACAD
  9
$ELEVATION
 40
0.0
  9
$PELEVATION
 40
0.0
  9
$THICKNESS
 40
0.0
  9
$LIMCHECK
 70
     0
  9
$BLIPMODE
 70
     0
  9
$CHAMFERA
 40
0.0
  9
$CHAMFERB
 40
0.0
  9
$SKPOLY
 70
     0
  9
$TDCREATE
 40
2450322.5692820018
  9
$TDUPDATE
 40
2453245.542486609
  9
$TDINDWG
 40
0.0437553241
  9
$TDUSRTIMER
 40
0.0437551389
  9
$USRTIMER
 70
     1
  9
$ANGBASE
 50
0.0
  9
$ANGDIR
 70
     0
  9
$PDMODE
 70
     3
  9
$PDSIZE
 40
-2.0
  9
$PLINEWID
 40
0.0
  9
$COORDS
 70
     1
  9
$SPLFRAME
 70
     0
  9
$SPLINETYPE
 70
     6
  9
$SPLINESEGS
 70
     8
  9
$ATTDIA
 70
     0
  9
$ATTREQ
 70
     1
  9
$HANDLING
 70
 10241
  9
$HANDSEED
  5
118
  9
$SURFTAB1
 70
     6
  9
$SURFTAB2
 70
     6
  9
$SURFTYPE
 70
     6
  9
$SURFU
 70
     6
  9
$SURFV
 70
     6
  9
$UCSNAME
  2

  9
$UCSORG
 10
0.0
 20
0.0
 30
0.0
  9
$UCSXDIR
 10
1.0
 20
0.0
 30
0.0
  9
$UCSYDIR
 10
0.0
 20
1.0
 30
0.0
  9
$PUCSNAME
  2

  9
$PUCSORG
 10
0.0
 20
0.0
 30
0.0
  9
$PUCSXDIR
 10
1.0
 20
0.0
 30
0.0
  9
$PUCSYDIR
 10
0.0
 20
1.0
 30
0.0
  9
$USERI1
 70
     0
  9
$USERI2
 70
     0
  9
$USERI3
 70
     0
  9
$USERI4
 70
     0
  9
$USERI5
 70
     0
  9
$USERR1
 40
20.0
  9
$USERR2
 40
0.0
  9
$USERR3
 40
0.0
  9
$USERR4
 40
0.0
  9
$USERR5
 40
0.0
  9
$WORLDVIEW
 70
     1
  9
$SHADEDGE
 70
     3
  9
$SHADEDIF
 70
    70
  9
$TILEMODE
 70
     1
  9
$MAXACTVP
 70
    64
  9
$PLIMCHECK
 70
     0
  9
$PEXTMIN
 10
1.0000000000000000E+020
 20
1.0000000000000000E+020
 30
1.0000000000000000E+020
  9
$PEXTMAX
 10
-1.0000000000000000E+020
 20
-1.0000000000000000E+020
 30
-1.0000000000000000E+020
  9
$PLIMMIN
 10
0.0
 20
0.0
  9
$PLIMMAX
 10
12.0
 20
9.0
  9
$UNITMODE
 70
     0
  9
$VISRETAIN
 70
     1
  9
$PLINEGEN
 70
     0
  9
$PSLTSCALE
 70
     1
  0
ENDSEC
  0
SECTION
  2
TABLES
  0
TABLE
  2
VPORT
 70
     2
  0
VPORT
  2
*ACTIVE
 70
     0
 10
0.0
 20
0.0
 11
1.0
 21
1.0
 12
1098.647748642516
 22
-47.070229435996218
 13
0.0
 23
0.0
 14
50.0
 24
50.0
 15
100.0
 25
100.0
 16
0.0
 26
0.0
 36
1.0
 17
0.0
 27
0.0
 37
0.0
 40
3447.7800499861478
 41
1.5139593908629441
 42
50.0
 43
0.0
 44
0.0
 50
0.0
 51
0.0
 71
     0
 72
   500
 73
     1
 74
     0
 75
     0
 76
     0
 77
     0
 78
     0
  0
ENDTAB
  0
TABLE
  2
LTYPE
 70
     8
  0
LTYPE
  2
CONTINUOUS
 70
     0
  3
実線
 72
    65
 73
     0
 40
0.0
  0
LTYPE
  2
DASHDOT
 70
     0
  3
____ _ ____ _ ____ _ ____ _ ____ _ ____ _ ____
 72
    65
 73
     4
 40
5.5
 49
4.0
 49
-0.6
 49
0.3
 49
-0.6
  0
LTYPE
  2
CONTINOUS
 70
     0
  3
Solid line
 72
    65
 73
     0
 40
0.0
  0
LTYPE
  2
DASHED
 70
     0
  3
_ _ _ _ _ _ _ _ _ _ _ _ _ _ _ _ _ _ _ _ _ _ _
 72
    65
 73
     2
 40
2.0
 49
1.1999999999999991
 49
-0.8
  0
LTYPE
  2
DOT
 70
     0
  3
...............................................
 72
    65
 73
     2
 40
0.8
 49
0.5
 49
-0.3
  0
LTYPE
  2
DASHDOT1
 70
     0
  3
____ _ ____ _ ____ _ ____ _ ____ _ ____ _ ____
 72
    65
 73
     4
 40
2.0
 49
1.5
 49
-0.2
 49
0.1
 49
-0.2
  0
LTYPE
  2
DIVIDE
 70
     0
  3
_____ _ _ _____ _ _ _____ _ _ _____ _ _ ____
 72
    65
 73
     6
 40
6.4000000000000004
 49
4.0
 49
-0.6
 49
0.3
 49
-0.6
 49
0.3
 49
-0.6
  0
LTYPE
  2
DIVIDE1
 70
     0
  3
_____ _ _ _____ _ _ _____ _ _ _____ _ _ ____
 72
    65
 73
     6
 40
3.2000000000000002
 49
2.0
 49
-0.3
 49
0.15
 49
-0.3
 49
0.15
 49
-0.3
  0
ENDTAB
  0
TABLE
  2
LAYER
 70
    12
  0
LAYER
  2
0
 70
     0
 62
     7
  6
CONTINUOUS
  0
LAYER
  2
OUTLINE
 70
     0
 62
     3
  6
CONTINUOUS
  0
LAYER
  2
DETAIL
 70
     0
 62
     5
  6
CONTINUOUS
  0
LAYER
  2
BASIS
 70
     0
 62
     6
  6
CONTINUOUS
  0
LAYER
  2
NOTE
 70
     0
 62
     4
  6
CONTINUOUS
  0
LAYER
  2
DEFPOINTS
 70
     0
 62
     7
  6
CONTINUOUS
  0
LAYER
  2
ARRANGE
 70
     0
 62
     1
  6
CONTINUOUS
  0
LAYER
  2
SIZE
 70
     0
 62
    32
  6
CONTINUOUS
  0
LAYER
  2
FIX
 70
     0
 62
   241
  6
CONTINUOUS
  0
LAYER
  2
SERVICESPACE
 70
     0
 62
     2
  6
CONTINUOUS
  0
LAYER
  2
ETC
 70
     0
 62
    83
  6
CONTINUOUS
  0
LAYER
  2
SYMBOLLINE
 70
     0
 62
    38
  6
CONTINUOUS
  0
ENDTAB
  0
TABLE
  2
STYLE
 70
     1
  0
STYLE
  2
STANDARD
 70
     0
 40
0.0
 41
0.9
 50
0.0
 71
     0
 42
64.0
  3
SIMPLEX
  4
BIGFONT
  0
ENDTAB
  0
TABLE
  2
VIEW
 70
     1
  0
VIEW
  2
ALL
 70
     0
 40
6056.2299999999987
 10
0.0
 20
58.11501599999999
 41
8400.0
 11
0.0
 21
0.0
 31
1.0
 12
0.0
 22
0.0
 32
0.0
 42
50.0
 43
0.0
 44
0.0
 50
0.0
 71
     0
  0
ENDTAB
  0
TABLE
  2
UCS
 70
     0
  0
ENDTAB
  0
TABLE
  2
APPID
 70
     1
  0
APPID
  2
ACAD
 70
     0
  0
ENDTAB
  0
TABLE
  2
DIMSTYLE
 70
     1
  0
DIMSTYLE
  2
STANDARD
 70
     0
  3

  4

  5

  6

  7

 40
1.0
 41
0.18
 42
0.0625
 43
0.38
 44
0.18
 45
0.0
 46
0.0
 47
0.0
 48
0.0
140
0.18
141
0.09
142
0.0
143
25.399999999999999
144
1.0
145
0.0
146
1.0
147
0.09
 71
     0
 72
     0
 73
     1
 74
     1
 75
     0
 76
     0
 77
     0
 78
     0
170
     0
171
     2
172
     0
173
     0
174
     0
175
     0
176
     0
177
     0
178
     0
  0
ENDTAB
  0
ENDSEC
  0
SECTION
  2
BLOCKS
  0
BLOCK
  8
0
  2
$MODEL_SPACE
 70
     0
 10
0.0
 20
0.0
 30
0.0
  3
$MODEL_SPACE
  1

  0
ENDBLK
  5
20
  8
0
  0
BLOCK
 67
     1
  8
0
  2
$PAPER_SPACE
 70
     0
 10
0.0
 20
0.0
 30
0.0
  3
$PAPER_SPACE
  1

  0
ENDBLK
  5
1C
 67
     1
  8
0
  0
ENDSEC
  0
SECTION
  2
ENTITIES
  0
POLYLINE
  5
3E
  8
NOTE
  6
CONTINUOUS
 66
     1
 10
0.0
 20
0.0
 30
0.0
  0
VERTEX
  5
FC
  8
NOTE
  6
CONTINUOUS
 10
16.725494999999889
 20
127.1495119999999
 30
0.0
  0
VERTEX
  5
FD
  8
NOTE
  6
CONTINUOUS
 10
-20.0
 20
143.0
 30
0.0
  0
VERTEX
  5
FE
  8
NOTE
  6
CONTINUOUS
 10
3.8799679999999608
 20
110.910327
 30
0.0
  0
SEQEND
  5
FF
  8
NOTE
  6
CONTINUOUS
  0
TEXT
  5
43
  8
SIZE
  6
BYBLOCK
 10
-68.571428999999966
 20
718.83288399999969
 30
0.0
 40
64.0
  1
610
 41
0.9
  0
LINE
  5
44
  8
SIZE
  6
BYBLOCK
 10
-303.0
 20
686.83288399999981
 30
0.0
 11
303.0
 21
686.83288399999981
 31
0.0
  0
TEXT
  5
45
  8
SIZE
  6
BYBLOCK
 10
-84.057142999999968
 20
-288.79248799999988
 30
0.0
 40
64.0
  1
690
 41
0.9
  0
LINE
  5
46
  8
SIZE
  6
BYBLOCK
 10
333.0
 20
-320.79248799999999
 30
0.0
 11
-353.0
 21
-320.79248799999999
 31
0.0
  0
LINE
  5
47
  8
SIZE
  6
BYBLOCK
 10
97.0
 20
564.57540100000006
 30
0.0
 11
-303.0
 21
564.57540100000006
 31
0.0
  0
LINE
  5
48
  8
SIZE
  6
BYBLOCK
 10
59.0
 20
165.0
 30
0.0
 11
-1006.549655
 21
165.0
 31
0.0
  0
CIRCLE
  5
49
  8
ARRANGE
  6
CONTINUOUS
 10
0.0
 20
0.0
 30
0.0
 40
40.0
  0
LINE
  5
4A
  8
DETAIL
  6
CONTINOUS
 10
299.0
 20
-23.0
 30
0.0
 11
-319.0
 21
-23.0
 31
0.0
  0
LINE
  5
4B
  8
DETAIL
  6
CONTINOUS
 10
335.0
 20
-10.0
 30
0.0
 11
-355.0
 21
-10.0
 31
0.0
  0
LINE
  5
4C
  8
DETAIL
  6
CONTINOUS
 10
335.0
 20
0.0
 30
0.0
 11
-355.0
 21
0.0
 31
0.0
  0
LINE
  5
4D
  8
DETAIL
  6
CONTINOUS
 10
305.0
 20
198.0
 30
0.0
 11
-305.0
 21
198.0
 31
0.0
  0
LINE
  5
4E
  8
NOTE
  6
CONTINOUS
 10
-40.0
 20
143.0
 30
0.0
 11
0.0
 21
143.0
 31
0.0
  0
LINE
  5
4F
  8
NOTE
  6
CONTINUOUS
 10
-20.0
 20
143.0
 30
0.0
 11
435.0465719999998
 21
-257.63627200000002
 31
0.0
  0
POINT
  5
50
  8
ARRANGE
  6
CONTINUOUS
 10
0.0
 20
0.0
 30
0.0
  0
CIRCLE
  5
51
  8
SIZE
  6
CONTINUOUS
 10
-531.19057199999986
 20
0.0
 30
0.0
 40
6.0
  0
CIRCLE
  5
52
  8
SIZE
  6
CONTINUOUS
 10
-675.71106900000007
 20
0.0
 30
0.0
 40
6.0
  0
CIRCLE
  5
53
  8
SIZE
  6
CONTINUOUS
 10
-820.23156600000004
 20
0.0
 30
0.0
 40
6.0
  0
CIRCLE
  5
54
  8
SIZE
  6
CONTINUOUS
 10
-976.54965499999992
 20
0.0
 30
0.0
 40
6.0
  0
TEXT
  5
55
  8
SIZE
  6
BYBLOCK
 10
-707.71106899999995
 20
-18.57142900000008
 30
0.0
 40
64.0
  1
100
 50
90.0
 41
0.9
  0
LINE
  5
56
  8
SIZE
  6
BYBLOCK
 10
-675.71106900000007
 20
100.0
 30
0.0
 11
-675.71106900000007
 21
0.0
 31
0.0
  0
TEXT
  5
57
  8
SIZE
  6
BYBLOCK
 10
-563.19057199999975
 20
-1.6285710000001921
 30
0.0
 40
64.0
  1
90
 50
90.0
 41
0.9
  0
LINE
  5
58
  8
SIZE
  6
BYBLOCK
 10
-531.19057199999986
 20
90.0
 30
0.0
 11
-531.19057199999986
 21
0.0
 31
0.0
  0
LINE
  5
59
  8
DETAIL
  6
CONTINOUS
 10
-305.0
 20
0.0
 30
0.0
 11
-305.0
 21
198.0
 31
0.0
  0
LINE
  5
5A
  8
BASIS
  6
DASHDOT
 10
0.0
 20
318.21095000000008
 30
0.0
 11
0.0
 21
-148.75311499999981
 31
0.0
  0
LINE
  5
5B
  8
NOTE
  6
CONTINUOUS
 10
-105.0
 20
90.0
 30
0.0
 11
-443.45994599999989
 21
-229.43228700000009
 31
0.0
  0
LINE
  5
5C
  8
NOTE
  6
CONTINUOUS
 10
-220.0
 20
100.0
 30
0.0
 11
-450.58897099999979
 21
-112.6528459999999
 31
0.0
  0
LINE
  5
5D
  8
SIZE
  6
BYBLOCK
 10
-375.0
 20
0.0
 30
0.0
 11
-1006.549655
 21
0.0
 31
0.0
  0
LINE
  5
5E
  8
SIZE
  6
BYBLOCK
 10
-375.0
 20
0.0
 30
0.0
 11
-850.23156600000004
 21
0.0
 31
0.0
  0
LINE
  5
5F
  8
SIZE
  6
BYBLOCK
 10
-375.0
 20
0.0
 30
0.0
 11
-705.71106899999995
 21
0.0
 31
0.0
  0
TEXT
  5
60
  8
NOTE
  6
CONTINUOUS
 10
-831.76180399999987
 20
-206.30957500000011
 30
0.0
 40
64.0
  1
RL%%C6.35
 41
0.9
  0
LINE
  5
61
  8
NOTE
  6
CONTINUOUS
 10
-842.03875200000004
 20
-229.43228700000009
 30
0.0
 11
-443.45994599999989
 21
-229.43228700000009
 31
0.0
  0
LINE
  5
62
  8
SIZE
  6
BYBLOCK
 10
-675.71106900000007
 20
-2.0
 30
0.0
 11
-675.71106900000007
 21
-4.0
 31
0.0
  0
LINE
  5
63
  8
SIZE
  6
BYBLOCK
 10
-355.0
 20
-30.0
 30
0.0
 11
-355.0
 21
-350.79248799999999
 31
0.0
  0
CIRCLE
  5
64
  8
SIZE
  6
CONTINUOUS
 10
-355.0
 20
-320.79248799999999
 30
0.0
 40
6.0
  0
LINE
  5
65
  8
SIZE
  6
BYBLOCK
 10
-375.0
 20
0.0
 30
0.0
 11
-561.19057199999997
 21
0.0
 31
0.0
  0
LINE
  5
66
  8
NOTE
  6
CONTINUOUS
 10
-597.42165499999999
 20
-112.6528459999999
 30
0.0
 11
-450.58897099999979
 21
-112.6528459999999
 31
0.0
  0
TEXT
  5
67
  8
NOTE
  6
CONTINUOUS
 10
-567.44188099999985
 20
-98.726435000000038
 30
0.0
 40
64.0
  1
AH
 41
0.9
  0
LINE
  5
68
  8
SIZE
  6
BYBLOCK
 10
-531.19057199999986
 20
-2.0
 30
0.0
 11
-531.19057199999986
 21
-4.0
 31
0.0
  0
LINE
  5
69
  8
DETAIL
  6
CONTINOUS
 10
-355.0
 20
0.0
 30
0.0
 11
-355.0
 21
-10.0
 31
0.0
  0
LINE
  5
6A
  8
DETAIL
  6
CONTINOUS
 10
-319.0
 20
-10.0
 30
0.0
 11
-319.0
 21
-23.0
 31
0.0
  0
LINE
  5
6B
  8
SIZE
  6
BYBLOCK
 10
-60.0
 20
143.0
 30
0.0
 11
-850.23156600000004
 21
143.0
 31
0.0
  0
LINE
  5
6C
  8
SIZE
  6
BYBLOCK
 10
-260.0
 20
100.0
 30
0.0
 11
-705.71106899999995
 21
100.0
 31
0.0
  0
TEXT
  5
6D
  8
SIZE
  6
BYBLOCK
 10
-1008.549655
 20
13.928570999999909
 30
0.0
 40
64.0
  1
165
 50
90.0
 41
0.9
  0
LINE
  5
6E
  8
SIZE
  6
BYBLOCK
 10
-976.54965499999992
 20
2.0
 30
0.0
 11
-976.54965499999992
 21
163.0
 31
0.0
  0
TEXT
  5
6F
  8
SIZE
  6
BYBLOCK
 10
-852.23156600000004
 20
2.9285709999999181
 30
0.0
 40
64.0
  1
143
 50
90.0
 41
0.9
  0
CIRCLE
  5
70
  8
SIZE
  6
CONTINUOUS
 10
-976.54965499999992
 20
165.0
 30
0.0
 40
6.0
  0
LINE
  5
71
  8
SIZE
  6
BYBLOCK
 10
-820.23156600000004
 20
2.0
 30
0.0
 11
-820.23156600000004
 21
141.0
 31
0.0
  0
CIRCLE
  5
72
  8
SIZE
  6
CONTINUOUS
 10
-675.71106900000007
 20
100.0
 30
0.0
 40
6.0
  0
LINE
  5
73
  8
SIZE
  6
BYBLOCK
 10
-675.71106900000007
 20
102.0
 30
0.0
 11
-675.71106900000007
 21
104.0
 31
0.0
  0
CIRCLE
  5
74
  8
SIZE
  6
CONTINUOUS
 10
-820.23156600000004
 20
143.0
 30
0.0
 40
6.0
  0
LINE
  5
75
  8
SIZE
  6
BYBLOCK
 10
-305.0
 20
238.0
 30
0.0
 11
-305.0
 21
716.83288399999981
 31
0.0
  0
LINE
  5
76
  8
SIZE
  6
BYBLOCK
 10
-305.0
 20
218.0
 30
0.0
 11
-305.0
 21
594.57540100000006
 31
0.0
  0
TEXT
  5
77
  8
SIZE
  6
BYBLOCK
 10
-236.557143
 20
455.00227499999983
 30
0.0
 40
64.0
  1
285
 41
0.9
  0
LINE
  5
78
  8
SIZE
  6
BYBLOCK
 10
-145.0
 20
90.0
 30
0.0
 11
-561.19057199999997
 21
90.0
 31
0.0
  0
CIRCLE
  5
79
  8
SIZE
  6
CONTINUOUS
 10
-531.19057199999986
 20
90.0
 30
0.0
 40
6.0
  0
LINE
  5
7A
  8
SIZE
  6
BYBLOCK
 10
-531.19057199999986
 20
92.0
 30
0.0
 11
-531.19057199999986
 21
94.0
 31
0.0
  0
LINE
  5
7B
  8
SIZE
  6
BYBLOCK
 10
-20.0
 20
183.0
 30
0.0
 11
-20.0
 21
453.00227499999983
 31
0.0
  0
LINE
  5
7C
  8
SIZE
  6
BYBLOCK
 10
-305.0
 20
218.0
 30
0.0
 11
-305.0
 21
453.00227499999983
 31
0.0
  0
LINE
  5
7D
  8
SIZE
  6
BYBLOCK
 10
-105.0
 20
130.0
 30
0.0
 11
-105.0
 21
323.22690899999992
 31
0.0
  0
LINE
  5
7E
  8
SIZE
  6
BYBLOCK
 10
-305.0
 20
218.0
 30
0.0
 11
-305.0
 21
323.22690899999992
 31
0.0
  0
CIRCLE
  5
7F
  8
FIX
  6
CONTINUOUS
 10
-220.0
 20
100.0
 30
0.0
 40
40.0
  0
LINE
  5
80
  8
NOTE
  6
CONTINOUS
 10
-220.0
 20
120.0
 30
0.0
 11
-220.0
 21
80.0
 31
0.0
  0
POLYLINE
  5
81
  8
NOTE
  6
CONTINUOUS
 66
     1
 10
0.0
 20
0.0
 30
0.0
  0
VERTEX
  5
100
  8
NOTE
  6
CONTINUOUS
 10
-242.72019
 20
67.078989000000092
 30
0.0
  0
VERTEX
  5
101
  8
NOTE
  6
CONTINUOUS
 10
-220.0
 20
100.0
 30
0.0
  0
VERTEX
  5
102
  8
NOTE
  6
CONTINUOUS
 10
-256.13676699999991
 20
82.849662999999978
 30
0.0
  0
SEQEND
  5
103
  8
NOTE
  6
CONTINUOUS
  0
LINE
  5
86
  8
NOTE
  6
CONTINOUS
 10
-240.0
 20
100.0
 30
0.0
 11
-200.0
 21
100.0
 31
0.0
  0
LINE
  5
87
  8
NOTE
  6
CONTINOUS
 10
-125.0
 20
90.0
 30
0.0
 11
-85.0
 21
90.0
 31
0.0
  0
POLYLINE
  5
88
  8
NOTE
  6
CONTINUOUS
 66
     1
 10
0.0
 20
0.0
 30
0.0
  0
VERTEX
  5
104
  8
NOTE
  6
CONTINUOUS
 10
-126.50154599999991
 20
56.270435999999791
 30
0.0
  0
VERTEX
  5
105
  8
NOTE
  6
CONTINUOUS
 10
-105.0
 20
90.0
 30
0.0
  0
VERTEX
  5
106
  8
NOTE
  6
CONTINUOUS
 10
-140.48566700000001
 20
71.540113000000019
 30
0.0
  0
SEQEND
  5
107
  8
NOTE
  6
CONTINUOUS
  0
LINE
  5
8D
  8
NOTE
  6
CONTINOUS
 10
-105.0
 20
110.0
 30
0.0
 11
-105.0
 21
70.0
 31
0.0
  0
CIRCLE
  5
8E
  8
DETAIL
  6
CONTINUOUS
 10
-105.0
 20
90.0
 30
0.0
 40
4.759999999999998
  0
LINE
  5
8F
  8
NOTE
  6
CONTINOUS
 10
-20.0
 20
163.0
 30
0.0
 11
-20.0
 21
123.0
 31
0.0
  0
CIRCLE
  5
90
  8
DETAIL
  6
CONTINUOUS
 10
-20.0
 20
143.0
 30
0.0
 40
7.9400000000000004
  0
LINE
  5
91
  8
SIZE
  6
BYBLOCK
 10
-303.0
 20
423.00227499999983
 30
0.0
 11
-22.0
 21
423.00227499999983
 31
0.0
  0
TEXT
  5
92
  8
SIZE
  6
BYBLOCK
 10
-279.05714299999988
 20
325.22690899999992
 30
0.0
 40
64.0
  1
200
 41
0.9
  0
LINE
  5
93
  8
SIZE
  6
BYBLOCK
 10
-303.0
 20
293.22690899999992
 30
0.0
 11
-107.0
 21
293.22690899999992
 31
0.0
  0
CIRCLE
  5
94
  8
SIZE
  6
CONTINUOUS
 10
-305.0
 20
293.22690899999992
 30
0.0
 40
6.0
  0
CIRCLE
  5
95
  8
SIZE
  6
CONTINUOUS
 10
-305.0
 20
423.00227499999983
 30
0.0
 40
6.0
  0
CIRCLE
  5
96
  8
SIZE
  6
CONTINUOUS
 10
-105.0
 20
293.22690899999992
 30
0.0
 40
6.0
  0
CIRCLE
  5
97
  8
SIZE
  6
CONTINUOUS
 10
-20.0
 20
423.00227499999983
 30
0.0
 40
6.0
  0
TEXT
  5
98
  8
SIZE
  6
BYBLOCK
 10
-178.42857099999989
 20
596.57540100000017
 30
0.0
 40
64.0
  1
404
 41
0.9
  0
CIRCLE
  5
99
  8
SIZE
  6
CONTINUOUS
 10
-305.0
 20
564.57540100000006
 30
0.0
 40
6.0
  0
CIRCLE
  5
9A
  8
SIZE
  6
CONTINUOUS
 10
-305.0
 20
686.83288399999981
 30
0.0
 40
6.0
  0
CIRCLE
  5
9B
  8
SIZE
  6
CONTINUOUS
 10
658.95434
 20
0.0
 30
0.0
 40
6.0
  0
TEXT
  5
9C
  8
SIZE
  6
BYBLOCK
 10
626.95433999999977
 20
-9.1285710000001927
 30
0.0
 40
64.0
  1
75
 50
90.0
 41
0.9
  0
LINE
  5
9D
  8
DETAIL
  6
CONTINOUS
 10
305.0
 20
0.0
 30
0.0
 11
305.0
 21
198.0
 31
0.0
  0
LINE
  5
9E
  8
NOTE
  6
CONTINUOUS
 10
220.0
 20
100.0
 30
0.0
 11
432.88883699999991
 21
-117.15554999999991
 31
0.0
  0
TEXT
  5
9F
  8
ETC
  6
CONTINUOUS
 10
1111.806
 20
643.77994862772482
 30
0.0
 40
64.0
  1
SMPM2882
 41
0.9
  0
LINE
  5
A0
  8
SIZE
  6
BYBLOCK
 10
355.0
 20
0.0
 30
0.0
 11
688.95433999999989
 21
0.0
 31
0.0
  0
TEXT
  5
A1
  8
NOTE
  6
CONTINUOUS
 10
459.173407
 20
-233.16007999999999
 30
0.0
 40
64.0
  1
RG%%C12.7
 41
0.9
  0
LINE
  5
A2
  8
NOTE
  6
CONTINUOUS
 10
435.0465719999998
 20
-257.63627200000002
 30
0.0
 11
886.9456110000001
 21
-257.63627200000002
 31
0.0
  0
LINE
  5
A3
  8
DETAIL
  6
CONTINOUS
 10
299.0
 20
-10.0
 30
0.0
 11
299.0
 21
-23.0
 31
0.0
  0
LINE
  5
A4
  8
SIZE
  6
BYBLOCK
 10
335.0
 20
-30.0
 30
0.0
 11
335.0
 21
-350.79248799999999
 31
0.0
  0
CIRCLE
  5
A5
  8
SIZE
  6
CONTINUOUS
 10
335.0
 20
-320.79248799999999
 30
0.0
 40
6.0
  0
LINE
  5
A6
  8
NOTE
  6
CONTINUOUS
 10
432.88883699999991
 20
-117.15554999999991
 30
0.0
 11
605.33187199999998
 21
-117.15554999999991
 31
0.0
  0
TEXT
  5
A7
  8
NOTE
  6
CONTINUOUS
 10
471.41929299999993
 20
-108.153498
 30
0.0
 40
64.0
  1
AH
 41
0.9
  0
LINE
  5
A8
  8
DETAIL
  6
CONTINOUS
 10
335.0
 20
0.0
 30
0.0
 11
335.0
 21
-10.0
 31
0.0
  0
TEXT
  5
A9
  8
ETC
  6
CONTINUOUS
 10
1118.44344
 20
752.2252196277251
 30
0.0
 40
64.0
  1
PAC
 41
0.9
  0
LINE
  5
AA
  8
SIZE
  6
BYBLOCK
 10
304.0
 20
120.0
 30
0.0
 11
688.95433999999989
 21
120.0
 31
0.0
  0
LINE
  5
AB
  8
SIZE
  6
BYBLOCK
 10
304.0
 20
75.0
 30
0.0
 11
688.95433999999989
 21
75.0
 31
0.0
  0
LINE
  5
AC
  8
SIZE
  6
BYBLOCK
 10
304.0
 20
75.0
 30
0.0
 11
688.95433999999989
 21
75.0
 31
0.0
  0
TEXT
  5
AD
  8
NOTE
  6
CONTINUOUS
 10
469.01313800000003
 20
314.77565700000002
 30
0.0
 40
64.0
  1
EL,CL%%C22
 41
0.9
  0
LINE
  5
AE
  8
NOTE
  6
CONTINUOUS
 10
881.2381509999999
 20
292.71601800000002
 30
0.0
 11
445.34172399999989
 21
292.71601800000002
 31
0.0
  0
LINE
  5
AF
  8
SIZE
  6
BYBLOCK
 10
305.0
 20
238.0
 30
0.0
 11
305.0
 21
716.83288399999981
 31
0.0
  0
LINE
  5
B0
  8
SIZE
  6
BYBLOCK
 10
99.0
 20
205.0
 30
0.0
 11
99.0
 21
594.57540100000006
 31
0.0
  0
TEXT
  5
B1
  8
NOTE
  6
CONTINUOUS
 10
205.25696599999981
 20
435.02034300000003
 30
0.0
 40
64.0
  1
D%%C32
 41
0.9
  0
TEXT
  5
B2
  8
SIZE
  6
BYBLOCK
 10
250.2142859999997
 20
325.22690899999992
 30
0.0
 40
64.0
  1
41
 41
0.9
  0
LINE
  5
B3
  8
NOTE
  6
CONTINUOUS
 10
264.0
 20
120.0
 30
0.0
 11
445.34172399999989
 21
292.71601800000002
 31
0.0
  0
LINE
  5
B4
  8
NOTE
  6
CONTINUOUS
 10
446.18708800000007
 20
421.40584899999971
 30
0.0
 11
198.04010899999989
 21
421.40584899999971
 31
0.0
  0
LINE
  5
B5
  8
NOTE
  6
CONTINUOUS
 10
264.0
 20
75.0
 30
0.0
 11
445.34172399999989
 21
292.71601800000002
 31
0.0
  0
LINE
  5
B6
  8
SIZE
  6
BYBLOCK
 10
264.0
 20
160.0
 30
0.0
 11
264.0
 21
323.22690899999992
 31
0.0
  0
LINE
  5
B7
  8
SIZE
  6
BYBLOCK
 10
305.0
 20
218.0
 30
0.0
 11
305.0
 21
323.22690899999992
 31
0.0
  0
LINE
  5
B8
  8
NOTE
  6
CONTINUOUS
 10
99.0
 20
165.0
 30
0.0
 11
198.04010899999989
 21
421.40584899999971
 31
0.0
  0
POLYLINE
  5
B9
  8
NOTE
  6
CONTINUOUS
 66
     1
 10
0.0
 20
0.0
 30
0.0
  0
VERTEX
  5
108
  8
NOTE
  6
CONTINUOUS
 10
105.0999419999999
 20
204.53214800000009
 30
0.0
  0
VERTEX
  5
109
  8
NOTE
  6
CONTINUOUS
 10
99.0
 20
165.0
 30
0.0
  0
VERTEX
  5
10A
  8
NOTE
  6
CONTINUOUS
 10
124.0487789999999
 20
196.1858729999999
 30
0.0
  0
SEQEND
  5
10B
  8
NOTE
  6
CONTINUOUS
  0
LINE
  5
BE
  8
NOTE
  6
CONTINOUS
 10
79.0
 20
165.0
 30
0.0
 11
119.0
 21
165.0
 31
0.0
  0
LINE
  5
BF
  8
NOTE
  6
CONTINOUS
 10
99.0
 20
185.0
 30
0.0
 11
99.0
 21
145.0
 31
0.0
  0
CIRCLE
  5
C0
  8
DETAIL
  6
CONTINUOUS
 10
99.0
 20
165.0
 30
0.0
 40
16.0
  0
CIRCLE
  5
C1
  8
FIX
  6
CONTINUOUS
 10
220.0
 20
100.0
 30
0.0
 40
40.0
  0
LINE
  5
C2
  8
NOTE
  6
CONTINOUS
 10
220.0
 20
120.0
 30
0.0
 11
220.0
 21
80.0
 31
0.0
  0
LINE
  5
C3
  8
NOTE
  6
CONTINOUS
 10
264.0
 20
140.0
 30
0.0
 11
264.0
 21
100.0
 31
0.0
  0
CIRCLE
  5
C4
  8
DETAIL
  6
CONTINUOUS
 10
264.0
 20
120.0
 30
0.0
 40
11.0
  0
POLYLINE
  5
C5
  8
NOTE
  6
CONTINUOUS
 66
     1
 10
0.0
 20
0.0
 30
0.0
  0
VERTEX
  5
10C
  8
NOTE
  6
CONTINUOUS
 10
254.97578599999991
 20
80.591383999999806
 30
0.0
  0
VERTEX
  5
10D
  8
NOTE
  6
CONTINUOUS
 10
220.0
 20
100.0
 30
0.0
  0
VERTEX
  5
10E
  8
NOTE
  6
CONTINUOUS
 10
240.58561200000011
 20
65.703752999999779
 30
0.0
  0
SEQEND
  5
10F
  8
NOTE
  6
CONTINUOUS
  0
LINE
  5
CA
  8
NOTE
  6
CONTINOUS
 10
200.0
 20
100.0
 30
0.0
 11
240.0
 21
100.0
 31
0.0
  0
POLYLINE
  5
CB
  8
NOTE
  6
CONTINUOUS
 66
     1
 10
0.0
 20
0.0
 30
0.0
  0
VERTEX
  5
110
  8
NOTE
  6
CONTINUOUS
 10
284.70913100000001
 20
109.221805
 30
0.0
  0
VERTEX
  5
111
  8
NOTE
  6
CONTINUOUS
 10
264.0
 20
75.0
 30
0.0
  0
VERTEX
  5
112
  8
NOTE
  6
CONTINUOUS
 10
299.04553600000003
 20
94.282387000000199
 30
0.0
  0
SEQEND
  5
113
  8
NOTE
  6
CONTINUOUS
  0
LINE
  5
D0
  8
NOTE
  6
CONTINOUS
 10
264.0
 20
95.0
 30
0.0
 11
264.0
 21
55.0
 31
0.0
  0
LINE
  5
D1
  8
NOTE
  6
CONTINOUS
 10
244.0
 20
75.0
 30
0.0
 11
284.0
 21
75.0
 31
0.0
  0
CIRCLE
  5
D2
  8
DETAIL
  6
CONTINUOUS
 10
264.0
 20
75.0
 30
0.0
 40
11.0
  0
POLYLINE
  5
D3
  8
NOTE
  6
CONTINUOUS
 66
     1
 10
0.0
 20
0.0
 30
0.0
  0
VERTEX
  5
114
  8
NOTE
  6
CONTINUOUS
 10
289.15652299999999
 20
151.09902499999981
 30
0.0
  0
VERTEX
  5
115
  8
NOTE
  6
CONTINUOUS
 10
264.0
 20
120.0
 30
0.0
  0
VERTEX
  5
116
  8
NOTE
  6
CONTINUOUS
 10
301.33570099999997
 20
134.35428400000001
 30
0.0
  0
SEQEND
  5
117
  8
NOTE
  6
CONTINUOUS
  0
LINE
  5
D8
  8
NOTE
  6
CONTINOUS
 10
244.0
 20
120.0
 30
0.0
 11
284.0
 21
120.0
 31
0.0
  0
CIRCLE
  5
D9
  8
SIZE
  6
CONTINUOUS
 10
264.0
 20
293.22690899999992
 30
0.0
 40
6.0
  0
CIRCLE
  5
DA
  8
SIZE
  6
CONTINUOUS
 10
305.0
 20
293.22690899999992
 30
0.0
 40
6.0
  0
LINE
  5
DB
  8
SIZE
  6
BYBLOCK
 10
264.0
 20
293.22690899999992
 30
0.0
 11
305.0
 21
293.22690899999992
 31
0.0
  0
LINE
  5
DC
  8
SIZE
  6
BYBLOCK
 10
307.0
 20
293.22690899999992
 30
0.0
 11
309.0
 21
293.22690899999992
 31
0.0
  0
LINE
  5
DD
  8
SIZE
  6
BYBLOCK
 10
262.0
 20
293.22690899999992
 30
0.0
 11
260.0
 21
293.22690899999992
 31
0.0
  0
TEXT
  5
DE
  8
SIZE
  6
BYBLOCK
 10
626.95433999999977
 20
126.08029499999959
 30
0.0
 40
64.0
  1
45
 50
90.0
 41
0.9
  0
CIRCLE
  5
DF
  8
SIZE
  6
CONTINUOUS
 10
99.0
 20
564.57540100000006
 30
0.0
 40
6.0
  0
CIRCLE
  5
E0
  8
SIZE
  6
CONTINUOUS
 10
305.0
 20
686.83288399999981
 30
0.0
 40
6.0
  0
CIRCLE
  5
E1
  8
SIZE
  6
CONTINUOUS
 10
658.95434
 20
120.0
 30
0.0
 40
6.0
  0
LINE
  5
E2
  8
SIZE
  6
BYBLOCK
 10
658.95434
 20
118.0
 30
0.0
 11
658.95434
 21
97.5
 31
0.0
  0
CIRCLE
  5
E3
  8
SIZE
  6
CONTINUOUS
 10
658.95434
 20
75.0
 30
0.0
 40
6.0
  0
CIRCLE
  5
E4
  8
SIZE
  6
CONTINUOUS
 10
658.95434
 20
75.0
 30
0.0
 40
6.0
  0
LINE
  5
E5
  8
SIZE
  6
BYBLOCK
 10
658.95434
 20
77.0
 30
0.0
 11
658.95434
 21
97.5
 31
0.0
  0
LINE
  5
E6
  8
SIZE
  6
BYBLOCK
 10
658.95434
 20
73.0
 30
0.0
 11
658.95434
 21
37.5
 31
0.0
  0
LINE
  5
E7
  8
SIZE
  6
BYBLOCK
 10
658.95434
 20
2.0
 30
0.0
 11
658.95434
 21
37.5
 31
0.0
  0
LINE
  5
E8
  8
SIZE
  6
CONTINUOUS
 10
658.95434
 20
118.0
 30
0.0
 11
658.95434
 21
229.24339000000009
 31
0.0
  0
LINE
  5
E9
  8
OUTLINE
  6
CONTINOUS
 10
305.0
 20
198.0
 30
0.0
 11
-305.0
 21
198.0
 31
0.0
  0
LINE
  5
EA
  8
OUTLINE
  6
CONTINOUS
 10
335.0
 20
0.0
 30
0.0
 11
305.0
 21
0.0
 31
0.0
  0
LINE
  5
EB
  8
OUTLINE
  6
CONTINOUS
 10
335.0
 20
-10.0
 30
0.0
 11
299.0
 21
-10.0
 31
0.0
  0
LINE
  5
EC
  8
OUTLINE
  6
CONTINOUS
 10
299.0
 20
-23.0
 30
0.0
 11
-319.0
 21
-23.0
 31
0.0
  0
LINE
  5
ED
  8
OUTLINE
  6
CONTINOUS
 10
-305.0
 20
0.0
 30
0.0
 11
-305.0
 21
198.0
 31
0.0
  0
LINE
  5
EE
  8
OUTLINE
  6
CONTINOUS
 10
-355.0
 20
0.0
 30
0.0
 11
-355.0
 21
-10.0
 31
0.0
  0
LINE
  5
EF
  8
OUTLINE
  6
CONTINOUS
 10
-319.0
 20
-10.0
 30
0.0
 11
-319.0
 21
-23.0
 31
0.0
  0
LINE
  5
F0
  8
OUTLINE
  6
CONTINOUS
 10
305.0
 20
0.0
 30
0.0
 11
305.0
 21
198.0
 31
0.0
  0
LINE
  5
F1
  8
OUTLINE
  6
CONTINOUS
 10
299.0
 20
-10.0
 30
0.0
 11
299.0
 21
-23.0
 31
0.0
  0
LINE
  5
F2
  8
OUTLINE
  6
CONTINOUS
 10
335.0
 20
0.0
 30
0.0
 11
335.0
 21
-10.0
 31
0.0
  0
LINE
  5
F3
  8
OUTLINE
  6
CONTINOUS
 10
-319.0
 20
-10.0
 30
0.0
 11
-355.0
 21
-10.0
 31
0.0
  0
LINE
  5
F4
  8
OUTLINE
  6
CONTINOUS
 10
-305.0
 20
0.0
 30
0.0
 11
-355.0
 21
0.0
 31
0.0
  0
ENDSEC
  0
EOF
