  0
SECTION
  2
HEADER
  9
$ACADVER
  1
AC1009
  9
$INSBASE
 10
0.0
 20
0.0
 30
0.0
  9
$EXTMIN
 10
-2106.6433834281138
 20
-542.95999900000015
 30
0.0
  9
$EXTMAX
 10
1156.8389997516031
 20
837.57928074617575
 30
0.0
  9
$LIMMIN
 10
-4200.0
 20
-2970.0
  9
$LIMMAX
 10
4200.0
 20
2970.0
  9
$ORTHOMODE
 70
     1
  9
$REGENMODE
 70
     0
  9
$FILLMODE
 70
     1
  9
$QTEXTMODE
 70
     0
  9
$MIRRTEXT
 70
     0
  9
$DRAGMODE
 70
     2
  9
$LTSCALE
 40
20.0
  9
$OSMODE
 70
    37
  9
$ATTMODE
 70
     1
  9
$TEXTSIZE
 40
64.0
  9
$TRACEWID
 40
0.05
  9
$TEXTSTYLE
  7
STANDARD
  9
$CLAYER
  8
0
  9
$CELTYPE
  6
CONTINUOUS
  9
$CECOLOR
 62
     4
  9
$DIMSCALE
 40
1.0
  9
$DIMASZ
 40
2.0
  9
$DIMEXO
 40
20.0
  9
$DIMDLI
 40
200.0
  9
$DIMRND
 40
0.0
  9
$DIMDLE
 40
0.0
  9
$DIMEXE
 40
30.0
  9
$DIMTP
 40
0.0
  9
$DIMTM
 40
0.0
  9
$DIMTXT
 40
64.0
  9
$DIMCEN
 40
0.09
  9
$DIMTSZ
 40
0.0
  9
$DIMTOL
 70
     0
  9
$DIMLIM
 70
     0
  9
$DIMTIH
 70
     0
  9
$DIMTOH
 70
     0
  9
$DIMSE1
 70
     0
  9
$DIMSE2
 70
     0
  9
$DIMTAD
 70
     1
  9
$DIMZIN
 70
     8
  9
$DIMBLK
  1

  9
$DIMASO
 70
     1
  9
$DIMSHO
 70
     0
  9
$DIMPOST
  1

  9
$DIMAPOST
  1

  9
$DIMALT
 70
     0
  9
$DIMALTD
 70
     2
  9
$DIMALTF
 40
25.399999999999999
  9
$DIMLFAC
 40
1.0
  9
$DIMTOFL
 70
     1
  9
$DIMTVP
 40
0.0
  9
$DIMTIX
 70
     1
  9
$DIMSOXD
 70
     0
  9
$DIMSAH
 70
     0
  9
$DIMBLK1
  1

  9
$DIMBLK2
  1

  9
$DIMSTYLE
  2
STANDARD
  9
$DIMCLRD
 70
     0
  9
$DIMCLRE
 70
     0
  9
$DIMCLRT
 70
     0
  9
$DIMTFAC
 40
1.0
  9
$DIMGAP
 40
0.09
  9
$LUNITS
 70
     2
  9
$LUPREC
 70
     4
  9
$SKETCHINC
 40
0.1
  9
$FILLETRAD
 40
0.0
  9
$AUNITS
 70
     1
  9
$AUPREC
 70
     3
  9
$MENU
  1
ACAD
  9
$ELEVATION
 40
0.0
  9
$PELEVATION
 40
0.0
  9
$THICKNESS
 40
0.0
  9
$LIMCHECK
 70
     0
  9
$BLIPMODE
 70
     0
  9
$CHAMFERA
 40
0.0
  9
$CHAMFERB
 40
0.0
  9
$SKPOLY
 70
     0
  9
$TDCREATE
 40
2450322.5692820018
  9
$TDUPDATE
 40
2453245.5441706362
  9
$TDINDWG
 40
0.044736412
  9
$TDUSRTIMER
 40
0.0447362269
  9
$USRTIMER
 70
     1
  9
$ANGBASE
 50
0.0
  9
$ANGDIR
 70
     0
  9
$PDMODE
 70
     3
  9
$PDSIZE
 40
-2.0
  9
$PLINEWID
 40
0.0
  9
$COORDS
 70
     1
  9
$SPLFRAME
 70
     0
  9
$SPLINETYPE
 70
     6
  9
$SPLINESEGS
 70
     8
  9
$ATTDIA
 70
     0
  9
$ATTREQ
 70
     1
  9
$HANDLING
 70
 10241
  9
$HANDSEED
  5
15C
  9
$SURFTAB1
 70
     6
  9
$SURFTAB2
 70
     6
  9
$SURFTYPE
 70
     6
  9
$SURFU
 70
     6
  9
$SURFV
 70
     6
  9
$UCSNAME
  2

  9
$UCSORG
 10
0.0
 20
0.0
 30
0.0
  9
$UCSXDIR
 10
1.0
 20
0.0
 30
0.0
  9
$UCSYDIR
 10
0.0
 20
1.0
 30
0.0
  9
$PUCSNAME
  2

  9
$PUCSORG
 10
0.0
 20
0.0
 30
0.0
  9
$PUCSXDIR
 10
1.0
 20
0.0
 30
0.0
  9
$PUCSYDIR
 10
0.0
 20
1.0
 30
0.0
  9
$USERI1
 70
     0
  9
$USERI2
 70
     0
  9
$USERI3
 70
     0
  9
$USERI4
 70
     0
  9
$USERI5
 70
     0
  9
$USERR1
 40
20.0
  9
$USERR2
 40
0.0
  9
$USERR3
 40
0.0
  9
$USERR4
 40
0.0
  9
$USERR5
 40
0.0
  9
$WORLDVIEW
 70
     1
  9
$SHADEDGE
 70
     3
  9
$SHADEDIF
 70
    70
  9
$TILEMODE
 70
     1
  9
$MAXACTVP
 70
    64
  9
$PLIMCHECK
 70
     0
  9
$PEXTMIN
 10
1.0000000000000000E+020
 20
1.0000000000000000E+020
 30
1.0000000000000000E+020
  9
$PEXTMAX
 10
-1.0000000000000000E+020
 20
-1.0000000000000000E+020
 30
-1.0000000000000000E+020
  9
$PLIMMIN
 10
0.0
 20
0.0
  9
$PLIMMAX
 10
12.0
 20
9.0
  9
$UNITMODE
 70
     0
  9
$VISRETAIN
 70
     1
  9
$PLINEGEN
 70
     0
  9
$PSLTSCALE
 70
     1
  0
ENDSEC
  0
SECTION
  2
TABLES
  0
TABLE
  2
VPORT
 70
     2
  0
VPORT
  2
*ACTIVE
 70
     0
 10
0.0
 20
0.0
 11
1.0
 21
1.0
 12
234.81709277313431
 22
-34.694800207396838
 13
0.0
 23
0.0
 14
50.0
 24
50.0
 15
100.0
 25
100.0
 16
0.0
 26
0.0
 36
1.0
 17
0.0
 27
0.0
 37
0.0
 40
3198.838262942274
 41
1.513959390862943
 42
50.0
 43
0.0
 44
0.0
 50
0.0
 51
0.0
 71
     0
 72
   500
 73
     1
 74
     0
 75
     0
 76
     0
 77
     0
 78
     0
  0
ENDTAB
  0
TABLE
  2
LTYPE
 70
     8
  0
LTYPE
  2
CONTINUOUS
 70
     0
  3
実線
 72
    65
 73
     0
 40
0.0
  0
LTYPE
  2
DASHDOT
 70
     0
  3
____ _ ____ _ ____ _ ____ _ ____ _ ____ _ ____
 72
    65
 73
     4
 40
5.5
 49
4.0
 49
-0.6
 49
0.3
 49
-0.6
  0
LTYPE
  2
CONTINOUS
 70
     0
  3
Solid line
 72
    65
 73
     0
 40
0.0
  0
LTYPE
  2
DASHED
 70
     0
  3
_ _ _ _ _ _ _ _ _ _ _ _ _ _ _ _ _ _ _ _ _ _ _
 72
    65
 73
     2
 40
2.0
 49
1.1999999999999991
 49
-0.8
  0
LTYPE
  2
DOT
 70
     0
  3
...............................................
 72
    65
 73
     2
 40
0.8
 49
0.5
 49
-0.3
  0
LTYPE
  2
DASHDOT1
 70
     0
  3
____ _ ____ _ ____ _ ____ _ ____ _ ____ _ ____
 72
    65
 73
     4
 40
2.0
 49
1.5
 49
-0.2
 49
0.1
 49
-0.2
  0
LTYPE
  2
DIVIDE
 70
     0
  3
_____ _ _ _____ _ _ _____ _ _ _____ _ _ ____
 72
    65
 73
     6
 40
6.4000000000000004
 49
4.0
 49
-0.6
 49
0.3
 49
-0.6
 49
0.3
 49
-0.6
  0
LTYPE
  2
DIVIDE1
 70
     0
  3
_____ _ _ _____ _ _ _____ _ _ _____ _ _ ____
 72
    65
 73
     6
 40
3.2000000000000002
 49
2.0
 49
-0.3
 49
0.15
 49
-0.3
 49
0.15
 49
-0.3
  0
ENDTAB
  0
TABLE
  2
LAYER
 70
    12
  0
LAYER
  2
0
 70
     0
 62
     7
  6
CONTINUOUS
  0
LAYER
  2
OUTLINE
 70
     0
 62
     3
  6
CONTINUOUS
  0
LAYER
  2
DETAIL
 70
     0
 62
     5
  6
CONTINUOUS
  0
LAYER
  2
BASIS
 70
     0
 62
     6
  6
CONTINUOUS
  0
LAYER
  2
NOTE
 70
     0
 62
     4
  6
CONTINUOUS
  0
LAYER
  2
DEFPOINTS
 70
     0
 62
     7
  6
CONTINUOUS
  0
LAYER
  2
ARRANGE
 70
     0
 62
     1
  6
CONTINUOUS
  0
LAYER
  2
SIZE
 70
     0
 62
    32
  6
CONTINUOUS
  0
LAYER
  2
FIX
 70
     0
 62
   241
  6
CONTINUOUS
  0
LAYER
  2
SERVICESPACE
 70
     0
 62
     2
  6
CONTINUOUS
  0
LAYER
  2
ETC
 70
     0
 62
    83
  6
CONTINUOUS
  0
LAYER
  2
SYMBOLLINE
 70
     0
 62
    38
  6
CONTINUOUS
  0
ENDTAB
  0
TABLE
  2
STYLE
 70
     1
  0
STYLE
  2
STANDARD
 70
     0
 40
0.0
 41
0.9
 50
0.0
 71
     0
 42
64.0
  3
SIMPLEX
  4
BIGFONT
  0
ENDTAB
  0
TABLE
  2
VIEW
 70
     1
  0
VIEW
  2
ALL
 70
     0
 40
6056.2299999999987
 10
0.0
 20
58.11501599999999
 41
8400.0
 11
0.0
 21
0.0
 31
1.0
 12
0.0
 22
0.0
 32
0.0
 42
50.0
 43
0.0
 44
0.0
 50
0.0
 71
     0
  0
ENDTAB
  0
TABLE
  2
UCS
 70
     0
  0
ENDTAB
  0
TABLE
  2
APPID
 70
     1
  0
APPID
  2
ACAD
 70
     0
  0
ENDTAB
  0
TABLE
  2
DIMSTYLE
 70
     1
  0
DIMSTYLE
  2
STANDARD
 70
     0
  3

  4

  5

  6

  7

 40
1.0
 41
0.18
 42
0.0625
 43
0.38
 44
0.18
 45
0.0
 46
0.0
 47
0.0
 48
0.0
140
0.18
141
0.09
142
0.0
143
25.399999999999999
144
1.0
145
0.0
146
1.0
147
0.09
 71
     0
 72
     0
 73
     1
 74
     1
 75
     0
 76
     0
 77
     0
 78
     0
170
     0
171
     2
172
     0
173
     0
174
     0
175
     0
176
     0
177
     0
178
     0
  0
ENDTAB
  0
ENDSEC
  0
SECTION
  2
BLOCKS
  0
BLOCK
  8
0
  2
$MODEL_SPACE
 70
     0
 10
0.0
 20
0.0
 30
0.0
  3
$MODEL_SPACE
  1

  0
ENDBLK
  5
20
  8
0
  0
BLOCK
 67
     1
  8
0
  2
$PAPER_SPACE
 70
     0
 10
0.0
 20
0.0
 30
0.0
  3
$PAPER_SPACE
  1

  0
ENDBLK
  5
1C
 67
     1
  8
0
  0
ENDSEC
  0
SECTION
  2
ENTITIES
  0
TEXT
  5
3E
  8
ETC
  6
CONTINUOUS
 10
562.43765930714653
 20
665.13400974617559
 30
0.0
 40
64.0
  1
SMPM2884
 41
0.9
  0
TEXT
  5
3F
  8
ETC
  6
CONTINUOUS
 10
569.07485530714621
 20
773.57928074617575
 30
0.0
 40
64.0
  1
PAC
 41
0.9
  0
LINE
  5
40
  8
NOTE
  6
CONTINUOUS
 10
-1031.9531247359371
 20
-341.2210266783739
 30
0.0
 11
-1156.8389997516031
 21
-341.22102667837362
 31
0.0
  0
TEXT
  5
41
  8
NOTE
  6
CONTINUOUS
 10
-1141.4815587714661
 20
-332.2189746783738
 30
0.0
 40
64.0
  1
AH
 41
0.9
  0
LINE
  5
42
  8
NOTE
  6
CONTINUOUS
 10
-972.62725677384992
 20
-235.14450833535091
 30
0.0
 11
-1345.34250857556
 21
-235.14450833535039
 31
0.0
  0
TEXT
  5
43
  8
NOTE
  6
CONTINUOUS
 10
-1328.6277271256511
 20
-214.85690593506371
 30
0.0
 40
64.0
  1
RL%%C6.35
 41
0.9
  0
LINE
  5
44
  8
NOTE
  6
CONTINUOUS
 10
-869.21298157785827
 20
374.10709462678591
 30
0.0
 11
-1288.2872945207901
 21
374.10709462678591
 31
0.0
  0
TEXT
  5
45
  8
NOTE
  6
CONTINUOUS
 10
-1279.297664930642
 20
388.57334921001473
 30
0.0
 40
64.0
  1
RG%%C12.7
 41
0.9
  0
LINE
  5
46
  8
SIZE
  6
BYBLOCK
 10
-726.0
 20
90.0
 30
0.0
 11
-1555.652
 21
90.0
 31
0.0
  0
LINE
  5
47
  8
SIZE
  6
BYBLOCK
 10
-683.0
 20
100.0
 30
0.0
 11
-1735.454999999999
 21
100.0
 31
0.0
  0
LINE
  5
48
  8
SIZE
  6
BYBLOCK
 10
-732.0
 20
143.0
 30
0.0
 11
-1892.1639999999991
 21
143.0
 31
0.0
  0
LINE
  5
49
  8
SIZE
  6
BYBLOCK
 10
-683.0
 20
165.0
 30
0.0
 11
-2060.4200000000001
 21
165.0
 31
0.0
  0
LINE
  5
4A
  8
SIZE
  6
BYBLOCK
 10
-640.0
 20
198.0
 30
0.0
 11
-1254.1700000000001
 21
198.0
 31
0.0
  0
TEXT
  5
4B
  8
SIZE
  6
BYBLOCK
 10
-1100.3403834281139
 20
5.9282899999998317
 30
0.0
 40
64.0
  1
10
 50
90.0
 41
0.9
  0
LINE
  5
4C
  8
SIZE
  6
BYBLOCK
 10
-810.0
 20
0.0
 30
0.0
 11
-1415.864
 21
0.0
 31
0.0
  0
LINE
  5
4D
  8
SIZE
  6
BYBLOCK
 10
-810.0
 20
0.0
 30
0.0
 11
-1555.652
 21
0.0
 31
0.0
  0
LINE
  5
4E
  8
SIZE
  6
BYBLOCK
 10
-810.0
 20
0.0
 30
0.0
 11
-1735.454999999999
 21
0.0
 31
0.0
  0
LINE
  5
4F
  8
SIZE
  6
BYBLOCK
 10
-810.0
 20
0.0
 30
0.0
 11
-1892.1639999999991
 21
0.0
 31
0.0
  0
LINE
  5
50
  8
SIZE
  6
BYBLOCK
 10
-810.0
 20
0.0
 30
0.0
 11
-2060.4200000000001
 21
0.0
 31
0.0
  0
LINE
  5
51
  8
SIZE
  6
BYBLOCK
 10
-695.0
 20
-23.0
 30
0.0
 11
-1118.117
 21
-23.0
 31
0.0
  0
LINE
  5
52
  8
SIZE
  6
BYBLOCK
 10
-810.0
 20
0.0
 30
0.0
 11
-1254.1700000000001
 21
0.0
 31
0.0
  0
LINE
  5
53
  8
SIZE
  6
BYBLOCK
 10
-810.0
 20
0.0
 30
0.0
 11
-1118.117
 21
0.0
 31
0.0
  0
LINE
  5
54
  8
SIZE
  6
BYBLOCK
 10
-810.0
 20
-10.0
 30
0.0
 11
-1118.117
 21
-10.0
 31
0.0
  0
TEXT
  5
55
  8
SIZE
  6
BYBLOCK
 10
-1103.8903834281141
 20
-115.6311799999997
 30
0.0
 40
64.0
  1
13
 50
90.0
 41
0.9
  0
LINE
  5
56
  8
SIZE
  6
BYBLOCK
 10
-810.0
 20
-10.0
 30
0.0
 11
-1118.117
 21
-10.0
 31
0.0
  0
LINE
  5
57
  8
SIZE
  6
BYBLOCK
 10
-660.0
 20
75.0
 30
0.0
 11
-1415.864
 21
75.0
 31
0.0
  0
LINE
  5
58
  8
SIZE
  6
BYBLOCK
 10
-660.0
 20
120.0
 30
0.0
 11
-1415.864
 21
120.0
 31
0.0
  0
LINE
  5
59
  8
SIZE
  6
BYBLOCK
 10
-660.0
 20
75.0
 30
0.0
 11
-1415.864
 21
75.0
 31
0.0
  0
LINE
  5
5A
  8
SIZE
  6
BYBLOCK
 10
640.0
 20
-390.74511200000001
 30
0.0
 11
-641.0
 21
-390.74511200000001
 31
0.0
  0
LINE
  5
5B
  8
SIZE
  6
BYBLOCK
 10
618.0
 20
467.13564700000001
 30
0.0
 11
-618.0
 21
467.13564700000001
 31
0.0
  0
LINE
  5
5C
  8
SIZE
  6
BYBLOCK
 10
-788.0
 20
-512.95999900000015
 30
0.0
 11
698.0
 21
-512.95999900000015
 31
0.0
  0
LINE
  5
5D
  8
DETAIL
  6
CONTINOUS
 10
585.0
 20
-23.0
 30
0.0
 11
-675.0
 21
-23.0
 31
0.0
  0
LINE
  5
5E
  8
DETAIL
  6
CONTINOUS
 10
700.0
 20
-10.0
 30
0.0
 11
-790.0
 21
-10.0
 31
0.0
  0
LINE
  5
5F
  8
DETAIL
  6
CONTINOUS
 10
700.0
 20
0.0
 30
0.0
 11
-790.0
 21
0.0
 31
0.0
  0
LINE
  5
60
  8
DETAIL
  6
CONTINOUS
 10
620.0
 20
198.0
 30
0.0
 11
-620.0
 21
198.0
 31
0.0
  0
LINE
  5
61
  8
SIZE
  6
BYBLOCK
 10
642.0
 20
40.0
 30
0.0
 11
642.0
 21
-420.74511199999989
 31
0.0
  0
LINE
  5
62
  8
SIZE
  6
BYBLOCK
 10
642.0
 20
60.0
 30
0.0
 11
642.0
 21
-420.74511199999989
 31
0.0
  0
LINE
  5
63
  8
SIZE
  6
BYBLOCK
 10
700.0
 20
-30.0
 30
0.0
 11
700.0
 21
-542.95999900000015
 31
0.0
  0
LINE
  5
64
  8
SIZE
  6
BYBLOCK
 10
700.0
 20
-50.0
 30
0.0
 11
700.0
 21
-420.74511199999989
 31
0.0
  0
CIRCLE
  5
65
  8
SIZE
  6
CONTINUOUS
 10
700.0
 20
-512.95999900000015
 30
0.0
 40
6.0
  0
LINE
  5
66
  8
SIZE
  6
BYBLOCK
 10
700.0
 20
-390.74511200000001
 30
0.0
 11
642.0
 21
-390.74511200000001
 31
0.0
  0
CIRCLE
  5
67
  8
SIZE
  6
CONTINUOUS
 10
700.0
 20
-390.74511200000001
 30
0.0
 40
6.0
  0
LINE
  5
68
  8
SIZE
  6
BYBLOCK
 10
702.0
 20
-390.74511200000001
 30
0.0
 11
704.0
 21
-390.74511200000001
 31
0.0
  0
CIRCLE
  5
69
  8
SIZE
  6
CONTINUOUS
 10
642.0
 20
-390.74511200000001
 30
0.0
 40
6.0
  0
CIRCLE
  5
6A
  8
SIZE
  6
CONTINUOUS
 10
642.0
 20
-390.74511200000001
 30
0.0
 40
6.0
  0
LINE
  5
6B
  8
SIZE
  6
BYBLOCK
 10
640.0
 20
-390.74511200000001
 30
0.0
 11
638.0
 21
-390.74511200000001
 31
0.0
  0
TEXT
  5
6C
  8
SIZE
  6
BYBLOCK
 10
624.37142814285755
 20
-358.74511200000001
 30
0.0
 40
64.0
  1
58
 41
0.9
  0
LINE
  5
6D
  8
SIZE
  6
BYBLOCK
 10
700.0
 20
20.0
 30
0.0
 11
700.0
 21
497.13564699999989
 31
0.0
  0
LINE
  5
6E
  8
SIZE
  6
BYBLOCK
 10
620.0
 20
238.0
 30
0.0
 11
620.0
 21
497.13564699999989
 31
0.0
  0
LINE
  5
6F
  8
SIZE
  6
BYBLOCK
 10
620.0
 20
218.0
 30
0.0
 11
620.0
 21
497.13564699999989
 31
0.0
  0
LINE
  5
70
  8
NOTE
  6
CONTINOUS
 10
642.0
 20
80.0
 30
0.0
 11
642.0
 21
120.0
 31
0.0
  0
CIRCLE
  5
71
  8
FIX
  6
CONTINUOUS
 10
642.0
 20
100.0
 30
0.0
 40
40.0
  0
TEXT
  5
72
  8
SIZE
  6
BYBLOCK
 10
916.20102399999985
 20
-18.57142900000008
 30
0.0
 40
64.0
  1
100
 50
90.0
 41
0.9
  0
LINE
  5
73
  8
SIZE
  6
BYBLOCK
 10
820.20102399999985
 20
100.0
 30
0.0
 11
820.20102399999985
 21
0.0
 31
0.0
  0
LINE
  5
74
  8
DETAIL
  6
CONTINOUS
 10
620.0
 20
0.0
 30
0.0
 11
620.0
 21
198.0
 31
0.0
  0
LINE
  5
75
  8
SIZE
  6
BYBLOCK
 10
720.0
 20
0.0
 30
0.0
 11
850.20102399999985
 21
0.0
 31
0.0
  0
CIRCLE
  5
76
  8
SIZE
  6
CONTINUOUS
 10
820.20102399999985
 20
0.0
 30
0.0
 40
6.0
  0
LINE
  5
77
  8
SIZE
  6
BYBLOCK
 10
820.20102399999985
 20
-2.0
 30
0.0
 11
820.20102399999985
 21
-4.0
 31
0.0
  0
LINE
  5
78
  8
DETAIL
  6
CONTINOUS
 10
700.0
 20
-10.0
 30
0.0
 11
700.0
 21
0.0
 31
0.0
  0
LINE
  5
79
  8
SIZE
  6
BYBLOCK
 10
682.0
 20
100.0
 30
0.0
 11
850.20102399999985
 21
100.0
 31
0.0
  0
CIRCLE
  5
7A
  8
SIZE
  6
CONTINUOUS
 10
820.20102399999985
 20
100.0
 30
0.0
 40
6.0
  0
LINE
  5
7B
  8
SIZE
  6
BYBLOCK
 10
820.20102399999985
 20
102.0
 30
0.0
 11
820.20102399999985
 21
104.0
 31
0.0
  0
LINE
  5
7C
  8
NOTE
  6
CONTINOUS
 10
662.0
 20
100.0
 30
0.0
 11
622.0
 21
100.0
 31
0.0
  0
LINE
  5
7D
  8
DETAIL
  6
CONTINOUS
 10
585.0
 20
-10.0
 30
0.0
 11
585.0
 21
-23.0
 31
0.0
  0
TEXT
  5
7E
  8
SIZE
  6
BYBLOCK
 10
613.37142814285755
 20
499.13564700000001
 30
0.0
 40
64.0
  1
80
 41
0.9
  0
LINE
  5
7F
  8
SIZE
  6
BYBLOCK
 10
700.0
 20
467.13564700000001
 30
0.0
 11
620.0
 21
467.13564700000001
 31
0.0
  0
CIRCLE
  5
80
  8
SIZE
  6
CONTINUOUS
 10
700.0
 20
467.13564700000001
 30
0.0
 40
6.0
  0
LINE
  5
81
  8
SIZE
  6
BYBLOCK
 10
702.0
 20
467.13564700000001
 30
0.0
 11
704.0
 21
467.13564700000001
 31
0.0
  0
CIRCLE
  5
82
  8
SIZE
  6
CONTINUOUS
 10
620.0
 20
467.13564700000001
 30
0.0
 40
6.0
  0
CIRCLE
  5
83
  8
SIZE
  6
CONTINUOUS
 10
620.0
 20
467.13564700000001
 30
0.0
 40
6.0
  0
LINE
  5
84
  8
SIZE
  6
BYBLOCK
 10
618.0
 20
467.13564700000001
 30
0.0
 11
616.0
 21
467.13564700000001
 31
0.0
  0
TEXT
  5
85
  8
NOTE
  6
CONTINUOUS
 10
-360.58367454659202
 20
-177.47030784541801
 30
0.0
 40
64.0
  1
EL,CL%%C22
 41
0.9
  0
LINE
  5
86
  8
NOTE
  6
CONTINUOUS
 10
-397.03725897516358
 20
-199.5299468454181
 30
0.0
 11
-620.0
 21
75.0
 31
0.0
  0
LINE
  5
87
  8
NOTE
  6
CONTINUOUS
 10
-397.03725897516358
 20
-199.5299468454181
 30
0.0
 11
-620.0
 21
120.0
 31
0.0
  0
LINE
  5
88
  8
NOTE
  6
CONTINUOUS
 10
-1031.9531247359371
 20
-341.2210266783739
 30
0.0
 11
-643.0
 21
100.0
 31
0.0
  0
LINE
  5
89
  8
NOTE
  6
CONTINUOUS
 10
-972.62725677384992
 20
-235.14450833535091
 30
0.0
 11
-686.0
 21
90.0
 31
0.0
  0
LINE
  5
8A
  8
SIZE
  6
BYBLOCK
 10
-643.0
 20
60.0
 30
0.0
 11
-643.0
 21
-420.74511199999989
 31
0.0
  0
LINE
  5
8B
  8
SIZE
  6
BYBLOCK
 10
-692.0
 20
115.0599999999998
 30
0.0
 11
-692.0
 21
-300.64812899999998
 31
0.0
  0
LINE
  5
8C
  8
SIZE
  6
BYBLOCK
 10
-686.0
 20
65.239999999999782
 30
0.0
 11
-686.0
 21
-189.0399959999998
 31
0.0
  0
LINE
  5
8D
  8
SIZE
  6
BYBLOCK
 10
-620.0
 20
-20.0
 30
0.0
 11
-620.0
 21
-300.64812899999998
 31
0.0
  0
LINE
  5
8E
  8
SIZE
  6
BYBLOCK
 10
-620.0
 20
-20.0
 30
0.0
 11
-620.0
 21
-189.0399959999998
 31
0.0
  0
LINE
  5
8F
  8
SIZE
  6
BYBLOCK
 10
-790.0
 20
-30.0
 30
0.0
 11
-790.0
 21
-542.95999900000015
 31
0.0
  0
LINE
  5
90
  8
NOTE
  6
CONTINUOUS
 10
-397.03725897516358
 20
-199.5299468454181
 30
0.0
 11
38.859168024836421
 21
-199.5299468454181
 31
0.0
  0
TEXT
  5
91
  8
SIZE
  6
BYBLOCK
 10
-96.5
 20
-358.74511200000001
 30
0.0
 40
64.0
  1
1285
 41
0.9
  0
TEXT
  5
92
  8
SIZE
  6
BYBLOCK
 10
-141.0
 20
-480.9599990000001
 30
0.0
 40
64.0
  1
1490
 41
0.9
  0
CIRCLE
  5
93
  8
SIZE
  6
CONTINUOUS
 10
-643.0
 20
-390.74511200000001
 30
0.0
 40
6.0
  0
LINE
  5
94
  8
SIZE
  6
BYBLOCK
 10
-620.0
 20
-270.6481290000001
 30
0.0
 11
-692.0
 21
-270.6481290000001
 31
0.0
  0
CIRCLE
  5
95
  8
SIZE
  6
CONTINUOUS
 10
-620.0
 20
-270.6481290000001
 30
0.0
 40
6.0
  0
LINE
  5
96
  8
SIZE
  6
BYBLOCK
 10
-618.0
 20
-270.6481290000001
 30
0.0
 11
-616.0
 21
-270.6481290000001
 31
0.0
  0
CIRCLE
  5
97
  8
SIZE
  6
CONTINUOUS
 10
-692.0
 20
-270.6481290000001
 30
0.0
 40
6.0
  0
LINE
  5
98
  8
SIZE
  6
BYBLOCK
 10
-694.0
 20
-270.6481290000001
 30
0.0
 11
-696.0
 21
-270.6481290000001
 31
0.0
  0
LINE
  5
99
  8
SIZE
  6
BYBLOCK
 10
-620.0
 20
-159.0399959999998
 30
0.0
 11
-686.0
 21
-159.0399959999998
 31
0.0
  0
TEXT
  5
9A
  8
SIZE
  6
BYBLOCK
 10
-702.62857185714245
 20
-238.64812900000001
 30
0.0
 40
64.0
  1
72
 41
0.9
  0
CIRCLE
  5
9B
  8
SIZE
  6
CONTINUOUS
 10
-620.0
 20
-159.0399959999998
 30
0.0
 40
6.0
  0
LINE
  5
9C
  8
SIZE
  6
BYBLOCK
 10
-618.0
 20
-159.0399959999998
 30
0.0
 11
-616.0
 21
-159.0399959999998
 31
0.0
  0
CIRCLE
  5
9D
  8
SIZE
  6
CONTINUOUS
 10
-686.0
 20
-159.0399959999998
 30
0.0
 40
6.0
  0
LINE
  5
9E
  8
SIZE
  6
BYBLOCK
 10
-688.0
 20
-159.0399959999998
 30
0.0
 11
-690.0
 21
-159.0399959999998
 31
0.0
  0
CIRCLE
  5
9F
  8
SIZE
  6
CONTINUOUS
 10
-790.0
 20
-512.95999900000015
 30
0.0
 40
6.0
  0
LINE
  5
A0
  8
NOTE
  6
CONTINUOUS
 10
-567.22516971692085
 20
307.27691779415937
 30
0.0
 11
-335.26788754036022
 21
307.27691779416
 31
0.0
  0
TEXT
  5
A1
  8
NOTE
  6
CONTINUOUS
 10
-545.45617311178876
 20
320.89141179416032
 30
0.0
 40
64.0
  1
D%%C32
 41
0.9
  0
LINE
  5
A2
  8
BASIS
  6
DASHDOT
 10
0.0
 20
286.29541958143
 30
0.0
 11
0.0
 21
-80.600324418569912
 31
0.0
  0
CIRCLE
  5
A3
  8
ARRANGE
  6
CONTINUOUS
 10
0.0
 20
0.0
 30
0.0
 40
40.0
  0
POINT
  5
A4
  8
ARRANGE
  6
CONTINUOUS
 10
0.0
 20
0.0
 30
0.0
  0
TEXT
  5
A5
  8
SIZE
  6
BYBLOCK
 10
-96.0
 20
499.13564700000001
 30
0.0
 40
64.0
  1
1240
 41
0.9
  0
LINE
  5
A6
  8
NOTE
  6
CONTINUOUS
 10
-869.21298157785827
 20
374.10709462678591
 30
0.0
 11
-692.0
 21
143.0
 31
0.0
  0
LINE
  5
A7
  8
SIZE
  6
BYBLOCK
 10
-620.0
 20
218.0
 30
0.0
 11
-620.0
 21
378.77701200000001
 31
0.0
  0
LINE
  5
A8
  8
SIZE
  6
BYBLOCK
 10
-643.0
 20
185.0
 30
0.0
 11
-643.0
 21
378.77701200000001
 31
0.0
  0
LINE
  5
A9
  8
SIZE
  6
BYBLOCK
 10
-620.0
 20
238.0
 30
0.0
 11
-620.0
 21
497.13564699999989
 31
0.0
  0
LINE
  5
AA
  8
SIZE
  6
BYBLOCK
 10
-620.0
 20
218.0
 30
0.0
 11
-620.0
 21
497.13564699999989
 31
0.0
  0
LINE
  5
AB
  8
SIZE
  6
BYBLOCK
 10
-790.0
 20
20.0
 30
0.0
 11
-790.0
 21
497.13564699999989
 31
0.0
  0
POLYLINE
  5
AC
  8
NOTE
  6
CONTINUOUS
 66
     1
 10
0.0
 20
0.0
 30
0.0
  0
VERTEX
  5
140
  8
NOTE
  6
CONTINUOUS
 10
-719.31584601977602
 20
67.862828069586158
 30
0.0
  0
VERTEX
  5
141
  8
NOTE
  6
CONTINUOUS
 10
-686.0
 20
90.0
 30
0.0
  0
VERTEX
  5
142
  8
NOTE
  6
CONTINUOUS
 10
-703.78378360029353
 20
54.170723312307473
 30
0.0
  0
SEQEND
  5
143
  8
NOTE
  6
CONTINUOUS
  0
POLYLINE
  5
B1
  8
NOTE
  6
CONTINUOUS
 66
     1
 10
0.0
 20
0.0
 30
0.0
  0
VERTEX
  5
144
  8
NOTE
  6
CONTINUOUS
 10
-708.53177800000003
 20
179.42389800000001
 30
0.0
  0
VERTEX
  5
145
  8
NOTE
  6
CONTINUOUS
 10
-692.0
 20
143.0
 30
0.0
  0
VERTEX
  5
146
  8
NOTE
  6
CONTINUOUS
 10
-724.52888799999982
 20
166.27813199999991
 30
0.0
  0
SEQEND
  5
147
  8
NOTE
  6
CONTINUOUS
  0
POLYLINE
  5
B6
  8
NOTE
  6
CONTINUOUS
 66
     1
 10
0.0
 20
0.0
 30
0.0
  0
VERTEX
  5
148
  8
NOTE
  6
CONTINUOUS
 10
-605.12088060960195
 20
82.870337524804199
 30
0.0
  0
VERTEX
  5
149
  8
NOTE
  6
CONTINUOUS
 10
-620.0
 20
120.0
 30
0.0
  0
VERTEX
  5
14A
  8
NOTE
  6
CONTINUOUS
 10
-588.54947410259535
 20
95.284328762854784
 30
0.0
  0
SEQEND
  5
14B
  8
NOTE
  6
CONTINUOUS
  0
POLYLINE
  5
BB
  8
NOTE
  6
CONTINUOUS
 66
     1
 10
0.0
 20
0.0
 30
0.0
  0
VERTEX
  5
14C
  8
NOTE
  6
CONTINUOUS
 10
-676.31584601977602
 20
77.862828069586143
 30
0.0
  0
VERTEX
  5
14D
  8
NOTE
  6
CONTINUOUS
 10
-643.0
 20
100.0
 30
0.0
  0
VERTEX
  5
14E
  8
NOTE
  6
CONTINUOUS
 10
-660.78378360029365
 20
64.170723312307473
 30
0.0
  0
SEQEND
  5
14F
  8
NOTE
  6
CONTINUOUS
  0
LINE
  5
C0
  8
NOTE
  6
CONTINOUS
 10
-643.0
 20
80.0
 30
0.0
 11
-643.0
 21
120.0
 31
0.0
  0
LINE
  5
C1
  8
NOTE
  6
CONTINOUS
 10
-686.0
 20
70.0
 30
0.0
 11
-686.0
 21
110.0
 31
0.0
  0
LINE
  5
C2
  8
DETAIL
  6
CONTINUOUS
 10
-686.0
 20
94.760000000000204
 30
0.0
 11
-686.0
 21
85.239999999999768
 31
0.0
  0
LINE
  5
C3
  8
NOTE
  6
CONTINOUS
 10
-620.0
 20
55.0
 30
0.0
 11
-620.0
 21
95.0
 31
0.0
  0
CIRCLE
  5
C4
  8
FIX
  6
CONTINUOUS
 10
-643.0
 20
100.0
 30
0.0
 40
40.0
  0
LINE
  5
C5
  8
DETAIL
  6
CONTINOUS
 10
-620.0
 20
0.0
 30
0.0
 11
-620.0
 21
198.0
 31
0.0
  0
TEXT
  5
C6
  8
SIZE
  6
BYBLOCK
 10
-698.25714271428558
 20
-127.0399959999999
 30
0.0
 40
64.0
  1
66
 41
0.9
  0
LINE
  5
C7
  8
NOTE
  6
CONTINOUS
 10
-600.0
 20
75.0
 30
0.0
 11
-640.0
 21
75.0
 31
0.0
  0
LINE
  5
C8
  8
DETAIL
  6
CONTINUOUS
 10
-686.0
 20
85.239999999999768
 30
0.0
 11
-620.0
 21
85.239999999999768
 31
0.0
  0
POLYLINE
  5
C9
  8
NOTE
  6
CONTINUOUS
 66
     1
 10
0.0
 20
0.0
 30
0.0
  0
VERTEX
  5
150
  8
NOTE
  6
CONTINUOUS
 10
-602.45690889130481
 20
39.052260381106862
 30
0.0
  0
VERTEX
  5
151
  8
NOTE
  6
CONTINUOUS
 10
-620.0
 20
75.0
 30
0.0
  0
VERTEX
  5
152
  8
NOTE
  6
CONTINUOUS
 10
-586.83336834620411
 20
52.639889788566961
 30
0.0
  0
SEQEND
  5
153
  8
NOTE
  6
CONTINUOUS
  0
LINE
  5
CE
  8
DETAIL
  6
CONTINOUS
 10
-675.0
 20
-10.0
 30
0.0
 11
-675.0
 21
-23.0
 31
0.0
  0
LINE
  5
CF
  8
NOTE
  6
CONTINUOUS
 10
-567.22516971692085
 20
307.27691779415937
 30
0.0
 11
-643.0
 21
165.0
 31
0.0
  0
LINE
  5
D0
  8
DETAIL
  6
CONTINUOUS
 10
-643.0
 20
181.0
 30
0.0
 11
-620.0
 21
181.0
 31
0.0
  0
LINE
  5
D1
  8
NOTE
  6
CONTINOUS
 10
-623.0
 20
100.0
 30
0.0
 11
-663.0
 21
100.0
 31
0.0
  0
LINE
  5
D2
  8
DETAIL
  6
CONTINUOUS
 10
-686.0
 20
94.760000000000204
 30
0.0
 11
-620.0
 21
94.760000000000204
 31
0.0
  0
LINE
  5
D3
  8
NOTE
  6
CONTINOUS
 10
-600.0
 20
120.0
 30
0.0
 11
-640.0
 21
120.0
 31
0.0
  0
LINE
  5
D4
  8
NOTE
  6
CONTINOUS
 10
-623.0
 20
165.0
 30
0.0
 11
-663.0
 21
165.0
 31
0.0
  0
LINE
  5
D5
  8
DETAIL
  6
CONTINUOUS
 10
-692.0
 20
150.94
 30
0.0
 11
-620.0
 21
150.94
 31
0.0
  0
LINE
  5
D6
  8
DETAIL
  6
CONTINUOUS
 10
-692.0
 20
135.0599999999998
 30
0.0
 11
-620.0
 21
135.0599999999998
 31
0.0
  0
POLYLINE
  5
D7
  8
NOTE
  6
CONTINUOUS
 66
     1
 10
0.0
 20
0.0
 30
0.0
  0
VERTEX
  5
154
  8
NOTE
  6
CONTINUOUS
 10
-615.75524299999995
 20
194.286912
 30
0.0
  0
VERTEX
  5
155
  8
NOTE
  6
CONTINUOUS
 10
-643.0
 20
165.0
 30
0.0
  0
VERTEX
  5
156
  8
NOTE
  6
CONTINUOUS
 10
-634.04880400000002
 20
203.98558800000001
 30
0.0
  0
SEQEND
  5
157
  8
NOTE
  6
CONTINUOUS
  0
LINE
  5
DC
  8
NOTE
  6
CONTINOUS
 10
-620.0
 20
100.0
 30
0.0
 11
-620.0
 21
140.0
 31
0.0
  0
LINE
  5
DD
  8
NOTE
  6
CONTINOUS
 10
-672.0
 20
143.0
 30
0.0
 11
-712.0
 21
143.0
 31
0.0
  0
LINE
  5
DE
  8
NOTE
  6
CONTINOUS
 10
-666.0
 20
90.0
 30
0.0
 11
-706.0
 21
90.0
 31
0.0
  0
LINE
  5
DF
  8
NOTE
  6
CONTINOUS
 10
-692.0
 20
123.0
 30
0.0
 11
-692.0
 21
163.0
 31
0.0
  0
LINE
  5
E0
  8
DETAIL
  6
CONTINUOUS
 10
-692.0
 20
150.94
 30
0.0
 11
-692.0
 21
135.0599999999998
 31
0.0
  0
LINE
  5
E1
  8
NOTE
  6
CONTINOUS
 10
-643.0
 20
145.0
 30
0.0
 11
-643.0
 21
185.0
 31
0.0
  0
LINE
  5
E2
  8
DETAIL
  6
CONTINUOUS
 10
-643.0
 20
181.0
 30
0.0
 11
-643.0
 21
150.94
 31
0.0
  0
LINE
  5
E3
  8
DETAIL
  6
CONTINOUS
 10
-790.0
 20
-10.0
 30
0.0
 11
-790.0
 21
0.0
 31
0.0
  0
TEXT
  5
E4
  8
SIZE
  6
BYBLOCK
 10
-773.57142814285703
 20
499.13564700000001
 30
0.0
 40
64.0
  1
170
 41
0.9
  0
LINE
  5
E5
  8
SIZE
  6
BYBLOCK
 10
-788.0
 20
467.13564700000001
 30
0.0
 11
-622.0
 21
467.13564700000001
 31
0.0
  0
TEXT
  5
E6
  8
SIZE
  6
BYBLOCK
 10
-678.12857185714245
 20
380.77701200000001
 30
0.0
 40
64.0
  1
23
 41
0.9
  0
LINE
  5
E7
  8
SIZE
  6
BYBLOCK
 10
-620.0
 20
348.77701200000001
 30
0.0
 11
-643.0
 21
348.77701200000001
 31
0.0
  0
CIRCLE
  5
E8
  8
SIZE
  6
CONTINUOUS
 10
-620.0
 20
348.77701200000001
 30
0.0
 40
6.0
  0
LINE
  5
E9
  8
SIZE
  6
BYBLOCK
 10
-618.0
 20
348.77701200000001
 30
0.0
 11
-616.0
 21
348.77701200000001
 31
0.0
  0
CIRCLE
  5
EA
  8
SIZE
  6
CONTINUOUS
 10
-643.0
 20
348.77701200000001
 30
0.0
 40
6.0
  0
LINE
  5
EB
  8
SIZE
  6
BYBLOCK
 10
-645.0
 20
348.77701200000001
 30
0.0
 11
-647.0
 21
348.77701200000001
 31
0.0
  0
CIRCLE
  5
EC
  8
SIZE
  6
CONTINUOUS
 10
-620.0
 20
467.13564700000001
 30
0.0
 40
6.0
  0
CIRCLE
  5
ED
  8
SIZE
  6
CONTINUOUS
 10
-620.0
 20
467.13564700000001
 30
0.0
 40
6.0
  0
CIRCLE
  5
EE
  8
SIZE
  6
CONTINUOUS
 10
-790.0
 20
467.13564700000001
 30
0.0
 40
6.0
  0
CIRCLE
  5
EF
  8
SIZE
  6
CONTINUOUS
 10
-1705.454999999999
 20
100.0
 30
0.0
 40
6.0
  0
CIRCLE
  5
F0
  8
SIZE
  6
CONTINUOUS
 10
-1705.454999999999
 20
0.0
 30
0.0
 40
6.0
  0
TEXT
  5
F1
  8
SIZE
  6
BYBLOCK
 10
-1236.393383428114
 20
30.428570999999909
 30
0.0
 40
64.0
  1
198
 50
90.0
 41
0.9
  0
LINE
  5
F2
  8
SIZE
  6
CONTINUOUS
 10
-1088.117
 20
-2.0
 30
0.0
 11
-1088.117
 21
100.41007999999999
 31
0.0
  0
LINE
  5
F3
  8
SIZE
  6
BYBLOCK
 10
-1224.1700000000001
 20
2.0
 30
0.0
 11
-1224.1700000000001
 21
196.0
 31
0.0
  0
CIRCLE
  5
F4
  8
SIZE
  6
CONTINUOUS
 10
-1088.117
 20
-23.0
 30
0.0
 40
6.0
  0
LINE
  5
F5
  8
SIZE
  6
CONTINUOUS
 10
-1088.117
 20
-21.0
 30
0.0
 11
-1088.117
 21
-125.6260360000001
 31
0.0
  0
CIRCLE
  5
F6
  8
SIZE
  6
CONTINUOUS
 10
-1088.117
 20
0.0
 30
0.0
 40
6.0
  0
CIRCLE
  5
F7
  8
SIZE
  6
CONTINUOUS
 10
-1088.117
 20
-10.0
 30
0.0
 40
6.0
  0
CIRCLE
  5
F8
  8
SIZE
  6
CONTINUOUS
 10
-1088.117
 20
-10.0
 30
0.0
 40
6.0
  0
LINE
  5
F9
  8
SIZE
  6
BYBLOCK
 10
-1088.117
 20
-2.0
 30
0.0
 11
-1088.117
 21
-5.0
 31
0.0
  0
LINE
  5
FA
  8
SIZE
  6
BYBLOCK
 10
-1088.117
 20
-8.0
 30
0.0
 11
-1088.117
 21
-5.0
 31
0.0
  0
LINE
  5
FB
  8
SIZE
  6
BYBLOCK
 10
-1088.117
 20
-21.0
 30
0.0
 11
-1088.117
 21
-16.5
 31
0.0
  0
LINE
  5
FC
  8
SIZE
  6
BYBLOCK
 10
-1088.117
 20
-12.0
 30
0.0
 11
-1088.117
 21
-16.5
 31
0.0
  0
TEXT
  5
FD
  8
SIZE
  6
BYBLOCK
 10
-1398.087383428114
 20
-9.1285710000001927
 30
0.0
 40
64.0
  1
75
 50
90.0
 41
0.9
  0
CIRCLE
  5
FE
  8
SIZE
  6
CONTINUOUS
 10
-1224.1700000000001
 20
0.0
 30
0.0
 40
6.0
  0
TEXT
  5
FF
  8
SIZE
  6
BYBLOCK
 10
-1398.087383428114
 20
141.3347960000001
 30
0.0
 40
64.0
  1
45
 50
90.0
 41
0.9
  0
CIRCLE
  5
100
  8
SIZE
  6
CONTINUOUS
 10
-1224.1700000000001
 20
198.0
 30
0.0
 40
6.0
  0
TEXT
  5
101
  8
SIZE
  6
BYBLOCK
 10
-1717.6783834281141
 20
-18.57142900000008
 30
0.0
 40
64.0
  1
100
 50
90.0
 41
0.9
  0
CIRCLE
  5
102
  8
SIZE
  6
CONTINUOUS
 10
-1525.652
 20
90.0
 30
0.0
 40
6.0
  0
LINE
  5
103
  8
SIZE
  6
BYBLOCK
 10
-1385.864
 20
77.0
 30
0.0
 11
-1385.864
 21
97.5
 31
0.0
  0
TEXT
  5
104
  8
SIZE
  6
BYBLOCK
 10
-1537.8753834281131
 20
-1.6285710000001921
 30
0.0
 40
64.0
  1
90
 50
90.0
 41
0.9
  0
LINE
  5
105
  8
SIZE
  6
BYBLOCK
 10
-1525.652
 20
90.0
 30
0.0
 11
-1525.652
 21
0.0
 31
0.0
  0
CIRCLE
  5
106
  8
SIZE
  6
CONTINUOUS
 10
-1385.864
 20
75.0
 30
0.0
 40
6.0
  0
CIRCLE
  5
107
  8
SIZE
  6
CONTINUOUS
 10
-1385.864
 20
75.0
 30
0.0
 40
6.0
  0
LINE
  5
108
  8
SIZE
  6
BYBLOCK
 10
-1385.864
 20
77.0
 30
0.0
 11
-1385.864
 21
79.0
 31
0.0
  0
CIRCLE
  5
109
  8
SIZE
  6
CONTINUOUS
 10
-1385.864
 20
0.0
 30
0.0
 40
6.0
  0
LINE
  5
10A
  8
SIZE
  6
BYBLOCK
 10
-1385.864
 20
-2.0
 30
0.0
 11
-1385.864
 21
-4.0
 31
0.0
  0
LINE
  5
10B
  8
SIZE
  6
BYBLOCK
 10
-1385.864
 20
75.0
 30
0.0
 11
-1385.864
 21
0.0
 31
0.0
  0
CIRCLE
  5
10C
  8
SIZE
  6
CONTINUOUS
 10
-1525.652
 20
0.0
 30
0.0
 40
6.0
  0
LINE
  5
10D
  8
SIZE
  6
BYBLOCK
 10
-1525.652
 20
-2.0
 30
0.0
 11
-1525.652
 21
-4.0
 31
0.0
  0
LINE
  5
10E
  8
SIZE
  6
CONTINUOUS
 10
-1385.864
 20
120.0
 30
0.0
 11
-1385.864
 21
268.95719999999972
 31
0.0
  0
CIRCLE
  5
10F
  8
SIZE
  6
CONTINUOUS
 10
-1385.864
 20
120.0
 30
0.0
 40
6.0
  0
LINE
  5
110
  8
SIZE
  6
BYBLOCK
 10
-1385.864
 20
118.0
 30
0.0
 11
-1385.864
 21
97.5
 31
0.0
  0
LINE
  5
111
  8
SIZE
  6
BYBLOCK
 10
-1525.652
 20
92.0
 30
0.0
 11
-1525.652
 21
94.0
 31
0.0
  0
CIRCLE
  5
112
  8
SIZE
  6
CONTINUOUS
 10
-2030.4200000000001
 20
165.0
 30
0.0
 40
6.0
  0
CIRCLE
  5
113
  8
SIZE
  6
CONTINUOUS
 10
-2030.4200000000001
 20
0.0
 30
0.0
 40
6.0
  0
TEXT
  5
114
  8
SIZE
  6
BYBLOCK
 10
-2042.643383428114
 20
13.928570999999909
 30
0.0
 40
64.0
  1
165
 50
90.0
 41
0.9
  0
TEXT
  5
115
  8
SIZE
  6
BYBLOCK
 10
-1874.387383428113
 20
2.9285709999999181
 30
0.0
 40
64.0
  1
143
 50
90.0
 41
0.9
  0
LINE
  5
116
  8
SIZE
  6
BYBLOCK
 10
-1862.1639999999991
 20
2.0
 30
0.0
 11
-1862.1639999999991
 21
141.0
 31
0.0
  0
LINE
  5
117
  8
SIZE
  6
BYBLOCK
 10
-1705.454999999999
 20
100.0
 30
0.0
 11
-1705.454999999999
 21
0.0
 31
0.0
  0
CIRCLE
  5
118
  8
SIZE
  6
CONTINUOUS
 10
-1862.1639999999991
 20
0.0
 30
0.0
 40
6.0
  0
LINE
  5
119
  8
SIZE
  6
BYBLOCK
 10
-1705.454999999999
 20
-2.0
 30
0.0
 11
-1705.454999999999
 21
-4.0
 31
0.0
  0
CIRCLE
  5
11A
  8
SIZE
  6
CONTINUOUS
 10
-1862.1639999999991
 20
143.0
 30
0.0
 40
6.0
  0
LINE
  5
11B
  8
SIZE
  6
BYBLOCK
 10
-1705.454999999999
 20
102.0
 30
0.0
 11
-1705.454999999999
 21
104.0
 31
0.0
  0
LINE
  5
11C
  8
SIZE
  6
BYBLOCK
 10
-2030.4200000000001
 20
2.0
 30
0.0
 11
-2030.4200000000001
 21
163.0
 31
0.0
  0
LINE
  5
11D
  8
NOTE
  6
CONTINUOUS
 10
1031.9531247359371
 20
-341.2210266783739
 30
0.0
 11
1156.8389997516031
 21
-341.22102667837362
 31
0.0
  0
TEXT
  5
11E
  8
NOTE
  6
CONTINUOUS
 10
1042.7387016286091
 20
-332.2189746783738
 30
0.0
 40
64.0
  1
AH
 41
0.9
  0
LINE
  5
11F
  8
NOTE
  6
CONTINUOUS
 10
1031.9531247359371
 20
-341.2210266783739
 30
0.0
 11
643.0
 21
100.0
 31
0.0
  0
POLYLINE
  5
120
  8
NOTE
  6
CONTINUOUS
 66
     1
 10
0.0
 20
0.0
 30
0.0
  0
VERTEX
  5
158
  8
NOTE
  6
CONTINUOUS
 10
676.31584601977556
 20
77.862828069586143
 30
0.0
  0
VERTEX
  5
159
  8
NOTE
  6
CONTINUOUS
 10
643.0
 20
100.0
 30
0.0
  0
VERTEX
  5
15A
  8
NOTE
  6
CONTINUOUS
 10
660.78378360029365
 20
64.170723312307473
 30
0.0
  0
SEQEND
  5
15B
  8
NOTE
  6
CONTINUOUS
  0
LINE
  5
125
  8
OUTLINE
  6
CONTINOUS
 10
585.0
 20
-23.0
 30
0.0
 11
-675.0
 21
-23.0
 31
0.0
  0
LINE
  5
126
  8
OUTLINE
  6
CONTINOUS
 10
700.0
 20
-10.0
 30
0.0
 11
585.0
 21
-10.0
 31
0.0
  0
LINE
  5
127
  8
OUTLINE
  6
CONTINOUS
 10
700.0
 20
0.0
 30
0.0
 11
620.0
 21
0.0
 31
0.0
  0
LINE
  5
128
  8
OUTLINE
  6
CONTINOUS
 10
620.0
 20
198.0
 30
0.0
 11
-620.0
 21
198.0
 31
0.0
  0
LINE
  5
129
  8
OUTLINE
  6
CONTINOUS
 10
-790.0
 20
-10.0
 30
0.0
 11
-790.0
 21
0.0
 31
0.0
  0
LINE
  5
12A
  8
OUTLINE
  6
CONTINUOUS
 10
-686.0
 20
94.760000000000204
 30
0.0
 11
-686.0
 21
85.239999999999768
 31
0.0
  0
LINE
  5
12B
  8
OUTLINE
  6
CONTINOUS
 10
-620.0
 20
0.0
 30
0.0
 11
-620.0
 21
198.0
 31
0.0
  0
LINE
  5
12C
  8
OUTLINE
  6
CONTINUOUS
 10
-686.0
 20
85.239999999999768
 30
0.0
 11
-620.0
 21
85.239999999999768
 31
0.0
  0
LINE
  5
12D
  8
OUTLINE
  6
CONTINOUS
 10
-675.0
 20
-10.0
 30
0.0
 11
-675.0
 21
-23.0
 31
0.0
  0
LINE
  5
12E
  8
OUTLINE
  6
CONTINUOUS
 10
-686.0
 20
94.760000000000204
 30
0.0
 11
-620.0
 21
94.760000000000204
 31
0.0
  0
LINE
  5
12F
  8
OUTLINE
  6
CONTINUOUS
 10
-692.0
 20
150.94000000000051
 30
0.0
 11
-620.0
 21
150.94000000000051
 31
0.0
  0
LINE
  5
130
  8
OUTLINE
  6
CONTINUOUS
 10
-692.0
 20
135.05999999999941
 30
0.0
 11
-620.0
 21
135.05999999999941
 31
0.0
  0
LINE
  5
131
  8
OUTLINE
  6
CONTINUOUS
 10
-692.0
 20
150.94000000000051
 30
0.0
 11
-692.0
 21
135.05999999999941
 31
0.0
  0
LINE
  5
132
  8
OUTLINE
  6
CONTINUOUS
 10
-643.0
 20
181.0
 30
0.0
 11
-620.0
 21
181.0
 31
0.0
  0
LINE
  5
133
  8
OUTLINE
  6
CONTINUOUS
 10
-643.0
 20
181.0
 30
0.0
 11
-643.0
 21
150.94000000000051
 31
0.0
  0
LINE
  5
134
  8
OUTLINE
  6
CONTINOUS
 10
620.0
 20
0.0
 30
0.0
 11
620.0
 21
198.0
 31
0.0
  0
LINE
  5
135
  8
OUTLINE
  6
CONTINOUS
 10
585.0
 20
-10.0
 30
0.0
 11
585.0
 21
-23.0
 31
0.0
  0
LINE
  5
136
  8
OUTLINE
  6
CONTINOUS
 10
700.0
 20
-10.0
 30
0.0
 11
700.0
 21
0.0
 31
0.0
  0
LINE
  5
137
  8
OUTLINE
  6
CONTINOUS
 10
-675.0
 20
-10.0
 30
0.0
 11
-790.0
 21
-10.0
 31
0.0
  0
LINE
  5
138
  8
OUTLINE
  6
CONTINOUS
 10
-619.99999999999955
 20
0.0
 30
0.0
 11
-790.0
 21
0.0
 31
0.0
  0
ENDSEC
  0
EOF
