  0
SECTION
  2
HEADER
  9
$ACADVER
  1
AC1009
  9
$INSBASE
 10
0.0
 20
0.0
 30
0.0
  9
$EXTMIN
 10
-978.37424175963361
 20
-586.28879035493355
 30
0.0
  9
$EXTMAX
 10
1556.472162303643
 20
2788.496303373523
 30
0.0
  9
$LIMMIN
 10
-1627.7898051083239
 20
-859.94528756355794
  9
$LIMMAX
 10
1984.5025920040509
 20
2967.297126102229
  9
$ORTHOMODE
 70
     0
  9
$REGENMODE
 70
     0
  9
$FILLMODE
 70
     1
  9
$QTEXTMODE
 70
     0
  9
$MIRRTEXT
 70
     0
  9
$DRAGMODE
 70
     2
  9
$LTSCALE
 40
20.0
  9
$OSMODE
 70
   119
  9
$ATTMODE
 70
     1
  9
$TEXTSIZE
 40
64.0
  9
$TRACEWID
 40
0.05
  9
$TEXTSTYLE
  7
STANDARD
  9
$CLAYER
  8
SIZE
  9
$CELTYPE
  6
CONTINUOUS
  9
$CECOLOR
 62
   256
  9
$DIMSCALE
 40
1.0
  9
$DIMASZ
 40
10.0
  9
$DIMEXO
 40
10.0
  9
$DIMDLI
 40
200.0
  9
$DIMRND
 40
0.0
  9
$DIMDLE
 40
0.0
  9
$DIMEXE
 40
20.0
  9
$DIMTP
 40
0.0
  9
$DIMTM
 40
0.0
  9
$DIMTXT
 40
64.0
  9
$DIMCEN
 40
0.09
  9
$DIMTSZ
 40
0.0
  9
$DIMTOL
 70
     0
  9
$DIMLIM
 70
     0
  9
$DIMTIH
 70
     0
  9
$DIMTOH
 70
     0
  9
$DIMSE1
 70
     0
  9
$DIMSE2
 70
     0
  9
$DIMTAD
 70
     1
  9
$DIMZIN
 70
     8
  9
$DIMBLK
  1
ORIGIN
  9
$DIMASO
 70
     1
  9
$DIMSHO
 70
     0
  9
$DIMPOST
  1

  9
$DIMAPOST
  1

  9
$DIMALT
 70
     0
  9
$DIMALTD
 70
     2
  9
$DIMALTF
 40
25.399999999999999
  9
$DIMLFAC
 40
1.0
  9
$DIMTOFL
 70
     1
  9
$DIMTVP
 40
0.0
  9
$DIMTIX
 70
     1
  9
$DIMSOXD
 70
     0
  9
$DIMSAH
 70
     0
  9
$DIMBLK1
  1

  9
$DIMBLK2
  1

  9
$DIMSTYLE
  2
STANDARD
  9
$DIMCLRD
 70
     0
  9
$DIMCLRE
 70
     0
  9
$DIMCLRT
 70
     0
  9
$DIMTFAC
 40
1.0
  9
$DIMGAP
 40
20.0
  9
$LUNITS
 70
     2
  9
$LUPREC
 70
     4
  9
$SKETCHINC
 40
0.1
  9
$FILLETRAD
 40
0.0
  9
$AUNITS
 70
     1
  9
$AUPREC
 70
     3
  9
$MENU
  1
ACAD
  9
$ELEVATION
 40
0.0
  9
$PELEVATION
 40
0.0
  9
$THICKNESS
 40
0.0
  9
$LIMCHECK
 70
     0
  9
$BLIPMODE
 70
     0
  9
$CHAMFERA
 40
0.0
  9
$CHAMFERB
 40
0.0
  9
$SKPOLY
 70
     0
  9
$TDCREATE
 40
2450332.8443059949
  9
$TDUPDATE
 40
2453687.634646805
  9
$TDINDWG
 40
0.1357380093
  9
$TDUSRTIMER
 40
0.1357380093
  9
$USRTIMER
 70
     1
  9
$ANGBASE
 50
0.0
  9
$ANGDIR
 70
     0
  9
$PDMODE
 70
     3
  9
$PDSIZE
 40
-2.0
  9
$PLINEWID
 40
0.0
  9
$COORDS
 70
     0
  9
$SPLFRAME
 70
     0
  9
$SPLINETYPE
 70
     6
  9
$SPLINESEGS
 70
     8
  9
$ATTDIA
 70
     0
  9
$ATTREQ
 70
     1
  9
$HANDLING
 70
-16383
  9
$HANDSEED
  5
BA6
  9
$SURFTAB1
 70
     6
  9
$SURFTAB2
 70
     6
  9
$SURFTYPE
 70
     6
  9
$SURFU
 70
     6
  9
$SURFV
 70
     6
  9
$UCSNAME
  2

  9
$UCSORG
 10
0.0
 20
0.0
 30
0.0
  9
$UCSXDIR
 10
1.0
 20
0.0
 30
0.0
  9
$UCSYDIR
 10
0.0
 20
1.0
 30
0.0
  9
$PUCSNAME
  2

  9
$PUCSORG
 10
0.0
 20
0.0
 30
0.0
  9
$PUCSXDIR
 10
1.0
 20
0.0
 30
0.0
  9
$PUCSYDIR
 10
0.0
 20
1.0
 30
0.0
  9
$USERI1
 70
     0
  9
$USERI2
 70
     0
  9
$USERI3
 70
     0
  9
$USERI4
 70
     0
  9
$USERI5
 70
     0
  9
$USERR1
 40
20.0
  9
$USERR2
 40
0.0
  9
$USERR3
 40
0.0
  9
$USERR4
 40
0.0
  9
$USERR5
 40
0.0
  9
$WORLDVIEW
 70
     1
  9
$SHADEDGE
 70
     3
  9
$SHADEDIF
 70
    70
  9
$TILEMODE
 70
     1
  9
$MAXACTVP
 70
    64
  9
$PLIMCHECK
 70
     0
  9
$PEXTMIN
 10
1.0000000000000000E+020
 20
1.0000000000000000E+020
 30
1.0000000000000000E+020
  9
$PEXTMAX
 10
-1.0000000000000000E+020
 20
-1.0000000000000000E+020
 30
-1.0000000000000000E+020
  9
$PLIMMIN
 10
0.0
 20
0.0
  9
$PLIMMAX
 10
12.0
 20
9.0
  9
$UNITMODE
 70
     0
  9
$VISRETAIN
 70
     1
  9
$PLINEGEN
 70
     0
  9
$PSLTSCALE
 70
     1
  0
ENDSEC
  0
SECTION
  2
TABLES
  0
TABLE
  2
VPORT
 70
     2
  0
VPORT
  2
*ACTIVE
 70
     0
 10
0.0
 20
0.0
 11
1.0
 21
1.0
 12
680.06366994463167
 22
1316.0272153626449
 13
0.0
 23
0.0
 14
400.0
 24
400.0
 15
100.0
 25
100.0
 16
0.0
 26
0.0
 36
1.0
 17
0.0
 27
0.0
 37
0.0
 40
6041.7959752907309
 41
1.314578005115089
 42
50.0
 43
0.0
 44
0.0
 50
0.0
 51
0.0
 71
     0
 72
   500
 73
     1
 74
     0
 75
     0
 76
     0
 77
     0
 78
     1
  0
ENDTAB
  0
TABLE
  2
LTYPE
 70
     7
  0
LTYPE
  2
CONTINUOUS
 70
     0
  3
実線
 72
    65
 73
     0
 40
0.0
  0
LTYPE
  2
DOT
 70
     0
  3
...............................................
 72
    65
 73
     2
 40
0.8
 49
0.5
 49
-0.3
  0
LTYPE
  2
DASHED
 70
     0
  3
_ _ _ _ _ _ _ _ _ _ _ _ _ _ _ _ _ _ _ _ _ _ _
 72
    65
 73
     2
 40
2.0
 49
1.1999999999999991
 49
-0.8
  0
LTYPE
  2
DASHDOT
 70
     0
  3
____ _ ____ _ ____ _ ____ _ ____ _ ____ _ ____
 72
    65
 73
     4
 40
5.5
 49
4.0
 49
-0.6
 49
0.3
 49
-0.6
  0
LTYPE
  2
DASHDOT1
 70
     0
  3
____ _ ____ _ ____ _ ____ _ ____ _ ____ _ ____
 72
    65
 73
     4
 40
2.0
 49
1.5
 49
-0.2
 49
0.1
 49
-0.2
  0
LTYPE
  2
DIVIDE
 70
     0
  3
_____ _ _ _____ _ _ _____ _ _ _____ _ _ ____
 72
    65
 73
     6
 40
6.4000000000000004
 49
4.0
 49
-0.6
 49
0.3
 49
-0.6
 49
0.3
 49
-0.6
  0
LTYPE
  2
DIVIDE1
 70
     0
  3
_____ _ _ _____ _ _ _____ _ _ _____ _ _ ____
 72
    65
 73
     6
 40
3.2000000000000002
 49
2.0
 49
-0.3
 49
0.15
 49
-0.3
 49
0.15
 49
-0.3
  0
ENDTAB
  0
TABLE
  2
LAYER
 70
    12
  0
LAYER
  2
0
 70
     0
 62
     7
  6
CONTINUOUS
  0
LAYER
  2
OUTLINE
 70
     0
 62
     3
  6
CONTINUOUS
  0
LAYER
  2
DETAIL
 70
     0
 62
     5
  6
CONTINUOUS
  0
LAYER
  2
BASIS
 70
     0
 62
     6
  6
CONTINUOUS
  0
LAYER
  2
SIZE
 70
     0
 62
    32
  6
CONTINUOUS
  0
LAYER
  2
NOTE
 70
     0
 62
     4
  6
CONTINUOUS
  0
LAYER
  2
DEFPOINTS
 70
     0
 62
     7
  6
CONTINUOUS
  0
LAYER
  2
ARRANGE
 70
     0
 62
     1
  6
CONTINUOUS
  0
LAYER
  2
FIX
 70
     0
 62
   241
  6
CONTINUOUS
  0
LAYER
  2
ETC
 70
     0
 62
    83
  6
CONTINUOUS
  0
LAYER
  2
SERVICESPACE
 70
     0
 62
     2
  6
CONTINUOUS
  0
LAYER
  2
SYMBOLLINE
 70
     0
 62
    38
  6
CONTINUOUS
  0
ENDTAB
  0
TABLE
  2
STYLE
 70
     1
  0
STYLE
  2
STANDARD
 70
     0
 40
0.0
 41
0.9
 50
0.0
 71
     0
 42
64.0
  3
SIMPLEX
  4
BIGFONT
  0
ENDTAB
  0
TABLE
  2
VIEW
 70
     1
  0
VIEW
  2
ALL
 70
     0
 40
6056.2299999999987
 10
0.0
 20
58.115015999999997
 41
8400.0
 11
0.0
 21
0.0
 31
1.0
 12
0.0
 22
0.0
 32
0.0
 42
50.0
 43
0.0
 44
0.0
 50
0.0
 71
     0
  0
ENDTAB
  0
TABLE
  2
UCS
 70
     0
  0
ENDTAB
  0
TABLE
  2
APPID
 70
     1
  0
APPID
  2
ACAD
 70
     0
  0
ENDTAB
  0
TABLE
  2
DIMSTYLE
 70
     1
  0
DIMSTYLE
  2
STANDARD
 70
     0
  3

  4

  5

  6

  7

 40
1.0
 41
0.18
 42
0.0625
 43
0.38
 44
0.18
 45
0.0
 46
0.0
 47
0.0
 48
0.0
140
0.18
141
0.09
142
0.0
143
25.399999999999999
144
1.0
145
0.0
146
1.0
147
0.09
 71
     0
 72
     0
 73
     1
 74
     1
 75
     0
 76
     0
 77
     0
 78
     0
170
     0
171
     2
172
     0
173
     0
174
     0
175
     0
176
     0
177
     0
178
     0
  0
ENDTAB
  0
ENDSEC
  0
SECTION
  2
BLOCKS
  0
BLOCK
  8
0
  2
$MODEL_SPACE
 70
     0
 10
0.0
 20
0.0
 30
0.0
  3
$MODEL_SPACE
  1

  0
ENDBLK
  5
20
  8
0
  0
BLOCK
 67
     1
  8
0
  2
$PAPER_SPACE
 70
     0
 10
0.0
 20
0.0
 30
0.0
  3
$PAPER_SPACE
  1

  0
ENDBLK
  5
1C
 67
     1
  8
0
  0
BLOCK
  8
0
  2
_ORIGIN
 70
     0
 10
0.0
 20
0.0
 30
0.0
  3
_ORIGIN
  1

  0
CIRCLE
  5
DA
  8
0
  6
BYBLOCK
 62
     0
 10
0.0
 20
0.0
 30
0.0
 40
0.5
  0
LINE
  5
DB
  8
0
  6
BYBLOCK
 62
     0
 10
0.0
 20
0.0
 30
0.0
 11
-1.0
 21
0.0
 31
0.0
  0
ENDBLK
  5
DD
  8
0
  0
ENDSEC
  0
SECTION
  2
ENTITIES
  0
TEXT
  5
4D
  8
ETC
  6
CONTINUOUS
 10
1143.9569359597531
 20
2724.496303373523
 30
0.0
 40
64.0
  1
PAC
 41
0.9
  0
LINE
  5
102
  8
NOTE
  6
CONTINUOUS
 10
687.29277180096949
 20
292.76869869043742
 30
0.0
 11
189.26887693410379
 21
292.76869869043742
 31
0.0
  0
TEXT
  5
103
  8
NOTE
  6
CONTINUOUS
 10
202.89879980096879
 20
309.58677369043733
 30
0.0
 40
64.0
  1
EL,D,RL,RG
 41
0.9
  0
TEXT
  5
49C
  8
ETC
  6
CONTINUOUS
 10
1117.6150194464999
 20
2573.875407676293
 30
0.0
 40
64.0
  1
SMPS3304
 41
0.9
  0
LINE
  5
5A2
  8
NOTE
  6
CONTINUOUS
 10
0.0
 20
110.0000000000001
 30
0.0
 11
189.26887693410379
 21
292.76869869043742
 31
0.0
  0
POLYLINE
  5
5A3
  8
NOTE
  6
CONTINUOUS
 66
     1
 10
0.0
 20
0.0
 30
0.0
  0
VERTEX
  5
B86
  8
NOTE
  6
CONTINUOUS
 10
19.582696280881009
 20
144.8786185212727
 30
0.0
  0
VERTEX
  5
B87
  8
NOTE
  6
CONTINUOUS
 10
0.0
 20
110.0000000000001
 30
0.0
  0
VERTEX
  5
B88
  8
NOTE
  6
CONTINUOUS
 10
34.39842139605571
 20
130.41442125652381
 30
0.0
  0
SEQEND
  5
B89
  8
NOTE
  6
CONTINUOUS
  0
LINE
  5
7C0
  8
NOTE
  6
CONTINUOUS
 10
-261.0
 20
590.0
 30
0.0
 11
68.587385675549285
 21
972.24550359119519
 31
0.0
  0
LINE
  5
7C1
  8
NOTE
  6
CONTINUOUS
 10
-77.0
 20
0.0000000000004547
 30
0.0
 11
117.2639489765551
 21
-264.65444516423207
 31
0.0
  0
LINE
  5
7C6
  8
NOTE
  6
CONTINUOUS
 10
-190.0
 20
140.0
 30
0.0
 11
99.766732523953564
 21
435.46764868889733
 31
0.0
  0
LINE
  5
7C7
  8
NOTE
  6
CONTINUOUS
 10
100.1115173773005
 20
435.46764868889733
 30
0.0
 11
-190.0
 21
90.0
 31
0.0
  0
LINE
  5
7C8
  8
NOTE
  6
CONTINUOUS
 10
-261.0
 20
480.0
 30
0.0
 11
68.587385675549285
 21
862.24550359119519
 31
0.0
  0
POINT
  5
7C9
  8
ARRANGE
  6
CONTINUOUS
 10
0.0
 20
0.0
 30
0.0
  0
CIRCLE
  5
7CA
  8
ARRANGE
  6
CONTINUOUS
 10
0.0
 20
0.0
 30
0.0
 40
40.0
  0
LINE
  5
7CB
  8
NOTE
  6
CONTINUOUS
 10
20.0
 20
1921.0
 30
0.0
 11
-20.0
 21
1921.0
 31
0.0
  0
LINE
  5
7CC
  8
NOTE
  6
CONTINUOUS
 10
20.0
 20
110.0
 30
0.0
 11
-20.0
 21
110.0
 31
0.0
  0
CIRCLE
  5
7CD
  8
FIX
  6
CONTINUOUS
 10
0.0
 20
1921.0
 30
0.0
 40
40.0
  0
LINE
  5
7D6
  8
NOTE
  6
CONTINUOUS
 10
-260.0
 20
115.0
 30
0.0
 11
-537.99309715797915
 21
-308.07528428933108
 31
0.0
  0
LINE
  5
7D7
  8
DETAIL
  6
CONTINUOUS
 10
0.0
 20
1940.0
 30
0.0
 11
0.0
 21
0.0
 31
0.0
  0
LINE
  5
7D9
  8
BASIS
  6
DASHDOT
 10
-175.0
 20
1932.8720000000001
 30
0.0
 11
-175.0
 21
-45.603967999999888
 31
0.0
  0
LINE
  5
7DB
  8
NOTE
  6
CONTINUOUS
 10
-77.0
 20
20.0
 30
0.0
 11
-77.0
 21
-20.0
 31
0.0
  0
CIRCLE
  5
7DC
  8
FIX
  6
CONTINUOUS
 10
-77.0
 20
0.0
 30
0.0
 40
40.0
  0
CIRCLE
  5
7DD
  8
FIX
  6
CONTINUOUS
 10
-280.0
 20
0.0
 30
0.0
 40
40.0
  0
TEXT
  5
7DE
  8
NOTE
  6
CONTINUOUS
 10
-901.0461965534414
 20
-283.41416528933081
 30
0.0
 40
64.0
  1
D,RL,RG
 41
0.9
  0
LINE
  5
7DF
  8
NOTE
  6
CONTINUOUS
 10
-537.99309715797915
 20
-308.07528428933108
 30
0.0
 11
-914.74735755344091
 21
-308.07528428933068
 31
0.0
  0
LINE
  5
7E0
  8
SIZE
  6
BYBLOCK
 10
-335.0
 20
0.0
 30
0.0
 11
-676.00282800000014
 21
0.0
 31
0.0
  0
LINE
  5
7E2
  8
DETAIL
  6
CONTINUOUS
 10
0.0
 20
0.0
 30
0.0
 11
-310.0
 21
0.0
 31
0.0
  0
LINE
  5
7E3
  8
NOTE
  6
CONTINUOUS
 10
-260.0
 20
0.0
 30
0.0
 11
-300.0
 21
0.0
 31
0.0
  0
LINE
  5
7E4
  8
NOTE
  6
CONTINUOUS
 10
-57.0
 20
0.0
 30
0.0
 11
-97.0
 21
0.0
 31
0.0
  0
POLYLINE
  5
7E5
  8
NOTE
  6
CONTINUOUS
 66
     1
 10
0.0
 20
0.0
 30
0.0
  0
VERTEX
  5
B8A
  8
NOTE
  6
CONTINUOUS
 10
-62.953140608258771
 20
-37.452445848809923
 30
0.0
  0
VERTEX
  5
B8B
  8
NOTE
  6
CONTINUOUS
 10
-77.0
 20
0.0000000000004547
 30
0.0
  0
VERTEX
  5
B8C
  8
NOTE
  6
CONTINUOUS
 10
-46.108840045716533
 20
-25.41134062991204
 30
0.0
  0
SEQEND
  5
B8D
  8
NOTE
  6
CONTINUOUS
  0
LINE
  5
7EA
  8
NOTE
  6
CONTINUOUS
 10
-261.0
 20
500.0
 30
0.0
 11
-261.0
 21
460.0
 31
0.0
  0
LINE
  5
7EC
  8
DETAIL
  6
CONTINUOUS
 10
0.0
 20
30.0
 30
0.0
 11
-360.0
 21
30.0
 31
0.0
  0
POLYLINE
  5
7ED
  8
NOTE
  6
CONTINUOUS
 66
     1
 10
0.0
 20
0.0
 30
0.0
  0
VERTEX
  5
B8E
  8
NOTE
  6
CONTINUOUS
 10
-171.9005455927194
 20
125.67085328462611
 30
0.0
  0
VERTEX
  5
B8F
  8
NOTE
  6
CONTINUOUS
 10
-190.0
 20
90.0
 30
0.0
  0
VERTEX
  5
B90
  8
NOTE
  6
CONTINUOUS
 10
-156.48998604269991
 20
111.8421373225909
 30
0.0
  0
SEQEND
  5
B91
  8
NOTE
  6
CONTINUOUS
  0
POLYLINE
  5
7EE
  8
NOTE
  6
CONTINUOUS
 66
     1
 10
0.0
 20
0.0
 30
0.0
  0
VERTEX
  5
B92
  8
NOTE
  6
CONTINUOUS
 10
-172.8415566162661
 20
176.13291894321861
 30
0.0
  0
VERTEX
  5
B93
  8
NOTE
  6
CONTINUOUS
 10
-190.0
 20
140.0
 30
0.0
  0
VERTEX
  5
B94
  8
NOTE
  6
CONTINUOUS
 10
-157.07389305116149
 20
162.71280437791521
 30
0.0
  0
SEQEND
  5
B95
  8
NOTE
  6
CONTINUOUS
  0
LINE
  5
7EF
  8
DETAIL
  6
CONTINUOUS
 10
-245.0
 20
100.0
 30
0.0
 11
-245.0
 21
130.0
 31
0.0
  0
LINE
  5
7F0
  8
DETAIL
  6
CONTINUOUS
 10
-275.0
 20
100.0
 30
0.0
 11
-275.0
 21
130.0
 31
0.0
  0
LINE
  5
7F1
  8
NOTE
  6
CONTINUOUS
 10
-260.0
 20
135.0
 30
0.0
 11
-260.0
 21
95.0
 31
0.0
  0
ARC
  5
7F2
  8
DETAIL
  6
CONTINUOUS
 10
-260.0
 20
100.0
 30
0.0
 40
15.0
 50
180.0
 51
0.0
  0
LINE
  5
7F3
  8
NOTE
  6
CONTINUOUS
 10
-240.0
 20
115.0
 30
0.0
 11
-280.0
 21
115.0
 31
0.0
  0
POLYLINE
  5
7F4
  8
NOTE
  6
CONTINUOUS
 66
     1
 10
0.0
 20
0.0
 30
0.0
  0
VERTEX
  5
B96
  8
NOTE
  6
CONTINUOUS
 10
-271.85120403252631
 20
76.795956247684444
 30
0.0
  0
VERTEX
  5
B97
  8
NOTE
  6
CONTINUOUS
 10
-260.0
 20
115.0
 30
0.0
  0
VERTEX
  5
B98
  8
NOTE
  6
CONTINUOUS
 10
-289.36546555690018
 20
87.839929329948518
 30
0.0
  0
SEQEND
  5
B99
  8
NOTE
  6
CONTINUOUS
  0
CIRCLE
  5
7F5
  8
DETAIL
  6
CONTINUOUS
 10
-190.0
 20
90.0
 30
0.0
 40
13.5
  0
LINE
  5
7F6
  8
NOTE
  6
CONTINUOUS
 10
-170.0
 20
90.0
 30
0.0
 11
-210.0
 21
90.0
 31
0.0
  0
LINE
  5
7F7
  8
NOTE
  6
CONTINUOUS
 10
-190.0
 20
110.0
 30
0.0
 11
-190.0
 21
70.0
 31
0.0
  0
ARC
  5
7F8
  8
DETAIL
  6
CONTINUOUS
 10
-260.0
 20
130.0
 30
0.0
 40
15.0
 50
0.0
 51
180.0
  0
CIRCLE
  5
7F9
  8
DETAIL
  6
CONTINUOUS
 10
-190.0
 20
140.0
 30
0.0
 40
13.5
  0
LINE
  5
7FA
  8
NOTE
  6
CONTINUOUS
 10
-170.0
 20
140.0
 30
0.0
 11
-210.0
 21
140.0
 31
0.0
  0
LINE
  5
7FB
  8
NOTE
  6
CONTINUOUS
 10
-190.0
 20
160.0
 30
0.0
 11
-190.0
 21
120.0
 31
0.0
  0
LINE
  5
7FC
  8
NOTE
  6
CONTINUOUS
 10
0.0
 20
130.0
 30
0.0
 11
0.0
 21
90.0
 31
0.0
  0
LINE
  5
7FD
  8
NOTE
  6
CONTINUOUS
 10
-261.0
 20
610.0
 30
0.0
 11
-261.0
 21
570.0
 31
0.0
  0
LINE
  5
7FE
  8
NOTE
  6
CONTINUOUS
 10
-241.0
 20
480.0
 30
0.0
 11
-281.0
 21
480.0
 31
0.0
  0
POLYLINE
  5
7FF
  8
NOTE
  6
CONTINUOUS
 66
     1
 10
0.0
 20
0.0
 30
0.0
  0
VERTEX
  5
B9A
  8
NOTE
  6
CONTINUOUS
 10
-241.72436565995841
 20
515.04925022528175
 30
0.0
  0
VERTEX
  5
B9B
  8
NOTE
  6
CONTINUOUS
 10
-261.0
 20
480.0
 30
0.0
  0
VERTEX
  5
B9C
  8
NOTE
  6
CONTINUOUS
 10
-226.7821860970239
 20
500.71572383447909
 30
0.0
  0
SEQEND
  5
B9D
  8
NOTE
  6
CONTINUOUS
  0
POLYLINE
  5
800
  8
NOTE
  6
CONTINUOUS
 66
     1
 10
0.0
 20
0.0
 30
0.0
  0
VERTEX
  5
B9E
  8
NOTE
  6
CONTINUOUS
 10
-241.72436565995841
 20
625.04925022528175
 30
0.0
  0
VERTEX
  5
B9F
  8
NOTE
  6
CONTINUOUS
 10
-261.0
 20
590.0
 30
0.0
  0
VERTEX
  5
BA0
  8
NOTE
  6
CONTINUOUS
 10
-226.7821860970239
 20
610.71572383447926
 30
0.0
  0
SEQEND
  5
BA1
  8
NOTE
  6
CONTINUOUS
  0
LINE
  5
801
  8
NOTE
  6
CONTINUOUS
 10
-241.0
 20
590.0
 30
0.0
 11
-281.0
 21
590.0
 31
0.0
  0
LINE
  5
804
  8
DETAIL
  6
CONTINUOUS
 10
0.0
 20
1900.0
 30
0.0
 11
-360.0
 21
1900.0
 31
0.0
  0
LINE
  5
806
  8
DETAIL
  6
CONTINUOUS
 10
-111.0
 20
1901.0
 30
0.0
 11
-1.0
 21
1901.0
 31
0.0
  0
LINE
  5
808
  8
DETAIL
  6
CONTINUOUS
 10
-111.0
 20
1901.0
 30
0.0
 11
-111.0
 21
1900.0
 31
0.0
  0
LINE
  5
80B
  8
DETAIL
  6
CONTINUOUS
 10
0.0
 20
1940.0
 30
0.0
 11
-1.0
 21
1940.0
 31
0.0
  0
LINE
  5
80C
  8
DETAIL
  6
CONTINUOUS
 10
-1.0
 20
1940.0
 30
0.0
 11
-1.0
 21
1901.0
 31
0.0
  0
LINE
  5
80D
  8
NOTE
  6
CONTINUOUS
 10
0.0
 20
1941.0
 30
0.0
 11
0.0
 21
1901.0
 31
0.0
  0
LINE
  5
80E
  8
NOTE
  6
CONTINUOUS
 10
117.2639489765551
 20
-264.65444516423207
 30
0.0
 11
562.67036461048326
 21
-264.65444516423207
 31
0.0
  0
TEXT
  5
80F
  8
NOTE
  6
CONTINUOUS
 10
131.19163064970229
 20
-255.15386016423179
 30
0.0
 40
64.0
  1
AH 4-%%C10
 41
0.9
  0
TEXT
  5
811
  8
NOTE
  6
CONTINUOUS
 10
87.253027020851732
 20
871.74608859119564
 30
0.0
 40
64.0
  1
RG %%C15.88
 41
0.9
  0
LINE
  5
812
  8
NOTE
  6
CONTINUOUS
 10
196.61273147120161
 20
435.46764868889738
 30
0.0
 11
99.766732523953564
 21
435.46764868889733
 31
0.0
  0
TEXT
  5
813
  8
NOTE
  6
CONTINUOUS
 10
110.4619887487015
 20
446.84529105710129
 30
0.0
 40
64.0
  1
EL
 41
0.9
  0
LINE
  5
814
  8
NOTE
  6
CONTINUOUS
 10
68.587385675549285
 20
862.24550359119519
 30
0.0
 11
532.96194829518697
 21
862.24550359119485
 31
0.0
  0
LINE
  5
815
  8
NOTE
  6
CONTINUOUS
 10
448.570185675549
 20
972.24550359119519
 30
0.0
 11
68.587385675549285
 21
972.24550359119519
 31
0.0
  0
TEXT
  5
816
  8
NOTE
  6
CONTINUOUS
 10
82.535441675549464
 20
987.75109259119517
 30
0.0
 40
64.0
  1
RL %%C9.52
 41
0.9
  0
LINE
  5
95C
  8
NOTE
  6
CONTINUOUS
 10
0.0
 20
1921.0
 30
0.0
 11
224.3868912658736
 21
2199.2043767914588
 31
0.0
  0
LINE
  5
95D
  8
NOTE
  6
CONTINUOUS
 10
224.3868912658736
 20
2199.2043767914588
 30
0.0
 11
937.41947740469914
 21
2199.2043767914588
 31
0.0
  0
TEXT
  5
95E
  8
NOTE
  6
CONTINUOUS
 10
233.85249726587421
 20
2216.8846759141702
 30
0.0
 40
64.0
  1
AH 3-10×20長穴
 41
0.9
  0
POLYLINE
  5
95F
  8
NOTE
  6
CONTINUOUS
 66
     1
 10
0.0
 20
0.0
 30
0.0
  0
VERTEX
  5
BA2
  8
NOTE
  6
CONTINUOUS
 10
32.60867254491086
 20
1944.1662347758149
 30
0.0
  0
VERTEX
  5
BA3
  8
NOTE
  6
CONTINUOUS
 10
0.0
 20
1921.0
 30
0.0
  0
VERTEX
  5
BA4
  8
NOTE
  6
CONTINUOUS
 10
16.656822192276191
 20
1957.366884254571
 30
0.0
  0
SEQEND
  5
BA5
  8
NOTE
  6
CONTINUOUS
  0
LINE
  5
960
  8
DETAIL
  6
CONTINUOUS
 10
-310.0
 20
30.0
 30
0.0
 11
-310.0
 21
0.0
 31
0.0
  0
LINE
  5
9B7
  8
NOTE
  6
CONTINUOUS
 10
-280.0
 20
20.0
 30
0.0
 11
-280.0
 21
-20.0
 31
0.0
  0
LINE
  5
9FA
  8
DETAIL
  6
CONTINUOUS
 10
-360.0
 20
1900.0
 30
0.0
 11
-360.0
 21
30.0
 31
0.0
  0
LINE
  5
AA9
  8
SIZE
  6
CONTINUOUS
 10
-261.0
 20
620.0
 30
0.0
 11
-261.0
 21
865.7333694832713
 31
0.0
  0
LINE
  5
AAA
  8
SIZE
  6
CONTINUOUS
 10
0.0000000000000006
 20
792.69992352047484
 30
0.0
 11
0.0000000000000051
 21
865.7333694832713
 31
0.0
  0
LINE
  5
AAB
  8
SIZE
  6
CONTINUOUS
 10
-251.0
 20
845.73336948327142
 30
0.0
 11
-9.9999999999999964
 21
845.73336948327142
 31
0.0
  0
LINE
  5
AAF
  8
SIZE
  6
CONTINUOUS
 10
10.0
 20
-0.0000000000000028
 30
0.0
 11
394.21263878428721
 21
-0.0000000000001117
 31
0.0
  0
LINE
  5
AB0
  8
SIZE
  6
CONTINUOUS
 10
30.0
 20
110.0
 30
0.0
 11
394.21263878428721
 21
109.9999999999998
 31
0.0
  0
LINE
  5
AB1
  8
SIZE
  6
CONTINUOUS
 10
374.21263878428721
 20
-10.000000000000099
 30
0.0
 11
374.21263878428721
 21
-20.000000000000099
 31
0.0
  0
LINE
  5
AB2
  8
SIZE
  6
CONTINUOUS
 10
374.21263878428721
 20
119.9999999999998
 30
0.0
 11
374.21263878428732
 21
129.9999999999998
 31
0.0
  0
LINE
  5
AB3
  8
SIZE
  6
CONTINUOUS
 10
374.21263878428721
 20
-0.000000000000106
 30
0.0
 11
374.21263878428721
 21
109.9999999999998
 31
0.0
  0
LINE
  5
AB7
  8
SIZE
  6
CONTINUOUS
 10
-0.0000000000000006
 20
-10.0
 30
0.0
 11
-0.0000000000000119
 21
-193.55691941545041
 31
0.0
  0
LINE
  5
AB8
  8
SIZE
  6
CONTINUOUS
 10
-77.0
 20
-30.0
 30
0.0
 11
-77.000000000000014
 21
-193.55691941545041
 31
0.0
  0
LINE
  5
AB9
  8
SIZE
  6
CONTINUOUS
 10
9.9999999999999893
 20
-173.55691941545041
 30
0.0
 11
19.999999999999989
 21
-173.55691941545041
 31
0.0
  0
LINE
  5
ABA
  8
SIZE
  6
CONTINUOUS
 10
-87.000000000000014
 20
-173.55691941545041
 30
0.0
 11
-97.000000000000014
 21
-173.55691941545041
 31
0.0
  0
LINE
  5
ABB
  8
SIZE
  6
CONTINUOUS
 10
-0.0000000000000106
 20
-173.55691941545041
 30
0.0
 11
-77.000000000000014
 21
-173.55691941545041
 31
0.0
  0
LINE
  5
ABF
  8
SIZE
  6
CONTINUOUS
 10
0.0000000000000006
 20
1951.0
 30
0.0
 11
0.0000000000000093
 21
2092.1511333312628
 31
0.0
  0
LINE
  5
AC0
  8
SIZE
  6
CONTINUOUS
 10
-360.0
 20
1910.0
 30
0.0
 11
-360.0
 21
2092.1511333312628
 31
0.0
  0
LINE
  5
AC1
  8
SIZE
  6
CONTINUOUS
 10
-9.9999999999999911
 20
2072.1511333312628
 30
0.0
 11
-350.0
 21
2072.1511333312628
 31
0.0
  0
LINE
  5
AC5
  8
SIZE
  6
CONTINUOUS
 10
-0.0000000000000012
 20
-20.0
 30
0.0
 11
-0.000000000000028
 21
-457.06516707116219
 31
0.0
  0
LINE
  5
AC6
  8
SIZE
  6
CONTINUOUS
 10
-260.0
 20
75.0
 30
0.0
 11
-260.0
 21
-457.06516707116219
 31
0.0
  0
LINE
  5
AC7
  8
SIZE
  6
CONTINUOUS
 10
-10.00000000000002
 20
-427.06516707116219
 30
0.0
 11
-250.0
 21
-427.06516707116219
 31
0.0
  0
LINE
  5
ACB
  8
SIZE
  6
CONTINUOUS
 10
-0.0000000000000012
 20
-20.0
 30
0.0
 11
-0.0000000000000359
 21
-586.28879035493355
 31
0.0
  0
LINE
  5
ACC
  8
SIZE
  6
CONTINUOUS
 10
-310.0
 20
-20.0
 30
0.0
 11
-310.0
 21
-586.28879035493355
 31
0.0
  0
LINE
  5
ACD
  8
SIZE
  6
CONTINUOUS
 10
-10.00000000000003
 20
-556.28879035493355
 30
0.0
 11
-300.0
 21
-556.28879035493355
 31
0.0
  0
LINE
  5
AD1
  8
SIZE
  6
CONTINUOUS
 10
20.0
 20
30.0
 30
0.0
 11
248.31081085482941
 21
29.999999999999918
 31
0.0
  0
LINE
  5
AD2
  8
SIZE
  6
CONTINUOUS
 10
20.0
 20
-0.0000000000000057
 30
0.0
 11
248.31081085482941
 21
-0.0000000000000703
 31
0.0
  0
LINE
  5
AD3
  8
SIZE
  6
CONTINUOUS
 10
218.31081085482941
 20
39.999999999999929
 30
0.0
 11
218.31081085482941
 21
49.999999999999929
 31
0.0
  0
LINE
  5
AD4
  8
SIZE
  6
CONTINUOUS
 10
218.31081085482941
 20
-10.00000000000006
 30
0.0
 11
218.31081085482941
 21
-133.2571428571429
 31
0.0
  0
LINE
  5
AD5
  8
SIZE
  6
CONTINUOUS
 10
218.31081085482941
 20
29.999999999999929
 30
0.0
 11
218.31081085482941
 21
-0.0000000000000618
 31
0.0
  0
LINE
  5
AD9
  8
SIZE
  6
CONTINUOUS
 10
-260.0
 20
75.0
 30
0.0
 11
-260.0
 21
-313.82933375469742
 31
0.0
  0
LINE
  5
ADA
  8
SIZE
  6
CONTINUOUS
 10
-190.0
 20
50.0
 30
0.0
 11
-190.0
 21
-313.82933375469742
 31
0.0
  0
LINE
  5
ADB
  8
SIZE
  6
CONTINUOUS
 10
-270.0
 20
-283.82933375469747
 30
0.0
 11
-280.0
 21
-283.82933375469747
 31
0.0
  0
LINE
  5
ADC
  8
SIZE
  6
CONTINUOUS
 10
-180.0
 20
-283.82933375469747
 30
0.0
 11
-56.742857142857162
 21
-283.82933375469747
 31
0.0
  0
LINE
  5
ADD
  8
SIZE
  6
CONTINUOUS
 10
-260.0
 20
-283.82933375469747
 30
0.0
 11
-190.0
 21
-283.82933375469747
 31
0.0
  0
LINE
  5
AE1
  8
SIZE
  6
CONTINUOUS
 10
-335.0
 20
0.0000000000000057
 30
0.0
 11
-646.63891831030458
 21
0.0000000000000939
 31
0.0
  0
LINE
  5
AE2
  8
SIZE
  6
CONTINUOUS
 10
-300.0
 20
115.0
 30
0.0
 11
-646.63891831030458
 21
115.0000000000001
 31
0.0
  0
LINE
  5
AE3
  8
SIZE
  6
CONTINUOUS
 10
-616.63891831030469
 20
125.0000000000001
 30
0.0
 11
-616.63891831030469
 21
135.0
 31
0.0
  0
LINE
  5
AE4
  8
SIZE
  6
CONTINUOUS
 10
-616.63891831030469
 20
-9.9999999999999147
 30
0.0
 11
-616.63891831030469
 21
-182.7250017565259
 31
0.0
  0
LINE
  5
AE5
  8
SIZE
  6
CONTINUOUS
 10
-616.63891831030469
 20
115.0000000000001
 30
0.0
 11
-616.63891831030469
 21
0.0000000000000854
 31
0.0
  0
LINE
  5
AE9
  8
SIZE
  6
CONTINUOUS
 10
-300.0
 20
115.0
 30
0.0
 11
-531.04358385299929
 21
115.0
 31
0.0
  0
LINE
  5
AEA
  8
SIZE
  6
CONTINUOUS
 10
-230.0
 20
90.000000000000014
 30
0.0
 11
-531.04358385299929
 21
90.000000000000085
 31
0.0
  0
LINE
  5
AEB
  8
SIZE
  6
CONTINUOUS
 10
-501.04358385299929
 20
125.0
 30
0.0
 11
-501.04358385299918
 21
135.0
 31
0.0
  0
LINE
  5
AEC
  8
SIZE
  6
CONTINUOUS
 10
-501.04358385299929
 20
80.000000000000085
 30
0.0
 11
-501.04358385299929
 21
-142.45750207069099
 31
0.0
  0
LINE
  5
AED
  8
SIZE
  6
CONTINUOUS
 10
-501.04358385299929
 20
115.0
 30
0.0
 11
-501.04358385299929
 21
90.000000000000085
 31
0.0
  0
LINE
  5
AF1
  8
SIZE
  6
CONTINUOUS
 10
-335.0
 20
0.0000000000000057
 30
0.0
 11
-934.37424175963361
 21
0.0000000000001755
 31
0.0
  0
LINE
  5
AF2
  8
SIZE
  6
CONTINUOUS
 10
-370.0
 20
1900.0
 30
0.0
 11
-934.37424175963315
 21
1900.0
 31
0.0
  0
LINE
  5
AF3
  8
SIZE
  6
CONTINUOUS
 10
-904.37424175963361
 20
10.00000000000016
 30
0.0
 11
-904.37424175963315
 21
1890.0
 31
0.0
  0
LINE
  5
AF7
  8
SIZE
  6
CONTINUOUS
 10
-335.0
 20
0.0000000000000057
 30
0.0
 11
-713.17588042698435
 21
0.0000000000001128
 31
0.0
  0
LINE
  5
AF8
  8
SIZE
  6
CONTINUOUS
 10
-301.0
 20
480.0
 30
0.0
 11
-713.17588042698435
 21
480.00000000000011
 31
0.0
  0
LINE
  5
AF9
  8
SIZE
  6
CONTINUOUS
 10
-683.17588042698446
 20
10.000000000000099
 30
0.0
 11
-683.17588042698435
 21
470.00000000000011
 31
0.0
  0
LINE
  5
AFD
  8
SIZE
  6
CONTINUOUS
 10
-335.0
 20
0.0000000000000057
 30
0.0
 11
-830.97473111554757
 21
0.0000000000001462
 31
0.0
  0
LINE
  5
AFE
  8
SIZE
  6
CONTINUOUS
 10
-301.0
 20
590.0
 30
0.0
 11
-830.97473111554746
 21
590.00000000000011
 31
0.0
  0
LINE
  5
AFF
  8
SIZE
  6
CONTINUOUS
 10
-800.97473111554746
 20
10.00000000000013
 30
0.0
 11
-800.97473111554746
 21
580.00000000000011
 31
0.0
  0
LINE
  5
B03
  8
SIZE
  6
CONTINUOUS
 10
-77.0
 20
-30.0
 30
0.0
 11
-77.000000000000014
 21
-193.55691941545041
 31
0.0
  0
LINE
  5
B04
  8
SIZE
  6
CONTINUOUS
 10
-280.0
 20
-30.0
 30
0.0
 11
-280.0
 21
-193.55691941545041
 31
0.0
  0
LINE
  5
B05
  8
SIZE
  6
CONTINUOUS
 10
-87.000000000000014
 20
-173.55691941545041
 30
0.0
 11
-270.0
 21
-173.55691941545041
 31
0.0
  0
LINE
  5
B09
  8
SIZE
  6
CONTINUOUS
 10
-300.0
 20
115.0
 30
0.0
 11
-531.04358385299929
 21
115.0
 31
0.0
  0
LINE
  5
B0A
  8
SIZE
  6
CONTINUOUS
 10
-230.0
 20
140.0
 30
0.0
 11
-531.04358385299929
 21
140.0
 31
0.0
  0
LINE
  5
B0B
  8
SIZE
  6
CONTINUOUS
 10
-501.04358385299929
 20
105.0
 30
0.0
 11
-501.04358385299929
 21
95.000000000000071
 31
0.0
  0
LINE
  5
B0C
  8
SIZE
  6
CONTINUOUS
 10
-501.04358385299929
 20
150.0
 30
0.0
 11
-501.04358385299929
 21
273.25714285714281
 31
0.0
  0
LINE
  5
B0D
  8
SIZE
  6
CONTINUOUS
 10
-501.04358385299929
 20
115.0
 30
0.0
 11
-501.04358385299929
 21
140.0
 31
0.0
  0
LINE
  5
B11
  8
SIZE
  6
CONTINUOUS
 10
-370.0
 20
1900.0
 30
0.0
 11
-934.37424175963315
 21
1900.0
 31
0.0
  0
LINE
  5
B12
  8
SIZE
  6
CONTINUOUS
 10
-21.0
 20
1940.0
 30
0.0
 11
-934.37424175963315
 21
1940.0
 31
0.0
  0
LINE
  5
B13
  8
SIZE
  6
CONTINUOUS
 10
-904.37424175963315
 20
1890.0
 30
0.0
 11
-904.37424175963315
 21
1880.0
 31
0.0
  0
LINE
  5
B14
  8
SIZE
  6
CONTINUOUS
 10
-904.37424175963315
 20
1950.0
 30
0.0
 11
-904.37424175963315
 21
2073.2571428571418
 31
0.0
  0
LINE
  5
B15
  8
SIZE
  6
CONTINUOUS
 10
-904.37424175963315
 20
1900.0
 30
0.0
 11
-904.37424175963315
 21
1940.0
 31
0.0
  0
CIRCLE
  5
B19
  8
SIZE
  6
BYBLOCK
 10
-0.0000000000000341
 20
-556.28879035493355
 30
0.0
 40
5.0
  0
LINE
  5
B1A
  8
SIZE
  6
BYBLOCK
 10
-0.0000000000000341
 20
-556.28879035493355
 30
0.0
 11
-10.00000000000003
 21
-556.28879035493355
 31
0.0
  0
CIRCLE
  5
B1B
  8
SIZE
  6
BYBLOCK
 10
-0.0000000000000261
 20
-427.06516707116219
 30
0.0
 40
5.0
  0
LINE
  5
B1C
  8
SIZE
  6
BYBLOCK
 10
-0.0000000000000261
 20
-427.06516707116219
 30
0.0
 11
-10.00000000000002
 21
-427.06516707116219
 31
0.0
  0
CIRCLE
  5
B1D
  8
SIZE
  6
BYBLOCK
 10
0.000000000000008
 20
2072.1511333312628
 30
0.0
 40
5.0
  0
LINE
  5
B1E
  8
SIZE
  6
BYBLOCK
 10
0.000000000000008
 20
2072.1511333312628
 30
0.0
 11
-9.9999999999999911
 21
2072.1511333312628
 31
0.0
  0
TEXT
  5
B1F
  8
SIZE
  6
CONTINUOUS
 10
-85.128571428571448
 20
-153.55691941545041
 30
0.0
 40
64.0
  1
77
 41
0.9
  0
CIRCLE
  5
B20
  8
SIZE
  6
BYBLOCK
 10
-0.0000000000000106
 20
-173.55691941545041
 30
0.0
 40
5.0
  0
LINE
  5
B21
  8
SIZE
  6
BYBLOCK
 10
-0.0000000000000106
 20
-173.55691941545041
 30
0.0
 11
9.9999999999999893
 21
-173.55691941545041
 31
0.0
  0
CIRCLE
  5
B22
  8
SIZE
  6
BYBLOCK
 10
0.0000000000000039
 20
845.73336948327142
 30
0.0
 40
5.0
  0
LINE
  5
B23
  8
SIZE
  6
BYBLOCK
 10
0.0000000000000039
 20
845.73336948327142
 30
0.0
 11
-9.9999999999999964
 21
845.73336948327142
 31
0.0
  0
CIRCLE
  5
B24
  8
SIZE
  6
BYBLOCK
 10
-800.97473111554746
 20
0.0000000000001377
 30
0.0
 40
5.0
  0
LINE
  5
B25
  8
SIZE
  6
BYBLOCK
 10
-800.97473111554746
 20
0.0000000000001377
 30
0.0
 11
-800.97473111554746
 21
10.00000000000013
 31
0.0
  0
CIRCLE
  5
B26
  8
SIZE
  6
BYBLOCK
 10
-683.17588042698446
 20
0.0000000000001043
 30
0.0
 40
5.0
  0
LINE
  5
B27
  8
SIZE
  6
BYBLOCK
 10
-683.17588042698446
 20
0.0000000000001043
 30
0.0
 11
-683.17588042698446
 21
10.000000000000099
 31
0.0
  0
CIRCLE
  5
B28
  8
SIZE
  6
BYBLOCK
 10
-904.37424175963361
 20
0.000000000000167
 30
0.0
 40
5.0
  0
LINE
  5
B29
  8
SIZE
  6
BYBLOCK
 10
-904.37424175963361
 20
0.000000000000167
 30
0.0
 11
-904.37424175963361
 21
10.00000000000016
 31
0.0
  0
CIRCLE
  5
B2A
  8
SIZE
  6
BYBLOCK
 10
-616.63891831030469
 20
0.0000000000000854
 30
0.0
 40
5.0
  0
LINE
  5
B2B
  8
SIZE
  6
BYBLOCK
 10
-616.63891831030469
 20
0.0000000000000854
 30
0.0
 11
-616.63891831030469
 21
-9.9999999999999147
 31
0.0
  0
TEXT
  5
B2C
  8
SIZE
  6
CONTINUOUS
 10
-626.63891831030458
 20
-172.72500175652601
 30
0.0
 40
64.0
  1
115
 50
90.0
 41
0.9
  0
TEXT
  5
B2D
  8
SIZE
  6
CONTINUOUS
 10
-225.5065462828471
 20
-546.28879035493355
 30
0.0
 40
64.0
  1
310
 41
0.9
  0
CIRCLE
  5
B2E
  8
SIZE
  6
BYBLOCK
 10
-310.0
 20
-556.28879035493355
 30
0.0
 40
5.0
  0
LINE
  5
B2F
  8
SIZE
  6
BYBLOCK
 10
-310.0
 20
-556.28879035493355
 30
0.0
 11
-300.0
 21
-556.28879035493355
 31
0.0
  0
TEXT
  5
B30
  8
SIZE
  6
CONTINUOUS
 10
-511.04358385299918
 20
-132.45750207069119
 30
0.0
 40
64.0
  1
25
 50
90.0
 41
0.9
  0
TEXT
  5
B31
  8
SIZE
  6
CONTINUOUS
 10
-160.0
 20
-273.82933375469742
 30
0.0
 40
64.0
  1
70
 41
0.9
  0
TEXT
  5
B32
  8
SIZE
  6
CONTINUOUS
 10
-199.84452008296
 20
-417.06516707116219
 30
0.0
 40
64.0
  1
260
 41
0.9
  0
CIRCLE
  5
B33
  8
SIZE
  6
BYBLOCK
 10
-260.0
 20
-427.06516707116219
 30
0.0
 40
5.0
  0
LINE
  5
B34
  8
SIZE
  6
BYBLOCK
 10
-260.0
 20
-427.06516707116219
 30
0.0
 11
-250.0
 21
-427.06516707116219
 31
0.0
  0
CIRCLE
  5
B35
  8
SIZE
  6
BYBLOCK
 10
-260.0
 20
-283.82933375469747
 30
0.0
 40
5.0
  0
LINE
  5
B36
  8
SIZE
  6
BYBLOCK
 10
-260.0
 20
-283.82933375469747
 30
0.0
 11
-270.0
 21
-283.82933375469747
 31
0.0
  0
CIRCLE
  5
B37
  8
SIZE
  6
BYBLOCK
 10
-190.0
 20
-283.82933375469747
 30
0.0
 40
5.0
  0
LINE
  5
B38
  8
SIZE
  6
BYBLOCK
 10
-190.0
 20
-283.82933375469747
 30
0.0
 11
-180.0
 21
-283.82933375469747
 31
0.0
  0
TEXT
  5
B39
  8
SIZE
  6
CONTINUOUS
 10
-252.55714285714279
 20
-153.55691941545041
 30
0.0
 40
64.0
  1
203
 41
0.9
  0
CIRCLE
  5
B3A
  8
SIZE
  6
BYBLOCK
 10
-280.0
 20
-173.55691941545041
 30
0.0
 40
5.0
  0
LINE
  5
B3B
  8
SIZE
  6
BYBLOCK
 10
-280.0
 20
-173.55691941545041
 30
0.0
 11
-270.0
 21
-173.55691941545041
 31
0.0
  0
CIRCLE
  5
B3C
  8
SIZE
  6
BYBLOCK
 10
-77.000000000000014
 20
-173.55691941545041
 30
0.0
 40
5.0
  0
LINE
  5
B3D
  8
SIZE
  6
BYBLOCK
 10
-77.000000000000014
 20
-173.55691941545041
 30
0.0
 11
-87.000000000000014
 21
-173.55691941545041
 31
0.0
  0
CIRCLE
  5
B3E
  8
SIZE
  6
BYBLOCK
 10
-77.000000000000014
 20
-173.55691941545041
 30
0.0
 40
5.0
  0
LINE
  5
B3F
  8
SIZE
  6
BYBLOCK
 10
-77.000000000000014
 20
-173.55691941545041
 30
0.0
 11
-87.000000000000014
 21
-173.55691941545041
 31
0.0
  0
TEXT
  5
B40
  8
SIZE
  6
CONTINUOUS
 10
-914.37424175963349
 20
854.0
 30
0.0
 40
64.0
  1
1900
 50
90.0
 41
0.9
  0
TEXT
  5
B41
  8
SIZE
  6
CONTINUOUS
 10
-180.03844299413259
 20
865.7333694832713
 30
0.0
 40
64.0
  1
261
 41
0.9
  0
TEXT
  5
B42
  8
SIZE
  6
CONTINUOUS
 10
-810.97473111554746
 20
220.94285714285709
 30
0.0
 40
64.0
  1
590
 50
90.0
 41
0.9
  0
TEXT
  5
B43
  8
SIZE
  6
CONTINUOUS
 10
-693.17588042698435
 20
165.94285714285709
 30
0.0
 40
64.0
  1
480
 50
90.0
 41
0.9
  0
CIRCLE
  5
B44
  8
SIZE
  6
BYBLOCK
 10
-800.97473111554746
 20
590.00000000000011
 30
0.0
 40
5.0
  0
LINE
  5
B45
  8
SIZE
  6
BYBLOCK
 10
-800.97473111554746
 20
590.00000000000011
 30
0.0
 11
-800.97473111554746
 21
580.00000000000011
 31
0.0
  0
CIRCLE
  5
B46
  8
SIZE
  6
BYBLOCK
 10
-683.17588042698435
 20
480.00000000000011
 30
0.0
 40
5.0
  0
LINE
  5
B47
  8
SIZE
  6
BYBLOCK
 10
-683.17588042698435
 20
480.00000000000011
 30
0.0
 11
-683.17588042698435
 21
470.00000000000011
 31
0.0
  0
TEXT
  5
B48
  8
SIZE
  6
CONTINUOUS
 10
-511.04358385299918
 20
169.99999999999989
 30
0.0
 40
64.0
  1
25
 50
90.0
 41
0.9
  0
CIRCLE
  5
B49
  8
SIZE
  6
BYBLOCK
 10
-501.04358385299929
 20
115.0
 30
0.0
 40
5.0
  0
LINE
  5
B4A
  8
SIZE
  6
BYBLOCK
 10
-501.04358385299929
 20
115.0
 30
0.0
 11
-501.04358385299929
 21
105.0
 31
0.0
  0
CIRCLE
  5
B4B
  8
SIZE
  6
BYBLOCK
 10
-501.04358385299929
 20
115.0
 30
0.0
 40
5.0
  0
LINE
  5
B4C
  8
SIZE
  6
BYBLOCK
 10
-501.04358385299929
 20
115.0
 30
0.0
 11
-501.04358385299929
 21
125.0
 31
0.0
  0
CIRCLE
  5
B4D
  8
SIZE
  6
BYBLOCK
 10
-616.63891831030469
 20
115.0000000000001
 30
0.0
 40
5.0
  0
LINE
  5
B4E
  8
SIZE
  6
BYBLOCK
 10
-616.63891831030469
 20
115.0000000000001
 30
0.0
 11
-616.63891831030469
 21
125.0000000000001
 31
0.0
  0
CIRCLE
  5
B4F
  8
SIZE
  6
BYBLOCK
 10
-501.04358385299929
 20
90.000000000000085
 30
0.0
 40
5.0
  0
LINE
  5
B50
  8
SIZE
  6
BYBLOCK
 10
-501.04358385299929
 20
90.000000000000085
 30
0.0
 11
-501.04358385299929
 21
80.000000000000085
 31
0.0
  0
CIRCLE
  5
B51
  8
SIZE
  6
BYBLOCK
 10
-501.04358385299929
 20
140.0
 30
0.0
 40
5.0
  0
LINE
  5
B52
  8
SIZE
  6
BYBLOCK
 10
-501.04358385299929
 20
140.0
 30
0.0
 11
-501.04358385299929
 21
150.0
 31
0.0
  0
CIRCLE
  5
B53
  8
SIZE
  6
BYBLOCK
 10
-261.0
 20
845.73336948327142
 30
0.0
 40
5.0
  0
LINE
  5
B54
  8
SIZE
  6
BYBLOCK
 10
-261.0
 20
845.73336948327142
 30
0.0
 11
-251.0
 21
845.73336948327142
 31
0.0
  0
TEXT
  5
B55
  8
SIZE
  6
CONTINUOUS
 10
-914.37424175963349
 20
1970.0
 30
0.0
 40
64.0
  1
40
 50
90.0
 41
0.9
  0
CIRCLE
  5
B56
  8
SIZE
  6
BYBLOCK
 10
-904.37424175963315
 20
1940.0
 30
0.0
 40
5.0
  0
LINE
  5
B57
  8
SIZE
  6
BYBLOCK
 10
-904.37424175963315
 20
1940.0
 30
0.0
 11
-904.37424175963315
 21
1950.0
 31
0.0
  0
CIRCLE
  5
B58
  8
SIZE
  6
BYBLOCK
 10
-904.37424175963315
 20
1900.0
 30
0.0
 40
5.0
  0
LINE
  5
B59
  8
SIZE
  6
BYBLOCK
 10
-904.37424175963315
 20
1900.0
 30
0.0
 11
-904.37424175963315
 21
1890.0
 31
0.0
  0
CIRCLE
  5
B5A
  8
SIZE
  6
BYBLOCK
 10
-904.37424175963315
 20
1900.0
 30
0.0
 40
5.0
  0
LINE
  5
B5B
  8
SIZE
  6
BYBLOCK
 10
-904.37424175963315
 20
1900.0
 30
0.0
 11
-904.37424175963315
 21
1890.0
 31
0.0
  0
CIRCLE
  5
B5C
  8
SIZE
  6
BYBLOCK
 10
-360.0
 20
2072.1511333312628
 30
0.0
 40
5.0
  0
LINE
  5
B5D
  8
SIZE
  6
BYBLOCK
 10
-360.0
 20
2072.1511333312628
 30
0.0
 11
-350.0
 21
2072.1511333312628
 31
0.0
  0
TEXT
  5
B5E
  8
SIZE
  6
CONTINUOUS
 10
-254.05714285714279
 20
2092.1511333312628
 30
0.0
 40
64.0
  1
360
 41
0.9
  0
CIRCLE
  5
B5F
  8
SIZE
  6
BYBLOCK
 10
218.31081085482941
 20
-0.0000000000000618
 30
0.0
 40
5.0
  0
LINE
  5
B60
  8
SIZE
  6
BYBLOCK
 10
218.31081085482941
 20
-0.0000000000000618
 30
0.0
 11
218.31081085482941
 21
-10.00000000000006
 31
0.0
  0
TEXT
  5
B61
  8
SIZE
  6
CONTINUOUS
 10
354.21263878428721
 20
-8.0857142857143316
 30
0.0
 40
64.0
  1
110
 50
90.0
 41
0.9
  0
CIRCLE
  5
B62
  8
SIZE
  6
BYBLOCK
 10
374.21263878428721
 20
-0.000000000000106
 30
0.0
 40
5.0
  0
LINE
  5
B63
  8
SIZE
  6
BYBLOCK
 10
374.21263878428721
 20
-0.000000000000106
 30
0.0
 11
374.21263878428721
 21
-10.000000000000099
 31
0.0
  0
TEXT
  5
B64
  8
SIZE
  6
CONTINUOUS
 10
208.31081085482941
 20
-123.2571428571428
 30
0.0
 40
64.0
  1
30
 50
90.0
 41
0.9
  0
CIRCLE
  5
B65
  8
SIZE
  6
BYBLOCK
 10
218.31081085482941
 20
29.999999999999929
 30
0.0
 40
5.0
  0
LINE
  5
B66
  8
SIZE
  6
BYBLOCK
 10
218.31081085482941
 20
29.999999999999929
 30
0.0
 11
218.31081085482941
 21
39.999999999999929
 31
0.0
  0
CIRCLE
  5
B67
  8
SIZE
  6
BYBLOCK
 10
374.21263878428721
 20
109.9999999999998
 30
0.0
 40
5.0
  0
LINE
  5
B68
  8
SIZE
  6
BYBLOCK
 10
374.21263878428721
 20
109.9999999999998
 30
0.0
 11
374.21263878428721
 21
119.9999999999998
 31
0.0
  0
LINE
  5
B69
  8
OUTLINE
  6
CONTINUOUS
 10
-309.99999999999972
 20
30.0
 30
0.0
 11
-310.0
 21
0.0
 31
0.0
  0
LINE
  5
B6A
  8
OUTLINE
  6
CONTINUOUS
 10
0.0
 20
1899.9999999999991
 30
0.0
 11
0.0
 21
0.0
 31
0.0
  0
LINE
  5
B6B
  8
OUTLINE
  6
CONTINUOUS
 10
0.0
 20
0.0
 30
0.0
 11
-310.0
 21
0.0
 31
0.0
  0
LINE
  5
B6C
  8
OUTLINE
  6
CONTINUOUS
 10
-360.0
 20
1900.0
 30
0.0
 11
-360.0
 21
30.0
 31
0.0
  0
LINE
  5
B6D
  8
OUTLINE
  6
CONTINUOUS
 10
-309.99999999999972
 20
30.0
 30
0.0
 11
-360.0
 21
30.0
 31
0.0
  0
LINE
  5
B74
  8
OUTLINE
  6
CONTINUOUS
 10
0.0
 20
1899.9999999999991
 30
0.0
 11
-360.0
 21
1900.0
 31
0.0
  0
ENDSEC
  0
EOF
