  0
SECTION
  2
HEADER
  9
$ACADVER
  1
AC1014
  9
$ACADMAINTVER
 70
     9
  9
$DWGCODEPAGE
  3
ANSI_932
  9
$INSBASE
 10
0.0
 20
0.0
 30
0.0
  9
$EXTMIN
 10
-778.4353790114445
 20
-899.9186592575714
 30
0.0
  9
$EXTMAX
 10
2521.633067357623
 20
716.9104251610113
 30
0.0
  9
$LIMMIN
 10
-1159.786672076469
 20
-1347.868189178861
  9
$LIMMAX
 10
1478.198924305117
 20
936.5400426081551
  9
$ORTHOMODE
 70
     1
  9
$REGENMODE
 70
     0
  9
$FILLMODE
 70
     1
  9
$QTEXTMODE
 70
     0
  9
$MIRRTEXT
 70
     0
  9
$DRAGMODE
 70
     2
  9
$LTSCALE
 40
20.0
  9
$OSMODE
 70
    39
  9
$ATTMODE
 70
     1
  9
$TEXTSIZE
 40
64.0
  9
$TRACEWID
 40
0.05
  9
$TEXTSTYLE
  7
STANDARD
  9
$CLAYER
  8
SIZE
  9
$CELTYPE
  6
CONTINUOUS
  9
$CECOLOR
 62
   256
  9
$CELTSCALE
 40
1.0
  9
$DELOBJ
 70
     1
  9
$DISPSILH
 70
     0
  9
$DIMSCALE
 40
1.0
  9
$DIMASZ
 40
10.0
  9
$DIMEXO
 40
20.0
  9
$DIMDLI
 40
200.0
  9
$DIMRND
 40
0.0
  9
$DIMDLE
 40
0.0
  9
$DIMEXE
 40
30.0
  9
$DIMTP
 40
0.0
  9
$DIMTM
 40
0.0
  9
$DIMTXT
 40
64.0
  9
$DIMCEN
 40
0.09
  9
$DIMTSZ
 40
0.0
  9
$DIMTOL
 70
     0
  9
$DIMLIM
 70
     0
  9
$DIMTIH
 70
     0
  9
$DIMTOH
 70
     0
  9
$DIMSE1
 70
     0
  9
$DIMSE2
 70
     0
  9
$DIMTAD
 70
     1
  9
$DIMZIN
 70
     8
  9
$DIMBLK
  1
ORIGIN
  9
$DIMASO
 70
     1
  9
$DIMSHO
 70
     0
  9
$DIMPOST
  1

  9
$DIMAPOST
  1

  9
$DIMALT
 70
     0
  9
$DIMALTD
 70
     2
  9
$DIMALTF
 40
25.4
  9
$DIMLFAC
 40
1.0
  9
$DIMTOFL
 70
     1
  9
$DIMTVP
 40
0.0
  9
$DIMTIX
 70
     1
  9
$DIMSOXD
 70
     0
  9
$DIMSAH
 70
     0
  9
$DIMBLK1
  1

  9
$DIMBLK2
  1

  9
$DIMSTYLE
  2
STANDARD
  9
$DIMCLRD
 70
     0
  9
$DIMCLRE
 70
     0
  9
$DIMCLRT
 70
     0
  9
$DIMTFAC
 40
1.0
  9
$DIMGAP
 40
20.0
  9
$DIMJUST
 70
     0
  9
$DIMSD1
 70
     0
  9
$DIMSD2
 70
     0
  9
$DIMTOLJ
 70
     1
  9
$DIMTZIN
 70
     0
  9
$DIMALTZ
 70
     0
  9
$DIMALTTZ
 70
     0
  9
$DIMFIT
 70
     3
  9
$DIMUPT
 70
     0
  9
$DIMUNIT
 70
     2
  9
$DIMDEC
 70
     4
  9
$DIMTDEC
 70
     4
  9
$DIMALTU
 70
     2
  9
$DIMALTTD
 70
     2
  9
$DIMTXSTY
  7
STANDARD
  9
$DIMAUNIT
 70
     0
  9
$LUNITS
 70
     2
  9
$LUPREC
 70
     4
  9
$SKETCHINC
 40
0.1
  9
$FILLETRAD
 40
0.0
  9
$AUNITS
 70
     1
  9
$AUPREC
 70
     3
  9
$MENU
  1
ACAD
  9
$ELEVATION
 40
0.0
  9
$PELEVATION
 40
0.0
  9
$THICKNESS
 40
0.0
  9
$LIMCHECK
 70
     0
  9
$BLIPMODE
 70
     0
  9
$CHAMFERA
 40
0.0
  9
$CHAMFERB
 40
0.0
  9
$CHAMFERC
 40
0.0
  9
$CHAMFERD
 40
0.0
  9
$SKPOLY
 70
     0
  9
$TDCREATE
 40
2450332.844259004
  9
$TDUPDATE
 40
2455719.709431597
  9
$TDINDWG
 40
0.1756757755
  9
$TDUSRTIMER
 40
0.1756755903
  9
$USRTIMER
 70
     1
  9
$ANGBASE
 50
0.0
  9
$ANGDIR
 70
     0
  9
$PDMODE
 70
     3
  9
$PDSIZE
 40
-2.0
  9
$PLINEWID
 40
0.0
  9
$COORDS
 70
     1
  9
$SPLFRAME
 70
     0
  9
$SPLINETYPE
 70
     6
  9
$SPLINESEGS
 70
     8
  9
$ATTDIA
 70
     0
  9
$ATTREQ
 70
     1
  9
$HANDLING
 70
-16383
  9
$HANDSEED
  5
9E6
  9
$SURFTAB1
 70
     6
  9
$SURFTAB2
 70
     6
  9
$SURFTYPE
 70
     6
  9
$SURFU
 70
     6
  9
$SURFV
 70
     6
  9
$UCSNAME
  2

  9
$UCSORG
 10
0.0
 20
0.0
 30
0.0
  9
$UCSXDIR
 10
1.0
 20
0.0
 30
0.0
  9
$UCSYDIR
 10
0.0
 20
1.0
 30
0.0
  9
$PUCSNAME
  2

  9
$PUCSORG
 10
0.0
 20
0.0
 30
0.0
  9
$PUCSXDIR
 10
1.0
 20
0.0
 30
0.0
  9
$PUCSYDIR
 10
0.0
 20
1.0
 30
0.0
  9
$USERI1
 70
     0
  9
$USERI2
 70
     0
  9
$USERI3
 70
     0
  9
$USERI4
 70
     0
  9
$USERI5
 70
     0
  9
$USERR1
 40
20.0
  9
$USERR2
 40
0.0
  9
$USERR3
 40
0.0
  9
$USERR4
 40
0.0
  9
$USERR5
 40
0.0
  9
$WORLDVIEW
 70
     1
  9
$SHADEDGE
 70
     3
  9
$SHADEDIF
 70
    70
  9
$TILEMODE
 70
     1
  9
$MAXACTVP
 70
    64
  9
$PINSBASE
 10
0.0
 20
0.0
 30
0.0
  9
$PLIMCHECK
 70
     0
  9
$PEXTMIN
 10
1.000000000000000E+20
 20
1.000000000000000E+20
 30
1.000000000000000E+20
  9
$PEXTMAX
 10
-1.000000000000000E+20
 20
-1.000000000000000E+20
 30
-1.000000000000000E+20
  9
$PLIMMIN
 10
0.0
 20
0.0
  9
$PLIMMAX
 10
12.0
 20
9.0
  9
$UNITMODE
 70
     0
  9
$VISRETAIN
 70
     1
  9
$PLINEGEN
 70
     0
  9
$PSLTSCALE
 70
     1
  9
$TREEDEPTH
 70
  3020
  9
$PICKSTYLE
 70
     1
  9
$CMLSTYLE
  2
STANDARD
  9
$CMLJUST
 70
     0
  9
$CMLSCALE
 40
1.0
  9
$PROXYGRAPHICS
 70
     1
  9
$MEASUREMENT
 70
     0
  0
ENDSEC
  0
SECTION
  2
CLASSES
  0
CLASS
  1
ACDBDICTIONARYWDFLT
  2
AcDbDictionaryWithDefault
  3
AutoCAD 2000
 90
        0
280
     0
281
     0
  0
CLASS
  1
ACDBPLACEHOLDER
  2
AcDbPlaceHolder
  3
AutoCAD 2000
 90
        0
280
     0
281
     0
  0
CLASS
  1
LAYOUT
  2
AcDbLayout
  3
AutoCAD 2000
 90
        0
280
     0
281
     0
  0
CLASS
  1
LONG_TRANSACTION
  2
AcDbLongTransaction
  3
AutoCAD 2000
 90
        0
280
     0
281
     0
  0
CLASS
  1
LWPOLYLINE
  2
AcDbPolyline
  3
AutoCAD 2000
 90
        0
280
     0
281
     1
  0
CLASS
  1
HATCH
  2
AcDbHatch
  3
AutoCAD 2000
 90
        0
280
     0
281
     1
  0
CLASS
  1
XRECORD
  2
AcDbXrecord
  3
AutoCAD 2000
 90
        0
280
     0
281
     0
  0
ENDSEC
  0
SECTION
  2
TABLES
  0
TABLE
  2
VPORT
  5
8A6
330
0
100
AcDbSymbolTable
 70
     7
  0
VPORT
  5
9C0
330
8A6
100
AcDbSymbolTableRecord
100
AcDbViewportTableRecord
  2
*ACTIVE
 70
     0
 10
0.0
 20
0.0
 11
1.0
 21
1.0
 12
129.2269629462471
 22
-476.2224199371603
 13
0.0
 23
0.0
 14
400.0
 24
400.0
 15
100.0
 25
100.0
 16
0.0
 26
0.0
 36
1.0
 17
0.0
 27
0.0
 37
0.0
 40
5554.801638866674
 41
1.243346007604562
 42
50.0
 43
0.0
 44
0.0
 50
0.0
 51
0.0
 71
     0
 72
   500
 73
     1
 74
     0
 75
     0
 76
     0
 77
     0
 78
     1
  0
ENDTAB
  0
TABLE
  2
LTYPE
  5
8A3
330
0
100
AcDbSymbolTable
 70
     7
  0
LTYPE
  5
8B1
330
8A3
100
AcDbSymbolTableRecord
100
AcDbLinetypeTableRecord
  2
BYBLOCK
 70
     0
  3

 72
    65
 73
     0
 40
0.0
  0
LTYPE
  5
8B2
330
8A3
100
AcDbSymbolTableRecord
100
AcDbLinetypeTableRecord
  2
BYLAYER
 70
     0
  3

 72
    65
 73
     0
 40
0.0
  0
LTYPE
  5
8B3
330
8A3
100
AcDbSymbolTableRecord
100
AcDbLinetypeTableRecord
  2
CONTINUOUS
 70
     0
  3
実線
 72
    65
 73
     0
 40
0.0
  0
LTYPE
  5
8C2
330
8A3
100
AcDbSymbolTableRecord
100
AcDbLinetypeTableRecord
  2
DOT
 70
     0
  3
...............................................
 72
    65
 73
     2
 40
0.8
 49
0.5
 74
     0
 49
-0.3
 74
     0
  0
LTYPE
  5
8C3
330
8A3
100
AcDbSymbolTableRecord
100
AcDbLinetypeTableRecord
  2
DASHED
 70
     0
  3
_ _ _ _ _ _ _ _ _ _ _ _ _ _ _ _ _ _ _ _ _ _ _
 72
    65
 73
     2
 40
2.0
 49
1.199999999999999
 74
     0
 49
-0.8
 74
     0
  0
LTYPE
  5
8C4
330
8A3
100
AcDbSymbolTableRecord
100
AcDbLinetypeTableRecord
  2
DASHDOT
 70
     0
  3
____ _ ____ _ ____ _ ____ _ ____ _ ____ _ ____
 72
    65
 73
     4
 40
5.5
 49
4.0
 74
     0
 49
-0.6
 74
     0
 49
0.3
 74
     0
 49
-0.6
 74
     0
  0
LTYPE
  5
8C5
330
8A3
100
AcDbSymbolTableRecord
100
AcDbLinetypeTableRecord
  2
DASHDOT1
 70
     0
  3
____ _ ____ _ ____ _ ____ _ ____ _ ____ _ ____
 72
    65
 73
     4
 40
2.0
 49
1.5
 74
     0
 49
-0.2
 74
     0
 49
0.1
 74
     0
 49
-0.2
 74
     0
  0
LTYPE
  5
8C6
330
8A3
100
AcDbSymbolTableRecord
100
AcDbLinetypeTableRecord
  2
DIVIDE
 70
     0
  3
_____ _ _ _____ _ _ _____ _ _ _____ _ _ ____
 72
    65
 73
     6
 40
6.4
 49
4.0
 74
     0
 49
-0.6
 74
     0
 49
0.3
 74
     0
 49
-0.6
 74
     0
 49
0.3
 74
     0
 49
-0.6
 74
     0
  0
LTYPE
  5
8C7
330
8A3
100
AcDbSymbolTableRecord
100
AcDbLinetypeTableRecord
  2
DIVIDE1
 70
     0
  3
_____ _ _ _____ _ _ _____ _ _ _____ _ _ ____
 72
    65
 73
     6
 40
3.2
 49
2.0
 74
     0
 49
-0.3
 74
     0
 49
0.15
 74
     0
 49
-0.3
 74
     0
 49
0.15
 74
     0
 49
-0.3
 74
     0
  0
ENDTAB
  0
TABLE
  2
LAYER
  5
8A0
330
0
100
AcDbSymbolTable
 70
    12
  0
LAYER
  5
8AE
330
8A0
100
AcDbSymbolTableRecord
100
AcDbLayerTableRecord
  2
0
 70
     0
 62
     7
  6
CONTINUOUS
  0
LAYER
  5
8C0
330
8A0
100
AcDbSymbolTableRecord
100
AcDbLayerTableRecord
  2
SIZE
 70
     0
 62
    32
  6
CONTINUOUS
  0
LAYER
  5
8C8
330
8A0
100
AcDbSymbolTableRecord
100
AcDbLayerTableRecord
  2
OUTLINE
 70
     0
 62
     3
  6
CONTINUOUS
  0
LAYER
  5
8C9
330
8A0
100
AcDbSymbolTableRecord
100
AcDbLayerTableRecord
  2
DETAIL
 70
     0
 62
     5
  6
CONTINUOUS
  0
LAYER
  5
8CA
330
8A0
100
AcDbSymbolTableRecord
100
AcDbLayerTableRecord
  2
BASIS
 70
     0
 62
     6
  6
CONTINUOUS
  0
LAYER
  5
8CB
330
8A0
100
AcDbSymbolTableRecord
100
AcDbLayerTableRecord
  2
NOTE
 70
     0
 62
     4
  6
CONTINUOUS
  0
LAYER
  5
8CC
330
8A0
100
AcDbSymbolTableRecord
100
AcDbLayerTableRecord
  2
DEFPOINTS
 70
     0
 62
     7
  6
CONTINUOUS
  0
LAYER
  5
8CD
330
8A0
100
AcDbSymbolTableRecord
100
AcDbLayerTableRecord
  2
ARRANGE
 70
     0
 62
     1
  6
CONTINUOUS
  0
LAYER
  5
8CE
330
8A0
100
AcDbSymbolTableRecord
100
AcDbLayerTableRecord
  2
FIX
 70
     0
 62
   241
  6
CONTINUOUS
  0
LAYER
  5
8CF
330
8A0
100
AcDbSymbolTableRecord
100
AcDbLayerTableRecord
  2
ETC
 70
     0
 62
    83
  6
CONTINUOUS
  0
LAYER
  5
8D0
330
8A0
100
AcDbSymbolTableRecord
100
AcDbLayerTableRecord
  2
SERVICESPACE
 70
     0
 62
     2
  6
CONTINUOUS
  0
LAYER
  5
8D1
330
8A0
100
AcDbSymbolTableRecord
100
AcDbLayerTableRecord
  2
SYMBOLLINE
 70
     0
 62
    38
  6
CONTINUOUS
  0
ENDTAB
  0
TABLE
  2
STYLE
  5
8A1
330
0
100
AcDbSymbolTable
 70
     1
  0
STYLE
  5
8AF
330
8A1
100
AcDbSymbolTableRecord
100
AcDbTextStyleTableRecord
  2
STANDARD
 70
     0
 40
0.0
 41
0.9
 50
0.0
 71
     0
 42
64.0
  3
SIMPLEX
  4
BIGFONT
  0
ENDTAB
  0
TABLE
  2
VIEW
  5
8A4
330
0
100
AcDbSymbolTable
 70
     1
  0
VIEW
  5
8D2
330
8A4
100
AcDbSymbolTableRecord
100
AcDbViewTableRecord
  2
ALL
 70
     0
 40
6056.229999999999
 10
0.0
 20
58.11501599999999
 41
8400.0
 11
0.0
 21
0.0
 31
1.0
 12
0.0
 22
0.0
 32
0.0
 42
50.0
 43
0.0
 44
0.0
 50
0.0
 71
     0
  0
ENDTAB
  0
TABLE
  2
UCS
  5
8A5
330
0
100
AcDbSymbolTable
 70
     0
  0
ENDTAB
  0
TABLE
  2
APPID
  5
8A7
330
0
100
AcDbSymbolTable
 70
     1
  0
APPID
  5
8B0
330
8A7
100
AcDbSymbolTableRecord
100
AcDbRegAppTableRecord
  2
ACAD
 70
     0
  0
ENDTAB
  0
TABLE
  2
DIMSTYLE
  5
8A8
330
0
100
AcDbSymbolTable
 70
     1
  0
DIMSTYLE
105
8D3
330
8A8
100
AcDbSymbolTableRecord
100
AcDbDimStyleTableRecord
  2
STANDARD
 70
     0
  3

  4

  5

  6

  7

 40
1.0
 41
0.18
 42
0.0625
 43
0.38
 44
0.18
 45
0.0
 46
0.0
 47
0.0
 48
0.0
140
0.18
141
0.09
142
0.0
143
25.4
144
1.0
145
0.0
146
1.0
147
0.09
 71
     0
 72
     0
 73
     1
 74
     1
 75
     0
 76
     0
 77
     0
 78
     0
170
     0
171
     2
172
     0
173
     0
174
     0
175
     0
176
     0
177
     0
178
     0
270
     2
271
     4
272
     4
273
     2
274
     2
340
8AF
275
     1
280
     0
281
     0
282
     0
283
     1
284
     8
285
     8
286
     8
287
     5
288
     0
  0
ENDTAB
  0
TABLE
  2
BLOCK_RECORD
  5
89F
330
0
100
AcDbSymbolTable
 70
     4
  0
BLOCK_RECORD
  5
8BC
102
{ACAD_XDICTIONARY
360
9E4
102
}
330
89F
100
AcDbSymbolTableRecord
100
AcDbBlockTableRecord
  2
*MODEL_SPACE
  0
BLOCK_RECORD
  5
8B8
102
{ACAD_XDICTIONARY
360
9E2
102
}
330
89F
100
AcDbSymbolTableRecord
100
AcDbBlockTableRecord
  2
*PAPER_SPACE
  0
BLOCK_RECORD
  5
8D6
330
89F
100
AcDbSymbolTableRecord
100
AcDbBlockTableRecord
  2
$MODEL_SPACE
  0
BLOCK_RECORD
  5
8D9
330
89F
100
AcDbSymbolTableRecord
100
AcDbBlockTableRecord
  2
$PAPER_SPACE
  0
BLOCK_RECORD
  5
8DC
330
89F
100
AcDbSymbolTableRecord
100
AcDbBlockTableRecord
  2
_ORIGIN
  0
ENDTAB
  0
ENDSEC
  0
SECTION
  2
BLOCKS
  0
BLOCK
  5
8BD
330
8BC
100
AcDbEntity
  8
0
100
AcDbBlockBegin
  2
*MODEL_SPACE
 70
     0
 10
0.0
 20
0.0
 30
0.0
  3
*MODEL_SPACE
  1

  0
ENDBLK
  5
8BE
330
8BC
100
AcDbEntity
  8
0
100
AcDbBlockEnd
  0
BLOCK
  5
8B9
330
8B8
100
AcDbEntity
 67
     1
  8
0
100
AcDbBlockBegin
  2
*PAPER_SPACE
 70
     0
 10
0.0
 20
0.0
 30
0.0
  3
*PAPER_SPACE
  1

  0
ENDBLK
  5
8BA
330
8B8
100
AcDbEntity
 67
     1
  8
0
100
AcDbBlockEnd
  0
BLOCK
  5
8D7
330
8D6
100
AcDbEntity
  8
0
100
AcDbBlockBegin
  2
$MODEL_SPACE
 70
     0
 10
0.0
 20
0.0
 30
0.0
  3
$MODEL_SPACE
  1

  0
ENDBLK
  5
8D8
330
8D6
100
AcDbEntity
  8
0
100
AcDbBlockEnd
  0
BLOCK
  5
8DA
330
8D9
100
AcDbEntity
  8
0
100
AcDbBlockBegin
  2
$PAPER_SPACE
 70
     0
 10
0.0
 20
0.0
 30
0.0
  3
$PAPER_SPACE
  1

  0
ENDBLK
  5
8DB
330
8D9
100
AcDbEntity
  8
0
100
AcDbBlockEnd
  0
BLOCK
  5
8DD
330
8DC
100
AcDbEntity
  8
0
100
AcDbBlockBegin
  2
_ORIGIN
 70
     0
 10
0.0
 20
0.0
 30
0.0
  3
_ORIGIN
  1

  0
CIRCLE
  5
8DE
330
8DC
100
AcDbEntity
  8
0
  6
BYBLOCK
 62
     0
100
AcDbCircle
 10
0.0
 20
0.0
 30
0.0
 40
0.5
  0
LINE
  5
8DF
330
8DC
100
AcDbEntity
  8
0
  6
BYBLOCK
 62
     0
100
AcDbLine
 10
0.0
 20
0.0
 30
0.0
 11
-1.0
 21
0.0
 31
0.0
  0
ENDBLK
  5
8E0
330
8DC
100
AcDbEntity
  8
0
100
AcDbBlockEnd
  0
ENDSEC
  0
SECTION
  2
ENTITIES
  0
TEXT
  5
8E1
330
8BC
100
AcDbEntity
  8
ETC
  6
CONTINUOUS
100
AcDbText
 10
773.83891
 20
652.9104251610113
 30
0.0
 40
64.0
  1
PAC
 41
0.9
100
AcDbText
  0
TEXT
  5
8E2
330
8BC
100
AcDbEntity
  8
ETC
  6
CONTINUOUS
100
AcDbText
 10
773.83891
 20
539.0240650223356
 30
0.0
 40
64.0
  1
SMPS3306
 41
0.9
100
AcDbText
  0
LINE
  5
8E3
330
8BC
100
AcDbEntity
  8
NOTE
  6
CONTINUOUS
100
AcDbLine
 10
331.008220573874
 20
274.7269638892821
 30
0.0
 11
-20.0
 21
0.0
 31
0.0
  0
LWPOLYLINE
  5
8E4
330
8BC
100
AcDbEntity
  8
NOTE
  6
CONTINUOUS
100
AcDbPolyline
 90
        3
 70
     0
 43
0.0
 10
3.074287969064697
 20
32.67380011974523
 10
-20.0
 20
0.0
 10
16.31981986631808
 20
16.75919751377454
  0
CIRCLE
  5
8E9
330
8BC
100
AcDbEntity
  8
ARRANGE
  6
CONTINUOUS
100
AcDbCircle
 10
0.0
 20
0.0
 30
0.0
 40
40.0
  0
POINT
  5
8EA
330
8BC
100
AcDbEntity
  8
ARRANGE
  6
CONTINUOUS
100
AcDbPoint
 10
0.0
 20
0.0
 30
0.0
  0
LINE
  5
8EB
330
8BC
100
AcDbEntity
  8
DETAIL
  6
CONTINUOUS
100
AcDbLine
 10
-300.0
 20
0.0
 30
0.0
 11
300.0
 21
0.0
 31
0.0
  0
LINE
  5
8EC
330
8BC
100
AcDbEntity
  8
NOTE
  6
CONTINUOUS
100
AcDbLine
 10
-20.0
 20
20.0
 30
0.0
 11
-20.0
 21
-20.0
 31
0.0
  0
LINE
  5
8ED
330
8BC
100
AcDbEntity
  8
BASIS
  6
DASHDOT
100
AcDbLine
 10
0.0
 20
29.82007699999996
 30
0.0
 11
0.0
 21
-383.615943
 31
0.0
  0
LINE
  5
8EE
330
8BC
100
AcDbEntity
  8
NOTE
  6
CONTINUOUS
100
AcDbLine
 10
-778.4353790114445
 20
-552.8435869934668
 30
0.0
 11
-337.4910390506637
 21
-552.8435869934668
 31
0.0
  0
TEXT
  5
8EF
330
8BC
100
AcDbEntity
  8
NOTE
  6
CONTINUOUS
100
AcDbText
 10
-768.9697730114446
 20
-543.3430019934668
 30
0.0
 40
64.0
  1
AH 4-%%C10
 41
0.9
100
AcDbText
  0
LINE
  5
8F0
330
8BC
100
AcDbEntity
  8
NOTE
  6
CONTINUOUS
100
AcDbLine
 10
-110.0
 20
-280.0
 30
0.0
 11
-338.4910390506638
 21
-554.8435869934668
 31
0.0
  0
LINE
  5
8F1
330
8BC
100
AcDbEntity
  8
DETAIL
  6
CONTINUOUS
100
AcDbLine
 10
-300.0
 20
0.0
 30
0.0
 11
-300.0
 21
-310.0
 31
0.0
  0
CIRCLE
  5
8F2
330
8BC
100
AcDbEntity
  8
FIX
  6
CONTINUOUS
100
AcDbCircle
 10
-110.0
 20
-280.0
 30
0.0
 40
40.0
  0
LWPOLYLINE
  5
8F3
330
8BC
100
AcDbEntity
  8
NOTE
  6
CONTINUOUS
100
AcDbPolyline
 90
        3
 70
     0
 43
0.0
 10
-142.9488937298914
 20
-302.6797345841111
 10
-110.0
 20
-280.0
 10
-127.1947124794605
 20
-316.1156733106169
  0
LINE
  5
8F8
330
8BC
100
AcDbEntity
  8
NOTE
  6
CONTINUOUS
100
AcDbLine
 10
-130.0
 20
-280.0
 30
0.0
 11
-90.0
 21
-280.0
 31
0.0
  0
LINE
  5
8F9
330
8BC
100
AcDbEntity
  8
NOTE
  6
CONTINUOUS
100
AcDbLine
 10
-110.0
 20
-260.0
 30
0.0
 11
-110.0
 21
-300.0
 31
0.0
  0
CIRCLE
  5
8FA
330
8BC
100
AcDbEntity
  8
FIX
  6
CONTINUOUS
100
AcDbCircle
 10
-140.0
 20
-77.0
 30
0.0
 40
40.0
  0
LINE
  5
8FB
330
8BC
100
AcDbEntity
  8
NOTE
  6
CONTINUOUS
100
AcDbLine
 10
-300.0
 20
-170.0
 30
0.0
 11
-300.0
 21
-210.0
 31
0.0
  0
LINE
  5
8FC
330
8BC
100
AcDbEntity
  8
NOTE
  6
CONTINUOUS
100
AcDbLine
 10
-320.0
 20
-260.0
 30
0.0
 11
-280.0
 21
-260.0
 31
0.0
  0
LINE
  5
8FD
330
8BC
100
AcDbEntity
  8
NOTE
  6
CONTINUOUS
100
AcDbLine
 10
-300.0
 20
-240.0
 30
0.0
 11
-300.0
 21
-280.0
 31
0.0
  0
LINE
  5
8FE
330
8BC
100
AcDbEntity
  8
NOTE
  6
CONTINUOUS
100
AcDbLine
 10
-320.0
 20
-190.0
 30
0.0
 11
-280.0
 21
-190.0
 31
0.0
  0
LINE
  5
8FF
330
8BC
100
AcDbEntity
  8
NOTE
  6
CONTINUOUS
100
AcDbLine
 10
-160.0
 20
-77.0
 30
0.0
 11
-120.0
 21
-77.0
 31
0.0
  0
LINE
  5
900
330
8BC
100
AcDbEntity
  8
NOTE
  6
CONTINUOUS
100
AcDbLine
 10
-140.0
 20
-57.0
 30
0.0
 11
-140.0
 21
-97.0
 31
0.0
  0
LINE
  5
901
330
8BC
100
AcDbEntity
  8
NOTE
  6
CONTINUOUS
100
AcDbLine
 10
-40.0
 20
0.0
 30
0.0
 11
0.0
 21
0.0
 31
0.0
  0
LWPOLYLINE
  5
902
330
8BC
100
AcDbEntity
  8
NOTE
  6
CONTINUOUS
100
AcDbPolyline
 90
        3
 70
     0
 43
0.0
 10
201.6830337679484
 20
39.43776158963443
 10
195.0
 20
0.0
 10
220.506557798014
 20
30.81258713130182
  0
LINE
  5
907
330
8BC
100
AcDbEntity
  8
NOTE
  6
CONTINUOUS
100
AcDbLine
 10
331.008220573874
 20
274.7269638892821
 30
0.0
 11
195.0
 21
0.0
 31
0.0
  0
LINE
  5
908
330
8BC
100
AcDbEntity
  8
NOTE
  6
CONTINUOUS
100
AcDbLine
 10
195.0
 20
20.0
 30
0.0
 11
195.0
 21
-20.0
 31
0.0
  0
LINE
  5
909
330
8BC
100
AcDbEntity
  8
NOTE
  6
CONTINUOUS
100
AcDbLine
 10
821.9823169999997
 20
-472.8299749999999
 30
0.0
 11
441.999517
 21
-472.8299749999999
 31
0.0
  0
LINE
  5
90A
330
8BC
100
AcDbEntity
  8
NOTE
  6
CONTINUOUS
100
AcDbLine
 10
424.1436579999998
 20
-584.6906770000002
 30
0.0
 11
877.1143509999998
 21
-584.6906770000002
 31
0.0
  0
TEXT
  5
90B
330
8BC
100
AcDbEntity
  8
NOTE
  6
CONTINUOUS
100
AcDbText
 10
455.9475729999999
 20
-457.324386
 30
0.0
 40
64.0
  1
RL %%C9.52
 41
0.9
100
AcDbText
  0
TEXT
  5
90C
330
8BC
100
AcDbEntity
  8
NOTE
  6
CONTINUOUS
100
AcDbText
 10
433.6092639999995
 20
-575.1900920000001
 30
0.0
 40
64.0
  1
RG %%C15.88
 41
0.9
100
AcDbText
  0
LINE
  5
90D
330
8BC
100
AcDbEntity
  8
NOTE
  6
CONTINUOUS
100
AcDbLine
 10
441.999517
 20
-472.8299749999999
 30
0.0
 11
252.0
 21
-261.0
 31
0.0
  0
LINE
  5
90E
330
8BC
100
AcDbEntity
  8
NOTE
  6
CONTINUOUS
100
AcDbLine
 10
205.0
 20
-261.0
 30
0.0
 11
424.1436579999998
 21
-584.6906770000002
 31
0.0
  0
LINE
  5
90F
330
8BC
100
AcDbEntity
  8
DETAIL
  6
CONTINUOUS
100
AcDbLine
 10
300.0
 20
0.0
 30
0.0
 11
300.0
 21
-310.0
 31
0.0
  0
CIRCLE
  5
910
330
8BC
100
AcDbEntity
  8
FIX
  6
CONTINUOUS
100
AcDbCircle
 10
110.0
 20
-280.0
 30
0.0
 40
40.0
  0
LINE
  5
911
330
8BC
100
AcDbEntity
  8
NOTE
  6
CONTINUOUS
100
AcDbLine
 10
90.0
 20
-280.0
 30
0.0
 11
130.0
 21
-280.0
 31
0.0
  0
LINE
  5
912
330
8BC
100
AcDbEntity
  8
NOTE
  6
CONTINUOUS
100
AcDbLine
 10
110.0
 20
-260.0
 30
0.0
 11
110.0
 21
-300.0
 31
0.0
  0
LINE
  5
913
330
8BC
100
AcDbEntity
  8
NOTE
  6
CONTINUOUS
100
AcDbLine
 10
232.0
 20
-261.0
 30
0.0
 11
272.0
 21
-261.0
 31
0.0
  0
LWPOLYLINE
  5
914
330
8BC
100
AcDbEntity
  8
NOTE
  6
CONTINUOUS
100
AcDbPolyline
 90
        3
 70
     0
 43
0.0
 10
217.6112969999998
 20
-298.9599149999999
 10
205.0
 20
-261.0
 10
234.9016609999997
 20
-287.5686029999998
  0
LINE
  5
919
330
8BC
100
AcDbEntity
  8
NOTE
  6
CONTINUOUS
100
AcDbLine
 10
185.0
 20
-261.0
 30
0.0
 11
225.0
 21
-261.0
 31
0.0
  0
LINE
  5
91A
330
8BC
100
AcDbEntity
  8
NOTE
  6
CONTINUOUS
100
AcDbLine
 10
205.0
 20
-241.0
 30
0.0
 11
205.0
 21
-281.0
 31
0.0
  0
CIRCLE
  5
91B
330
8BC
100
AcDbEntity
  8
DETAIL
  6
CONTINUOUS
100
AcDbCircle
 10
205.0
 20
-261.0
 30
0.0
 40
9.525
  0
LWPOLYLINE
  5
91C
330
8BC
100
AcDbEntity
  8
NOTE
  6
CONTINUOUS
100
AcDbPolyline
 90
        3
 70
     0
 43
0.0
 10
286.1460149999998
 20
-281.8338579999998
 10
252.0
 20
-261.0
 10
271.1543879999999
 20
-296.1156579999999
  0
LINE
  5
921
330
8BC
100
AcDbEntity
  8
NOTE
  6
CONTINUOUS
100
AcDbLine
 10
252.0
 20
-241.0
 30
0.0
 11
252.0
 21
-281.0
 31
0.0
  0
CIRCLE
  5
922
330
8BC
100
AcDbEntity
  8
DETAIL
  6
CONTINUOUS
100
AcDbCircle
 10
252.0
 20
-261.0
 30
0.0
 40
4.759999999999998
  0
CIRCLE
  5
923
330
8BC
100
AcDbEntity
  8
FIX
  6
CONTINUOUS
100
AcDbCircle
 10
140.0
 20
-77.0
 30
0.0
 40
40.0
  0
LINE
  5
924
330
8BC
100
AcDbEntity
  8
NOTE
  6
CONTINUOUS
100
AcDbLine
 10
120.0
 20
-77.0
 30
0.0
 11
160.0
 21
-77.0
 31
0.0
  0
LINE
  5
925
330
8BC
100
AcDbEntity
  8
NOTE
  6
CONTINUOUS
100
AcDbLine
 10
140.0
 20
-57.0
 30
0.0
 11
140.0
 21
-97.0
 31
0.0
  0
LINE
  5
926
330
8BC
100
AcDbEntity
  8
NOTE
  6
CONTINUOUS
100
AcDbLine
 10
300.0
 20
-170.0
 30
0.0
 11
300.0
 21
-210.0
 31
0.0
  0
LINE
  5
927
330
8BC
100
AcDbEntity
  8
NOTE
  6
CONTINUOUS
100
AcDbLine
 10
280.0
 20
-260.0
 30
0.0
 11
320.0
 21
-260.0
 31
0.0
  0
LINE
  5
928
330
8BC
100
AcDbEntity
  8
NOTE
  6
CONTINUOUS
100
AcDbLine
 10
300.0
 20
-240.0
 30
0.0
 11
300.0
 21
-280.0
 31
0.0
  0
LINE
  5
929
330
8BC
100
AcDbEntity
  8
NOTE
  6
CONTINUOUS
100
AcDbLine
 10
175.0
 20
0.0
 30
0.0
 11
215.0
 21
0.0
 31
0.0
  0
LINE
  5
92A
330
8BC
100
AcDbEntity
  8
NOTE
  6
CONTINUOUS
100
AcDbLine
 10
280.0
 20
-190.0
 30
0.0
 11
320.0
 21
-190.0
 31
0.0
  0
LINE
  5
92B
330
8BC
100
AcDbEntity
  8
NOTE
  6
CONTINUOUS
100
AcDbLine
 10
331.008220573874
 20
274.7269638892821
 30
0.0
 11
795.1637953680402
 21
274.7269638892821
 31
0.0
  0
TEXT
  5
92C
330
8BC
100
AcDbEntity
  8
NOTE
  6
CONTINUOUS
100
AcDbText
 10
347.4192656380454
 20
293.976814929424
 30
0.0
 40
64.0
  1
D,EL,RL,RG
 41
0.9
100
AcDbText
  0
LINE
  5
92E
330
8BC
100
AcDbEntity
  8
SIZE
  6
CONTINUOUS
100
AcDbLine
 10
0.0000000000000012
 20
48.32052730168786
 30
0.0
 11
0.0000000000000052
 21
113.9387564538401
 31
0.0
  0
LINE
  5
92F
330
8BC
100
AcDbEntity
  8
SIZE
  6
CONTINUOUS
100
AcDbLine
 10
-20.0
 20
40.0
 30
0.0
 11
-19.99999999999999
 21
113.9387564538401
 31
0.0
  0
LINE
  5
930
330
8BC
100
AcDbEntity
  8
SIZE
  6
CONTINUOUS
100
AcDbLine
 10
10.0
 20
83.93875645384014
 30
0.0
 11
20.0
 21
83.93875645384014
 31
0.0
  0
LINE
  5
931
330
8BC
100
AcDbEntity
  8
SIZE
  6
CONTINUOUS
100
AcDbLine
 10
-30.0
 20
83.93875645384014
 30
0.0
 11
-40.0
 21
83.93875645384014
 31
0.0
  0
LINE
  5
932
330
8BC
100
AcDbEntity
  8
SIZE
  6
CONTINUOUS
100
AcDbLine
 10
0.0000000000000034
 20
83.93875645384014
 30
0.0
 11
-19.99999999999999
 21
83.93875645384014
 31
0.0
  0
LINE
  5
933
330
8BC
100
AcDbEntity
  8
SIZE
  6
CONTINUOUS
100
AcDbLine
 10
-300.0
 20
-335.7714022431682
 30
0.0
 11
-300.0
 21
-899.9186592575714
 31
0.0
  0
LINE
  5
934
330
8BC
100
AcDbEntity
  8
SIZE
  6
CONTINUOUS
100
AcDbLine
 10
300.0
 20
-370.0
 30
0.0
 11
299.9999999999999
 21
-899.9186592575714
 31
0.0
  0
LINE
  5
935
330
8BC
100
AcDbEntity
  8
SIZE
  6
CONTINUOUS
100
AcDbLine
 10
-290.0
 20
-869.9186592575713
 30
0.0
 11
289.9999999999998
 21
-869.9186592575713
 31
0.0
  0
LINE
  5
936
330
8BC
100
AcDbEntity
  8
SIZE
  6
CONTINUOUS
100
AcDbLine
 10
-110.0
 20
-320.0
 30
0.0
 11
-110.0
 21
-534.3979726248071
 31
0.0
  0
LINE
  5
937
330
8BC
100
AcDbEntity
  8
SIZE
  6
CONTINUOUS
100
AcDbLine
 10
110.0
 20
-320.0
 30
0.0
 11
109.9999999999998
 21
-534.3979726248071
 31
0.0
  0
LINE
  5
938
330
8BC
100
AcDbEntity
  8
SIZE
  6
CONTINUOUS
100
AcDbLine
 10
-100.0
 20
-504.3979726248071
 30
0.0
 11
100.0
 21
-504.3979726248071
 31
0.0
  0
LINE
  5
939
330
8BC
100
AcDbEntity
  8
SIZE
  6
CONTINUOUS
100
AcDbLine
 10
-140.0
 20
-37.0
 30
0.0
 11
-139.9999999999998
 21
369.2311038924735
 31
0.0
  0
LINE
  5
93A
330
8BC
100
AcDbEntity
  8
SIZE
  6
CONTINUOUS
100
AcDbLine
 10
140.0
 20
-37.0
 30
0.0
 11
140.0
 21
369.2311038924735
 31
0.0
  0
LINE
  5
93B
330
8BC
100
AcDbEntity
  8
SIZE
  6
CONTINUOUS
100
AcDbLine
 10
-129.9999999999998
 20
339.2311038924735
 30
0.0
 11
130.0
 21
339.2311038924735
 31
0.0
  0
LINE
  5
93C
330
8BC
100
AcDbEntity
  8
SIZE
  6
CONTINUOUS
100
AcDbLine
 10
-178.5
 20
-76.99999999999999
 30
0.0
 11
-491.4160846598661
 21
-76.9999999999999
 31
0.0
  0
LINE
  5
93D
330
8BC
100
AcDbEntity
  8
SIZE
  6
CONTINUOUS
100
AcDbLine
 10
-320.0
 20
0.0000000000000057
 30
0.0
 11
-491.4160846598661
 21
0.0000000000000542
 31
0.0
  0
LINE
  5
93E
330
8BC
100
AcDbEntity
  8
SIZE
  6
CONTINUOUS
100
AcDbLine
 10
-461.4160846598661
 20
-86.9999999999999
 30
0.0
 11
-461.4160846598661
 21
-96.99999999999993
 31
0.0
  0
LINE
  5
93F
330
8BC
100
AcDbEntity
  8
SIZE
  6
CONTINUOUS
100
AcDbLine
 10
-461.4160846598661
 20
10.00000000000003
 30
0.0
 11
-461.416084659866
 21
133.2571428571432
 31
0.0
  0
LINE
  5
940
330
8BC
100
AcDbEntity
  8
SIZE
  6
CONTINUOUS
100
AcDbLine
 10
-461.4160846598661
 20
-76.9999999999999
 30
0.0
 11
-461.4160846598661
 21
0.0000000000000457
 31
0.0
  0
LINE
  5
941
330
8BC
100
AcDbEntity
  8
SIZE
  6
CONTINUOUS
100
AcDbLine
 10
-149.0
 20
-280.0
 30
0.0
 11
-491.4160846598661
 21
-279.9999999999998
 31
0.0
  0
LINE
  5
942
330
8BC
100
AcDbEntity
  8
SIZE
  6
CONTINUOUS
100
AcDbLine
 10
-178.5
 20
-76.99999999999999
 30
0.0
 11
-491.4160846598661
 21
-76.9999999999999
 31
0.0
  0
LINE
  5
943
330
8BC
100
AcDbEntity
  8
SIZE
  6
CONTINUOUS
100
AcDbLine
 10
-461.4160846598661
 20
-269.9999999999998
 30
0.0
 11
-461.4160846598661
 21
-86.9999999999999
 31
0.0
  0
LINE
  5
944
330
8BC
100
AcDbEntity
  8
SIZE
  6
CONTINUOUS
100
AcDbLine
 10
300.0
 20
20.0
 30
0.0
 11
300.0
 21
111.6398451961666
 31
0.0
  0
LINE
  5
945
330
8BC
100
AcDbEntity
  8
SIZE
  6
CONTINUOUS
100
AcDbLine
 10
195.0
 20
40.0
 30
0.0
 11
195.0
 21
111.6398451961666
 31
0.0
  0
LINE
  5
946
330
8BC
100
AcDbEntity
  8
SIZE
  6
CONTINUOUS
100
AcDbLine
 10
310.0
 20
81.63984519616681
 30
0.0
 11
320.0
 21
81.63984519616681
 31
0.0
  0
LINE
  5
947
330
8BC
100
AcDbEntity
  8
SIZE
  6
CONTINUOUS
100
AcDbLine
 10
185.0
 20
81.63984519616681
 30
0.0
 11
175.0
 21
81.63984519616681
 31
0.0
  0
LINE
  5
948
330
8BC
100
AcDbEntity
  8
SIZE
  6
CONTINUOUS
100
AcDbLine
 10
300.0
 20
81.63984519616681
 30
0.0
 11
195.0
 21
81.63984519616681
 31
0.0
  0
LINE
  5
949
330
8BC
100
AcDbEntity
  8
SIZE
  6
CONTINUOUS
100
AcDbLine
 10
292.0
 20
-261.0
 30
0.0
 11
600.2228872227714
 21
-261.0
 31
0.0
  0
LINE
  5
94A
330
8BC
100
AcDbEntity
  8
SIZE
  6
CONTINUOUS
100
AcDbLine
 10
320.0
 20
-0.0000000000000057
 30
0.0
 11
600.2228872227715
 21
-0.000000000000085
 31
0.0
  0
LINE
  5
94B
330
8BC
100
AcDbEntity
  8
SIZE
  6
CONTINUOUS
100
AcDbLine
 10
570.2228872227715
 20
-251.0
 30
0.0
 11
570.2228872227715
 21
-10.00000000000006
 31
0.0
  0
LINE
  5
94C
330
8BC
100
AcDbEntity
  8
SIZE
  6
CONTINUOUS
100
AcDbLine
 10
92.13719329235392
 20
-360.0
 30
0.0
 11
746.7927778782759
 21
-360.0
 31
0.0
  0
LINE
  5
94D
330
8BC
100
AcDbEntity
  8
SIZE
  6
CONTINUOUS
100
AcDbLine
 10
320.0
 20
-0.0000000000000057
 30
0.0
 11
746.7927778782759
 21
-0.0000000000001266
 31
0.0
  0
LINE
  5
94E
330
8BC
100
AcDbEntity
  8
SIZE
  6
CONTINUOUS
100
AcDbLine
 10
716.7927778782759
 20
-350.0
 30
0.0
 11
716.792777878276
 21
-10.00000000000011
 31
0.0
  0
LINE
  5
94F
330
8BC
100
AcDbEntity
  8
SIZE
  6
CONTINUOUS
100
AcDbLine
 10
300.0
 20
-331.7743105019144
 30
0.0
 11
300.0
 21
-767.8883899936879
 31
0.0
  0
LINE
  5
950
330
8BC
100
AcDbEntity
  8
SIZE
  6
CONTINUOUS
100
AcDbLine
 10
205.0
 20
-301.0
 30
0.0
 11
204.9999999999998
 21
-767.8883899936879
 31
0.0
  0
LINE
  5
951
330
8BC
100
AcDbEntity
  8
SIZE
  6
CONTINUOUS
100
AcDbLine
 10
310.0
 20
-737.8883899936879
 30
0.0
 11
320.0
 21
-737.8883899936879
 31
0.0
  0
LINE
  5
952
330
8BC
100
AcDbEntity
  8
SIZE
  6
CONTINUOUS
100
AcDbLine
 10
194.9999999999998
 20
-737.8883899936879
 30
0.0
 11
71.74285714285712
 21
-737.8883899936879
 31
0.0
  0
LINE
  5
953
330
8BC
100
AcDbEntity
  8
SIZE
  6
CONTINUOUS
100
AcDbLine
 10
300.0
 20
-737.8883899936879
 30
0.0
 11
204.9999999999998
 21
-737.8883899936879
 31
0.0
  0
LINE
  5
954
330
8BC
100
AcDbEntity
  8
SIZE
  6
CONTINUOUS
100
AcDbLine
 10
205.0
 20
-301.0
 30
0.0
 11
204.9999999999998
 21
-661.1405143907467
 31
0.0
  0
LINE
  5
955
330
8BC
100
AcDbEntity
  8
SIZE
  6
CONTINUOUS
100
AcDbLine
 10
252.0
 20
-301.0
 30
0.0
 11
251.9999999999999
 21
-661.1405143907467
 31
0.0
  0
LINE
  5
956
330
8BC
100
AcDbEntity
  8
SIZE
  6
CONTINUOUS
100
AcDbLine
 10
262.0
 20
-631.1405143907466
 30
0.0
 11
272.0
 21
-631.1405143907466
 31
0.0
  0
LINE
  5
957
330
8BC
100
AcDbEntity
  8
SIZE
  6
CONTINUOUS
100
AcDbLine
 10
194.9999999999998
 20
-631.1405143907466
 30
0.0
 11
71.74285714285716
 21
-631.1405143907466
 31
0.0
  0
LINE
  5
958
330
8BC
100
AcDbEntity
  8
SIZE
  6
CONTINUOUS
100
AcDbLine
 10
251.9999999999999
 20
-631.1405143907466
 30
0.0
 11
204.9999999999998
 21
-631.1405143907466
 31
0.0
  0
TEXT
  5
959
330
8BC
100
AcDbEntity
  8
SIZE
  6
CONTINUOUS
100
AcDbText
 10
-74.05714285714283
 20
349.2311038924735
 30
0.0
 40
64.0
  1
280
 41
0.9
100
AcDbText
  0
TEXT
  5
95A
330
8BC
100
AcDbEntity
  8
SIZE
  6
CONTINUOUS
100
AcDbText
 10
-74.05714285714286
 20
-494.3979726248072
 30
0.0
 40
64.0
  1
220
 41
0.9
100
AcDbText
  0
TEXT
  5
95B
330
8BC
100
AcDbEntity
  8
SIZE
  6
CONTINUOUS
100
AcDbText
 10
-71.88440006518877
 20
-859.9186592575714
 30
0.0
 40
64.0
  1
600
 41
0.9
100
AcDbText
  0
TEXT
  5
95C
330
8BC
100
AcDbEntity
  8
SIZE
  6
CONTINUOUS
100
AcDbText
 10
-56.62857142857141
 20
103.93875645384
 30
0.0
 40
64.0
  1
20
 41
0.9
100
AcDbText
  0
CIRCLE
  5
95D
330
8BC
100
AcDbEntity
  8
SIZE
  6
BYBLOCK
100
AcDbCircle
 10
0.0000000000000034
 20
83.93875645384014
 30
0.0
 40
5.0
  0
LINE
  5
95E
330
8BC
100
AcDbEntity
  8
SIZE
  6
BYBLOCK
100
AcDbLine
 10
0.0000000000000034
 20
83.93875645384014
 30
0.0
 11
10.0
 21
83.93875645384014
 31
0.0
  0
CIRCLE
  5
95F
330
8BC
100
AcDbEntity
  8
SIZE
  6
BYBLOCK
100
AcDbCircle
 10
-461.4160846598661
 20
0.0000000000000457
 30
0.0
 40
5.0
  0
LINE
  5
960
330
8BC
100
AcDbEntity
  8
SIZE
  6
BYBLOCK
100
AcDbLine
 10
-461.4160846598661
 20
0.0000000000000457
 30
0.0
 11
-461.4160846598661
 21
10.00000000000003
 31
0.0
  0
CIRCLE
  5
961
330
8BC
100
AcDbEntity
  8
SIZE
  6
BYBLOCK
100
AcDbCircle
 10
-300.0
 20
-869.9186592575713
 30
0.0
 40
5.0
  0
LINE
  5
962
330
8BC
100
AcDbEntity
  8
SIZE
  6
BYBLOCK
100
AcDbLine
 10
-300.0
 20
-869.9186592575713
 30
0.0
 11
-290.0
 21
-869.9186592575713
 31
0.0
  0
CIRCLE
  5
963
330
8BC
100
AcDbEntity
  8
SIZE
  6
BYBLOCK
100
AcDbCircle
 10
-110.0
 20
-504.3979726248071
 30
0.0
 40
5.0
  0
LINE
  5
964
330
8BC
100
AcDbEntity
  8
SIZE
  6
BYBLOCK
100
AcDbLine
 10
-110.0
 20
-504.3979726248071
 30
0.0
 11
-100.0
 21
-504.3979726248071
 31
0.0
  0
TEXT
  5
965
330
8BC
100
AcDbEntity
  8
SIZE
  6
CONTINUOUS
100
AcDbText
 10
-471.4160846598661
 20
-252.5571428571424
 30
0.0
 40
64.0
  1
203
 50
90.0
 41
0.9
100
AcDbText
  0
CIRCLE
  5
966
330
8BC
100
AcDbEntity
  8
SIZE
  6
BYBLOCK
100
AcDbCircle
 10
-461.4160846598661
 20
-279.9999999999998
 30
0.0
 40
5.0
  0
LINE
  5
967
330
8BC
100
AcDbEntity
  8
SIZE
  6
BYBLOCK
100
AcDbLine
 10
-461.4160846598661
 20
-279.9999999999998
 30
0.0
 11
-461.4160846598661
 21
-269.9999999999998
 31
0.0
  0
CIRCLE
  5
968
330
8BC
100
AcDbEntity
  8
SIZE
  6
BYBLOCK
100
AcDbCircle
 10
-461.4160846598661
 20
-76.9999999999999
 30
0.0
 40
5.0
  0
LINE
  5
969
330
8BC
100
AcDbEntity
  8
SIZE
  6
BYBLOCK
100
AcDbLine
 10
-461.4160846598661
 20
-76.9999999999999
 30
0.0
 11
-461.4160846598661
 21
-86.9999999999999
 31
0.0
  0
CIRCLE
  5
96A
330
8BC
100
AcDbEntity
  8
SIZE
  6
BYBLOCK
100
AcDbCircle
 10
-461.4160846598661
 20
-76.9999999999999
 30
0.0
 40
5.0
  0
LINE
  5
96B
330
8BC
100
AcDbEntity
  8
SIZE
  6
BYBLOCK
100
AcDbLine
 10
-461.4160846598661
 20
-76.9999999999999
 30
0.0
 11
-461.4160846598661
 21
-86.9999999999999
 31
0.0
  0
TEXT
  5
96C
330
8BC
100
AcDbEntity
  8
SIZE
  6
CONTINUOUS
100
AcDbText
 10
-471.4160846598661
 20
30.00000000000039
 30
0.0
 40
64.0
  1
77
 50
90.0
 41
0.9
100
AcDbText
  0
CIRCLE
  5
96D
330
8BC
100
AcDbEntity
  8
SIZE
  6
BYBLOCK
100
AcDbCircle
 10
-19.99999999999999
 20
83.93875645384014
 30
0.0
 40
5.0
  0
LINE
  5
96E
330
8BC
100
AcDbEntity
  8
SIZE
  6
BYBLOCK
100
AcDbLine
 10
-19.99999999999999
 20
83.93875645384014
 30
0.0
 11
-30.0
 21
83.93875645384014
 31
0.0
  0
CIRCLE
  5
96F
330
8BC
100
AcDbEntity
  8
SIZE
  6
BYBLOCK
100
AcDbCircle
 10
-139.9999999999998
 20
339.2311038924735
 30
0.0
 40
5.0
  0
LINE
  5
970
330
8BC
100
AcDbEntity
  8
SIZE
  6
BYBLOCK
100
AcDbLine
 10
-139.9999999999998
 20
339.2311038924735
 30
0.0
 11
-129.9999999999998
 21
339.2311038924735
 31
0.0
  0
CIRCLE
  5
971
330
8BC
100
AcDbEntity
  8
SIZE
  6
BYBLOCK
100
AcDbCircle
 10
716.792777878276
 20
-0.0000000000001181
 30
0.0
 40
5.0
  0
LINE
  5
972
330
8BC
100
AcDbEntity
  8
SIZE
  6
BYBLOCK
100
AcDbLine
 10
716.792777878276
 20
-0.0000000000001181
 30
0.0
 11
716.792777878276
 21
-10.00000000000011
 31
0.0
  0
CIRCLE
  5
973
330
8BC
100
AcDbEntity
  8
SIZE
  6
BYBLOCK
100
AcDbCircle
 10
570.2228872227715
 20
-0.0000000000000765
 30
0.0
 40
5.0
  0
LINE
  5
974
330
8BC
100
AcDbEntity
  8
SIZE
  6
BYBLOCK
100
AcDbLine
 10
570.2228872227715
 20
-0.0000000000000765
 30
0.0
 11
570.2228872227715
 21
-10.00000000000006
 31
0.0
  0
TEXT
  5
975
330
8BC
100
AcDbEntity
  8
SIZE
  6
CONTINUOUS
100
AcDbText
 10
706.7927778782761
 20
-254.0571428571424
 30
0.0
 40
64.0
  1
360
 50
90.0
 41
0.9
100
AcDbText
  0
TEXT
  5
976
330
8BC
100
AcDbEntity
  8
SIZE
  6
CONTINUOUS
100
AcDbText
 10
81.74285714285709
 20
-727.8883899936881
 30
0.0
 40
64.0
  1
95
 41
0.9
100
AcDbText
  0
CIRCLE
  5
977
330
8BC
100
AcDbEntity
  8
SIZE
  6
BYBLOCK
100
AcDbCircle
 10
299.9999999999999
 20
-869.9186592575713
 30
0.0
 40
5.0
  0
LINE
  5
978
330
8BC
100
AcDbEntity
  8
SIZE
  6
BYBLOCK
100
AcDbLine
 10
299.9999999999999
 20
-869.9186592575713
 30
0.0
 11
289.9999999999998
 21
-869.9186592575713
 31
0.0
  0
CIRCLE
  5
979
330
8BC
100
AcDbEntity
  8
SIZE
  6
BYBLOCK
100
AcDbCircle
 10
204.9999999999998
 20
-737.8883899936879
 30
0.0
 40
5.0
  0
LINE
  5
97A
330
8BC
100
AcDbEntity
  8
SIZE
  6
BYBLOCK
100
AcDbLine
 10
204.9999999999998
 20
-737.8883899936879
 30
0.0
 11
194.9999999999998
 21
-737.8883899936879
 31
0.0
  0
CIRCLE
  5
97B
330
8BC
100
AcDbEntity
  8
SIZE
  6
BYBLOCK
100
AcDbCircle
 10
300.0
 20
-737.8883899936879
 30
0.0
 40
5.0
  0
LINE
  5
97C
330
8BC
100
AcDbEntity
  8
SIZE
  6
BYBLOCK
100
AcDbLine
 10
300.0
 20
-737.8883899936879
 30
0.0
 11
310.0
 21
-737.8883899936879
 31
0.0
  0
TEXT
  5
97D
330
8BC
100
AcDbEntity
  8
SIZE
  6
CONTINUOUS
100
AcDbText
 10
81.74285714285714
 20
-621.1405143907467
 30
0.0
 40
64.0
  1
47
 41
0.9
100
AcDbText
  0
CIRCLE
  5
97E
330
8BC
100
AcDbEntity
  8
SIZE
  6
BYBLOCK
100
AcDbCircle
 10
109.9999999999998
 20
-504.3979726248071
 30
0.0
 40
5.0
  0
LINE
  5
97F
330
8BC
100
AcDbEntity
  8
SIZE
  6
BYBLOCK
100
AcDbLine
 10
109.9999999999998
 20
-504.3979726248071
 30
0.0
 11
100.0
 21
-504.3979726248071
 31
0.0
  0
CIRCLE
  5
980
330
8BC
100
AcDbEntity
  8
SIZE
  6
BYBLOCK
100
AcDbCircle
 10
204.9999999999998
 20
-631.1405143907466
 30
0.0
 40
5.0
  0
LINE
  5
981
330
8BC
100
AcDbEntity
  8
SIZE
  6
BYBLOCK
100
AcDbLine
 10
204.9999999999998
 20
-631.1405143907466
 30
0.0
 11
194.9999999999998
 21
-631.1405143907466
 31
0.0
  0
CIRCLE
  5
982
330
8BC
100
AcDbEntity
  8
SIZE
  6
BYBLOCK
100
AcDbCircle
 10
251.9999999999999
 20
-631.1405143907466
 30
0.0
 40
5.0
  0
LINE
  5
983
330
8BC
100
AcDbEntity
  8
SIZE
  6
BYBLOCK
100
AcDbLine
 10
251.9999999999999
 20
-631.1405143907466
 30
0.0
 11
262.0
 21
-631.1405143907466
 31
0.0
  0
CIRCLE
  5
984
330
8BC
100
AcDbEntity
  8
SIZE
  6
BYBLOCK
100
AcDbCircle
 10
570.2228872227712
 20
-261.0
 30
0.0
 40
5.0
  0
LINE
  5
985
330
8BC
100
AcDbEntity
  8
SIZE
  6
BYBLOCK
100
AcDbLine
 10
570.2228872227712
 20
-261.0
 30
0.0
 11
570.2228872227712
 21
-251.0
 31
0.0
  0
TEXT
  5
986
330
8BC
100
AcDbEntity
  8
SIZE
  6
CONTINUOUS
100
AcDbText
 10
560.2228872227715
 20
-192.2142857142852
 30
0.0
 40
64.0
  1
261
 50
90.0
 41
0.9
100
AcDbText
  0
CIRCLE
  5
987
330
8BC
100
AcDbEntity
  8
SIZE
  6
BYBLOCK
100
AcDbCircle
 10
716.7927778782759
 20
-360.0
 30
0.0
 40
5.0
  0
LINE
  5
988
330
8BC
100
AcDbEntity
  8
SIZE
  6
BYBLOCK
100
AcDbLine
 10
716.7927778782759
 20
-360.0
 30
0.0
 11
716.7927778782759
 21
-350.0
 31
0.0
  0
TEXT
  5
989
330
8BC
100
AcDbEntity
  8
SIZE
  6
CONTINUOUS
100
AcDbText
 10
178.9285714285713
 20
101.6398451961668
 30
0.0
 40
64.0
  1
105
 41
0.9
100
AcDbText
  0
CIRCLE
  5
98A
330
8BC
100
AcDbEntity
  8
SIZE
  6
BYBLOCK
100
AcDbCircle
 10
195.0
 20
81.63984519616681
 30
0.0
 40
5.0
  0
LINE
  5
98B
330
8BC
100
AcDbEntity
  8
SIZE
  6
BYBLOCK
100
AcDbLine
 10
195.0
 20
81.63984519616681
 30
0.0
 11
185.0
 21
81.63984519616681
 31
0.0
  0
CIRCLE
  5
98C
330
8BC
100
AcDbEntity
  8
SIZE
  6
BYBLOCK
100
AcDbCircle
 10
300.0
 20
81.63984519616681
 30
0.0
 40
5.0
  0
LINE
  5
98D
330
8BC
100
AcDbEntity
  8
SIZE
  6
BYBLOCK
100
AcDbLine
 10
300.0
 20
81.63984519616681
 30
0.0
 11
310.0
 21
81.63984519616681
 31
0.0
  0
CIRCLE
  5
98E
330
8BC
100
AcDbEntity
  8
SIZE
  6
BYBLOCK
100
AcDbCircle
 10
140.0
 20
339.2311038924735
 30
0.0
 40
5.0
  0
LINE
  5
98F
330
8BC
100
AcDbEntity
  8
SIZE
  6
BYBLOCK
100
AcDbLine
 10
140.0
 20
339.2311038924735
 30
0.0
 11
130.0
 21
339.2311038924735
 31
0.0
  0
ARC
  5
9AA
330
8BC
100
AcDbEntity
  8
DETAIL
  6
CONTINUOUS
100
AcDbCircle
 10
0.0
 20
1390.0
 30
0.0
 40
1750.0
100
AcDbArc
 50
270.0
 51
279.268629000002
  0
ARC
  5
9AB
330
8BC
100
AcDbEntity
  8
DETAIL
  6
CONTINUOUS
100
AcDbCircle
 10
0.0
 20
1390.0
 30
0.0
 40
1750.0
100
AcDbArc
 50
260.7313709999979
 51
270.0
  0
LINE
  5
9AC
330
8BC
100
AcDbEntity
  8
DETAIL
  6
CONTINUOUS
100
AcDbLine
 10
-299.2491199999994
 20
-322.2855600000002
 30
0.0
 11
-282.1066800000016
 21
-337.0375999999998
 31
0.0
  0
LINE
  5
9AD
330
8BC
100
AcDbEntity
  8
DETAIL
  6
CONTINUOUS
100
AcDbLine
 10
299.2491199999994
 20
-322.2855600000002
 30
0.0
 11
282.1066800000016
 21
-337.0375999999998
 31
0.0
  0
LINE
  5
9AE
330
8BC
100
AcDbEntity
  8
DETAIL
  6
CONTINUOUS
100
AcDbLine
 10
-300.0
 20
-310.0
 30
0.0
 11
-299.5962299999973
 21
-321.56248
 31
0.0
  0
LINE
  5
9AF
330
8BC
100
AcDbEntity
  8
DETAIL
  6
CONTINUOUS
100
AcDbLine
 10
300.0
 20
-310.0
 30
0.0
 11
299.5962300000019
 21
-321.56248
 31
0.0
  0
ARC
  5
9B1
330
8BC
100
AcDbEntity
  8
OUTLINE
  6
CONTINUOUS
100
AcDbCircle
 10
0.0
 20
1390.0
 30
0.0
 40
1750.0
100
AcDbArc
 50
270.0
 51
279.268629000002
  0
LINE
  5
9B2
330
8BC
100
AcDbEntity
  8
OUTLINE
  6
CONTINUOUS
100
AcDbLine
 10
-300.0
 20
0.0
 30
0.0
 11
300.0
 21
0.0
 31
0.0
  0
LINE
  5
9B3
330
8BC
100
AcDbEntity
  8
OUTLINE
  6
CONTINUOUS
100
AcDbLine
 10
-300.0
 20
0.0
 30
0.0
 11
-300.0
 21
-310.0
 31
0.0
  0
ARC
  5
9B4
330
8BC
100
AcDbEntity
  8
OUTLINE
  6
CONTINUOUS
100
AcDbCircle
 10
0.0
 20
1390.0
 30
0.0
 40
1750.0
100
AcDbArc
 50
260.7313709999979
 51
270.0
  0
LINE
  5
9B5
330
8BC
100
AcDbEntity
  8
OUTLINE
  6
CONTINUOUS
100
AcDbLine
 10
-300.0
 20
-310.0
 30
0.0
 11
-299.5962299999973
 21
-321.56248
 31
0.0
  0
LINE
  5
9B6
330
8BC
100
AcDbEntity
  8
OUTLINE
  6
CONTINUOUS
100
AcDbLine
 10
-299.2491199999994
 20
-322.2855600000002
 30
0.0
 11
-282.1066800000016
 21
-337.0375999999998
 31
0.0
  0
LINE
  5
9B7
330
8BC
100
AcDbEntity
  8
OUTLINE
  6
CONTINUOUS
100
AcDbLine
 10
300.0
 20
0.0
 30
0.0
 11
300.0
 21
-310.0
 31
0.0
  0
LINE
  5
9BA
330
8BC
100
AcDbEntity
  8
OUTLINE
  6
CONTINUOUS
100
AcDbLine
 10
299.2491199999994
 20
-322.2855600000002
 30
0.0
 11
282.1066800000016
 21
-337.0375999999998
 31
0.0
  0
LINE
  5
9BB
330
8BC
100
AcDbEntity
  8
OUTLINE
  6
CONTINUOUS
100
AcDbLine
 10
300.0
 20
-310.0
 30
0.0
 11
299.5962300000019
 21
-321.56248
 31
0.0
  0
ENDSEC
  0
SECTION
  2
OBJECTS
  0
DICTIONARY
  5
8AA
330
0
100
AcDbDictionary
  3
ACAD_GROUP
350
8AB
  3
ACAD_LAYOUT
350
8B7
  3
ACAD_MLINESTYLE
350
8B4
  3
ACAD_PLOTSETTINGS
350
8B6
  3
ACAD_PLOTSTYLENAME
350
8AC
  3
ACDBHEADERROUNDTRIPXREC
350
9C1
  0
DICTIONARY
  5
9E4
330
8BC
100
AcDbDictionary
280
     1
  3
ACAD_LAYOUTSELFREF
360
9E5
  0
DICTIONARY
  5
9E2
330
8B8
100
AcDbDictionary
280
     1
  3
ACAD_LAYOUTSELFREF
360
9E3
  0
DICTIONARY
  5
8AB
102
{ACAD_REACTORS
330
8AA
102
}
330
8AA
100
AcDbDictionary
  0
DICTIONARY
  5
8B7
102
{ACAD_REACTORS
330
8AA
102
}
330
8AA
100
AcDbDictionary
  0
DICTIONARY
  5
8B4
102
{ACAD_REACTORS
330
8AA
102
}
330
8AA
100
AcDbDictionary
  3
STANDARD
350
8B5
  0
DICTIONARY
  5
8B6
102
{ACAD_REACTORS
330
8AA
102
}
330
8AA
100
AcDbDictionary
  0
ACDBDICTIONARYWDFLT
  5
8AC
102
{ACAD_REACTORS
330
8AA
102
}
330
8AA
100
AcDbDictionary
281
     1
  3
Normal
350
8AD
100
AcDbDictionaryWithDefault
340
8AD
  0
DICTIONARY
  5
9C1
102
{ACAD_REACTORS
330
8AA
102
}
330
8AA
100
AcDbDictionary
  3
CEPSNTYPE
350
9CB
  3
DIMSTYLEDATA
350
9CF
  3
FINGERPRINTGUID
350
9CC
  3
HYPERLINKBASE
350
9C4
  3
INSUNITS
350
9CA
  3
LAYOUTDICT
350
9C6
  3
LWETCUNION
350
9C9
  3
PLOTSETDICT
350
9C7
  3
PLOTSTYLNAMDICT
350
9C8
  3
PSVPSCALE
350
9CE
  3
PUCSBASE
350
9D2
  3
PUCSORGBACK
350
9D8
  3
PUCSORGBOTTOM
350
9D4
  3
PUCSORGFRONT
350
9D7
  3
PUCSORGLEFT
350
9D5
  3
PUCSORGRIGHT
350
9D6
  3
PUCSORGTOP
350
9D3
  3
PUCSORTHOREF
350
9D0
  3
PUCSORTHOVIEW
350
9D1
  3
STYLESHEET
350
9C5
  3
TSTACKALIGN
350
9C2
  3
TSTACKSIZE
350
9C3
  3
UCSBASE
350
9DB
  3
UCSORGBACK
350
9E1
  3
UCSORGBOTTOM
350
9DD
  3
UCSORGFRONT
350
9E0
  3
UCSORGLEFT
350
9DE
  3
UCSORGRIGHT
350
9DF
  3
UCSORGTOP
350
9DC
  3
UCSORTHOREF
350
9D9
  3
UCSORTHOVIEW
350
9DA
  3
VERSIONGUID
350
9CD
  0
XRECORD
  5
9E5
102
{ACAD_REACTORS
330
9E4
102
}
330
9E4
100
AcDbXrecord
340
8BC
  0
XRECORD
  5
9E3
102
{ACAD_REACTORS
330
9E2
102
}
330
9E2
100
AcDbXrecord
340
8B8
  0
MLINESTYLE
  5
8B5
102
{ACAD_REACTORS
330
8B4
102
}
330
8B4
100
AcDbMlineStyle
  2
STANDARD
 70
     0
  3

 62
   256
 51
90.0
 52
90.0
 71
     2
 49
0.5
 62
   256
  6
BYLAYER
 49
-0.5
 62
   256
  6
BYLAYER
  0
ACDBPLACEHOLDER
  5
8AD
102
{ACAD_REACTORS
330
8AC
102
}
330
8AC
100
AcDbPlaceHolder
280
     0
  0
XRECORD
  5
9CB
102
{ACAD_REACTORS
330
9C1
102
}
330
9C1
100
AcDbXrecord
 90
        0
  0
XRECORD
  5
9CF
102
{ACAD_REACTORS
330
9C1
102
}
330
9C1
100
AcDbXrecord
1000
DSTYLE
1002
{
1070
   341
340
8DC
1070
   342
340
8DC
1002
}
  0
XRECORD
  5
9CC
102
{ACAD_REACTORS
330
9C1
102
}
330
9C1
100
AcDbXrecord
  1
{E01E968E-45CA-4BC4-A21D-E6BC7763F120}
  0
XRECORD
  5
9C4
102
{ACAD_REACTORS
330
9C1
102
}
330
9C1
100
AcDbXrecord
  1

  0
XRECORD
  5
9CA
102
{ACAD_REACTORS
330
9C1
102
}
330
9C1
100
AcDbXrecord
 90
        0
  0
XRECORD
  5
9C6
102
{ACAD_REACTORS
330
9C1
102
}
330
9C1
100
AcDbXrecord
340
8B7
  0
XRECORD
  5
9C9
102
{ACAD_REACTORS
330
9C1
102
}
330
9C1
100
AcDbXrecord
 90
    10781
  0
XRECORD
  5
9C7
102
{ACAD_REACTORS
330
9C1
102
}
330
9C1
100
AcDbXrecord
340
8B6
  0
XRECORD
  5
9C8
102
{ACAD_REACTORS
330
9C1
102
}
330
9C1
100
AcDbXrecord
340
8AC
  0
XRECORD
  5
9CE
102
{ACAD_REACTORS
330
9C1
102
}
330
9C1
100
AcDbXrecord
 40
0.0
  0
XRECORD
  5
9D2
102
{ACAD_REACTORS
330
9C1
102
}
330
9C1
100
AcDbXrecord
340
0
  0
XRECORD
  5
9D8
102
{ACAD_REACTORS
330
9C1
102
}
330
9C1
100
AcDbXrecord
 10
0.0
 20
0.0
 30
0.0
  0
XRECORD
  5
9D4
102
{ACAD_REACTORS
330
9C1
102
}
330
9C1
100
AcDbXrecord
 10
0.0
 20
0.0
 30
0.0
  0
XRECORD
  5
9D7
102
{ACAD_REACTORS
330
9C1
102
}
330
9C1
100
AcDbXrecord
 10
0.0
 20
0.0
 30
0.0
  0
XRECORD
  5
9D5
102
{ACAD_REACTORS
330
9C1
102
}
330
9C1
100
AcDbXrecord
 10
0.0
 20
0.0
 30
0.0
  0
XRECORD
  5
9D6
102
{ACAD_REACTORS
330
9C1
102
}
330
9C1
100
AcDbXrecord
 10
0.0
 20
0.0
 30
0.0
  0
XRECORD
  5
9D3
102
{ACAD_REACTORS
330
9C1
102
}
330
9C1
100
AcDbXrecord
 10
0.0
 20
0.0
 30
0.0
  0
XRECORD
  5
9D0
102
{ACAD_REACTORS
330
9C1
102
}
330
9C1
100
AcDbXrecord
340
0
  0
XRECORD
  5
9D1
102
{ACAD_REACTORS
330
9C1
102
}
330
9C1
100
AcDbXrecord
 70
     0
  0
XRECORD
  5
9C5
102
{ACAD_REACTORS
330
9C1
102
}
330
9C1
100
AcDbXrecord
  1

  0
XRECORD
  5
9C2
102
{ACAD_REACTORS
330
9C1
102
}
330
9C1
100
AcDbXrecord
 90
        1
  0
XRECORD
  5
9C3
102
{ACAD_REACTORS
330
9C1
102
}
330
9C1
100
AcDbXrecord
 90
       70
  0
XRECORD
  5
9DB
102
{ACAD_REACTORS
330
9C1
102
}
330
9C1
100
AcDbXrecord
340
0
  0
XRECORD
  5
9E1
102
{ACAD_REACTORS
330
9C1
102
}
330
9C1
100
AcDbXrecord
 10
0.0
 20
0.0
 30
0.0
  0
XRECORD
  5
9DD
102
{ACAD_REACTORS
330
9C1
102
}
330
9C1
100
AcDbXrecord
 10
0.0
 20
0.0
 30
0.0
  0
XRECORD
  5
9E0
102
{ACAD_REACTORS
330
9C1
102
}
330
9C1
100
AcDbXrecord
 10
0.0
 20
0.0
 30
0.0
  0
XRECORD
  5
9DE
102
{ACAD_REACTORS
330
9C1
102
}
330
9C1
100
AcDbXrecord
 10
0.0
 20
0.0
 30
0.0
  0
XRECORD
  5
9DF
102
{ACAD_REACTORS
330
9C1
102
}
330
9C1
100
AcDbXrecord
 10
0.0
 20
0.0
 30
0.0
  0
XRECORD
  5
9DC
102
{ACAD_REACTORS
330
9C1
102
}
330
9C1
100
AcDbXrecord
 10
0.0
 20
0.0
 30
0.0
  0
XRECORD
  5
9D9
102
{ACAD_REACTORS
330
9C1
102
}
330
9C1
100
AcDbXrecord
340
0
  0
XRECORD
  5
9DA
102
{ACAD_REACTORS
330
9C1
102
}
330
9C1
100
AcDbXrecord
 70
     0
  0
XRECORD
  5
9CD
102
{ACAD_REACTORS
330
9C1
102
}
330
9C1
100
AcDbXrecord
  1
{174814BE-68D2-4745-9143-F1182BC34BB1}
  0
ENDSEC
  0
EOF
