  0
SECTION
  2
HEADER
  9
$ACADVER
  1
AC1018
  9
$ACADMAINTVER
 70
     0
  9
$DWGCODEPAGE
  3
ANSI_932
  9
$INSBASE
 10
0.0
 20
0.0
 30
0.0
  9
$EXTMIN
 10
-1801.840050864325
 20
-625.5947894407259
 30
0.0
  9
$EXTMAX
 10
1791.276214139966
 20
2170.737955224519
 30
0.0
  9
$LIMMIN
 10
-1801.840050864325
 20
-625.5947894407259
  9
$LIMMAX
 10
1791.276214139966
 20
2170.737955224519
  9
$ORTHOMODE
 70
     0
  9
$REGENMODE
 70
     1
  9
$FILLMODE
 70
     1
  9
$QTEXTMODE
 70
     0
  9
$MIRRTEXT
 70
     1
  9
$LTSCALE
 40
1.0
  9
$ATTMODE
 70
     1
  9
$TEXTSIZE
 40
0.2
  9
$TRACEWID
 40
0.05
  9
$TEXTSTYLE
  7
Standard
  9
$CLAYER
  8
SIZE
  9
$CELTYPE
  6
ByLayer
  9
$CECOLOR
 62
   256
  9
$CELTSCALE
 40
1.0
  9
$DISPSILH
 70
     0
  9
$DIMSCALE
 40
1.0
  9
$DIMASZ
 40
0.18
  9
$DIMEXO
 40
0.0625
  9
$DIMDLI
 40
0.38
  9
$DIMRND
 40
0.0
  9
$DIMDLE
 40
0.0
  9
$DIMEXE
 40
0.18
  9
$DIMTP
 40
0.0
  9
$DIMTM
 40
0.0
  9
$DIMTXT
 40
0.18
  9
$DIMCEN
 40
0.09
  9
$DIMTSZ
 40
0.0
  9
$DIMTOL
 70
     0
  9
$DIMLIM
 70
     0
  9
$DIMTIH
 70
     1
  9
$DIMTOH
 70
     1
  9
$DIMSE1
 70
     0
  9
$DIMSE2
 70
     0
  9
$DIMTAD
 70
     0
  9
$DIMZIN
 70
     0
  9
$DIMBLK
  1

  9
$DIMASO
 70
     1
  9
$DIMSHO
 70
     1
  9
$DIMPOST
  1

  9
$DIMAPOST
  1

  9
$DIMALT
 70
     0
  9
$DIMALTD
 70
     2
  9
$DIMALTF
 40
25.4
  9
$DIMLFAC
 40
1.0
  9
$DIMTOFL
 70
     0
  9
$DIMTVP
 40
0.0
  9
$DIMTIX
 70
     0
  9
$DIMSOXD
 70
     0
  9
$DIMSAH
 70
     0
  9
$DIMBLK1
  1

  9
$DIMBLK2
  1

  9
$DIMSTYLE
  2
Standard
  9
$DIMCLRD
 70
     0
  9
$DIMCLRE
 70
     0
  9
$DIMCLRT
 70
     0
  9
$DIMTFAC
 40
1.0
  9
$DIMGAP
 40
0.09
  9
$DIMJUST
 70
     0
  9
$DIMSD1
 70
     0
  9
$DIMSD2
 70
     0
  9
$DIMTOLJ
 70
     1
  9
$DIMTZIN
 70
     0
  9
$DIMALTZ
 70
     0
  9
$DIMALTTZ
 70
     0
  9
$DIMUPT
 70
     0
  9
$DIMDEC
 70
     4
  9
$DIMTDEC
 70
     4
  9
$DIMALTU
 70
     2
  9
$DIMALTTD
 70
     2
  9
$DIMTXSTY
  7
Standard
  9
$DIMAUNIT
 70
     0
  9
$DIMADEC
 70
     0
  9
$DIMALTRND
 40
0.0
  9
$DIMAZIN
 70
     0
  9
$DIMDSEP
 70
    46
  9
$DIMATFIT
 70
     3
  9
$DIMFRAC
 70
     0
  9
$DIMLDRBLK
  1

  9
$DIMLUNIT
 70
     2
  9
$DIMLWD
 70
    -2
  9
$DIMLWE
 70
    -2
  9
$DIMTMOVE
 70
     0
  9
$LUNITS
 70
     2
  9
$LUPREC
 70
     4
  9
$SKETCHINC
 40
0.1
  9
$FILLETRAD
 40
0.5
  9
$AUNITS
 70
     1
  9
$AUPREC
 70
     3
  9
$MENU
  1
.
  9
$ELEVATION
 40
0.0
  9
$PELEVATION
 40
0.0
  9
$THICKNESS
 40
0.0
  9
$LIMCHECK
 70
     0
  9
$CHAMFERA
 40
0.0
  9
$CHAMFERB
 40
0.0
  9
$CHAMFERC
 40
0.0
  9
$CHAMFERD
 40
0.0
  9
$SKPOLY
 70
     0
  9
$TDCREATE
 40
2458023.42643059
  9
$TDUCREATE
 40
2458023.05143059
  9
$TDUPDATE
 40
2458023.426432396
  9
$TDUUPDATE
 40
2458023.051432396
  9
$TDINDWG
 40
0.0000000116
  9
$TDUSRTIMER
 40
0.0000000116
  9
$USRTIMER
 70
     1
  9
$ANGBASE
 50
0.0
  9
$ANGDIR
 70
     0
  9
$PDMODE
 70
     0
  9
$PDSIZE
 40
0.0
  9
$PLINEWID
 40
0.0
  9
$SPLFRAME
 70
     0
  9
$SPLINETYPE
 70
     6
  9
$SPLINESEGS
 70
     8
  9
$HANDSEED
  5
32E
  9
$SURFTAB1
 70
     6
  9
$SURFTAB2
 70
     6
  9
$SURFTYPE
 70
     6
  9
$SURFU
 70
     6
  9
$SURFV
 70
     6
  9
$UCSBASE
  2

  9
$UCSNAME
  2

  9
$UCSORG
 10
0.0
 20
0.0
 30
0.0
  9
$UCSXDIR
 10
1.0
 20
0.0
 30
0.0
  9
$UCSYDIR
 10
0.0
 20
1.0
 30
0.0
  9
$UCSORTHOREF
  2

  9
$UCSORTHOVIEW
 70
     0
  9
$UCSORGTOP
 10
0.0
 20
0.0
 30
0.0
  9
$UCSORGBOTTOM
 10
0.0
 20
0.0
 30
0.0
  9
$UCSORGLEFT
 10
0.0
 20
0.0
 30
0.0
  9
$UCSORGRIGHT
 10
0.0
 20
0.0
 30
0.0
  9
$UCSORGFRONT
 10
0.0
 20
0.0
 30
0.0
  9
$UCSORGBACK
 10
0.0
 20
0.0
 30
0.0
  9
$PUCSBASE
  2

  9
$PUCSNAME
  2

  9
$PUCSORG
 10
0.0
 20
0.0
 30
0.0
  9
$PUCSXDIR
 10
1.0
 20
0.0
 30
0.0
  9
$PUCSYDIR
 10
0.0
 20
1.0
 30
0.0
  9
$PUCSORTHOREF
  2

  9
$PUCSORTHOVIEW
 70
     0
  9
$PUCSORGTOP
 10
0.0
 20
0.0
 30
0.0
  9
$PUCSORGBOTTOM
 10
0.0
 20
0.0
 30
0.0
  9
$PUCSORGLEFT
 10
0.0
 20
0.0
 30
0.0
  9
$PUCSORGRIGHT
 10
0.0
 20
0.0
 30
0.0
  9
$PUCSORGFRONT
 10
0.0
 20
0.0
 30
0.0
  9
$PUCSORGBACK
 10
0.0
 20
0.0
 30
0.0
  9
$USERI1
 70
     0
  9
$USERI2
 70
     0
  9
$USERI3
 70
     0
  9
$USERI4
 70
     0
  9
$USERI5
 70
     0
  9
$USERR1
 40
0.0
  9
$USERR2
 40
0.0
  9
$USERR3
 40
0.0
  9
$USERR4
 40
0.0
  9
$USERR5
 40
0.0
  9
$WORLDVIEW
 70
     1
  9
$SHADEDGE
 70
     3
  9
$SHADEDIF
 70
    70
  9
$TILEMODE
 70
     1
  9
$MAXACTVP
 70
    64
  9
$PINSBASE
 10
0.0
 20
0.0
 30
0.0
  9
$PLIMCHECK
 70
     0
  9
$PEXTMIN
 10
1.000000000000000E+20
 20
1.000000000000000E+20
 30
1.000000000000000E+20
  9
$PEXTMAX
 10
-1.000000000000000E+20
 20
-1.000000000000000E+20
 30
-1.000000000000000E+20
  9
$PLIMMIN
 10
0.0
 20
0.0
  9
$PLIMMAX
 10
12.0
 20
9.0
  9
$UNITMODE
 70
     0
  9
$VISRETAIN
 70
     1
  9
$PLINEGEN
 70
     0
  9
$PSLTSCALE
 70
     1
  9
$TREEDEPTH
 70
  3020
  9
$CMLSTYLE
  2
Standard
  9
$CMLJUST
 70
     0
  9
$CMLSCALE
 40
1.0
  9
$PROXYGRAPHICS
 70
     1
  9
$MEASUREMENT
 70
     1
  9
$CELWEIGHT
370
    -1
  9
$ENDCAPS
280
     0
  9
$JOINSTYLE
280
     0
  9
$LWDISPLAY
290
     0
  9
$INSUNITS
 70
     0
  9
$HYPERLINKBASE
  1

  9
$STYLESHEET
  1

  9
$XEDIT
290
     1
  9
$CEPSNTYPE
380
     0
  9
$PSTYLEMODE
290
     1
  9
$FINGERPRINTGUID
  2
{48609507-77F6-46B9-8E28-FD3AB1210D11}
  9
$VERSIONGUID
  2
{FAEB1C32-E019-11D5-929B-00C0DF256EC4}
  9
$EXTNAMES
290
     1
  9
$PSVPSCALE
 40
0.0
  9
$OLESTARTUP
290
     0
  9
$SORTENTS
280
   127
  9
$INDEXCTL
280
     0
  9
$HIDETEXT
280
     1
  9
$XCLIPFRAME
290
     0
  9
$HALOGAP
280
     0
  9
$OBSCOLOR
 70
   257
  9
$OBSLTYPE
280
     0
  9
$INTERSECTIONDISPLAY
280
     0
  9
$INTERSECTIONCOLOR
 70
   257
  9
$DIMASSOC
280
     2
  9
$PROJECTNAME
  1

  0
ENDSEC
  0
SECTION
  2
CLASSES
  0
CLASS
  1
ACDBDICTIONARYWDFLT
  2
AcDbDictionaryWithDefault
  3
ObjectDBX Classes
 90
        0
 91
        4
280
     0
281
     0
  0
CLASS
  1
VISUALSTYLE
  2
AcDbVisualStyle
  3
ObjectDBX Classes
 90
     4095
 91
        4
280
     0
281
     0
  0
CLASS
  1
MATERIAL
  2
AcDbMaterial
  3
ObjectDBX Classes
 90
     1153
 91
        4
280
     0
281
     0
  0
CLASS
  1
SCALE
  2
AcDbScale
  3
ObjectDBX Classes
 90
     1153
 91
        4
280
     0
281
     0
  0
CLASS
  1
SUN
  2
AcDbSun
  3
SCENEOE
 90
     1153
 91
        4
280
     0
281
     0
  0
CLASS
  1
RASTERVARIABLES
  2
AcDbRasterVariables
  3
ISM
 90
        0
 91
        4
280
     0
281
     0
  0
CLASS
  1
DICTIONARYVAR
  2
AcDbDictionaryVar
  3
ObjectDBX Classes
 90
        0
 91
        4
280
     0
281
     0
  0
ENDSEC
  0
SECTION
  2
TABLES
  0
TABLE
  2
VPORT
  5
8
330
0
100
AcDbSymbolTable
 70
     1
  0
VPORT
  5
29
330
8
100
AcDbSymbolTableRecord
100
AcDbViewportTableRecord
  2
*Active
 70
     0
 10
0.0
 20
0.0
 11
1.0
 21
1.0
 12
-4.225534689743768
 22
618.0572663135172
 13
0.0
 23
0.0
 14
0.5
 24
0.5
 15
0.5
 25
0.5
 16
0.0
 26
0.0
 36
1.0
 17
0.0
 27
0.0
 37
0.0
 40
2348.919505518806
 41
1.284938736943636
 42
50.0
 43
0.0
 44
0.0
 50
0.0
 51
0.0
 71
     0
 72
 20000
 73
     1
 74
     3
 75
     0
 76
     0
 77
     0
 78
     0
281
     0
 65
     1
110
0.0
120
0.0
130
0.0
111
1.0
121
0.0
131
0.0
112
0.0
122
1.0
132
0.0
 79
     0
146
0.0
  0
ENDTAB
  0
TABLE
  2
LTYPE
  5
5
330
0
100
AcDbSymbolTable
 70
     3
  0
LTYPE
  5
14
330
5
100
AcDbSymbolTableRecord
100
AcDbLinetypeTableRecord
  2
ByBlock
 70
     0
  3

 72
    65
 73
     0
 40
0.0
  0
LTYPE
  5
15
330
5
100
AcDbSymbolTableRecord
100
AcDbLinetypeTableRecord
  2
ByLayer
 70
     0
  3

 72
    65
 73
     0
 40
0.0
  0
LTYPE
  5
16
330
5
100
AcDbSymbolTableRecord
100
AcDbLinetypeTableRecord
  2
Continuous
 70
     0
  3
Solid line
 72
    65
 73
     0
 40
0.0
  0
LTYPE
  5
6C
330
5
100
AcDbSymbolTableRecord
100
AcDbLinetypeTableRecord
  2
DASHDOT
 70
     0
  3

 72
    65
 73
     4
 40
5.499999999999999
 49
4.0
 74
     0
 49
-0.6
 74
     0
 49
0.3
 74
     0
 49
-0.6
 74
     0
  0
LTYPE
  5
6D
330
5
100
AcDbSymbolTableRecord
100
AcDbLinetypeTableRecord
  2
CONTINOUS
 70
     0
  3

 72
    65
 73
     0
 40
0.0
  0
ENDTAB
  0
TABLE
  2
LAYER
  5
2
330
0
100
AcDbSymbolTable
 70
    12
  0
LAYER
  5
10
330
2
100
AcDbSymbolTableRecord
100
AcDbLayerTableRecord
  2
0
 70
     0
 62
     7
  6
Continuous
370
    25
390
F
  0
LAYER
  5
6E
330
2
100
AcDbSymbolTableRecord
100
AcDbLayerTableRecord
  2
SIZE
 70
     0
 62
    32
  6
Continuous
370
    25
390
F
  0
LAYER
  5
6F
330
2
100
AcDbSymbolTableRecord
100
AcDbLayerTableRecord
  2
DETAIL
 70
     0
 62
     5
  6
Continuous
370
    25
390
F
  0
LAYER
  5
70
330
2
100
AcDbSymbolTableRecord
100
AcDbLayerTableRecord
  2
OUTLINE
 70
     0
 62
     3
  6
Continuous
370
    25
390
F
  0
LAYER
  5
71
330
2
100
AcDbSymbolTableRecord
100
AcDbLayerTableRecord
  2
BASIS
 70
     0
 62
     6
  6
Continuous
370
    25
390
F
  0
LAYER
  5
72
330
2
100
AcDbSymbolTableRecord
100
AcDbLayerTableRecord
  2
NOTE
 70
     0
 62
     4
  6
Continuous
370
    25
390
F
  0
LAYER
  5
73
330
2
100
AcDbSymbolTableRecord
100
AcDbLayerTableRecord
  2
ARRANGE
 70
     0
 62
     1
  6
Continuous
370
    25
390
F
  0
LAYER
  5
74
330
2
100
AcDbSymbolTableRecord
100
AcDbLayerTableRecord
  2
FIX
 70
     0
 62
   241
  6
Continuous
370
    25
390
F
  0
LAYER
  5
75
330
2
100
AcDbSymbolTableRecord
100
AcDbLayerTableRecord
  2
ETC
 70
     0
 62
    83
  6
Continuous
370
    25
390
F
  0
LAYER
  5
76
330
2
100
AcDbSymbolTableRecord
100
AcDbLayerTableRecord
  2
SERVICESPACE
 70
     0
 62
     2
  6
Continuous
370
    25
390
F
  0
LAYER
  5
77
330
2
100
AcDbSymbolTableRecord
100
AcDbLayerTableRecord
  2
SYMBOLLINE
 70
     0
 62
    38
  6
Continuous
370
    25
390
F
  0
LAYER
  5
78
330
2
100
AcDbSymbolTableRecord
100
AcDbLayerTableRecord
  2
DEFPOINTS
 70
     0
 62
     7
  6
Continuous
290
     0
370
    25
390
F
  0
ENDTAB
  0
TABLE
  2
STYLE
  5
3
330
0
100
AcDbSymbolTable
 70
     4
  0
STYLE
  5
11
330
3
100
AcDbSymbolTableRecord
100
AcDbTextStyleTableRecord
  2
Standard
 70
     0
 40
0.0
 41
1.0
 50
0.0
 71
     0
 42
0.2
  3
txt.shx
  4
extfont
  0
STYLE
  5
79
330
3
100
AcDbSymbolTableRecord
100
AcDbTextStyleTableRecord
  2
MS PGothic
 70
     0
 40
0.0
 41
1.0
 50
0.0
 71
     0
 42
0.2
  3
msgothic_0.ttc
  4

1001
ACAD
1000
ＭＳ Ｐゴシック
1071
    32818
  0
STYLE
  5
7A
330
3
100
AcDbSymbolTableRecord
100
AcDbTextStyleTableRecord
  2
VERTICAL
 70
     4
 40
0.0
 41
1.0
 50
0.0
 71
     0
 42
0.2
  3
txt.shx
  4
extfont
  0
STYLE
  5
7B
330
3
100
AcDbSymbolTableRecord
100
AcDbTextStyleTableRecord
  2
VERTICAL MS PGothic
 70
     0
 40
0.0
 41
1.0
 50
0.0
 71
     0
 42
0.2
  3
MS PGothic.ttf
  4

1001
ACAD
1000
@ＭＳ Ｐゴシック
1071
    32818
  0
ENDTAB
  0
TABLE
  2
VIEW
  5
6
330
0
100
AcDbSymbolTable
 70
     0
  0
ENDTAB
  0
TABLE
  2
UCS
  5
7
330
0
100
AcDbSymbolTable
 70
     0
  0
ENDTAB
  0
TABLE
  2
APPID
  5
9
330
0
100
AcDbSymbolTable
 70
     2
  0
APPID
  5
12
330
9
100
AcDbSymbolTableRecord
100
AcDbRegAppTableRecord
  2
ACAD
 70
     0
  0
APPID
  5
6A
330
9
100
AcDbSymbolTableRecord
100
AcDbRegAppTableRecord
  2
RootPro CAD
 70
     0
  0
ENDTAB
  0
TABLE
  2
DIMSTYLE
  5
A
330
0
100
AcDbSymbolTable
 70
     1
100
AcDbDimStyleTable
  0
DIMSTYLE
105
27
330
A
100
AcDbSymbolTableRecord
100
AcDbDimStyleTableRecord
  2
Standard
 70
     0
178
     0
340
11
  0
ENDTAB
  0
TABLE
  2
BLOCK_RECORD
  5
1
330
0
100
AcDbSymbolTable
 70
    72
  0
BLOCK_RECORD
  5
1F
330
1
100
AcDbSymbolTableRecord
100
AcDbBlockTableRecord
  2
*Model_Space
340
22
  0
BLOCK_RECORD
  5
1B
330
1
100
AcDbSymbolTableRecord
100
AcDbBlockTableRecord
  2
*Paper_Space
340
1E
  0
BLOCK_RECORD
  5
23
330
1
100
AcDbSymbolTableRecord
100
AcDbBlockTableRecord
  2
*Paper_Space0
340
26
  0
BLOCK_RECORD
  5
7C
330
1
100
AcDbSymbolTableRecord
100
AcDbBlockTableRecord
  2
A$C5F2C697A
340
0
  0
BLOCK_RECORD
  5
107
330
1
100
AcDbSymbolTableRecord
100
AcDbBlockTableRecord
  2
_ORIGIN2
340
0
  0
BLOCK_RECORD
  5
10D
330
1
100
AcDbSymbolTableRecord
100
AcDbBlockTableRecord
  2
MTEXT_0
340
0
  0
BLOCK_RECORD
  5
111
330
1
100
AcDbSymbolTableRecord
100
AcDbBlockTableRecord
  2
MTEXT_1
340
0
  0
BLOCK_RECORD
  5
115
330
1
100
AcDbSymbolTableRecord
100
AcDbBlockTableRecord
  2
MTEXT_2
340
0
  0
BLOCK_RECORD
  5
119
330
1
100
AcDbSymbolTableRecord
100
AcDbBlockTableRecord
  2
MTEXT_3
340
0
  0
BLOCK_RECORD
  5
11D
330
1
100
AcDbSymbolTableRecord
100
AcDbBlockTableRecord
  2
MTEXT_4
340
0
  0
BLOCK_RECORD
  5
121
330
1
100
AcDbSymbolTableRecord
100
AcDbBlockTableRecord
  2
MTEXT_5
340
0
  0
BLOCK_RECORD
  5
125
330
1
100
AcDbSymbolTableRecord
100
AcDbBlockTableRecord
  2
MTEXT_6
340
0
  0
BLOCK_RECORD
  5
129
330
1
100
AcDbSymbolTableRecord
100
AcDbBlockTableRecord
  2
MTEXT_7
340
0
  0
BLOCK_RECORD
  5
12D
330
1
100
AcDbSymbolTableRecord
100
AcDbBlockTableRecord
  2
MTEXT_8
340
0
  0
BLOCK_RECORD
  5
131
330
1
100
AcDbSymbolTableRecord
100
AcDbBlockTableRecord
  2
MTEXT_9
340
0
  0
BLOCK_RECORD
  5
135
330
1
100
AcDbSymbolTableRecord
100
AcDbBlockTableRecord
  2
MTEXT_10
340
0
  0
BLOCK_RECORD
  5
139
330
1
100
AcDbSymbolTableRecord
100
AcDbBlockTableRecord
  2
MTEXT_11
340
0
  0
BLOCK_RECORD
  5
13D
330
1
100
AcDbSymbolTableRecord
100
AcDbBlockTableRecord
  2
MTEXT_12
340
0
  0
BLOCK_RECORD
  5
141
330
1
100
AcDbSymbolTableRecord
100
AcDbBlockTableRecord
  2
MTEXT_13
340
0
  0
BLOCK_RECORD
  5
145
330
1
100
AcDbSymbolTableRecord
100
AcDbBlockTableRecord
  2
MTEXT_14
340
0
  0
BLOCK_RECORD
  5
149
330
1
100
AcDbSymbolTableRecord
100
AcDbBlockTableRecord
  2
MTEXT_15
340
0
  0
BLOCK_RECORD
  5
14D
330
1
100
AcDbSymbolTableRecord
100
AcDbBlockTableRecord
  2
MTEXT_16
340
0
  0
BLOCK_RECORD
  5
151
330
1
100
AcDbSymbolTableRecord
100
AcDbBlockTableRecord
  2
MTEXT_17
340
0
  0
BLOCK_RECORD
  5
155
330
1
100
AcDbSymbolTableRecord
100
AcDbBlockTableRecord
  2
MTEXT_18
340
0
  0
BLOCK_RECORD
  5
159
330
1
100
AcDbSymbolTableRecord
100
AcDbBlockTableRecord
  2
MTEXT_19
340
0
  0
BLOCK_RECORD
  5
15D
330
1
100
AcDbSymbolTableRecord
100
AcDbBlockTableRecord
  2
MTEXT_20
340
0
  0
BLOCK_RECORD
  5
161
330
1
100
AcDbSymbolTableRecord
100
AcDbBlockTableRecord
  2
MTEXT_21
340
0
  0
BLOCK_RECORD
  5
165
330
1
100
AcDbSymbolTableRecord
100
AcDbBlockTableRecord
  2
MTEXT_22
340
0
  0
BLOCK_RECORD
  5
169
330
1
100
AcDbSymbolTableRecord
100
AcDbBlockTableRecord
  2
MTEXT_23
340
0
  0
BLOCK_RECORD
  5
16D
330
1
100
AcDbSymbolTableRecord
100
AcDbBlockTableRecord
  2
MTEXT_24
340
0
  0
BLOCK_RECORD
  5
171
330
1
100
AcDbSymbolTableRecord
100
AcDbBlockTableRecord
  2
MTEXT_25
340
0
  0
BLOCK_RECORD
  5
175
330
1
100
AcDbSymbolTableRecord
100
AcDbBlockTableRecord
  2
MTEXT_26
340
0
  0
BLOCK_RECORD
  5
179
330
1
100
AcDbSymbolTableRecord
100
AcDbBlockTableRecord
  2
MTEXT_27
340
0
  0
BLOCK_RECORD
  5
17D
330
1
100
AcDbSymbolTableRecord
100
AcDbBlockTableRecord
  2
MTEXT_28
340
0
  0
BLOCK_RECORD
  5
181
330
1
100
AcDbSymbolTableRecord
100
AcDbBlockTableRecord
  2
MTEXT_29
340
0
  0
BLOCK_RECORD
  5
185
330
1
100
AcDbSymbolTableRecord
100
AcDbBlockTableRecord
  2
MTEXT_30
340
0
  0
BLOCK_RECORD
  5
189
330
1
100
AcDbSymbolTableRecord
100
AcDbBlockTableRecord
  2
MTEXT_31
340
0
  0
BLOCK_RECORD
  5
18D
330
1
100
AcDbSymbolTableRecord
100
AcDbBlockTableRecord
  2
MTEXT_32
340
0
  0
BLOCK_RECORD
  5
191
330
1
100
AcDbSymbolTableRecord
100
AcDbBlockTableRecord
  2
MTEXT_33
340
0
  0
BLOCK_RECORD
  5
195
330
1
100
AcDbSymbolTableRecord
100
AcDbBlockTableRecord
  2
MTEXT_34
340
0
  0
BLOCK_RECORD
  5
199
330
1
100
AcDbSymbolTableRecord
100
AcDbBlockTableRecord
  2
MTEXT_35
340
0
  0
BLOCK_RECORD
  5
19D
330
1
100
AcDbSymbolTableRecord
100
AcDbBlockTableRecord
  2
MTEXT_36
340
0
  0
BLOCK_RECORD
  5
1A1
330
1
100
AcDbSymbolTableRecord
100
AcDbBlockTableRecord
  2
MTEXT_37
340
0
  0
BLOCK_RECORD
  5
1A5
330
1
100
AcDbSymbolTableRecord
100
AcDbBlockTableRecord
  2
MTEXT_38
340
0
  0
BLOCK_RECORD
  5
1A9
330
1
100
AcDbSymbolTableRecord
100
AcDbBlockTableRecord
  2
MTEXT_39
340
0
  0
BLOCK_RECORD
  5
1AD
330
1
100
AcDbSymbolTableRecord
100
AcDbBlockTableRecord
  2
MTEXT_40
340
0
  0
BLOCK_RECORD
  5
1B1
330
1
100
AcDbSymbolTableRecord
100
AcDbBlockTableRecord
  2
MTEXT_41
340
0
  0
BLOCK_RECORD
  5
1B5
330
1
100
AcDbSymbolTableRecord
100
AcDbBlockTableRecord
  2
MTEXT_42
340
0
  0
BLOCK_RECORD
  5
1B9
330
1
100
AcDbSymbolTableRecord
100
AcDbBlockTableRecord
  2
MTEXT_43
340
0
  0
BLOCK_RECORD
  5
1BD
330
1
100
AcDbSymbolTableRecord
100
AcDbBlockTableRecord
  2
MTEXT_44
340
0
  0
BLOCK_RECORD
  5
1C1
330
1
100
AcDbSymbolTableRecord
100
AcDbBlockTableRecord
  2
MTEXT_45
340
0
  0
BLOCK_RECORD
  5
1C5
330
1
100
AcDbSymbolTableRecord
100
AcDbBlockTableRecord
  2
MTEXT_46
340
0
  0
BLOCK_RECORD
  5
1C9
330
1
100
AcDbSymbolTableRecord
100
AcDbBlockTableRecord
  2
MTEXT_47
340
0
  0
BLOCK_RECORD
  5
1CD
330
1
100
AcDbSymbolTableRecord
100
AcDbBlockTableRecord
  2
MTEXT_48
340
0
  0
BLOCK_RECORD
  5
1D1
330
1
100
AcDbSymbolTableRecord
100
AcDbBlockTableRecord
  2
MTEXT_49
340
0
  0
BLOCK_RECORD
  5
1D5
330
1
100
AcDbSymbolTableRecord
100
AcDbBlockTableRecord
  2
MTEXT_50
340
0
  0
BLOCK_RECORD
  5
1D9
330
1
100
AcDbSymbolTableRecord
100
AcDbBlockTableRecord
  2
MTEXT_51
340
0
  0
BLOCK_RECORD
  5
1DD
330
1
100
AcDbSymbolTableRecord
100
AcDbBlockTableRecord
  2
MTEXT_52
340
0
  0
BLOCK_RECORD
  5
1E1
330
1
100
AcDbSymbolTableRecord
100
AcDbBlockTableRecord
  2
MTEXT_53
340
0
  0
BLOCK_RECORD
  5
1E5
330
1
100
AcDbSymbolTableRecord
100
AcDbBlockTableRecord
  2
MTEXT_54
340
0
  0
BLOCK_RECORD
  5
1E9
330
1
100
AcDbSymbolTableRecord
100
AcDbBlockTableRecord
  2
MTEXT_55
340
0
  0
BLOCK_RECORD
  5
1ED
330
1
100
AcDbSymbolTableRecord
100
AcDbBlockTableRecord
  2
MTEXT_56
340
0
  0
BLOCK_RECORD
  5
1F1
330
1
100
AcDbSymbolTableRecord
100
AcDbBlockTableRecord
  2
MTEXT_57
340
0
  0
BLOCK_RECORD
  5
1F5
330
1
100
AcDbSymbolTableRecord
100
AcDbBlockTableRecord
  2
MTEXT_58
340
0
  0
BLOCK_RECORD
  5
1F9
330
1
100
AcDbSymbolTableRecord
100
AcDbBlockTableRecord
  2
MTEXT_59
340
0
  0
BLOCK_RECORD
  5
1FD
330
1
100
AcDbSymbolTableRecord
100
AcDbBlockTableRecord
  2
MTEXT_60
340
0
  0
BLOCK_RECORD
  5
201
330
1
100
AcDbSymbolTableRecord
100
AcDbBlockTableRecord
  2
MTEXT_61
340
0
  0
BLOCK_RECORD
  5
205
330
1
100
AcDbSymbolTableRecord
100
AcDbBlockTableRecord
  2
MTEXT_62
340
0
  0
BLOCK_RECORD
  5
209
330
1
100
AcDbSymbolTableRecord
100
AcDbBlockTableRecord
  2
MTEXT_63
340
0
  0
BLOCK_RECORD
  5
20D
330
1
100
AcDbSymbolTableRecord
100
AcDbBlockTableRecord
  2
MTEXT_64
340
0
  0
BLOCK_RECORD
  5
211
330
1
100
AcDbSymbolTableRecord
100
AcDbBlockTableRecord
  2
MTEXT_65
340
0
  0
BLOCK_RECORD
  5
215
330
1
100
AcDbSymbolTableRecord
100
AcDbBlockTableRecord
  2
MTEXT_66
340
0
  0
BLOCK_RECORD
  5
219
330
1
100
AcDbSymbolTableRecord
100
AcDbBlockTableRecord
  2
MTEXT_67
340
0
  0
BLOCK_RECORD
  5
21D
330
1
100
AcDbSymbolTableRecord
100
AcDbBlockTableRecord
  2
MTEXT_68
340
0
  0
ENDTAB
  0
ENDSEC
  0
SECTION
  2
BLOCKS
  0
BLOCK
  5
20
330
1F
100
AcDbEntity
  8
0
100
AcDbBlockBegin
  2
*Model_Space
 70
     0
 10
0.0
 20
0.0
 30
0.0
  3
*Model_Space
  1
*Model_Space
  0
ENDBLK
  5
21
330
1F
100
AcDbEntity
  8
0
100
AcDbBlockEnd
  0
BLOCK
  5
1C
330
1B
100
AcDbEntity
 67
     1
  8
0
100
AcDbBlockBegin
  2
*Paper_Space
 70
     0
 10
0.0
 20
0.0
 30
0.0
  3
*Paper_Space
  1
*Paper_Space
  0
ENDBLK
  5
1D
330
1B
100
AcDbEntity
 67
     1
  8
0
100
AcDbBlockEnd
  0
BLOCK
  5
24
330
23
100
AcDbEntity
  8
0
100
AcDbBlockBegin
  2
*Paper_Space0
 70
     0
 10
0.0
 20
0.0
 30
0.0
  3
*Paper_Space0
  1
*Paper_Space0
  0
ENDBLK
  5
25
330
23
100
AcDbEntity
  8
0
100
AcDbBlockEnd
  0
BLOCK
  5
7D
330
7C
100
AcDbEntity
  8
0
100
AcDbBlockBegin
  2
A$C5F2C697A
 70
     0
 10
0.0
 20
0.0
 30
0.0
  3
A$C5F2C697A
  1
A$C5F2C697A
  0
TEXT
  5
7F
330
7C
100
AcDbEntity
  8
SIZE
100
AcDbText
 10
910.8147643978815
 20
131.1649743319572
 30
0.0
 40
59.57818181818182
  1
370
 41
0.9
  7
MS PGothic
 11
910.8147643978815
 21
118.9830979683208
 31
0.0
100
AcDbText
 73
     1
  0
LINE
  5
80
330
7C
100
AcDbEntity
  8
SIZE
100
AcDbLine
 10
801.8719073978815
 20
95.36127978650259
 30
0.0
 11
1167.87190739788
 21
95.36127978650259
 31
0.0
  0
TEXT
  5
81
330
7C
100
AcDbEntity
  8
SIZE
100
AcDbText
 10
915.8147643978814
 20
1428.306446331956
 30
0.0
 40
59.57818181818182
  1
330
 41
0.9
  7
MS PGothic
 11
915.8147643978814
 21
1416.12456996832
 31
0.0
100
AcDbText
 73
     1
  0
LINE
  5
82
330
7C
100
AcDbEntity
  8
SIZE
100
AcDbLine
 10
826.8719073978815
 20
1392.502751786502
 30
0.0
 11
1152.87190739788
 21
1392.502751786502
 31
0.0
  0
LINE
  5
83
330
7C
100
AcDbEntity
  8
OUTLINE
  6
Continuous
100
AcDbLine
 10
771.8719063978815
 20
290.0777517865025
 30
0.0
 11
1183.871906397881
 21
290.0777517865025
 31
0.0
  0
LINE
  5
84
330
7C
100
AcDbEntity
  8
OUTLINE
  6
Continuous
100
AcDbLine
 10
771.8719063978815
 20
323.0777517865025
 30
0.0
 11
1183.871906397881
 21
323.0777517865025
 31
0.0
  0
LINE
  5
85
330
7C
100
AcDbEntity
  8
OUTLINE
  6
Continuous
100
AcDbLine
 10
824.8719063978814
 20
1145.077751786502
 30
0.0
 11
1154.87190639788
 21
1145.077751786502
 31
0.0
  0
CIRCLE
  5
86
330
7C
100
AcDbEntity
  8
ARRANGE
  6
Continuous
100
AcDbCircle
 10
989.8719063978814
 20
290.0777517865025
 30
0.0
 40
40.0
  0
LINE
  5
87
330
7C
100
AcDbEntity
  8
DETAIL
  6
CONTINOUS
100
AcDbLine
 10
771.8719063978815
 20
290.0777517865025
 30
0.0
 11
1183.871906397881
 21
290.0777517865025
 31
0.0
  0
LINE
  5
88
330
7C
100
AcDbEntity
  8
DETAIL
  6
CONTINOUS
100
AcDbLine
 10
824.8719063978814
 20
1145.077751786502
 30
0.0
 11
1154.87190639788
 21
1145.077751786502
 31
0.0
  0
TEXT
  5
89
330
7C
100
AcDbEntity
  8
NOTE
  6
Continuous
100
AcDbText
 10
973.9808703978813
 20
917.6499253319571
 30
0.0
 40
59.57818181818182
  1
EL,CL
 41
0.9
  7
MS PGothic
 11
973.9808703978813
 21
905.4680489683208
 31
0.0
100
AcDbText
 73
     1
  0
LINE
  5
8A
330
7C
100
AcDbEntity
  8
NOTE
  6
Continuous
100
AcDbLine
 10
879.8719063978815
 20
686.0777517865025
 30
0.0
 11
1040.77148939788
 21
625.2040537865025
 31
0.0
  0
LINE
  5
8B
330
7C
100
AcDbEntity
  8
NOTE
  6
Continuous
100
AcDbLine
 10
1205.83098439788
 20
895.3889597865027
 30
0.0
 11
918.8708563978817
 21
895.3889597865027
 31
0.0
  0
POINT
  5
8C
330
7C
100
AcDbEntity
  8
ARRANGE
  6
Continuous
100
AcDbPoint
 10
989.8719063978814
 20
290.0777517865025
 30
0.0
  0
LINE
  5
8D
330
7C
100
AcDbEntity
  8
DETAIL
  6
CONTINOUS
100
AcDbLine
 10
771.8719063978815
 20
323.0777517865025
 30
0.0
 11
1183.871906397881
 21
323.0777517865025
 31
0.0
  0
LINE
  5
8E
330
7C
100
AcDbEntity
  8
NOTE
  6
Continuous
100
AcDbLine
 10
882.8719063978814
 20
724.0777517865025
 30
0.0
 11
1040.77148939788
 21
812.3038517865023
 31
0.0
  0
CIRCLE
  5
8F
330
7C
100
AcDbEntity
  8
SIZE
  6
Continuous
100
AcDbCircle
 10
220.7875803978813
 20
290.0777517865025
 30
0.0
 40
6.0
  0
CIRCLE
  5
90
330
7C
100
AcDbEntity
  8
SIZE
  6
Continuous
100
AcDbCircle
 10
503.5566813978814
 20
290.0777517865025
 30
0.0
 40
6.0
  0
CIRCLE
  5
91
330
7C
100
AcDbEntity
  8
SIZE
  6
Continuous
100
AcDbCircle
 10
649.7442583978815
 20
290.0777517865025
 30
0.0
 40
6.0
  0
CIRCLE
  5
92
330
7C
100
AcDbEntity
  8
SIZE
  6
Continuous
100
AcDbCircle
 10
350.8350553978814
 20
290.0777517865025
 30
0.0
 40
6.0
  0
LINE
  5
93
330
7C
100
AcDbEntity
  8
OUTLINE
  6
Continuous
100
AcDbLine
 10
771.8719063978815
 20
290.0777517865025
 30
0.0
 11
771.8719063978815
 21
323.0777517865025
 31
0.0
  0
CIRCLE
  5
94
330
7C
100
AcDbEntity
  8
FIX
  6
Continuous
100
AcDbCircle
 10
799.8719063978815
 20
290.0777517865025
 30
0.0
 40
40.0
  0
LINE
  5
95
330
7C
100
AcDbEntity
  8
DETAIL
  6
CONTINOUS
100
AcDbLine
 10
771.8719063978815
 20
290.0777517865025
 30
0.0
 11
771.8719063978815
 21
323.0777517865025
 31
0.0
  0
LINE
  5
96
330
7C
100
AcDbEntity
  8
BASIS
  6
DASHDOT
100
AcDbLine
 10
989.8719063978814
 20
239.4419287865025
 30
0.0
 11
989.8719063978814
 21
1184.296115786501
 31
0.0
  0
LINE
  5
97
330
7C
100
AcDbEntity
  8
NOTE
  6
CONTINOUS
100
AcDbLine
 10
799.8719063978815
 20
270.0777517865024
 30
0.0
 11
799.8719063978815
 21
310.0777517865025
 31
0.0
  0
LINE
  5
98
330
7C
100
AcDbEntity
  8
NOTE
  6
Continuous
100
AcDbLine
 10
0.0000023978816444
 20
-0.000002213497396
 30
0.0
 11
579.8068043978815
 21
-0.000002213497396
 31
0.0
  0
TEXT
  5
99
330
7C
100
AcDbEntity
  8
NOTE
  6
Continuous
100
AcDbText
 10
14.78030739788152
 20
18.90599333195722
 30
0.0
 40
59.57818181818182
  1
AH 2-12×36
 41
0.9
  7
MS PGothic
 11
14.78030739788152
 21
6.724116968320851
 31
0.0
100
AcDbText
 73
     1
  0
LINE
  5
9A
330
7C
100
AcDbEntity
  8
SIZE
100
AcDbLine
 10
715.7017103978814
 20
290.0777517865025
 30
0.0
 11
320.8350553978815
 21
290.0777517865025
 31
0.0
  0
LINE
  5
9B
330
7C
100
AcDbEntity
  8
SIZE
100
AcDbLine
 10
735.7017103978814
 20
290.0777517865025
 30
0.0
 11
473.5566813978811
 21
290.0777517865025
 31
0.0
  0
LINE
  5
9C
330
7C
100
AcDbEntity
  8
SIZE
100
AcDbLine
 10
735.7017103978814
 20
290.0777517865025
 30
0.0
 11
190.7875803978813
 21
290.0777517865025
 31
0.0
  0
LINE
  5
9D
330
7C
100
AcDbEntity
  8
NOTE
  6
Continuous
100
AcDbLine
 10
579.8068043978815
 20
-0.000002213497396
 30
0.0
 11
799.8719063978815
 21
290.0777517865025
 31
0.0
  0
TEXT
  5
9E
330
7C
100
AcDbEntity
  8
SIZE
100
AcDbText
 10
739.2433353978814
 20
131.1649743319572
 30
0.0
 40
59.57818181818182
  1
28
 41
0.9
  7
MS PGothic
 11
739.2433353978814
 21
118.9830979683208
 31
0.0
100
AcDbText
 73
     1
  0
LINE
  5
9F
330
7C
100
AcDbEntity
  8
SIZE
100
AcDbLine
 10
735.7017103978814
 20
290.0777517865025
 30
0.0
 11
619.7442583978815
 21
290.0777517865025
 31
0.0
  0
LINE
  5
A0
330
7C
100
AcDbEntity
  8
SIZE
100
AcDbLine
 10
799.8719073978815
 20
250.0777517865026
 30
0.0
 11
799.8719073978815
 21
65.36127978650262
 31
0.0
  0
LINE
  5
A1
330
7C
100
AcDbEntity
  8
SIZE
100
AcDbLine
 10
799.8719073978815
 20
250.0777517865026
 30
0.0
 11
799.8719073978815
 21
65.36127978650262
 31
0.0
  0
LINE
  5
A2
330
7C
100
AcDbEntity
  8
SIZE
100
AcDbLine
 10
771.8719073978815
 20
270.0777517865024
 30
0.0
 11
771.8719073978815
 21
65.36127978650262
 31
0.0
  0
CIRCLE
  5
A3
330
7C
100
AcDbEntity
  8
SIZE
  6
Continuous
100
AcDbCircle
 10
799.8719073978815
 20
95.36127978650259
 30
0.0
 40
6.0
  0
CIRCLE
  5
A4
330
7C
100
AcDbEntity
  8
SIZE
  6
Continuous
100
AcDbCircle
 10
771.8719073978815
 20
95.36127978650259
 30
0.0
 40
6.0
  0
CIRCLE
  5
A5
330
7C
100
AcDbEntity
  8
SIZE
  6
Continuous
100
AcDbCircle
 10
799.8719073978815
 20
95.36127978650259
 30
0.0
 40
6.0
  0
LINE
  5
A6
330
7C
100
AcDbEntity
  8
SIZE
100
AcDbLine
 10
799.8719073978815
 20
95.36127978650259
 30
0.0
 11
771.8719073978815
 21
95.36127978650259
 31
0.0
  0
LINE
  5
A7
330
7C
100
AcDbEntity
  8
SIZE
100
AcDbLine
 10
769.8719073978815
 20
95.36127978650259
 30
0.0
 11
767.8719073978815
 21
95.36127978650259
 31
0.0
  0
LINE
  5
A8
330
7C
100
AcDbEntity
  8
SIZE
100
AcDbLine
 10
801.8719073978815
 20
95.36127978650259
 30
0.0
 11
803.8719073978814
 21
95.36127978650259
 31
0.0
  0
LINE
  5
A9
330
7C
100
AcDbEntity
  8
NOTE
  6
CONTINOUS
100
AcDbLine
 10
779.8719063978815
 20
290.0777517865025
 30
0.0
 11
819.8719063978815
 21
290.0777517865025
 31
0.0
  0
LINE
  5
AA
330
7C
100
AcDbEntity
  8
NOTE
  6
Continuous
100
AcDbLine
 10
799.8719063978815
 20
290.0777517865025
 30
0.0
 11
784.7676663978813
 21
253.0390967865026
 31
0.0
  0
LINE
  5
AB
330
7C
100
AcDbEntity
  8
NOTE
  6
Continuous
100
AcDbLine
 10
799.8719063978815
 20
290.0777517865025
 30
0.0
 11
768.2719233978814
 21
265.5534567865024
 31
0.0
  0
LINE
  5
AC
330
7C
100
AcDbEntity
  8
SIZE
100
AcDbLine
 10
771.8719073978815
 20
343.0777517865025
 30
0.0
 11
771.8719073978815
 21
1422.502751786502
 31
0.0
  0
LINE
  5
AD
330
7C
100
AcDbEntity
  8
OUTLINE
  6
Continuous
100
AcDbLine
 10
824.8719063978814
 20
323.0777517865025
 30
0.0
 11
824.8719063978814
 21
1145.077751786502
 31
0.0
  0
LINE
  5
AE
330
7C
100
AcDbEntity
  8
DETAIL
  6
CONTINOUS
100
AcDbLine
 10
824.8719063978814
 20
323.0777517865025
 30
0.0
 11
824.8719063978814
 21
1145.077751786502
 31
0.0
  0
LINE
  5
AF
330
7C
100
AcDbEntity
  8
DETAIL
  6
CONTINOUS
100
AcDbLine
 10
804.8719063978815
 20
462.0777517865024
 30
0.0
 11
804.8719063978815
 21
1002.077751786502
 31
0.0
  0
LINE
  5
B0
330
7C
100
AcDbEntity
  8
SIZE
100
AcDbLine
 10
714.4427113978816
 20
732.0777517865025
 30
0.0
 11
320.8350553978815
 21
732.0777517865025
 31
0.0
  0
LINE
  5
B1
330
7C
100
AcDbEntity
  8
SIZE
100
AcDbLine
 10
856.8719073978815
 20
724.0777517865025
 30
0.0
 11
473.5566813978811
 21
724.0777517865025
 31
0.0
  0
LINE
  5
B2
330
7C
100
AcDbEntity
  8
SIZE
100
AcDbLine
 10
777.2745573978816
 20
810.0801537865023
 30
0.0
 11
190.4274553978812
 21
810.0801537865023
 31
0.0
  0
LINE
  5
B3
330
7C
100
AcDbEntity
  8
SIZE
100
AcDbLine
 10
350.8350553978814
 20
292.0777517865025
 30
0.0
 11
350.8350553978814
 21
730.0777517865025
 31
0.0
  0
LINE
  5
B4
330
7C
100
AcDbEntity
  8
SIZE
100
AcDbLine
 10
503.5566813978814
 20
292.0777517865025
 30
0.0
 11
503.5566813978814
 21
724.0777517865025
 31
0.0
  0
TEXT
  5
B5
330
7C
100
AcDbEntity
  8
SIZE
100
AcDbText
 10
184.9838858524268
 20
529.5206087865024
 30
0.0
 40
59.57818181818182
  1
520
 50
90.0
 41
0.9
  7
MS PGothic
 11
197.1657622160632
 21
529.5206087865024
 31
0.0
100
AcDbText
 73
     1
  0
LINE
  5
B6
330
7C
100
AcDbEntity
  8
SIZE
100
AcDbLine
 10
220.7875803978813
 20
810.0801537865023
 30
0.0
 11
220.7875803978813
 21
603.5777517865025
 31
0.0
  0
TEXT
  5
B7
330
7C
100
AcDbEntity
  8
SIZE
100
AcDbText
 10
315.031360852427
 20
437.0206087865025
 30
0.0
 40
59.57818181818182
  1
442
 50
90.0
 41
0.9
  7
MS PGothic
 11
327.2132372160634
 21
437.0206087865025
 31
0.0
100
AcDbText
 73
     1
  0
LINE
  5
B8
330
7C
100
AcDbEntity
  8
SIZE
100
AcDbLine
 10
220.7875803978813
 20
292.0777517865025
 30
0.0
 11
220.7875803978813
 21
603.5777517865025
 31
0.0
  0
TEXT
  5
B9
330
7C
100
AcDbEntity
  8
SIZE
100
AcDbText
 10
467.7529868524268
 20
427.1348947865025
 30
0.0
 40
59.57818181818182
  1
434
 50
90.0
 41
0.9
  7
MS PGothic
 11
479.9348632160632
 21
427.1348947865025
 31
0.0
100
AcDbText
 73
     1
  0
CIRCLE
  5
BA
330
7C
100
AcDbEntity
  8
SIZE
  6
Continuous
100
AcDbCircle
 10
220.4274553978814
 20
810.0801537865023
 30
0.0
 40
6.0
  0
CIRCLE
  5
BB
330
7C
100
AcDbEntity
  8
SIZE
  6
Continuous
100
AcDbCircle
 10
350.8350553978814
 20
732.0777517865025
 30
0.0
 40
6.0
  0
CIRCLE
  5
BC
330
7C
100
AcDbEntity
  8
SIZE
  6
Continuous
100
AcDbCircle
 10
503.5566813978814
 20
724.0777517865025
 30
0.0
 40
6.0
  0
LINE
  5
BD
330
7C
100
AcDbEntity
  8
SIZE
100
AcDbLine
 10
649.7442583978815
 20
292.0777517865025
 30
0.0
 11
649.7442583978815
 21
684.0777517865025
 31
0.0
  0
TEXT
  5
BE
330
7C
100
AcDbEntity
  8
SIZE
100
AcDbText
 10
613.940563852427
 20
415.3920377865025
 30
0.0
 40
59.57818181818182
  1
396
 50
90.0
 41
0.9
  7
MS PGothic
 11
626.1224402160633
 21
415.3920377865025
 31
0.0
100
AcDbText
 73
     1
  0
LINE
  5
BF
330
7C
100
AcDbEntity
  8
DETAIL
  6
CONTINOUS
100
AcDbLine
 10
824.8719063978814
 20
462.0777517865024
 30
0.0
 11
804.8719063978815
 21
462.0777517865024
 31
0.0
  0
LINE
  5
C0
330
7C
100
AcDbEntity
  8
SIZE
100
AcDbLine
 10
836.2639373978815
 20
686.0777517865025
 30
0.0
 11
619.7442583978815
 21
686.0777517865025
 31
0.0
  0
LINE
  5
C1
330
7C
100
AcDbEntity
  8
BASIS
  6
DASHDOT
100
AcDbLine
 10
734.4427113978815
 20
732.0777517865025
 30
0.0
 11
884.1456433978814
 21
732.0777517865025
 31
0.0
  0
CIRCLE
  5
C2
330
7C
100
AcDbEntity
  8
SIZE
  6
Continuous
100
AcDbCircle
 10
649.7442583978815
 20
686.0777517865025
 30
0.0
 40
6.0
  0
LINE
  5
C3
330
7C
100
AcDbEntity
  8
NOTE
  6
CONTINOUS
100
AcDbLine
 10
862.8719063978815
 20
724.0777517865025
 30
0.0
 11
902.8719063978815
 21
724.0777517865025
 31
0.0
  0
LINE
  5
C4
330
7C
100
AcDbEntity
  8
NOTE
  6
CONTINOUS
100
AcDbLine
 10
859.8719063978816
 20
686.0777517865025
 30
0.0
 11
899.8719063978814
 21
686.0777517865025
 31
0.0
  0
LINE
  5
C5
330
7C
100
AcDbEntity
  8
NOTE
  6
CONTINOUS
100
AcDbLine
 10
879.8719063978815
 20
666.0777517865025
 30
0.0
 11
879.8719063978815
 21
706.0777517865025
 31
0.0
  0
LINE
  5
C6
330
7C
100
AcDbEntity
  8
NOTE
  6
CONTINOUS
100
AcDbLine
 10
882.8719063978814
 20
704.0777517865024
 30
0.0
 11
882.8719063978814
 21
744.0777517865025
 31
0.0
  0
LINE
  5
C7
330
7C
100
AcDbEntity
  8
NOTE
  6
Continuous
100
AcDbLine
 10
824.5117813978815
 20
810.0801537865023
 30
0.0
 11
918.8708563978817
 21
895.3889597865027
 31
0.0
  0
LINE
  5
C8
330
7C
100
AcDbEntity
  8
NOTE
  6
CONTINOUS
100
AcDbLine
 10
804.5117813978814
 20
810.0801537865023
 30
0.0
 11
844.5117813978814
 21
810.0801537865023
 31
0.0
  0
LINE
  5
C9
330
7C
100
AcDbEntity
  8
NOTE
  6
CONTINOUS
100
AcDbLine
 10
824.5117813978815
 20
790.0801537865023
 30
0.0
 11
824.5117813978815
 21
830.0801537865023
 31
0.0
  0
POINT
  5
CA
330
7C
100
AcDbEntity
  8
NOTE
  6
Continuous
100
AcDbPoint
 10
872.3575503978814
 20
933.9301367865024
 30
0.0
  0
LINE
  5
CB
330
7C
100
AcDbEntity
  8
SIZE
100
AcDbLine
 10
824.8719073978815
 20
1185.077751786502
 30
0.0
 11
824.8719073978815
 21
1422.502751786502
 31
0.0
  0
LINE
  5
CC
330
7C
100
AcDbEntity
  8
SIZE
100
AcDbLine
 10
824.8719073978815
 20
1165.077751786502
 30
0.0
 11
824.8719073978815
 21
1422.502751786502
 31
0.0
  0
LINE
  5
CD
330
7C
100
AcDbEntity
  8
SIZE
100
AcDbLine
 10
824.8719073978815
 20
1165.077751786502
 30
0.0
 11
824.8719073978815
 21
1293.248751786502
 31
0.0
  0
LINE
  5
CE
330
7C
100
AcDbEntity
  8
SIZE
100
AcDbLine
 10
804.8719073978814
 20
1022.077751786502
 30
0.0
 11
804.8719073978814
 21
1293.248751786502
 31
0.0
  0
LINE
  5
CF
330
7C
100
AcDbEntity
  8
DETAIL
  6
CONTINOUS
100
AcDbLine
 10
824.8719063978814
 20
1002.077751786502
 30
0.0
 11
804.8719063978815
 21
1002.077751786502
 31
0.0
  0
LINE
  5
D0
330
7C
100
AcDbEntity
  8
SIZE
  6
Continuous
100
AcDbLine
 10
814.8719063978814
 20
1263.249145786502
 30
0.0
 11
945.9402583978814
 21
1263.249145786502
 31
0.0
  0
LINE
  5
D1
330
7C
100
AcDbEntity
  8
SIZE
100
AcDbLine
 10
822.8719073978815
 20
1263.249145786502
 30
0.0
 11
814.8719073978815
 21
1263.249145786502
 31
0.0
  0
CIRCLE
  5
D2
330
7C
100
AcDbEntity
  8
SIZE
  6
Continuous
100
AcDbCircle
 10
804.8719073978814
 20
1263.249145786502
 30
0.0
 40
6.0
  0
LINE
  5
D3
330
7C
100
AcDbEntity
  8
SIZE
100
AcDbLine
 10
806.8719073978815
 20
1263.249145786502
 30
0.0
 11
814.8719073978815
 21
1263.249145786502
 31
0.0
  0
CIRCLE
  5
D4
330
7C
100
AcDbEntity
  8
SIZE
  6
Continuous
100
AcDbCircle
 10
824.8719073978815
 20
1263.249145786502
 30
0.0
 40
6.0
  0
TEXT
  5
D5
330
7C
100
AcDbEntity
  8
SIZE
100
AcDbText
 10
751.7433353978814
 20
1428.306446331956
 30
0.0
 40
59.57818181818182
  1
53
 41
0.9
  7
MS PGothic
 11
751.7433353978814
 21
1416.12456996832
 31
0.0
100
AcDbText
 73
     1
  0
TEXT
  5
D6
330
7C
100
AcDbEntity
  8
SIZE
100
AcDbText
 10
843.215705397881
 20
1299.052446331956
 30
0.0
 40
59.57818181818182
  1
20
 41
0.9
  7
MS PGothic
 11
843.215705397881
 21
1286.87056996832
 31
0.0
100
AcDbText
 73
     1
  0
LINE
  5
D7
330
7C
100
AcDbEntity
  8
SIZE
100
AcDbLine
 10
824.8719073978815
 20
1392.502751786502
 30
0.0
 11
771.8719073978815
 21
1392.502751786502
 31
0.0
  0
CIRCLE
  5
D8
330
7C
100
AcDbEntity
  8
SIZE
  6
Continuous
100
AcDbCircle
 10
771.8719073978815
 20
1392.502751786502
 30
0.0
 40
6.0
  0
LINE
  5
D9
330
7C
100
AcDbEntity
  8
SIZE
100
AcDbLine
 10
769.8719073978815
 20
1392.502751786502
 30
0.0
 11
767.8719073978815
 21
1392.502751786502
 31
0.0
  0
CIRCLE
  5
DA
330
7C
100
AcDbEntity
  8
SIZE
  6
Continuous
100
AcDbCircle
 10
824.8719073978815
 20
1392.502751786502
 30
0.0
 40
6.0
  0
CIRCLE
  5
DB
330
7C
100
AcDbEntity
  8
SIZE
  6
Continuous
100
AcDbCircle
 10
824.8719073978815
 20
1392.502751786502
 30
0.0
 40
6.0
  0
LINE
  5
DC
330
7C
100
AcDbEntity
  8
SIZE
100
AcDbLine
 10
826.8719073978815
 20
1392.502751786502
 30
0.0
 11
828.8719073978814
 21
1392.502751786502
 31
0.0
  0
CIRCLE
  5
DD
330
7C
100
AcDbEntity
  8
SIZE
  6
Continuous
100
AcDbCircle
 10
1420.44446039788
 20
290.0777517865025
 30
0.0
 40
6.0
  0
CIRCLE
  5
DE
330
7C
100
AcDbEntity
  8
FIX
  6
Continuous
100
AcDbCircle
 10
1169.871906397881
 20
290.0777517865025
 30
0.0
 40
40.0
  0
LINE
  5
DF
330
7C
100
AcDbEntity
  8
OUTLINE
  6
Continuous
100
AcDbLine
 10
1183.871906397881
 20
323.0777517865025
 30
0.0
 11
1183.871906397881
 21
290.0777517865025
 31
0.0
  0
TEXT
  5
E0
330
7C
100
AcDbEntity
  8
ETC
  6
Continuous
100
AcDbText
 10
1573.111262397881
 20
292.4403323319572
 30
0.0
 40
59.57818181818182
  1
室外機
 41
0.9
  7
MS PGothic
 11
1573.111262397881
 21
280.2584559683208
 31
0.0
100
AcDbText
 73
     1
  0
LINE
  5
E1
330
7C
100
AcDbEntity
  8
DETAIL
  6
CONTINOUS
100
AcDbLine
 10
1183.871906397881
 20
290.0777517865025
 30
0.0
 11
1183.871906397881
 21
323.0777517865025
 31
0.0
  0
LINE
  5
E2
330
7C
100
AcDbEntity
  8
NOTE
  6
CONTINOUS
100
AcDbLine
 10
1169.871906397881
 20
270.0777517865024
 30
0.0
 11
1169.871906397881
 21
310.0777517865025
 31
0.0
  0
LINE
  5
E3
330
7C
100
AcDbEntity
  8
NOTE
  6
Continuous
100
AcDbLine
 10
1969.74381039788
 20
-0.000002213497396
 30
0.0
 11
1389.937008397881
 21
-0.000002213497396
 31
0.0
  0
TEXT
  5
E4
330
7C
100
AcDbEntity
  8
NOTE
  6
Continuous
100
AcDbText
 10
1415.169219397881
 20
18.90599333195722
 30
0.0
 40
59.57818181818182
  1
AH 2-U cut
 41
0.9
  7
MS PGothic
 11
1415.169219397881
 21
6.724116968320851
 31
0.0
100
AcDbText
 73
     1
  0
LINE
  5
E5
330
7C
100
AcDbEntity
  8
NOTE
  6
Continuous
100
AcDbLine
 10
1389.937008397881
 20
-0.000002213497396
 30
0.0
 11
1169.871906397881
 21
290.0777517865025
 31
0.0
  0
LINE
  5
E6
330
7C
100
AcDbEntity
  8
SIZE
100
AcDbLine
 10
1214.713746397881
 20
290.0777517865025
 30
0.0
 11
1450.44446039788
 21
290.0777517865025
 31
0.0
  0
LINE
  5
E7
330
7C
100
AcDbEntity
  8
SIZE
100
AcDbLine
 10
1183.87190739788
 20
270.0777517865024
 30
0.0
 11
1183.87190739788
 21
65.36127978650262
 31
0.0
  0
LINE
  5
E8
330
7C
100
AcDbEntity
  8
SIZE
100
AcDbLine
 10
1169.87190739788
 20
250.0777517865026
 30
0.0
 11
1169.87190739788
 21
65.36127978650262
 31
0.0
  0
LINE
  5
E9
330
7C
100
AcDbEntity
  8
SIZE
100
AcDbLine
 10
1169.87190739788
 20
250.0777517865026
 30
0.0
 11
1169.87190739788
 21
65.36127978650262
 31
0.0
  0
CIRCLE
  5
EA
330
7C
100
AcDbEntity
  8
SIZE
  6
Continuous
100
AcDbCircle
 10
1169.87190739788
 20
95.36127978650259
 30
0.0
 40
6.0
  0
CIRCLE
  5
EB
330
7C
100
AcDbEntity
  8
SIZE
  6
Continuous
100
AcDbCircle
 10
1169.87190739788
 20
95.36127978650259
 30
0.0
 40
6.0
  0
CIRCLE
  5
EC
330
7C
100
AcDbEntity
  8
SIZE
  6
Continuous
100
AcDbCircle
 10
1183.87190739788
 20
95.36127978650259
 30
0.0
 40
6.0
  0
LINE
  5
ED
330
7C
100
AcDbEntity
  8
SIZE
100
AcDbLine
 10
1183.87190739788
 20
95.36127978650259
 30
0.0
 11
1169.87190739788
 21
95.36127978650259
 31
0.0
  0
LINE
  5
EE
330
7C
100
AcDbEntity
  8
SIZE
100
AcDbLine
 10
1167.87190739788
 20
95.36127978650259
 30
0.0
 11
1165.87190739788
 21
95.36127978650259
 31
0.0
  0
LINE
  5
EF
330
7C
100
AcDbEntity
  8
SIZE
100
AcDbLine
 10
1185.87190739788
 20
95.36127978650259
 30
0.0
 11
1187.87190739788
 21
95.36127978650259
 31
0.0
  0
TEXT
  5
F0
330
7C
100
AcDbEntity
  8
SIZE
100
AcDbText
 10
1134.357621397881
 20
131.1649743319572
 30
0.0
 40
59.57818181818182
  1
14
 41
0.9
  7
MS PGothic
 11
1134.357621397881
 21
118.9830979683208
 31
0.0
100
AcDbText
 73
     1
  0
LINE
  5
F1
330
7C
100
AcDbEntity
  8
NOTE
  6
CONTINOUS
100
AcDbLine
 10
1149.871906397881
 20
290.0777517865025
 30
0.0
 11
1189.871906397881
 21
290.0777517865025
 31
0.0
  0
LINE
  5
F2
330
7C
100
AcDbEntity
  8
NOTE
  6
Continuous
100
AcDbLine
 10
1169.871906397881
 20
290.0777517865025
 30
0.0
 11
1184.97614639788
 21
253.0390967865026
 31
0.0
  0
LINE
  5
F3
330
7C
100
AcDbEntity
  8
NOTE
  6
Continuous
100
AcDbLine
 10
1169.871906397881
 20
290.0777517865025
 30
0.0
 11
1201.47188939788
 21
265.5534567865024
 31
0.0
  0
TEXT
  5
F4
330
7C
100
AcDbEntity
  8
ETC
  6
Continuous
100
AcDbText
 10
1561.288518397879
 20
411.6069333319571
 30
0.0
 40
59.57818181818182
  1
SPUZ0824
 41
0.9
  7
MS PGothic
 11
1561.288518397879
 21
399.4250569683207
 31
0.0
100
AcDbText
 73
     1
  0
LINE
  5
F5
330
7C
100
AcDbEntity
  8
SIZE
100
AcDbLine
 10
1420.44446039788
 20
1143.077751786502
 30
0.0
 11
1420.44446039788
 21
717.5777517865025
 31
0.0
  0
LINE
  5
F6
330
7C
100
AcDbEntity
  8
OUTLINE
  6
Continuous
100
AcDbLine
 10
1154.87190639788
 20
1145.077751786502
 30
0.0
 11
1154.87190639788
 21
323.0777517865025
 31
0.0
  0
LINE
  5
F7
330
7C
100
AcDbEntity
  8
DETAIL
  6
CONTINOUS
100
AcDbLine
 10
1154.87190639788
 20
323.0777517865025
 30
0.0
 11
1154.87190639788
 21
1145.077751786502
 31
0.0
  0
LINE
  5
F8
330
7C
100
AcDbEntity
  8
SIZE
100
AcDbLine
 10
1420.44446039788
 20
292.0777517865025
 30
0.0
 11
1420.44446039788
 21
717.5777517865025
 31
0.0
  0
LINE
  5
F9
330
7C
100
AcDbEntity
  8
NOTE
  6
Continuous
100
AcDbLine
 10
1124.871906397881
 20
323.0777517865025
 30
0.0
 11
1231.96219639788
 21
428.5736107865025
 31
0.0
  0
LINE
  5
FA
330
7C
100
AcDbEntity
  8
NOTE
  6
CONTINOUS
100
AcDbLine
 10
1104.871906397881
 20
323.0777517865025
 30
0.0
 11
1144.871906397881
 21
323.0777517865025
 31
0.0
  0
LINE
  5
FB
330
7C
100
AcDbEntity
  8
NOTE
  6
CONTINOUS
100
AcDbLine
 10
1124.871906397881
 20
303.0777517865026
 30
0.0
 11
1124.871906397881
 21
343.0777517865025
 31
0.0
  0
TEXT
  5
FC
330
7C
100
AcDbEntity
  8
NOTE
  6
Continuous
100
AcDbText
 10
1251.940121397881
 20
442.248446331957
 30
0.0
 40
59.57818181818182
  1
D
 41
0.9
  7
MS PGothic
 11
1251.940121397881
 21
430.0665699683207
 31
0.0
100
AcDbText
 73
     1
  0
LINE
  5
FD
330
7C
100
AcDbEntity
  8
NOTE
  6
Continuous
100
AcDbLine
 10
1231.96219639788
 20
428.5736107865025
 30
0.0
 11
1302.198482397881
 21
428.5736107865025
 31
0.0
  0
TEXT
  5
FE
330
7C
100
AcDbEntity
  8
NOTE
  6
Continuous
100
AcDbText
 10
1060.708654397878
 20
639.443091331957
 30
0.0
 40
59.57818181818182
  1
RG
 41
0.9
  7
MS PGothic
 11
1060.708654397878
 21
627.2612149683207
 31
0.0
100
AcDbText
 73
     1
  0
LINE
  5
FF
330
7C
100
AcDbEntity
  8
NOTE
  6
Continuous
100
AcDbLine
 10
1040.77148939788
 20
625.2040537865025
 30
0.0
 11
1180.455218397881
 21
625.2040537865025
 31
0.0
  0
TEXT
  5
100
330
7C
100
AcDbEntity
  8
NOTE
  6
Continuous
100
AcDbText
 10
1060.92620539788
 20
825.9786873319571
 30
0.0
 40
59.57818181818182
  1
RL
 41
0.9
  7
MS PGothic
 11
1060.92620539788
 21
813.7968109683208
 31
0.0
100
AcDbText
 73
     1
  0
LINE
  5
101
330
7C
100
AcDbEntity
  8
NOTE
  6
Continuous
100
AcDbLine
 10
1040.77148939788
 20
812.3038517865023
 30
0.0
 11
1170.35759939788
 21
812.3038517865023
 31
0.0
  0
TEXT
  5
102
330
7C
100
AcDbEntity
  8
SIZE
100
AcDbText
 10
1384.640765852426
 20
643.5206087865025
 30
0.0
 40
59.57818181818182
  1
855
 50
90.0
 41
0.9
  7
MS PGothic
 11
1396.822642216062
 21
643.5206087865025
 31
0.0
100
AcDbText
 73
     1
  0
LINE
  5
103
330
7C
100
AcDbEntity
  8
SIZE
100
AcDbLine
 10
1154.87190739788
 20
1165.077751786502
 30
0.0
 11
1154.87190739788
 21
1422.502751786502
 31
0.0
  0
LINE
  5
104
330
7C
100
AcDbEntity
  8
SIZE
100
AcDbLine
 10
1203.87190739788
 20
1145.077751786502
 30
0.0
 11
1450.44446039788
 21
1145.077751786502
 31
0.0
  0
CIRCLE
  5
105
330
7C
100
AcDbEntity
  8
SIZE
  6
Continuous
100
AcDbCircle
 10
1420.44446039788
 20
1145.077751786502
 30
0.0
 40
6.0
  0
CIRCLE
  5
106
330
7C
100
AcDbEntity
  8
SIZE
  6
Continuous
100
AcDbCircle
 10
1154.87190739788
 20
1392.502751786502
 30
0.0
 40
6.0
  0
ENDBLK
  5
7E
330
7C
100
AcDbEntity
  8
0
100
AcDbBlockEnd
  0
BLOCK
  5
108
330
107
100
AcDbEntity
  8
0
100
AcDbBlockBegin
  2
_ORIGIN2
 70
     0
 10
0.0
 20
0.0
 30
0.0
  3
_ORIGIN2
  1
_ORIGIN2
  0
CIRCLE
  5
10A
330
107
100
AcDbEntity
  8
0
100
AcDbCircle
 10
0.0
 20
0.0
 30
0.0
 40
0.5
  0
CIRCLE
  5
10B
330
107
100
AcDbEntity
  8
0
100
AcDbCircle
 10
0.0
 20
0.0
 30
0.0
 40
0.25
  0
LINE
  5
10C
330
107
100
AcDbEntity
  8
0
100
AcDbLine
 10
-0.5
 20
0.0
 30
0.0
 11
-1.0
 21
0.0
 31
0.0
  0
ENDBLK
  5
109
330
107
100
AcDbEntity
  8
0
100
AcDbBlockEnd
  0
BLOCK
  5
10E
330
10D
100
AcDbEntity
  8
0
100
AcDbBlockBegin
  2
MTEXT_0
 70
     0
 10
0.0
 20
0.0
 30
0.0
  3
MTEXT_0
  1
MTEXT_0
  0
TEXT
  5
110
330
10D
100
AcDbEntity
  8
SIZE
  6
Continuous
100
AcDbText
 10
-577.8239663415839
 20
520.3067945321135
 30
0.0
 40
59.57818181818182
  1
330
 50
90.0
  7
MS PGothic
 72
     1
 11
-565.6420899779475
 21
585.2768018048407
 31
0.0
100
AcDbText
 73
     1
  0
ENDBLK
  5
10F
330
10D
100
AcDbEntity
  8
0
100
AcDbBlockEnd
  0
BLOCK
  5
112
330
111
100
AcDbEntity
  8
0
100
AcDbBlockBegin
  2
MTEXT_1
 70
     0
 10
0.0
 20
0.0
 30
0.0
  3
MTEXT_1
  1
MTEXT_1
  0
TEXT
  5
114
330
111
100
AcDbEntity
  8
SIZE
  6
Continuous
100
AcDbText
 10
-577.8239663415839
 20
260.3348921944513
 30
0.0
 40
59.57818181818182
  1
30
 50
90.0
  7
MS PGothic
 72
     1
 11
-565.6420899779475
 21
303.6482303762695
 31
0.0
100
AcDbText
 73
     1
  0
ENDBLK
  5
113
330
111
100
AcDbEntity
  8
0
100
AcDbBlockEnd
  0
BLOCK
  5
116
330
115
100
AcDbEntity
  8
0
100
AcDbBlockBegin
  2
MTEXT_2
 70
     0
 10
0.0
 20
0.0
 30
0.0
  3
MTEXT_2
  1
MTEXT_2
  0
TEXT
  5
118
330
115
100
AcDbEntity
  8
SIZE
  6
Continuous
100
AcDbText
 10
-384.5793748700841
 20
1017.061799813443
 30
0.0
 40
59.57818181818182
  1
175
  7
MS PGothic
 72
     1
 11
-319.6093675973568
 21
1004.879923449807
 31
0.0
100
AcDbText
 73
     1
  0
ENDBLK
  5
117
330
115
100
AcDbEntity
  8
0
100
AcDbBlockEnd
  0
BLOCK
  5
11A
330
119
100
AcDbEntity
  8
0
100
AcDbBlockBegin
  2
MTEXT_3
 70
     0
 10
0.0
 20
0.0
 30
0.0
  3
MTEXT_3
  1
MTEXT_3
  0
TEXT
  5
11C
330
119
100
AcDbEntity
  8
SIZE
  6
Continuous
100
AcDbText
 10
-1.229443303014612
 20
1017.061799813443
 30
0.0
 40
59.57818181818182
  1
600
  7
MS PGothic
 72
     1
 11
63.74056396971266
 21
1004.879923449807
 31
0.0
100
AcDbText
 73
     1
  0
ENDBLK
  5
11B
330
119
100
AcDbEntity
  8
0
100
AcDbBlockEnd
  0
BLOCK
  5
11E
330
11D
100
AcDbEntity
  8
0
100
AcDbBlockBegin
  2
MTEXT_4
 70
     0
 10
0.0
 20
0.0
 30
0.0
  3
MTEXT_4
  1
MTEXT_4
  0
TEXT
  5
120
330
11D
100
AcDbEntity
  8
SIZE
  6
Continuous
100
AcDbText
 10
372.3455976978229
 20
1017.061799813443
 30
0.0
 40
59.57818181818182
  1
175
  7
MS PGothic
 72
     1
 11
437.3156049705502
 21
1004.879923449807
 31
0.0
100
AcDbText
 73
     1
  0
ENDBLK
  5
11F
330
11D
100
AcDbEntity
  8
0
100
AcDbBlockEnd
  0
BLOCK
  5
122
330
121
100
AcDbEntity
  8
0
100
AcDbBlockBegin
  2
MTEXT_5
 70
     0
 10
0.0
 20
0.0
 30
0.0
  3
MTEXT_5
  1
MTEXT_5
  0
TEXT
  5
124
330
121
100
AcDbEntity
  8
SIZE
  6
Continuous
100
AcDbText
 10
-1.229443303014584
 20
1186.752672971687
 30
0.0
 40
59.57818181818182
  1
950
  7
MS PGothic
 72
     1
 11
63.74056396971269
 21
1174.570796608051
 31
0.0
100
AcDbText
 73
     1
  0
ENDBLK
  5
123
330
121
100
AcDbEntity
  8
0
100
AcDbBlockEnd
  0
BLOCK
  5
126
330
125
100
AcDbEntity
  8
0
100
AcDbBlockBegin
  2
MTEXT_6
 70
     0
 10
0.0
 20
0.0
 30
0.0
  3
MTEXT_6
  1
MTEXT_6
  0
TEXT
  5
128
330
125
100
AcDbEntity
  8
SIZE
  6
Continuous
100
AcDbText
 10
1014.848970058408
 20
520.3067945321138
 30
0.0
 40
59.57818181818182
  1
370
 50
90.0
  7
MS PGothic
 72
     1
 11
1027.030846422044
 21
585.276801804841
 31
0.0
100
AcDbText
 73
     1
  0
ENDBLK
  5
127
330
125
100
AcDbEntity
  8
0
100
AcDbBlockEnd
  0
BLOCK
  5
12A
330
129
100
AcDbEntity
  8
0
100
AcDbBlockBegin
  2
MTEXT_7
 70
     0
 10
0.0
 20
0.0
 30
0.0
  3
MTEXT_7
  1
MTEXT_7
  0
TEXT
  5
12C
330
129
100
AcDbEntity
  8
SIZE
  6
Continuous
100
AcDbText
 10
1014.848970058408
 20
242.3348921944513
 30
0.0
 40
59.57818181818182
  1
28
 50
90.0
  7
MS PGothic
 72
     1
 11
1027.030846422044
 21
285.6482303762695
 31
0.0
100
AcDbText
 73
     1
  0
ENDBLK
  5
12B
330
129
100
AcDbEntity
  8
0
100
AcDbBlockEnd
  0
BLOCK
  5
12E
330
12D
100
AcDbEntity
  8
0
100
AcDbBlockBegin
  2
MTEXT_8
 70
     0
 10
0.0
 20
0.0
 30
0.0
  3
MTEXT_8
  1
MTEXT_8
  0
TEXT
  5
130
330
12D
100
AcDbEntity
  8
SIZE
  6
Continuous
100
AcDbText
 10
1014.848970058405
 20
825.7348921944514
 30
0.0
 40
59.57818181818182
  1
19
 50
90.0
  7
MS PGothic
 72
     1
 11
1027.030846422042
 21
869.0482303762695
 31
0.0
100
AcDbText
 73
     1
  0
ENDBLK
  5
12F
330
12D
100
AcDbEntity
  8
0
100
AcDbBlockEnd
  0
BLOCK
  5
132
330
131
100
AcDbEntity
  8
0
100
AcDbBlockBegin
  2
MTEXT_9
 70
     0
 10
0.0
 20
0.0
 30
0.0
  3
MTEXT_9
  1
MTEXT_9
  0
TEXT
  5
134
330
131
100
AcDbEntity
  8
SIZE
  6
Continuous
100
AcDbText
 10
1228.736134283649
 20
515.8067945321138
 30
0.0
 40
59.57818181818182
  1
417
 50
90.0
  7
MS PGothic
 72
     1
 11
1240.918010647285
 21
580.776801804841
 31
0.0
100
AcDbText
 73
     1
  0
ENDBLK
  5
133
330
131
100
AcDbEntity
  8
0
100
AcDbBlockEnd
  0
BLOCK
  5
136
330
135
100
AcDbEntity
  8
0
100
AcDbBlockBegin
  2
MTEXT_10
 70
     0
 10
0.0
 20
0.0
 30
0.0
  3
MTEXT_10
  1
MTEXT_10
  0
TEXT
  5
138
330
135
100
AcDbEntity
  8
SIZE
  6
Continuous
100
AcDbText
 10
678.2974654685682
 20
508.5920350515943
 30
0.0
 40
59.57818181818182
  1
45
 50
90.0
  7
MS PGothic
 72
     1
 11
690.4793418322046
 21
551.9053732334124
 31
0.0
100
AcDbText
 73
     1
  0
ENDBLK
  5
137
330
135
100
AcDbEntity
  8
0
100
AcDbBlockEnd
  0
BLOCK
  5
13A
330
139
100
AcDbEntity
  8
0
100
AcDbBlockBegin
  2
MTEXT_11
 70
     0
 10
0.0
 20
0.0
 30
0.0
  3
MTEXT_11
  1
MTEXT_11
  0
TEXT
  5
13C
330
139
100
AcDbEntity
  8
SIZE
  6
Continuous
100
AcDbText
 10
819.9630086421244
 20
518.2206064801658
 30
0.0
 40
59.57818181818182
  1
56
 50
90.0
  7
MS PGothic
 72
     1
 11
832.1448850057607
 21
561.5339446619839
 31
0.0
100
AcDbText
 73
     1
  0
ENDBLK
  5
13B
330
139
100
AcDbEntity
  8
0
100
AcDbBlockEnd
  0
BLOCK
  5
13E
330
13D
100
AcDbEntity
  8
0
100
AcDbBlockBegin
  2
MTEXT_12
 70
     0
 10
0.0
 20
0.0
 30
0.0
  3
MTEXT_12
  1
MTEXT_12
  0
TEXT
  5
140
330
13D
100
AcDbEntity
  8
SIZE
  6
Continuous
100
AcDbText
 10
597.0963498857932
 20
196.1947630804783
 30
0.0
 40
59.57818181818182
  1
42
  7
MS PGothic
 72
     1
 11
640.4096880676113
 21
184.0128867168419
 31
0.0
100
AcDbText
 73
     1
  0
ENDBLK
  5
13F
330
13D
100
AcDbEntity
  8
0
100
AcDbBlockEnd
  0
BLOCK
  5
142
330
141
100
AcDbEntity
  8
0
100
AcDbBlockBegin
  2
MTEXT_13
 70
     0
 10
0.0
 20
0.0
 30
0.0
  3
MTEXT_13
  1
MTEXT_13
  0
TEXT
  5
144
330
141
100
AcDbEntity
  8
SIZE
  6
Continuous
100
AcDbText
 10
225.0154504109672
 20
196.1947630804783
 30
0.0
 40
59.57818181818182
  1
66
  7
MS PGothic
 72
     1
 11
268.3287885927854
 21
184.0128867168419
 31
0.0
100
AcDbText
 73
     1
  0
ENDBLK
  5
143
330
141
100
AcDbEntity
  8
0
100
AcDbBlockEnd
  0
BLOCK
  5
146
330
145
100
AcDbEntity
  8
0
100
AcDbBlockBegin
  2
MTEXT_14
 70
     0
 10
0.0
 20
0.0
 30
0.0
  3
MTEXT_14
  1
MTEXT_14
  0
TEXT
  5
148
330
145
100
AcDbEntity
  8
SIZE
  6
Continuous
100
AcDbText
 10
373.7705566969852
 20
26.01258498440021
 30
0.0
 40
59.57818181818182
  1
200
  7
MS PGothic
 72
     1
 11
438.7405639697125
 21
13.83070862076385
 31
0.0
100
AcDbText
 73
     1
  0
ENDBLK
  5
147
330
145
100
AcDbEntity
  8
0
100
AcDbBlockEnd
  0
BLOCK
  5
14A
330
149
100
AcDbEntity
  8
0
100
AcDbBlockBegin
  2
MTEXT_15
 70
     0
 10
0.0
 20
0.0
 30
0.0
  3
MTEXT_15
  1
MTEXT_15
  0
TEXT
  5
14C
330
149
100
AcDbEntity
  8
SIZE
  6
Continuous
100
AcDbText
 10
-315.2294433030144
 20
161.2745241414005
 30
0.0
 40
59.57818181818182
  1
322
  7
MS PGothic
 72
     1
 11
-250.2594360302871
 21
149.0926477777642
 31
0.0
100
AcDbText
 73
     1
  0
ENDBLK
  5
14B
330
149
100
AcDbEntity
  8
0
100
AcDbBlockEnd
  0
BLOCK
  5
14E
330
14D
100
AcDbEntity
  8
0
100
AcDbBlockBegin
  2
MTEXT_16
 70
     0
 10
0.0
 20
0.0
 30
0.0
  3
MTEXT_16
  1
MTEXT_16
  0
TEXT
  5
150
330
14D
100
AcDbEntity
  8
SIZE
  6
Continuous
100
AcDbText
 10
-547.5456078234117
 20
-2401.926890777982
 30
0.0
 40
59.57818181818182
  1
23
 50
90.0
  7
MS PGothic
 72
     1
 11
-535.3637314597754
 21
-2358.613552596164
 31
0.0
100
AcDbText
 73
     1
  0
ENDBLK
  5
14F
330
14D
100
AcDbEntity
  8
0
100
AcDbBlockEnd
  0
BLOCK
  5
152
330
151
100
AcDbEntity
  8
0
100
AcDbBlockBegin
  2
MTEXT_17
 70
     0
 10
0.0
 20
0.0
 30
0.0
  3
MTEXT_17
  1
MTEXT_17
  0
TEXT
  5
154
330
151
100
AcDbEntity
  8
SIZE
  6
Continuous
100
AcDbText
 10
-687.2950988710134
 20
-2151.454988440321
 30
0.0
 40
59.57818181818182
  1
371
 50
90.0
  7
MS PGothic
 72
     1
 11
-675.113222507377
 21
-2086.484981167594
 31
0.0
100
AcDbText
 73
     1
  0
ENDBLK
  5
153
330
151
100
AcDbEntity
  8
0
100
AcDbBlockEnd
  0
BLOCK
  5
156
330
155
100
AcDbEntity
  8
0
100
AcDbBlockBegin
  2
MTEXT_18
 70
     0
 10
0.0
 20
0.0
 30
0.0
  3
MTEXT_18
  1
MTEXT_18
  0
TEXT
  5
158
330
155
100
AcDbEntity
  8
SIZE
  6
Continuous
100
AcDbText
 10
-828.8058440884149
 20
-1683.61165753123
 30
0.0
 40
59.57818181818182
  1
1350
 50
90.0
  7
MS PGothic
 72
     1
 11
-816.6239677247786
 21
-1596.984981167594
 31
0.0
100
AcDbText
 73
     1
  0
ENDBLK
  5
157
330
155
100
AcDbEntity
  8
0
100
AcDbBlockEnd
  0
BLOCK
  5
15A
330
159
100
AcDbEntity
  8
0
100
AcDbBlockBegin
  2
MTEXT_19
 70
     0
 10
0.0
 20
0.0
 30
0.0
  3
MTEXT_19
  1
MTEXT_19
  0
TEXT
  5
15C
330
159
100
AcDbEntity
  8
SIZE
  6
Continuous
100
AcDbText
 10
-315.229443302938
 20
-709.4417429633946
 30
0.0
 40
59.57818181818182
  1
322
  7
MS PGothic
 72
     1
 11
-250.2594360302107
 21
-721.623619327031
 31
0.0
100
AcDbText
 73
     1
  0
ENDBLK
  5
15B
330
159
100
AcDbEntity
  8
0
100
AcDbBlockEnd
  0
BLOCK
  5
15E
330
15D
100
AcDbEntity
  8
0
100
AcDbBlockBegin
  2
MTEXT_20
 70
     0
 10
0.0
 20
0.0
 30
0.0
  3
MTEXT_20
  1
MTEXT_20
  0
TEXT
  5
160
330
15D
100
AcDbEntity
  8
SIZE
  6
Continuous
100
AcDbText
 10
-1.229443303014584
 20
-542.9458806327096
 30
0.0
 40
59.57818181818182
  1
950
  7
MS PGothic
 72
     1
 11
63.74056396971269
 21
-555.127756996346
 31
0.0
100
AcDbText
 73
     1
  0
ENDBLK
  5
15F
330
15D
100
AcDbEntity
  8
0
100
AcDbBlockEnd
  0
BLOCK
  5
162
330
161
100
AcDbEntity
  8
0
100
AcDbBlockBegin
  2
MTEXT_21
 70
     0
 10
0.0
 20
0.0
 30
0.0
  3
MTEXT_21
  1
MTEXT_21
  0
TEXT
  5
164
330
161
100
AcDbEntity
  8
SIZE
  6
Continuous
100
AcDbText
 10
582.0557972164659
 20
-1982.147374333876
 30
0.0
 40
59.57818181818182
  1
42
  7
MS PGothic
 72
     1
 11
625.369135398284
 21
-1994.329250697512
 31
0.0
100
AcDbText
 73
     1
  0
ENDBLK
  5
163
330
161
100
AcDbEntity
  8
0
100
AcDbBlockEnd
  0
BLOCK
  5
166
330
165
100
AcDbEntity
  8
0
100
AcDbBlockBegin
  2
MTEXT_22
 70
     0
 10
0.0
 20
0.0
 30
0.0
  3
MTEXT_22
  1
MTEXT_22
  0
TEXT
  5
168
330
165
100
AcDbEntity
  8
SIZE
  6
Continuous
100
AcDbText
 10
568.1771192792773
 20
-2093.286572199857
 30
0.0
 40
59.57818181818182
  1
66
  7
MS PGothic
 72
     1
 11
611.4904574610955
 21
-2105.468448563494
 31
0.0
100
AcDbText
 73
     1
  0
ENDBLK
  5
167
330
165
100
AcDbEntity
  8
0
100
AcDbBlockEnd
  0
BLOCK
  5
16A
330
169
100
AcDbEntity
  8
0
100
AcDbBlockBegin
  2
MTEXT_23
 70
     0
 10
0.0
 20
0.0
 30
0.0
  3
MTEXT_23
  1
MTEXT_23
  0
TEXT
  5
16C
330
169
100
AcDbEntity
  8
SIZE
  6
Continuous
100
AcDbText
 10
373.7705566969854
 20
-709.4417429633946
 30
0.0
 40
59.57818181818182
  1
200
  7
MS PGothic
 72
     1
 11
438.7405639697127
 21
-721.623619327031
 31
0.0
100
AcDbText
 73
     1
  0
ENDBLK
  5
16B
330
169
100
AcDbEntity
  8
0
100
AcDbBlockEnd
  0
BLOCK
  5
16E
330
16D
100
AcDbEntity
  8
0
100
AcDbBlockBegin
  2
MTEXT_24
 70
     0
 10
0.0
 20
0.0
 30
0.0
  3
MTEXT_24
  1
MTEXT_24
  0
TEXT
  5
170
330
16D
100
AcDbEntity
  8
SIZE
  6
Continuous
100
AcDbText
 10
827.6292745504445
 20
-2115.45498844032
 30
0.0
 40
59.57818181818182
  1
443
 50
90.0
  7
MS PGothic
 72
     1
 11
839.8111509140808
 21
-2050.484981167592
 31
0.0
100
AcDbText
 73
     1
  0
ENDBLK
  5
16F
330
16D
100
AcDbEntity
  8
0
100
AcDbBlockEnd
  0
BLOCK
  5
172
330
171
100
AcDbEntity
  8
0
100
AcDbBlockBegin
  2
MTEXT_25
 70
     0
 10
0.0
 20
0.0
 30
0.0
  3
MTEXT_25
  1
MTEXT_25
  0
TEXT
  5
174
330
171
100
AcDbEntity
  8
SIZE
  6
Continuous
100
AcDbText
 10
1143.661385668868
 20
-1820.611657531229
 30
0.0
 40
59.57818181818182
  1
1076
 50
90.0
  7
MS PGothic
 72
     1
 11
1155.843262032504
 21
-1733.984981167593
 31
0.0
100
AcDbText
 73
     1
  0
ENDBLK
  5
173
330
171
100
AcDbEntity
  8
0
100
AcDbBlockEnd
  0
BLOCK
  5
176
330
175
100
AcDbEntity
  8
0
100
AcDbBlockBegin
  2
MTEXT_26
 70
     0
 10
0.0
 20
0.0
 30
0.0
  3
MTEXT_26
  1
MTEXT_26
  0
TEXT
  5
178
330
175
100
AcDbEntity
  8
SIZE
  6
Continuous
100
AcDbText
 10
-1.229443303014655
 20
-2654.527690732236
 30
0.0
 40
59.57818181818182
  1
600
  7
MS PGothic
 72
     1
 11
63.74056396971262
 21
-2666.709567095873
 31
0.0
100
AcDbText
 73
     1
  0
ENDBLK
  5
177
330
175
100
AcDbEntity
  8
0
100
AcDbBlockEnd
  0
BLOCK
  5
17A
330
179
100
AcDbEntity
  8
0
100
AcDbBlockBegin
  2
MTEXT_27
 70
     0
 10
0.0
 20
0.0
 30
0.0
  3
MTEXT_27
  1
MTEXT_27
  0
TEXT
  5
17C
330
179
100
AcDbEntity
  8
SIZE
  6
Continuous
100
AcDbText
 10
-584.8008718744429
 20
-2654.527690732236
 30
0.0
 40
59.57818181818182
  1
175
  7
MS PGothic
 72
     1
 11
-519.8308646017157
 21
-2666.709567095873
 31
0.0
100
AcDbText
 73
     1
  0
ENDBLK
  5
17B
330
179
100
AcDbEntity
  8
0
100
AcDbBlockEnd
  0
BLOCK
  5
17E
330
17D
100
AcDbEntity
  8
0
100
AcDbBlockBegin
  2
MTEXT_28
 70
     0
 10
0.0
 20
0.0
 30
0.0
  3
MTEXT_28
  1
MTEXT_28
  0
TEXT
  5
180
330
17D
100
AcDbEntity
  8
SIZE
  6
Continuous
100
AcDbText
 10
582.341985268414
 20
-2654.527690732236
 30
0.0
 40
59.57818181818182
  1
175
  7
MS PGothic
 72
     1
 11
647.3119925411412
 21
-2666.709567095873
 31
0.0
100
AcDbText
 73
     1
  0
ENDBLK
  5
17F
330
17D
100
AcDbEntity
  8
0
100
AcDbBlockEnd
  0
BLOCK
  5
182
330
181
100
AcDbEntity
  8
0
100
AcDbBlockBegin
  2
MTEXT_29
 70
     0
 10
0.0
 20
0.0
 30
0.0
  3
MTEXT_29
  1
MTEXT_29
  0
TEXT
  5
184
330
181
100
AcDbEntity
  8
SIZE
  6
Continuous
100
AcDbText
 10
-1.229443303014612
 20
-2791.19524862719
 30
0.0
 40
59.57818181818182
  1
950
  7
MS PGothic
 72
     1
 11
63.74056396971266
 21
-2803.377124990827
 31
0.0
100
AcDbText
 73
     1
  0
ENDBLK
  5
183
330
181
100
AcDbEntity
  8
0
100
AcDbBlockEnd
  0
BLOCK
  5
186
330
185
100
AcDbEntity
  8
0
100
AcDbBlockBegin
  2
MTEXT_30
 70
     0
 10
0.0
 20
0.0
 30
0.0
  3
MTEXT_30
  1
MTEXT_30
  0
TEXT
  5
188
330
185
100
AcDbEntity
  8
SIZE
  6
Continuous
100
AcDbText
 10
993.9592618763463
 20
-2113.454988440321
 30
0.0
 40
59.57818181818182
  1
447
 50
90.0
  7
MS PGothic
 72
     1
 11
1006.141138239983
 21
-2048.484981167594
 31
0.0
100
AcDbText
 73
     1
  0
ENDBLK
  5
187
330
185
100
AcDbEntity
  8
0
100
AcDbBlockEnd
  0
BLOCK
  5
18A
330
189
100
AcDbEntity
  8
0
100
AcDbBlockBegin
  2
MTEXT_31
 70
     0
 10
0.0
 20
0.0
 30
0.0
  3
MTEXT_31
  1
MTEXT_31
  0
TEXT
  5
18C
330
189
100
AcDbEntity
  8
SIZE
  6
Continuous
100
AcDbText
 10
6266.429826111533
 20
-2401.926890777984
 30
0.0
 40
59.57818181818182
  1
23
 50
90.0
  7
MS PGothic
 72
     1
 11
6278.611702475169
 21
-2358.613552596165
 31
0.0
100
AcDbText
 73
     1
  0
ENDBLK
  5
18B
330
189
100
AcDbEntity
  8
0
100
AcDbBlockEnd
  0
BLOCK
  5
18E
330
18D
100
AcDbEntity
  8
0
100
AcDbBlockBegin
  2
MTEXT_32
 70
     0
 10
0.0
 20
0.0
 30
0.0
  3
MTEXT_32
  1
MTEXT_32
  0
TEXT
  5
190
330
18D
100
AcDbEntity
  8
SIZE
  6
Continuous
100
AcDbText
 10
6369.662556060197
 20
-1683.61165753123
 30
0.0
 40
59.57818181818182
  1
1350
 50
90.0
  7
MS PGothic
 72
     1
 11
6381.844432423833
 21
-1596.984981167594
 31
0.0
100
AcDbText
 73
     1
  0
ENDBLK
  5
18F
330
18D
100
AcDbEntity
  8
0
100
AcDbBlockEnd
  0
BLOCK
  5
192
330
191
100
AcDbEntity
  8
0
100
AcDbBlockBegin
  2
MTEXT_33
 70
     0
 10
0.0
 20
0.0
 30
0.0
  3
MTEXT_33
  1
MTEXT_33
  0
TEXT
  5
194
330
191
100
AcDbEntity
  8
SIZE
  6
Continuous
100
AcDbText
 10
5637.78103613659
 20
-778.335041673949
 30
0.0
 40
59.57818181818182
  1
950
  7
MS PGothic
 72
     1
 11
5702.751043409317
 21
-790.5169180375854
 31
0.0
100
AcDbText
 73
     1
  0
ENDBLK
  5
193
330
191
100
AcDbEntity
  8
0
100
AcDbBlockEnd
  0
BLOCK
  5
196
330
195
100
AcDbEntity
  8
0
100
AcDbBlockBegin
  2
MTEXT_34
 70
     0
 10
0.0
 20
0.0
 30
0.0
  3
MTEXT_34
  1
MTEXT_34
  0
TEXT
  5
198
330
195
100
AcDbEntity
  8
SIZE
  6
Continuous
100
AcDbText
 10
5637.78103613659
 20
-2654.527690732236
 30
0.0
 40
59.57818181818182
  1
600
  7
MS PGothic
 72
     1
 11
5702.751043409317
 21
-2666.709567095873
 31
0.0
100
AcDbText
 73
     1
  0
ENDBLK
  5
197
330
195
100
AcDbEntity
  8
0
100
AcDbBlockEnd
  0
BLOCK
  5
19A
330
199
100
AcDbEntity
  8
0
100
AcDbBlockBegin
  2
MTEXT_35
 70
     0
 10
0.0
 20
0.0
 30
0.0
  3
MTEXT_35
  1
MTEXT_35
  0
TEXT
  5
19C
330
199
100
AcDbEntity
  8
SIZE
  6
Continuous
100
AcDbText
 10
6221.352464708016
 20
-2654.527690732236
 30
0.0
 40
59.57818181818182
  1
175
  7
MS PGothic
 72
     1
 11
6286.322471980743
 21
-2666.709567095873
 31
0.0
100
AcDbText
 73
     1
  0
ENDBLK
  5
19B
330
199
100
AcDbEntity
  8
0
100
AcDbBlockEnd
  0
BLOCK
  5
19E
330
19D
100
AcDbEntity
  8
0
100
AcDbBlockBegin
  2
MTEXT_36
 70
     0
 10
0.0
 20
0.0
 30
0.0
  3
MTEXT_36
  1
MTEXT_36
  0
TEXT
  5
1A0
330
19D
100
AcDbEntity
  8
SIZE
  6
Continuous
100
AcDbText
 10
5054.20960756516
 20
-2654.527690732236
 30
0.0
 40
59.57818181818182
  1
175
  7
MS PGothic
 72
     1
 11
5119.179614837887
 21
-2666.709567095873
 31
0.0
100
AcDbText
 73
     1
  0
ENDBLK
  5
19F
330
19D
100
AcDbEntity
  8
0
100
AcDbBlockEnd
  0
BLOCK
  5
1A2
330
1A1
100
AcDbEntity
  8
0
100
AcDbBlockBegin
  2
MTEXT_37
 70
     0
 10
0.0
 20
0.0
 30
0.0
  3
MTEXT_37
  1
MTEXT_37
  0
TEXT
  5
1A4
330
1A1
100
AcDbEntity
  8
SIZE
  6
Continuous
100
AcDbText
 10
5637.78103613659
 20
-2791.19524862719
 30
0.0
 40
59.57818181818182
  1
950
  7
MS PGothic
 72
     1
 11
5702.751043409317
 21
-2803.377124990827
 31
0.0
100
AcDbText
 73
     1
  0
ENDBLK
  5
1A3
330
1A1
100
AcDbEntity
  8
0
100
AcDbBlockEnd
  0
BLOCK
  5
1A6
330
1A5
100
AcDbEntity
  8
0
100
AcDbBlockBegin
  2
MTEXT_38
 70
     0
 10
0.0
 20
0.0
 30
0.0
  3
MTEXT_38
  1
MTEXT_38
  0
TEXT
  5
1A8
330
1A5
100
AcDbEntity
  8
SIZE
  6
Continuous
100
AcDbText
 10
-577.8239663415832
 20
-4094.907209093935
 30
0.0
 40
59.57818181818182
  1
330
 50
90.0
  7
MS PGothic
 72
     1
 11
-565.6420899779469
 21
-4029.937201821208
 31
0.0
100
AcDbText
 73
     1
  0
ENDBLK
  5
1A7
330
1A5
100
AcDbEntity
  8
0
100
AcDbBlockEnd
  0
BLOCK
  5
1AA
330
1A9
100
AcDbEntity
  8
0
100
AcDbBlockBegin
  2
MTEXT_39
 70
     0
 10
0.0
 20
0.0
 30
0.0
  3
MTEXT_39
  1
MTEXT_39
  0
TEXT
  5
1AC
330
1A9
100
AcDbEntity
  8
SIZE
  6
Continuous
100
AcDbText
 10
-577.8239663415832
 20
-4354.879111431598
 30
0.0
 40
59.57818181818182
  1
30
 50
90.0
  7
MS PGothic
 72
     1
 11
-565.6420899779469
 21
-4311.56577324978
 31
0.0
100
AcDbText
 73
     1
  0
ENDBLK
  5
1AB
330
1A9
100
AcDbEntity
  8
0
100
AcDbBlockEnd
  0
BLOCK
  5
1AE
330
1AD
100
AcDbEntity
  8
0
100
AcDbBlockBegin
  2
MTEXT_40
 70
     0
 10
0.0
 20
0.0
 30
0.0
  3
MTEXT_40
  1
MTEXT_40
  0
TEXT
  5
1B0
330
1AD
100
AcDbEntity
  8
SIZE
  6
Continuous
100
AcDbText
 10
-384.5793748700841
 20
-3598.152203812606
 30
0.0
 40
59.57818181818182
  1
175
  7
MS PGothic
 72
     1
 11
-319.6093675973568
 21
-3610.334080176243
 31
0.0
100
AcDbText
 73
     1
  0
ENDBLK
  5
1AF
330
1AD
100
AcDbEntity
  8
0
100
AcDbBlockEnd
  0
BLOCK
  5
1B2
330
1B1
100
AcDbEntity
  8
0
100
AcDbBlockBegin
  2
MTEXT_41
 70
     0
 10
0.0
 20
0.0
 30
0.0
  3
MTEXT_41
  1
MTEXT_41
  0
TEXT
  5
1B4
330
1B1
100
AcDbEntity
  8
SIZE
  6
Continuous
100
AcDbText
 10
-1.229443303014612
 20
-3598.152203812606
 30
0.0
 40
59.57818181818182
  1
600
  7
MS PGothic
 72
     1
 11
63.74056396971266
 21
-3610.334080176243
 31
0.0
100
AcDbText
 73
     1
  0
ENDBLK
  5
1B3
330
1B1
100
AcDbEntity
  8
0
100
AcDbBlockEnd
  0
BLOCK
  5
1B6
330
1B5
100
AcDbEntity
  8
0
100
AcDbBlockBegin
  2
MTEXT_42
 70
     0
 10
0.0
 20
0.0
 30
0.0
  3
MTEXT_42
  1
MTEXT_42
  0
TEXT
  5
1B8
330
1B5
100
AcDbEntity
  8
SIZE
  6
Continuous
100
AcDbText
 10
372.3455976978229
 20
-3598.152203812606
 30
0.0
 40
59.57818181818182
  1
175
  7
MS PGothic
 72
     1
 11
437.3156049705502
 21
-3610.334080176243
 31
0.0
100
AcDbText
 73
     1
  0
ENDBLK
  5
1B7
330
1B5
100
AcDbEntity
  8
0
100
AcDbBlockEnd
  0
BLOCK
  5
1BA
330
1B9
100
AcDbEntity
  8
0
100
AcDbBlockBegin
  2
MTEXT_43
 70
     0
 10
0.0
 20
0.0
 30
0.0
  3
MTEXT_43
  1
MTEXT_43
  0
TEXT
  5
1BC
330
1B9
100
AcDbEntity
  8
SIZE
  6
Continuous
100
AcDbText
 10
-1.229443303014584
 20
-3428.461330654362
 30
0.0
 40
59.57818181818182
  1
950
  7
MS PGothic
 72
     1
 11
63.74056396971269
 21
-3440.643207017998
 31
0.0
100
AcDbText
 73
     1
  0
ENDBLK
  5
1BB
330
1B9
100
AcDbEntity
  8
0
100
AcDbBlockEnd
  0
BLOCK
  5
1BE
330
1BD
100
AcDbEntity
  8
0
100
AcDbBlockBegin
  2
MTEXT_44
 70
     0
 10
0.0
 20
0.0
 30
0.0
  3
MTEXT_44
  1
MTEXT_44
  0
TEXT
  5
1C0
330
1BD
100
AcDbEntity
  8
SIZE
  6
Continuous
100
AcDbText
 10
1014.848970058408
 20
-4094.907209093935
 30
0.0
 40
59.57818181818182
  1
370
 50
90.0
  7
MS PGothic
 72
     1
 11
1027.030846422044
 21
-4029.937201821208
 31
0.0
100
AcDbText
 73
     1
  0
ENDBLK
  5
1BF
330
1BD
100
AcDbEntity
  8
0
100
AcDbBlockEnd
  0
BLOCK
  5
1C2
330
1C1
100
AcDbEntity
  8
0
100
AcDbBlockBegin
  2
MTEXT_45
 70
     0
 10
0.0
 20
0.0
 30
0.0
  3
MTEXT_45
  1
MTEXT_45
  0
TEXT
  5
1C4
330
1C1
100
AcDbEntity
  8
SIZE
  6
Continuous
100
AcDbText
 10
1014.848970058407
 20
-4372.879111431598
 30
0.0
 40
59.57818181818182
  1
28
 50
90.0
  7
MS PGothic
 72
     1
 11
1027.030846422043
 21
-4329.56577324978
 31
0.0
100
AcDbText
 73
     1
  0
ENDBLK
  5
1C3
330
1C1
100
AcDbEntity
  8
0
100
AcDbBlockEnd
  0
BLOCK
  5
1C6
330
1C5
100
AcDbEntity
  8
0
100
AcDbBlockBegin
  2
MTEXT_46
 70
     0
 10
0.0
 20
0.0
 30
0.0
  3
MTEXT_46
  1
MTEXT_46
  0
TEXT
  5
1C8
330
1C5
100
AcDbEntity
  8
SIZE
  6
Continuous
100
AcDbText
 10
1014.848970058408
 20
-3789.479111431598
 30
0.0
 40
59.57818181818182
  1
19
 50
90.0
  7
MS PGothic
 72
     1
 11
1027.030846422044
 21
-3746.16577324978
 31
0.0
100
AcDbText
 73
     1
  0
ENDBLK
  5
1C7
330
1C5
100
AcDbEntity
  8
0
100
AcDbBlockEnd
  0
BLOCK
  5
1CA
330
1C9
100
AcDbEntity
  8
0
100
AcDbBlockBegin
  2
MTEXT_47
 70
     0
 10
0.0
 20
0.0
 30
0.0
  3
MTEXT_47
  1
MTEXT_47
  0
TEXT
  5
1CC
330
1C9
100
AcDbEntity
  8
SIZE
  6
Continuous
100
AcDbText
 10
-315.2294433030144
 20
-4453.939479484648
 30
0.0
 40
59.57818181818182
  1
322
  7
MS PGothic
 72
     1
 11
-250.2594360302871
 21
-4466.121355848284
 31
0.0
100
AcDbText
 73
     1
  0
ENDBLK
  5
1CB
330
1C9
100
AcDbEntity
  8
0
100
AcDbBlockEnd
  0
BLOCK
  5
1CE
330
1CD
100
AcDbEntity
  8
0
100
AcDbBlockBegin
  2
MTEXT_48
 70
     0
 10
0.0
 20
0.0
 30
0.0
  3
MTEXT_48
  1
MTEXT_48
  0
TEXT
  5
1D0
330
1CD
100
AcDbEntity
  8
SIZE
  6
Continuous
100
AcDbText
 10
1228.736134283649
 20
-4099.407209093936
 30
0.0
 40
59.57818181818182
  1
417
 50
90.0
  7
MS PGothic
 72
     1
 11
1240.918010647285
 21
-4034.437201821209
 31
0.0
100
AcDbText
 73
     1
  0
ENDBLK
  5
1CF
330
1CD
100
AcDbEntity
  8
0
100
AcDbBlockEnd
  0
BLOCK
  5
1D2
330
1D1
100
AcDbEntity
  8
0
100
AcDbBlockBegin
  2
MTEXT_49
 70
     0
 10
0.0
 20
0.0
 30
0.0
  3
MTEXT_49
  1
MTEXT_49
  0
TEXT
  5
1D4
330
1D1
100
AcDbEntity
  8
SIZE
  6
Continuous
100
AcDbText
 10
678.2974654685688
 20
-4106.621968574455
 30
0.0
 40
59.57818181818182
  1
45
 50
90.0
  7
MS PGothic
 72
     1
 11
690.4793418322051
 21
-4063.308630392637
 31
0.0
100
AcDbText
 73
     1
  0
ENDBLK
  5
1D3
330
1D1
100
AcDbEntity
  8
0
100
AcDbBlockEnd
  0
BLOCK
  5
1D6
330
1D5
100
AcDbEntity
  8
0
100
AcDbBlockBegin
  2
MTEXT_50
 70
     0
 10
0.0
 20
0.0
 30
0.0
  3
MTEXT_50
  1
MTEXT_50
  0
TEXT
  5
1D8
330
1D5
100
AcDbEntity
  8
SIZE
  6
Continuous
100
AcDbText
 10
819.963008642125
 20
-4096.993397145881
 30
0.0
 40
59.57818181818182
  1
56
 50
90.0
  7
MS PGothic
 72
     1
 11
832.1448850057614
 21
-4053.680058964063
 31
0.0
100
AcDbText
 73
     1
  0
ENDBLK
  5
1D7
330
1D5
100
AcDbEntity
  8
0
100
AcDbBlockEnd
  0
BLOCK
  5
1DA
330
1D9
100
AcDbEntity
  8
0
100
AcDbBlockBegin
  2
MTEXT_51
 70
     0
 10
0.0
 20
0.0
 30
0.0
  3
MTEXT_51
  1
MTEXT_51
  0
TEXT
  5
1DC
330
1D9
100
AcDbEntity
  8
SIZE
  6
Continuous
100
AcDbText
 10
597.0963498857932
 20
-4419.01924054557
 30
0.0
 40
59.57818181818182
  1
42
  7
MS PGothic
 72
     1
 11
640.4096880676113
 21
-4431.201116909207
 31
0.0
100
AcDbText
 73
     1
  0
ENDBLK
  5
1DB
330
1D9
100
AcDbEntity
  8
0
100
AcDbBlockEnd
  0
BLOCK
  5
1DE
330
1DD
100
AcDbEntity
  8
0
100
AcDbBlockBegin
  2
MTEXT_52
 70
     0
 10
0.0
 20
0.0
 30
0.0
  3
MTEXT_52
  1
MTEXT_52
  0
TEXT
  5
1E0
330
1DD
100
AcDbEntity
  8
SIZE
  6
Continuous
100
AcDbText
 10
225.0154504109672
 20
-4419.01924054557
 30
0.0
 40
59.57818181818182
  1
66
  7
MS PGothic
 72
     1
 11
268.3287885927854
 21
-4431.201116909207
 31
0.0
100
AcDbText
 73
     1
  0
ENDBLK
  5
1DF
330
1DD
100
AcDbEntity
  8
0
100
AcDbBlockEnd
  0
BLOCK
  5
1E2
330
1E1
100
AcDbEntity
  8
0
100
AcDbBlockBegin
  2
MTEXT_53
 70
     0
 10
0.0
 20
0.0
 30
0.0
  3
MTEXT_53
  1
MTEXT_53
  0
TEXT
  5
1E4
330
1E1
100
AcDbEntity
  8
SIZE
  6
Continuous
100
AcDbText
 10
373.7705566969852
 20
-4589.201418641648
 30
0.0
 40
59.57818181818182
  1
200
  7
MS PGothic
 72
     1
 11
438.7405639697125
 21
-4601.383295005285
 31
0.0
100
AcDbText
 73
     1
  0
ENDBLK
  5
1E3
330
1E1
100
AcDbEntity
  8
0
100
AcDbBlockEnd
  0
BLOCK
  5
1E6
330
1E5
100
AcDbEntity
  8
0
100
AcDbBlockBegin
  2
MTEXT_54
 70
     0
 10
0.0
 20
0.0
 30
0.0
  3
MTEXT_54
  1
MTEXT_54
  0
TEXT
  5
1E8
330
1E5
100
AcDbEntity
  8
SIZE
  6
Continuous
100
AcDbText
 10
-687.2950988710134
 20
-1648.454988440321
 30
0.0
 40
59.57818181818182
  1
635
 50
90.0
  7
MS PGothic
 72
     1
 11
-675.113222507377
 21
-1583.484981167594
 31
0.0
100
AcDbText
 73
     1
  0
ENDBLK
  5
1E7
330
1E5
100
AcDbEntity
  8
0
100
AcDbBlockEnd
  0
BLOCK
  5
1EA
330
1E9
100
AcDbEntity
  8
0
100
AcDbBlockBegin
  2
MTEXT_55
 70
     0
 10
0.0
 20
0.0
 30
0.0
  3
MTEXT_55
  1
MTEXT_55
  0
TEXT
  5
1EC
330
1E9
100
AcDbEntity
  8
SIZE
  6
Continuous
100
AcDbText
 10
3163.583091785978
 20
-2583.010088657149
 30
0.0
 40
59.57818181818182
  1
370
  7
MS PGothic
 72
     1
 11
3228.553099058705
 21
-2595.191965020786
 31
0.0
100
AcDbText
 73
     1
  0
ENDBLK
  5
1EB
330
1E9
100
AcDbEntity
  8
0
100
AcDbBlockEnd
  0
BLOCK
  5
1EE
330
1ED
100
AcDbEntity
  8
0
100
AcDbBlockBegin
  2
MTEXT_56
 70
     0
 10
0.0
 20
0.0
 30
0.0
  3
MTEXT_56
  1
MTEXT_56
  0
TEXT
  5
1F0
330
1ED
100
AcDbEntity
  8
SIZE
  6
Continuous
100
AcDbText
 10
3469.011189448316
 20
-2583.010088657149
 30
0.0
 40
59.57818181818182
  1
19
  7
MS PGothic
 72
     1
 11
3512.324527630134
 21
-2595.191965020786
 31
0.0
100
AcDbText
 73
     1
  0
ENDBLK
  5
1EF
330
1ED
100
AcDbEntity
  8
0
100
AcDbBlockEnd
  0
BLOCK
  5
1F2
330
1F1
100
AcDbEntity
  8
0
100
AcDbBlockBegin
  2
MTEXT_57
 70
     0
 10
0.0
 20
0.0
 30
0.0
  3
MTEXT_57
  1
MTEXT_57
  0
TEXT
  5
1F4
330
1F1
100
AcDbEntity
  8
SIZE
  6
Continuous
100
AcDbText
 10
2885.611189448316
 20
-2583.010088657149
 30
0.0
 40
59.57818181818182
  1
28
  7
MS PGothic
 72
     1
 11
2928.924527630134
 21
-2595.191965020786
 31
0.0
100
AcDbText
 73
     1
  0
ENDBLK
  5
1F3
330
1F1
100
AcDbEntity
  8
0
100
AcDbBlockEnd
  0
BLOCK
  5
1F6
330
1F5
100
AcDbEntity
  8
0
100
AcDbBlockBegin
  2
MTEXT_58
 70
     0
 10
0.0
 20
0.0
 30
0.0
  3
MTEXT_58
  1
MTEXT_58
  0
TEXT
  5
1F8
330
1F5
100
AcDbEntity
  8
SIZE
  6
Continuous
100
AcDbText
 10
3159.083091785977
 20
-2718.65711817472
 30
0.0
 40
59.57818181818182
  1
417
  7
MS PGothic
 72
     1
 11
3224.053099058704
 21
-2730.838994538357
 31
0.0
100
AcDbText
 73
     1
  0
ENDBLK
  5
1F7
330
1F5
100
AcDbEntity
  8
0
100
AcDbBlockEnd
  0
BLOCK
  5
1FA
330
1F9
100
AcDbEntity
  8
0
100
AcDbBlockBegin
  2
MTEXT_59
 70
     0
 10
0.0
 20
0.0
 30
0.0
  3
MTEXT_59
  1
MTEXT_59
  0
TEXT
  5
1FC
330
1F9
100
AcDbEntity
  8
SIZE
  6
Continuous
100
AcDbText
 10
2730.227561345353
 20
-2115.45498844032
 30
0.0
 40
59.57818181818182
  1
443
 50
90.0
  7
MS PGothic
 72
     1
 11
2742.409437708989
 21
-2050.484981167593
 31
0.0
100
AcDbText
 73
     1
  0
ENDBLK
  5
1FB
330
1F9
100
AcDbEntity
  8
0
100
AcDbBlockEnd
  0
BLOCK
  5
1FE
330
1FD
100
AcDbEntity
  8
0
100
AcDbBlockBegin
  2
MTEXT_60
 70
     0
 10
0.0
 20
0.0
 30
0.0
  3
MTEXT_60
  1
MTEXT_60
  0
TEXT
  5
200
330
1FD
100
AcDbEntity
  8
SIZE
  6
Continuous
100
AcDbText
 10
2595.477907394029
 20
-2113.454988440321
 30
0.0
 40
59.57818181818182
  1
447
 50
90.0
  7
MS PGothic
 72
     1
 11
2607.659783757665
 21
-2048.484981167594
 31
0.0
100
AcDbText
 73
     1
  0
ENDBLK
  5
1FF
330
1FD
100
AcDbEntity
  8
0
100
AcDbBlockEnd
  0
BLOCK
  5
202
330
201
100
AcDbEntity
  8
0
100
AcDbBlockBegin
  2
MTEXT_61
 70
     0
 10
0.0
 20
0.0
 30
0.0
  3
MTEXT_61
  1
MTEXT_61
  0
TEXT
  5
204
330
201
100
AcDbEntity
  8
SIZE
  6
Continuous
100
AcDbText
 10
2277.652032646728
 20
-1820.611657531229
 30
0.0
 40
59.57818181818182
  1
1076
 50
90.0
  7
MS PGothic
 72
     1
 11
2289.833909010364
 21
-1733.984981167593
 31
0.0
100
AcDbText
 73
     1
  0
ENDBLK
  5
203
330
201
100
AcDbEntity
  8
0
100
AcDbBlockEnd
  0
BLOCK
  5
206
330
205
100
AcDbEntity
  8
0
100
AcDbBlockBegin
  2
MTEXT_62
 70
     0
 10
0.0
 20
0.0
 30
0.0
  3
MTEXT_62
  1
MTEXT_62
  0
TEXT
  5
208
330
205
100
AcDbEntity
  8
SIZE
  6
Continuous
100
AcDbText
 10
2445.466704202811
 20
-2151.454988440089
 30
0.0
 40
59.57818181818182
  1
371
 50
90.0
  7
MS PGothic
 72
     1
 11
2457.648580566448
 21
-2086.484981167362
 31
0.0
100
AcDbText
 73
     1
  0
ENDBLK
  5
207
330
205
100
AcDbEntity
  8
0
100
AcDbBlockEnd
  0
BLOCK
  5
20A
330
209
100
AcDbEntity
  8
0
100
AcDbBlockBegin
  2
MTEXT_63
 70
     0
 10
0.0
 20
0.0
 30
0.0
  3
MTEXT_63
  1
MTEXT_63
  0
TEXT
  5
20C
330
209
100
AcDbEntity
  8
SIZE
  6
Continuous
100
AcDbText
 10
2146.983454671737
 20
-1683.61165753123
 30
0.0
 40
59.57818181818182
  1
1350
 50
90.0
  7
MS PGothic
 72
     1
 11
2159.165331035374
 21
-1596.984981167594
 31
0.0
100
AcDbText
 73
     1
  0
ENDBLK
  5
20B
330
209
100
AcDbEntity
  8
0
100
AcDbBlockEnd
  0
BLOCK
  5
20E
330
20D
100
AcDbEntity
  8
0
100
AcDbBlockBegin
  2
MTEXT_64
 70
     0
 10
0.0
 20
0.0
 30
0.0
  3
MTEXT_64
  1
MTEXT_64
  0
TEXT
  5
210
330
20D
100
AcDbEntity
  8
SIZE
  6
Continuous
100
AcDbText
 10
2926.0780412781
 20
-1647.412441617126
 30
0.0
 40
59.57818181818182
  1
45
  7
MS PGothic
 72
     1
 11
2969.391379459919
 21
-1659.594317980762
 31
0.0
100
AcDbText
 73
     1
  0
ENDBLK
  5
20F
330
20D
100
AcDbEntity
  8
0
100
AcDbBlockEnd
  0
BLOCK
  5
212
330
211
100
AcDbEntity
  8
0
100
AcDbBlockBegin
  2
MTEXT_65
 70
     0
 10
0.0
 20
0.0
 30
0.0
  3
MTEXT_65
  1
MTEXT_65
  0
TEXT
  5
214
330
211
100
AcDbEntity
  8
SIZE
  6
Continuous
100
AcDbText
 10
2926.0780412781
 20
-1458.591271494413
 30
0.0
 40
59.57818181818182
  1
56
  7
MS PGothic
 72
     1
 11
2969.391379459919
 21
-1470.773147858049
 31
0.0
100
AcDbText
 73
     1
  0
ENDBLK
  5
213
330
211
100
AcDbEntity
  8
0
100
AcDbBlockEnd
  0
BLOCK
  5
216
330
215
100
AcDbEntity
  8
0
100
AcDbBlockBegin
  2
MTEXT_66
 70
     0
 10
0.0
 20
0.0
 30
0.0
  3
MTEXT_66
  1
MTEXT_66
  0
TEXT
  5
218
330
215
100
AcDbEntity
  8
SIZE
  6
Continuous
100
AcDbText
 10
2903.611189448316
 20
-582.7909228448011
 30
0.0
 40
59.57818181818182
  1
30
  7
MS PGothic
 72
     1
 11
2946.924527630134
 21
-594.9727992084374
 31
0.0
100
AcDbText
 73
     1
  0
ENDBLK
  5
217
330
215
100
AcDbEntity
  8
0
100
AcDbBlockEnd
  0
BLOCK
  5
21A
330
219
100
AcDbEntity
  8
0
100
AcDbBlockBegin
  2
MTEXT_67
 70
     0
 10
0.0
 20
0.0
 30
0.0
  3
MTEXT_67
  1
MTEXT_67
  0
TEXT
  5
21C
330
219
100
AcDbEntity
  8
SIZE
  6
Continuous
100
AcDbText
 10
3163.583091785978
 20
-582.7909228448011
 30
0.0
 40
59.57818181818182
  1
330
  7
MS PGothic
 72
     1
 11
3228.553099058705
 21
-594.9727992084374
 31
0.0
100
AcDbText
 73
     1
  0
ENDBLK
  5
21B
330
219
100
AcDbEntity
  8
0
100
AcDbBlockEnd
  0
BLOCK
  5
21E
330
21D
100
AcDbEntity
  8
0
100
AcDbBlockBegin
  2
MTEXT_68
 70
     0
 10
0.0
 20
0.0
 30
0.0
  3
MTEXT_68
  1
MTEXT_68
  0
TEXT
  5
220
330
21D
100
AcDbEntity
  8
SIZE
  6
Continuous
100
AcDbText
 10
2445.466704202811
 20
-1648.454988440321
 30
0.0
 40
59.57818181818182
  1
635
 50
90.0
  7
MS PGothic
 72
     1
 11
2457.648580566448
 21
-1583.484981167594
 31
0.0
100
AcDbText
 73
     1
  0
ENDBLK
  5
21F
330
21D
100
AcDbEntity
  8
0
100
AcDbBlockEnd
  0
ENDSEC
  0
SECTION
  2
ENTITIES
  0
CIRCLE
  5
221
330
1F
100
AcDbEntity
  8
ARRANGE
  6
Continuous
100
AcDbCircle
 10
0.0
 20
0.0
 30
0.0
 40
40.0
  0
LINE
  5
222
330
1F
100
AcDbEntity
  8
DETAIL
  6
CONTINOUS
100
AcDbLine
 10
213.0
 20
0.0
 30
0.0
 11
-204.0
 21
0.0
 31
0.0
  0
POINT
  5
223
330
1F
100
AcDbEntity
  8
ARRANGE
  6
Continuous
100
AcDbPoint
 10
0.0
 20
0.0
 30
0.0
  0
LINE
  5
224
330
1F
100
AcDbEntity
  8
DETAIL
  6
CONTINOUS
100
AcDbLine
 10
213.0000000000004
 20
33.0
 30
0.0
 11
-204.0
 21
33.0
 31
0.0
  0
CIRCLE
  5
225
330
1F
100
AcDbEntity
  8
FIX
  6
Continuous
100
AcDbCircle
 10
-180.0
 20
0.0
 30
0.0
 40
40.0
  0
LINE
  5
226
330
1F
100
AcDbEntity
  8
DETAIL
  6
CONTINOUS
100
AcDbLine
 10
-204.0
 20
0.0
 30
0.0
 11
-204.0
 21
33.0
 31
0.0
  0
LINE
  5
227
330
1F
100
AcDbEntity
  8
BASIS
  6
DASHDOT
100
AcDbLine
 10
0.0
 20
-50.63582300000007
 30
0.0
 11
0.0
 21
1419.65393157562
 31
0.0
  0
LINE
  5
228
330
1F
100
AcDbEntity
  8
NOTE
  6
CONTINOUS
100
AcDbLine
 10
-184.9999999999994
 20
-20.0
 30
0.0
 11
-184.9999999999994
 21
20.0
 31
0.0
  0
LINE
  5
229
330
1F
100
AcDbEntity
  8
NOTE
  6
Continuous
100
AcDbLine
 10
-984.8719039999988
 20
-290.0777539999999
 30
0.0
 11
-405.0651019999992
 21
-290.0777539999999
 31
0.0
  0
TEXT
  5
22A
330
1F
100
AcDbEntity
  8
NOTE
  6
Continuous
100
AcDbText
 10
-930.045885
 20
-271.1717584545455
 30
0.0
 40
59.57818181818182
  1
AH 2-U cut
 41
0.9
  7
MS PGothic
 11
-930.045885
 21
-283.3536348181818
 31
0.0
100
AcDbText
 73
     1
  0
LINE
  5
22B
330
1F
100
AcDbEntity
  8
NOTE
  6
Continuous
100
AcDbLine
 10
-405.0651019999992
 20
-290.0777539999999
 30
0.0
 11
-184.9999999999994
 21
0.0
 31
0.0
  0
LINE
  5
22C
330
1F
100
AcDbEntity
  8
NOTE
  6
CONTINOUS
100
AcDbLine
 10
-164.9999999999994
 20
0.0
 30
0.0
 11
-204.9999999999994
 21
0.0
 31
0.0
  0
LINE
  5
22D
330
1F
100
AcDbEntity
  8
NOTE
  6
Continuous
100
AcDbLine
 10
-184.9999999999994
 20
0.0
 30
0.0
 11
-200.1042399999994
 21
-37.03865499999983
 31
0.0
  0
LINE
  5
22E
330
1F
100
AcDbEntity
  8
NOTE
  6
Continuous
100
AcDbLine
 10
-184.9999999999994
 20
0.0
 30
0.0
 11
-216.5999829999996
 21
-24.52429500000016
 31
0.0
  0
LINE
  5
22F
330
1F
100
AcDbEntity
  8
DETAIL
  6
CONTINOUS
100
AcDbLine
 10
-165.0
 20
33.0
 30
0.0
 11
-165.0
 21
1350.0
 31
0.0
  0
CIRCLE
  5
230
330
1F
100
AcDbEntity
  8
FIX
  6
Continuous
100
AcDbCircle
 10
185.0000000000004
 20
0.0
 30
0.0
 40
40.0
  0
LINE
  5
231
330
1F
100
AcDbEntity
  8
DETAIL
  6
CONTINOUS
100
AcDbLine
 10
213.0
 20
0.0
 30
0.0
 11
213.0000000000004
 21
33.0
 31
0.0
  0
LINE
  5
232
330
1F
100
AcDbEntity
  8
NOTE
  6
CONTINOUS
100
AcDbLine
 10
185.0000000000004
 20
-20.0
 30
0.0
 11
185.0000000000004
 21
20.0
 31
0.0
  0
LINE
  5
233
330
1F
100
AcDbEntity
  8
NOTE
  6
Continuous
100
AcDbLine
 10
984.871904
 20
-290.0777539999999
 30
0.0
 11
405.0651020000001
 21
-290.0777539999999
 31
0.0
  0
TEXT
  5
234
330
1F
100
AcDbEntity
  8
NOTE
  6
Continuous
100
AcDbText
 10
430.2973130000003
 20
-271.1717584545455
 30
0.0
 40
59.57818181818182
  1
AH 2-12×36
 41
0.9
  7
MS PGothic
 11
430.2973130000003
 21
-283.3536348181818
 31
0.0
100
AcDbText
 73
     1
  0
LINE
  5
235
330
1F
100
AcDbEntity
  8
NOTE
  6
Continuous
100
AcDbLine
 10
405.0651020000001
 20
-290.0777539999999
 30
0.0
 11
185.0000000000004
 21
0.0
 31
0.0
  0
LINE
  5
236
330
1F
100
AcDbEntity
  8
NOTE
  6
CONTINOUS
100
AcDbLine
 10
205.0000000000004
 20
0.0
 30
0.0
 11
165.0000000000003
 21
0.0
 31
0.0
  0
LINE
  5
237
330
1F
100
AcDbEntity
  8
NOTE
  6
Continuous
100
AcDbLine
 10
185.0000000000004
 20
0.0
 30
0.0
 11
200.1042400000004
 21
-37.03865499999983
 31
0.0
  0
LINE
  5
238
330
1F
100
AcDbEntity
  8
NOTE
  6
Continuous
100
AcDbLine
 10
185.0000000000004
 20
0.0
 30
0.0
 11
216.5999830000004
 21
-24.52429500000016
 31
0.0
  0
TEXT
  5
239
330
1F
100
AcDbEntity
  8
ETC
  6
Continuous
100
AcDbText
 10
1186.283529295371
 20
-159.4189013115823
 30
0.0
 40
59.57818181818182
  1
SMPU3495
 41
0.9
  7
MS PGothic
 11
1186.283529295371
 21
-171.6007776752187
 31
0.0
100
AcDbText
 73
     1
  0
LINE
  5
23A
330
1F
100
AcDbEntity
  8
DETAIL
  6
CONTINOUS
100
AcDbLine
 10
165.0
 20
33.0
 30
0.0
 11
165.0
 21
1350.0
 31
0.0
  0
LINE
  5
23B
330
1F
100
AcDbEntity
  8
BASIS
  6
DASHDOT
100
AcDbLine
 10
255.429196
 20
371.0
 30
0.0
 11
105.7262629999997
 21
371.0
 31
0.0
  0
TEXT
  5
23C
330
1F
100
AcDbEntity
  8
ETC
  6
Continuous
100
AcDbText
 10
1184.763745890496
 20
-278.5855023115822
 30
0.0
 40
59.57818181818182
  1
室外機
 41
0.9
  7
MS PGothic
 11
1184.763745890496
 21
-290.7673786752186
 31
0.0
100
AcDbText
 73
     1
  0
LINE
  5
23D
330
1F
100
AcDbEntity
  8
DETAIL
  6
Continuous
100
AcDbLine
 10
195.0000000000004
 20
660.0000000004623
 30
0.0
 11
165.0
 21
660.0000000004623
 31
0.0
  0
LINE
  5
23E
330
1F
100
AcDbEntity
  8
DETAIL
  6
Continuous
100
AcDbLine
 10
195.0
 20
82.00000000046064
 30
0.0
 11
165.0
 21
82.00000000046064
 31
0.0
  0
LINE
  5
23F
330
1F
100
AcDbEntity
  8
DETAIL
  6
Continuous
100
AcDbLine
 10
195.0
 20
82.00000000046064
 30
0.0
 11
195.0000000000004
 21
660.0000000004623
 31
0.0
  0
LINE
  5
240
330
1F
100
AcDbEntity
  8
NOTE
  6
CONTINOUS
100
AcDbLine
 10
165.0
 20
1088.999999999999
 30
0.0
 11
165.0
 21
1048.999999999999
 31
0.0
  0
LINE
  5
241
330
1F
100
AcDbEntity
  8
NOTE
  6
CONTINOUS
100
AcDbLine
 10
185.0
 20
1068.999999999999
 30
0.0
 11
145.0
 21
1068.999999999999
 31
0.0
  0
LINE
  5
242
330
1F
100
AcDbEntity
  8
NOTE
  6
Continuous
100
AcDbLine
 10
-194.0285428621444
 20
237.8957687055316
 30
0.0
 11
-563.1162325747322
 21
237.8957687055316
 31
0.0
  0
LINE
  5
243
330
1F
100
AcDbEntity
  8
NOTE
  6
Continuous
100
AcDbLine
 10
-468.4683382099898
 20
1381.55160883574
 30
0.0
 11
-223.9952859049238
 21
1381.55160883574
 31
0.0
  0
TEXT
  5
244
330
1F
100
AcDbEntity
  8
NOTE
  6
Continuous
100
AcDbText
 10
-453.6880332099908
 20
1400.457604381192
 30
0.0
 40
59.57818181818182
  1
EL,CL
 41
0.9
  7
MS PGothic
 11
-453.6880332099908
 21
1388.275728017556
 31
0.0
100
AcDbText
 73
     1
  0
LINE
  5
245
330
1F
100
AcDbEntity
  8
NOTE
  6
Continuous
100
AcDbLine
 10
165.0
 20
1068.999999999999
 30
0.0
 11
141.3652568435917
 21
1101.270712523552
 31
0.0
  0
LINE
  5
246
330
1F
100
AcDbEntity
  8
NOTE
  6
Continuous
100
AcDbLine
 10
-223.9952859049238
 20
1381.55160883574
 30
0.0
 11
165.0
 21
1068.999999999999
 31
0.0
  0
LINE
  5
247
330
1F
100
AcDbEntity
  8
NOTE
  6
Continuous
100
AcDbLine
 10
165.0
 20
1068.999999999999
 30
0.0
 11
128.3963547181929
 21
1085.129884756878
 31
0.0
  0
LINE
  5
248
330
1F
100
AcDbEntity
  8
DETAIL
  6
Continuous
100
AcDbLine
 10
-165.0000000000003
 20
1350.0
 30
0.0
 11
165.0000000000003
 21
1350.0
 31
0.0
  0
LINE
  5
249
330
1F
100
AcDbEntity
  8
DETAIL
  6
Continuous
100
AcDbLine
 10
195.0000000000004
 20
717.0000000004605
 30
0.0
 11
165.0000000000003
 21
717.0000000004605
 31
0.0
  0
LINE
  5
24A
330
1F
100
AcDbEntity
  8
DETAIL
  6
Continuous
100
AcDbLine
 10
195.0000000000004
 20
717.0000000004605
 30
0.0
 11
195.0000000000007
 21
1295.000000000462
 31
0.0
  0
LINE
  5
24B
330
1F
100
AcDbEntity
  8
DETAIL
  6
Continuous
100
AcDbLine
 10
195.0000000000007
 20
1295.000000000462
 30
0.0
 11
165.0000000000003
 21
1295.000000000462
 31
0.0
  0
LINE
  5
24C
330
1F
100
AcDbEntity
  8
BASIS
  6
DASHDOT
100
AcDbLine
 10
255.4291960000004
 20
1006.0
 30
0.0
 11
105.7262630000004
 21
1006.0
 31
0.0
  0
LINE
  5
24D
330
1F
100
AcDbEntity
  8
NOTE
  6
Continuous
100
AcDbLine
 10
-194.0285428621444
 20
237.8957687055316
 30
0.0
 11
125.0
 21
421.0000000000007
 31
0.0
  0
LINE
  5
24E
330
1F
100
AcDbEntity
  8
NOTE
  6
Continuous
100
AcDbLine
 10
-184.6970217152323
 20
692.5229446010505
 30
0.0
 11
108.9999999999998
 21
438.9999999999999
 31
0.0
  0
LINE
  5
24F
330
1F
100
AcDbEntity
  8
NOTE
  6
Continuous
100
AcDbLine
 10
125.0
 20
421.0000000000007
 30
0.0
 11
86.33659976104175
 21
410.7461493667286
 31
0.0
  0
LINE
  5
250
330
1F
100
AcDbEntity
  8
NOTE
  6
Continuous
100
AcDbLine
 10
125.0
 20
421.0000000000007
 30
0.0
 11
96.64343860966387
 21
392.788203596675
 31
0.0
  0
LINE
  5
251
330
1F
100
AcDbEntity
  8
NOTE
  6
CONTINOUS
100
AcDbLine
 10
129.0
 20
438.9999999999999
 30
0.0
 11
89.0
 21
438.9999999999999
 31
0.0
  0
LINE
  5
252
330
1F
100
AcDbEntity
  8
NOTE
  6
CONTINOUS
100
AcDbLine
 10
125.0
 20
441.0000000000003
 30
0.0
 11
125.0
 21
401.0000000000006
 31
0.0
  0
LINE
  5
253
330
1F
100
AcDbEntity
  8
NOTE
  6
CONTINOUS
100
AcDbLine
 10
109.0
 20
458.9999999999997
 30
0.0
 11
109.0
 21
418.9999999999999
 31
0.0
  0
LINE
  5
254
330
1F
100
AcDbEntity
  8
NOTE
  6
Continuous
100
AcDbLine
 10
108.9999999999998
 20
438.9999999999999
 30
0.0
 11
72.9876040297092
 21
456.4099789392631
 31
0.0
  0
LINE
  5
255
330
1F
100
AcDbEntity
  8
NOTE
  6
Continuous
100
AcDbLine
 10
108.9999999999998
 20
438.9999999999999
 30
0.0
 11
86.5173408551008
 21
472.0836819084818
 31
0.0
  0
LINE
  5
256
330
1F
100
AcDbEntity
  8
NOTE
  6
Continuous
100
AcDbLine
 10
-1441.47204069146
 20
692.5229446010505
 30
0.0
 11
-184.6970217152323
 21
692.5229446010505
 31
0.0
  0
TEXT
  5
257
330
1F
100
AcDbEntity
  8
NOTE
  6
Continuous
100
AcDbText
 10
-988.0946350755916
 20
712.1259543951367
 30
0.0
 40
59.57818181818182
  1
(付属ジョイント 要取付)
 41
0.9
  7
MS PGothic
 11
-988.0946350755916
 21
699.9440780315003
 31
0.0
100
AcDbText
 73
     1
  0
TEXT
  5
258
330
1F
100
AcDbEntity
  8
NOTE
  6
Continuous
100
AcDbText
 10
-553.2717615532383
 20
260.1567243280072
 30
0.0
 40
59.57818181818182
  1
RLφ12.7
 41
0.9
  7
MS PGothic
 11
-553.2717615532383
 21
247.9748479643708
 31
0.0
100
AcDbText
 73
     1
  0
LINE
  5
259
330
1F
100
AcDbEntity
  8
NOTE
  6
CONTINOUS
100
AcDbLine
 10
145.0
 20
421.0000000000007
 30
0.0
 11
105.0
 21
421.0000000000007
 31
0.0
  0
LINE
  5
25A
330
1F
100
AcDbEntity
  8
SIZE
100
AcDbLine
 10
165.0
 20
1370.0
 30
0.0
 11
165.0
 21
1695.390363777339
 31
0.0
  0
LINE
  5
25B
330
1F
100
AcDbEntity
  8
SIZE
100
AcDbLine
 10
195.0000000000004
 20
782.000000000001
 30
0.0
 11
195.0000000000004
 21
1695.390363777339
 31
0.0
  0
LINE
  5
25C
330
1F
100
AcDbEntity
  8
SIZE
100
AcDbLine
 10
155.0
 20
1665.390363777339
 30
0.0
 11
145.0
 21
1665.390363777339
 31
0.0
  0
LINE
  5
25D
330
1F
100
AcDbEntity
  8
SIZE
100
AcDbLine
 10
205.0000000000004
 20
1665.390363777339
 30
0.0
 11
348.2571428571432
 21
1665.390363777339
 31
0.0
  0
LINE
  5
25E
330
1F
100
AcDbEntity
  8
SIZE
100
AcDbLine
 10
165.0
 20
1665.390363777339
 30
0.0
 11
195.0000000000004
 21
1665.390363777339
 31
0.0
  0
LINE
  5
25F
330
1F
100
AcDbEntity
  8
SIZE
100
AcDbLine
 10
233.0
 20
0.0000000000006765
 30
0.0
 11
432.7047618555424
 21
0.0000000000006199
 31
0.0
  0
LINE
  5
260
330
1F
100
AcDbEntity
  8
SIZE
100
AcDbLine
 10
165.0
 20
421.0000000000007
 30
0.0
 11
503.8181903515979
 21
421.0000000000006
 31
0.0
  0
LINE
  5
261
330
1F
100
AcDbEntity
  8
SIZE
100
AcDbLine
 10
475.6026968232636
 20
10.00000000000062
 30
0.0
 11
475.6026968232636
 21
411.0000000000006
 31
0.0
  0
LINE
  5
262
330
1F
100
AcDbEntity
  8
SIZE
100
AcDbLine
 10
149.0
 20
438.9999999999999
 30
0.0
 11
636.7945648642725
 21
438.9999999999997
 31
0.0
  0
LINE
  5
263
330
1F
100
AcDbEntity
  8
SIZE
100
AcDbLine
 10
233.0
 20
0.0000000000006765
 30
0.0
 11
589.919811393929
 21
0.0000000000005753
 31
0.0
  0
LINE
  5
264
330
1F
100
AcDbEntity
  8
SIZE
100
AcDbLine
 10
614.4714639492431
 20
428.9999999999999
 30
0.0
 11
614.4714639492431
 21
10.00000000000058
 31
0.0
  0
LINE
  5
265
330
1F
100
AcDbEntity
  8
SIZE
100
AcDbLine
 10
205.0
 20
1068.999999999999
 30
0.0
 11
957.0973718665234
 21
1068.999999999999
 31
0.0
  0
LINE
  5
266
330
1F
100
AcDbEntity
  8
SIZE
100
AcDbLine
 10
233.0
 20
-0.0000000000000057
 30
0.0
 11
957.0973718665234
 21
-0.0000000000002108
 31
0.0
  0
LINE
  5
267
330
1F
100
AcDbEntity
  8
SIZE
100
AcDbLine
 10
927.0973718665233
 20
1058.999999999999
 30
0.0
 11
927.0973718665233
 21
9.999999999999796
 31
0.0
  0
LINE
  5
268
330
1F
100
AcDbEntity
  8
SIZE
100
AcDbLine
 10
233.0000000000004
 20
-0.0000000000000057
 30
0.0
 11
1087.765949841511
 21
-0.0000000000002478
 31
0.0
  0
LINE
  5
269
330
1F
100
AcDbEntity
  8
SIZE
100
AcDbLine
 10
185.0
 20
1350.0
 30
0.0
 11
1087.765949841513
 21
1349.999999999999
 31
0.0
  0
LINE
  5
26A
330
1F
100
AcDbEntity
  8
SIZE
100
AcDbLine
 10
1057.765949841511
 20
9.99999999999976
 30
0.0
 11
1057.765949841513
 21
1339.999999999999
 31
0.0
  0
LINE
  5
26B
330
1F
100
AcDbEntity
  8
SIZE
100
AcDbLine
 10
233.0
 20
-0.0000000000000057
 30
0.0
 11
789.2827003104398
 21
-0.0000000000001632
 31
0.0
  0
LINE
  5
26C
330
1F
100
AcDbEntity
  8
SIZE
100
AcDbLine
 10
215.0
 20
371.0000000004615
 30
0.0
 11
789.2827003104398
 21
371.0000000004612
 31
0.0
  0
LINE
  5
26D
330
1F
100
AcDbEntity
  8
SIZE
100
AcDbLine
 10
759.28270031044
 20
9.999999999999844
 30
0.0
 11
759.28270031044
 21
361.0000000004613
 31
0.0
  0
LINE
  5
26E
330
1F
100
AcDbEntity
  8
SIZE
100
AcDbLine
 10
185.0000000000004
 20
-40.0
 30
0.0
 11
185.0000000000004
 21
-364.8288020350096
 31
0.0
  0
LINE
  5
26F
330
1F
100
AcDbEntity
  8
SIZE
100
AcDbLine
 10
213.0000000000004
 20
-20.0
 30
0.0
 11
213.0000000000003
 21
-364.8288020350096
 31
0.0
  0
LINE
  5
270
330
1F
100
AcDbEntity
  8
SIZE
100
AcDbLine
 10
175.0000000000003
 20
-334.8288020350096
 30
0.0
 11
165.0000000000003
 21
-334.8288020350096
 31
0.0
  0
LINE
  5
271
330
1F
100
AcDbEntity
  8
SIZE
100
AcDbLine
 10
223.0000000000003
 20
-334.8288020350096
 30
0.0
 11
366.2571428571431
 21
-334.8288020350096
 31
0.0
  0
LINE
  5
272
330
1F
100
AcDbEntity
  8
SIZE
100
AcDbLine
 10
185.0000000000004
 20
-334.8288020350096
 30
0.0
 11
213.0000000000003
 21
-334.8288020350096
 31
0.0
  0
LINE
  5
273
330
1F
100
AcDbEntity
  8
SIZE
100
AcDbLine
 10
165.0
 20
640.0000000004625
 30
0.0
 11
165.0
 21
603.8240491049013
 31
0.0
  0
LINE
  5
274
330
1F
100
AcDbEntity
  8
SIZE
100
AcDbLine
 10
125.0
 20
461.0000000000003
 30
0.0
 11
125.0
 21
663.824049104901
 31
0.0
  0
LINE
  5
275
330
1F
100
AcDbEntity
  8
SIZE
100
AcDbLine
 10
175.0
 20
633.824049104901
 30
0.0
 11
185.0
 21
633.824049104901
 31
0.0
  0
LINE
  5
276
330
1F
100
AcDbEntity
  8
SIZE
100
AcDbLine
 10
115.0
 20
633.824049104901
 30
0.0
 11
-28.25714285714282
 21
633.824049104901
 31
0.0
  0
LINE
  5
277
330
1F
100
AcDbEntity
  8
SIZE
100
AcDbLine
 10
165.0
 20
633.824049104901
 30
0.0
 11
125.0
 21
633.824049104901
 31
0.0
  0
LINE
  5
278
330
1F
100
AcDbEntity
  8
SIZE
100
AcDbLine
 10
165.0
 20
680.0000000004627
 30
0.0
 11
165.0
 21
777.989003206655
 31
0.0
  0
LINE
  5
279
330
1F
100
AcDbEntity
  8
SIZE
100
AcDbLine
 10
109.0
 20
481.0000000000004
 30
0.0
 11
109.0
 21
777.989003206655
 31
0.0
  0
LINE
  5
27A
330
1F
100
AcDbEntity
  8
SIZE
100
AcDbLine
 10
175.0
 20
747.9890032066553
 30
0.0
 11
185.0
 21
747.9890032066553
 31
0.0
  0
LINE
  5
27B
330
1F
100
AcDbEntity
  8
SIZE
100
AcDbLine
 10
99.0
 20
747.9890032066553
 30
0.0
 11
-41.51428571428566
 21
747.9890032066553
 31
0.0
  0
LINE
  5
27C
330
1F
100
AcDbEntity
  8
SIZE
100
AcDbLine
 10
165.0
 20
747.9890032066553
 30
0.0
 11
109.0
 21
747.9890032066553
 31
0.0
  0
LINE
  5
27D
330
1F
100
AcDbEntity
  8
SIZE
100
AcDbLine
 10
-204.0
 20
-20.0
 30
0.0
 11
-204.0
 21
-500.4758315525807
 31
0.0
  0
LINE
  5
27E
330
1F
100
AcDbEntity
  8
SIZE
100
AcDbLine
 10
213.0
 20
-20.0
 30
0.0
 11
212.9999999999999
 21
-500.4758315525807
 31
0.0
  0
LINE
  5
27F
330
1F
100
AcDbEntity
  8
SIZE
100
AcDbLine
 10
-194.0
 20
-470.4758315525809
 30
0.0
 11
202.9999999999998
 21
-470.4758315525809
 31
0.0
  0
LINE
  5
280
330
1F
100
AcDbEntity
  8
SIZE
100
AcDbLine
 10
-184.9999999999994
 20
-40.0
 30
0.0
 11
-184.9999999999994
 21
-364.8288020350096
 31
0.0
  0
LINE
  5
281
330
1F
100
AcDbEntity
  8
SIZE
100
AcDbLine
 10
-204.0
 20
-20.0
 30
0.0
 11
-204.0
 21
-364.8288020350096
 31
0.0
  0
LINE
  5
282
330
1F
100
AcDbEntity
  8
SIZE
100
AcDbLine
 10
-174.9999999999993
 20
-334.8288020350096
 30
0.0
 11
-164.9999999999994
 21
-334.8288020350096
 31
0.0
  0
LINE
  5
283
330
1F
100
AcDbEntity
  8
SIZE
100
AcDbLine
 10
-214.0
 20
-334.8288020350096
 30
0.0
 11
-343.542857142857
 21
-334.8288020350096
 31
0.0
  0
LINE
  5
284
330
1F
100
AcDbEntity
  8
SIZE
100
AcDbLine
 10
-184.9999999999994
 20
-334.8288020350096
 30
0.0
 11
-204.0
 21
-334.8288020350096
 31
0.0
  0
LINE
  5
285
330
1F
100
AcDbEntity
  8
SIZE
100
AcDbLine
 10
-184.9999999999994
 20
-40.0
 30
0.0
 11
-184.9999999999994
 21
-364.8288020350096
 31
0.0
  0
LINE
  5
286
330
1F
100
AcDbEntity
  8
SIZE
100
AcDbLine
 10
185.0000000000004
 20
-40.0
 30
0.0
 11
185.0000000000004
 21
-364.8288020350096
 31
0.0
  0
LINE
  5
287
330
1F
100
AcDbEntity
  8
SIZE
100
AcDbLine
 10
-174.9999999999993
 20
-334.8288020350096
 30
0.0
 11
175.0000000000003
 21
-334.8288020350096
 31
0.0
  0
LINE
  5
288
330
1F
100
AcDbEntity
  8
SIZE
100
AcDbLine
 10
-165.0
 20
1370.0
 30
0.0
 11
-164.9999999999998
 21
1695.390363777339
 31
0.0
  0
LINE
  5
289
330
1F
100
AcDbEntity
  8
SIZE
100
AcDbLine
 10
165.0
 20
1370.0
 30
0.0
 11
165.0
 21
1695.390363777339
 31
0.0
  0
LINE
  5
28A
330
1F
100
AcDbEntity
  8
SIZE
100
AcDbLine
 10
-154.9999999999998
 20
1665.390363777339
 30
0.0
 11
155.0
 21
1665.390363777339
 31
0.0
  0
LINE
  5
28B
330
1F
100
AcDbEntity
  8
SIZE
100
AcDbLine
 10
275.4291959999998
 20
371.0
 30
0.0
 11
789.2827003104398
 21
370.9999999999997
 31
0.0
  0
LINE
  5
28C
330
1F
100
AcDbEntity
  8
SIZE
100
AcDbLine
 10
275.4291960000002
 20
1006.0
 30
0.0
 11
789.2827003104398
 21
1006.0
 31
0.0
  0
LINE
  5
28D
330
1F
100
AcDbEntity
  8
SIZE
100
AcDbLine
 10
759.28270031044
 20
380.9999999999997
 30
0.0
 11
759.28270031044
 21
996.0
 31
0.0
  0
TEXT
  5
28E
330
1F
100
AcDbEntity
  8
SIZE
100
AcDbText
 10
235.0000000000004
 20
1689.194058322792
 30
0.0
 40
59.57818181818182
  1
30
 41
0.9
  7
MS PGothic
 11
235.0000000000004
 21
1677.012181959156
 31
0.0
100
AcDbText
 73
     1
  0
TEXT
  5
28F
330
1F
100
AcDbEntity
  8
SIZE
100
AcDbText
 10
-64.07142857142857
 20
-446.6721370071261
 30
0.0
 40
59.57818181818182
  1
417
 41
0.9
  7
MS PGothic
 11
-64.07142857142857
 21
-458.8540133707625
 31
0.0
100
AcDbText
 73
     1
  0
CIRCLE
  5
290
330
1F
100
AcDbEntity
  8
SIZE
100
AcDbCircle
 10
-204.0
 20
-470.4758315525809
 30
0.0
 40
5.0
  0
LINE
  5
291
330
1F
100
AcDbEntity
  8
SIZE
100
AcDbLine
 10
-199.0
 20
-470.4758315525809
 30
0.0
 11
-194.0
 21
-470.4758315525809
 31
0.0
  0
CIRCLE
  5
292
330
1F
100
AcDbEntity
  8
SIZE
100
AcDbCircle
 10
212.9999999999999
 20
-470.4758315525809
 30
0.0
 40
5.0
  0
LINE
  5
293
330
1F
100
AcDbEntity
  8
SIZE
100
AcDbLine
 10
207.9999999999998
 20
-470.4758315525809
 30
0.0
 11
202.9999999999998
 21
-470.4758315525809
 31
0.0
  0
TEXT
  5
294
330
1F
100
AcDbEntity
  8
SIZE
100
AcDbText
 10
-74.05714285714237
 20
-311.025107489555
 30
0.0
 40
59.57818181818182
  1
370
 41
0.9
  7
MS PGothic
 11
-74.05714285714237
 21
-323.2069838531914
 31
0.0
100
AcDbText
 73
     1
  0
CIRCLE
  5
295
330
1F
100
AcDbEntity
  8
SIZE
100
AcDbCircle
 10
-184.9999999999994
 20
-334.8288020350096
 30
0.0
 40
5.0
  0
LINE
  5
296
330
1F
100
AcDbEntity
  8
SIZE
100
AcDbLine
 10
-179.9999999999994
 20
-334.8288020350096
 30
0.0
 11
-174.9999999999993
 21
-334.8288020350096
 31
0.0
  0
CIRCLE
  5
297
330
1F
100
AcDbEntity
  8
SIZE
100
AcDbCircle
 10
-184.9999999999994
 20
-334.8288020350096
 30
0.0
 40
5.0
  0
LINE
  5
298
330
1F
100
AcDbEntity
  8
SIZE
100
AcDbLine
 10
-179.9999999999994
 20
-334.8288020350096
 30
0.0
 11
-174.9999999999993
 21
-334.8288020350096
 31
0.0
  0
TEXT
  5
299
330
1F
100
AcDbEntity
  8
SIZE
100
AcDbText
 10
-323.5428571428571
 20
-311.025107489555
 30
0.0
 40
59.57818181818182
  1
19
 41
0.9
  7
MS PGothic
 11
-323.5428571428571
 21
-323.2069838531914
 31
0.0
100
AcDbText
 73
     1
  0
CIRCLE
  5
29A
330
1F
100
AcDbEntity
  8
SIZE
100
AcDbCircle
 10
-204.0
 20
-334.8288020350096
 30
0.0
 40
5.0
  0
LINE
  5
29B
330
1F
100
AcDbEntity
  8
SIZE
100
AcDbLine
 10
-209.0
 20
-334.8288020350096
 30
0.0
 11
-214.0
 21
-334.8288020350096
 31
0.0
  0
CIRCLE
  5
29C
330
1F
100
AcDbEntity
  8
SIZE
100
AcDbCircle
 10
185.0000000000004
 20
-334.8288020350096
 30
0.0
 40
5.0
  0
LINE
  5
29D
330
1F
100
AcDbEntity
  8
SIZE
100
AcDbLine
 10
180.0000000000004
 20
-334.8288020350096
 30
0.0
 11
175.0000000000003
 21
-334.8288020350096
 31
0.0
  0
CIRCLE
  5
29E
330
1F
100
AcDbEntity
  8
SIZE
100
AcDbCircle
 10
185.0000000000004
 20
-334.8288020350096
 30
0.0
 40
5.0
  0
LINE
  5
29F
330
1F
100
AcDbEntity
  8
SIZE
100
AcDbLine
 10
180.0000000000004
 20
-334.8288020350096
 30
0.0
 11
175.0000000000003
 21
-334.8288020350096
 31
0.0
  0
CIRCLE
  5
2A0
330
1F
100
AcDbEntity
  8
SIZE
100
AcDbCircle
 10
213.0000000000003
 20
-334.8288020350096
 30
0.0
 40
5.0
  0
LINE
  5
2A1
330
1F
100
AcDbEntity
  8
SIZE
100
AcDbLine
 10
218.0000000000004
 20
-334.8288020350096
 30
0.0
 11
223.0000000000003
 21
-334.8288020350096
 31
0.0
  0
TEXT
  5
2A2
330
1F
100
AcDbEntity
  8
SIZE
100
AcDbText
 10
-8.257142857142824
 20
657.6277436503558
 30
0.0
 40
59.57818181818182
  1
40
 41
0.9
  7
MS PGothic
 11
-8.257142857142824
 21
645.4458672867195
 31
0.0
100
AcDbText
 73
     1
  0
TEXT
  5
2A3
330
1F
100
AcDbEntity
  8
SIZE
100
AcDbText
 10
-21.51428571428565
 20
771.7926977521098
 30
0.0
 40
59.57818181818182
  1
56
 41
0.9
  7
MS PGothic
 11
-21.51428571428565
 21
759.6108213884735
 31
0.0
100
AcDbText
 73
     1
  0
CIRCLE
  5
2A4
330
1F
100
AcDbEntity
  8
SIZE
100
AcDbCircle
 10
165.0
 20
633.824049104901
 30
0.0
 40
5.0
  0
LINE
  5
2A5
330
1F
100
AcDbEntity
  8
SIZE
100
AcDbLine
 10
170.0
 20
633.824049104901
 30
0.0
 11
175.0
 21
633.824049104901
 31
0.0
  0
CIRCLE
  5
2A6
330
1F
100
AcDbEntity
  8
SIZE
100
AcDbCircle
 10
125.0
 20
633.824049104901
 30
0.0
 40
5.0
  0
LINE
  5
2A7
330
1F
100
AcDbEntity
  8
SIZE
100
AcDbLine
 10
120.0
 20
633.824049104901
 30
0.0
 11
115.0
 21
633.824049104901
 31
0.0
  0
CIRCLE
  5
2A8
330
1F
100
AcDbEntity
  8
SIZE
100
AcDbCircle
 10
165.0
 20
747.9890032066553
 30
0.0
 40
5.0
  0
LINE
  5
2A9
330
1F
100
AcDbEntity
  8
SIZE
100
AcDbLine
 10
170.0
 20
747.9890032066553
 30
0.0
 11
175.0
 21
747.9890032066553
 31
0.0
  0
CIRCLE
  5
2AA
330
1F
100
AcDbEntity
  8
SIZE
100
AcDbCircle
 10
109.0
 20
747.9890032066553
 30
0.0
 40
5.0
  0
LINE
  5
2AB
330
1F
100
AcDbEntity
  8
SIZE
100
AcDbLine
 10
104.0
 20
747.9890032066553
 30
0.0
 11
99.0
 21
747.9890032066553
 31
0.0
  0
TEXT
  5
2AC
330
1F
100
AcDbEntity
  8
SIZE
100
AcDbText
 10
-74.05714285714284
 20
1689.194058322792
 30
0.0
 40
59.57818181818182
  1
330
 41
0.9
  7
MS PGothic
 11
-74.05714285714284
 21
1677.012181959156
 31
0.0
100
AcDbText
 73
     1
  0
CIRCLE
  5
2AD
330
1F
100
AcDbEntity
  8
SIZE
100
AcDbCircle
 10
-164.9999999999998
 20
1665.390363777339
 30
0.0
 40
5.0
  0
LINE
  5
2AE
330
1F
100
AcDbEntity
  8
SIZE
100
AcDbLine
 10
-159.9999999999998
 20
1665.390363777339
 30
0.0
 11
-154.9999999999998
 21
1665.390363777339
 31
0.0
  0
CIRCLE
  5
2AF
330
1F
100
AcDbEntity
  8
SIZE
100
AcDbCircle
 10
165.0
 20
1665.390363777339
 30
0.0
 40
5.0
  0
LINE
  5
2B0
330
1F
100
AcDbEntity
  8
SIZE
100
AcDbLine
 10
160.0
 20
1665.390363777339
 30
0.0
 11
155.0
 21
1665.390363777339
 31
0.0
  0
CIRCLE
  5
2B1
330
1F
100
AcDbEntity
  8
SIZE
100
AcDbCircle
 10
165.0
 20
1665.390363777339
 30
0.0
 40
5.0
  0
LINE
  5
2B2
330
1F
100
AcDbEntity
  8
SIZE
100
AcDbLine
 10
160.0
 20
1665.390363777339
 30
0.0
 11
155.0
 21
1665.390363777339
 31
0.0
  0
CIRCLE
  5
2B3
330
1F
100
AcDbEntity
  8
SIZE
100
AcDbCircle
 10
195.0000000000004
 20
1665.390363777339
 30
0.0
 40
5.0
  0
LINE
  5
2B4
330
1F
100
AcDbEntity
  8
SIZE
100
AcDbLine
 10
200.0000000000004
 20
1665.390363777339
 30
0.0
 11
205.0000000000004
 21
1665.390363777339
 31
0.0
  0
TEXT
  5
2B5
330
1F
100
AcDbEntity
  8
SIZE
100
AcDbText
 10
1033.962255296057
 20
578.9999999999999
 30
0.0
 40
59.57818181818182
  1
1350
 50
90.0
 41
0.9
  7
MS PGothic
 11
1046.144131659693
 21
578.9999999999999
 31
0.0
100
AcDbText
 73
     1
  0
TEXT
  5
2B6
330
1F
100
AcDbEntity
  8
SIZE
100
AcDbText
 10
903.293677321069
 20
439.8714285714284
 30
0.0
 40
59.57818181818182
  1
1064
 50
90.0
 41
0.9
  7
MS PGothic
 11
915.4755536847053
 21
439.8714285714284
 31
0.0
100
AcDbText
 73
     1
  0
TEXT
  5
2B7
330
1F
100
AcDbEntity
  8
SIZE
100
AcDbText
 10
253.0000000000004
 20
-311.025107489555
 30
0.0
 40
59.57818181818182
  1
28
 41
0.9
  7
MS PGothic
 11
253.0000000000004
 21
-323.2069838531914
 31
0.0
100
AcDbText
 73
     1
  0
CIRCLE
  5
2B8
330
1F
100
AcDbEntity
  8
SIZE
100
AcDbCircle
 10
475.6026968232636
 20
0.0000000000006253
 30
0.0
 40
5.0
  0
LINE
  5
2B9
330
1F
100
AcDbEntity
  8
SIZE
100
AcDbLine
 10
475.6026968232636
 20
5.000000000000625
 30
0.0
 11
475.6026968232636
 21
10.00000000000062
 31
0.0
  0
CIRCLE
  5
2BA
330
1F
100
AcDbEntity
  8
SIZE
100
AcDbCircle
 10
614.4714639492431
 20
0.0000000000005826
 30
0.0
 40
5.0
  0
LINE
  5
2BB
330
1F
100
AcDbEntity
  8
SIZE
100
AcDbLine
 10
614.4714639492431
 20
5.000000000000582
 30
0.0
 11
614.4714639492431
 21
10.00000000000058
 31
0.0
  0
CIRCLE
  5
2BC
330
1F
100
AcDbEntity
  8
SIZE
100
AcDbCircle
 10
759.28270031044
 20
-0.0000000000001547
 30
0.0
 40
5.0
  0
LINE
  5
2BD
330
1F
100
AcDbEntity
  8
SIZE
100
AcDbLine
 10
759.28270031044
 20
4.999999999999844
 30
0.0
 11
759.28270031044
 21
9.999999999999844
 31
0.0
  0
TEXT
  5
2BE
330
1F
100
AcDbEntity
  8
SIZE
100
AcDbText
 10
590.6677694037883
 20
146.814285714286
 30
0.0
 40
59.57818181818182
  1
439
 50
90.0
 41
0.9
  7
MS PGothic
 11
602.8496457674246
 21
146.814285714286
 31
0.0
100
AcDbText
 73
     1
  0
TEXT
  5
2BF
330
1F
100
AcDbEntity
  8
SIZE
100
AcDbText
 10
451.7990022778091
 20
148.7857142857149
 30
0.0
 40
59.57818181818182
  1
421
 50
90.0
 41
0.9
  7
MS PGothic
 11
463.9808786414454
 21
148.7857142857149
 31
0.0
100
AcDbText
 73
     1
  0
CIRCLE
  5
2C0
330
1F
100
AcDbEntity
  8
SIZE
100
AcDbCircle
 10
475.6026968232636
 20
421.0000000000006
 30
0.0
 40
5.0
  0
LINE
  5
2C1
330
1F
100
AcDbEntity
  8
SIZE
100
AcDbLine
 10
475.6026968232636
 20
416.0000000000006
 30
0.0
 11
475.6026968232636
 21
411.0000000000006
 31
0.0
  0
TEXT
  5
2C2
330
1F
100
AcDbEntity
  8
SIZE
100
AcDbText
 10
735.4790057649853
 20
123.785714285945
 30
0.0
 40
59.57818181818182
  1
371
 50
90.0
 41
0.9
  7
MS PGothic
 11
747.6608821286217
 21
123.785714285945
 31
0.0
100
AcDbText
 73
     1
  0
CIRCLE
  5
2C3
330
1F
100
AcDbEntity
  8
SIZE
100
AcDbCircle
 10
614.4714639492431
 20
438.9999999999997
 30
0.0
 40
5.0
  0
LINE
  5
2C4
330
1F
100
AcDbEntity
  8
SIZE
100
AcDbLine
 10
614.4714639492431
 20
433.9999999999998
 30
0.0
 11
614.4714639492431
 21
428.9999999999999
 31
0.0
  0
CIRCLE
  5
2C5
330
1F
100
AcDbEntity
  8
SIZE
100
AcDbCircle
 10
759.28270031044
 20
370.9999999999997
 30
0.0
 40
5.0
  0
LINE
  5
2C6
330
1F
100
AcDbEntity
  8
SIZE
100
AcDbLine
 10
759.28270031044
 20
375.9999999999998
 30
0.0
 11
759.28270031044
 21
380.9999999999997
 31
0.0
  0
CIRCLE
  5
2C7
330
1F
100
AcDbEntity
  8
SIZE
100
AcDbCircle
 10
759.28270031044
 20
371.0000000004612
 30
0.0
 40
5.0
  0
LINE
  5
2C8
330
1F
100
AcDbEntity
  8
SIZE
100
AcDbLine
 10
759.28270031044
 20
366.0000000004612
 30
0.0
 11
759.28270031044
 21
361.0000000004613
 31
0.0
  0
CIRCLE
  5
2C9
330
1F
100
AcDbEntity
  8
SIZE
100
AcDbCircle
 10
927.0973718665233
 20
-0.0000000000002023
 30
0.0
 40
5.0
  0
LINE
  5
2CA
330
1F
100
AcDbEntity
  8
SIZE
100
AcDbLine
 10
927.0973718665233
 20
4.999999999999796
 30
0.0
 11
927.0973718665233
 21
9.999999999999796
 31
0.0
  0
CIRCLE
  5
2CB
330
1F
100
AcDbEntity
  8
SIZE
100
AcDbCircle
 10
1057.765949841511
 20
-0.0000000000002393
 30
0.0
 40
5.0
  0
LINE
  5
2CC
330
1F
100
AcDbEntity
  8
SIZE
100
AcDbLine
 10
1057.765949841511
 20
4.999999999999761
 30
0.0
 11
1057.765949841511
 21
9.99999999999976
 31
0.0
  0
TEXT
  5
2CD
330
1F
100
AcDbEntity
  8
SIZE
100
AcDbText
 10
735.4790057649856
 20
614.442857142857
 30
0.0
 40
59.57818181818182
  1
635
 50
90.0
 41
0.9
  7
MS PGothic
 11
747.6608821286219
 21
614.442857142857
 31
0.0
100
AcDbText
 73
     1
  0
CIRCLE
  5
2CE
330
1F
100
AcDbEntity
  8
SIZE
100
AcDbCircle
 10
759.28270031044
 20
1006.0
 30
0.0
 40
5.0
  0
LINE
  5
2CF
330
1F
100
AcDbEntity
  8
SIZE
100
AcDbLine
 10
759.28270031044
 20
1001.0
 30
0.0
 11
759.28270031044
 21
996.0
 31
0.0
  0
CIRCLE
  5
2D0
330
1F
100
AcDbEntity
  8
SIZE
100
AcDbCircle
 10
927.0973718665233
 20
1068.999999999999
 30
0.0
 40
5.0
  0
LINE
  5
2D1
330
1F
100
AcDbEntity
  8
SIZE
100
AcDbLine
 10
927.0973718665233
 20
1063.999999999999
 30
0.0
 11
927.0973718665233
 21
1058.999999999999
 31
0.0
  0
CIRCLE
  5
2D2
330
1F
100
AcDbEntity
  8
SIZE
100
AcDbCircle
 10
1057.765949841513
 20
1349.999999999999
 30
0.0
 40
5.0
  0
LINE
  5
2D3
330
1F
100
AcDbEntity
  8
SIZE
100
AcDbLine
 10
1057.765949841513
 20
1344.999999999999
 30
0.0
 11
1057.765949841513
 21
1339.999999999999
 31
0.0
  0
LINE
  5
2D4
330
1F
100
AcDbEntity
  8
OUTLINE
100
AcDbLine
 10
195.0
 20
82.00000000046064
 30
0.0
 11
195.0000000000004
 21
660.0000000004623
 31
0.0
  0
LINE
  5
2D5
330
1F
100
AcDbEntity
  8
OUTLINE
100
AcDbLine
 10
165.0
 20
33.0
 30
0.0
 11
165.0
 21
1350.0
 31
0.0
  0
LINE
  5
2D6
330
1F
100
AcDbEntity
  8
OUTLINE
100
AcDbLine
 10
-165.0
 20
33.0
 30
0.0
 11
-165.0
 21
1350.0
 31
0.0
  0
LINE
  5
2D7
330
1F
100
AcDbEntity
  8
OUTLINE
100
AcDbLine
 10
213.0000000000004
 20
33.0
 30
0.0
 11
-204.0
 21
33.0
 31
0.0
  0
LINE
  5
2D8
330
1F
100
AcDbEntity
  8
OUTLINE
100
AcDbLine
 10
213.0
 20
0.0
 30
0.0
 11
-204.0
 21
0.0
 31
0.0
  0
LINE
  5
2D9
330
1F
100
AcDbEntity
  8
OUTLINE
100
AcDbLine
 10
-204.0
 20
0.0
 30
0.0
 11
-204.0
 21
33.0
 31
0.0
  0
LINE
  5
2DA
330
1F
100
AcDbEntity
  8
OUTLINE
100
AcDbLine
 10
195.0
 20
82.00000000046064
 30
0.0
 11
165.0
 21
82.00000000046064
 31
0.0
  0
LINE
  5
2DB
330
1F
100
AcDbEntity
  8
OUTLINE
100
AcDbLine
 10
213.0
 20
0.0
 30
0.0
 11
213.0000000000004
 21
33.0
 31
0.0
  0
LINE
  5
2DC
330
1F
100
AcDbEntity
  8
OUTLINE
100
AcDbLine
 10
195.0000000000004
 20
717.0000000004605
 30
0.0
 11
195.0000000000008
 21
1295.000000000462
 31
0.0
  0
LINE
  5
2DD
330
1F
100
AcDbEntity
  8
OUTLINE
100
AcDbLine
 10
195.0000000000004
 20
717.0000000004605
 30
0.0
 11
165.0000000000002
 21
717.0000000004605
 31
0.0
  0
LINE
  5
2DE
330
1F
100
AcDbEntity
  8
OUTLINE
100
AcDbLine
 10
195.0000000000004
 20
660.0000000004623
 30
0.0
 11
165.0
 21
660.0000000004623
 31
0.0
  0
LINE
  5
2DF
330
1F
100
AcDbEntity
  8
OUTLINE
100
AcDbLine
 10
-165.0000000000003
 20
1350.0
 30
0.0
 11
165.0000000000002
 21
1350.0
 31
0.0
  0
LINE
  5
2E0
330
1F
100
AcDbEntity
  8
OUTLINE
100
AcDbLine
 10
195.0000000000008
 20
1295.000000000462
 30
0.0
 11
165.0000000000002
 21
1295.000000000462
 31
0.0
  0
LINE
  5
2E1
330
1F
100
AcDbEntity
  8
NOTE
  6
CONTINOUS
100
AcDbLine
 10
129.0
 20
338.9999999999999
 30
0.0
 11
89.0
 21
338.9999999999999
 31
0.0
  0
LINE
  5
2E2
330
1F
100
AcDbEntity
  8
NOTE
  6
CONTINOUS
100
AcDbLine
 10
109.0
 20
358.9999999999997
 30
0.0
 11
109.0
 21
318.9999999999999
 31
0.0
  0
LINE
  5
2E3
330
1F
100
AcDbEntity
  8
SIZE
100
AcDbLine
 10
149.0
 20
338.9999999999999
 30
0.0
 11
365.4253679295397
 21
338.9999999999998
 31
0.0
  0
LINE
  5
2E4
330
1F
100
AcDbEntity
  8
SIZE
100
AcDbLine
 10
343.0823491623687
 20
10.00000000000068
 30
0.0
 11
343.0823491623687
 21
338.9999999999998
 31
0.0
  0
TEXT
  5
2E5
330
1F
100
AcDbEntity
  8
SIZE
100
AcDbText
 10
319.2786546169141
 20
96.15402689336065
 30
0.0
 40
59.57818181818182
  1
339
 50
90.0
 41
0.9
  7
MS PGothic
 11
331.4605309805505
 21
96.15402689336065
 31
0.0
100
AcDbText
 73
     1
  0
CIRCLE
  5
2E6
330
1F
100
AcDbEntity
  8
SIZE
100
AcDbCircle
 10
343.0823491623687
 20
0.0000000000006821
 30
0.0
 40
5.0
  0
LINE
  5
2E7
330
1F
100
AcDbEntity
  8
SIZE
100
AcDbLine
 10
343.0823491623687
 20
5.000000000000682
 30
0.0
 11
343.0823491623687
 21
10.00000000000068
 31
0.0
  0
CIRCLE
  5
2E8
330
1F
100
AcDbEntity
  8
SIZE
100
AcDbCircle
 10
343.0823491623687
 20
338.9999999999998
 30
0.0
 40
5.0
  0
LINE
  5
2E9
330
1F
100
AcDbEntity
  8
SIZE
100
AcDbLine
 10
343.0823491623687
 20
333.9999999999998
 30
0.0
 11
343.0823491623687
 21
328.9999999999998
 31
0.0
  0
TEXT
  5
2EA
330
1F
100
AcDbEntity
  8
NOTE
  6
Continuous
100
AcDbText
 10
-1396.924573932038
 20
712.1259543951367
 30
0.0
 40
59.57818181818182
  1
RGφ19.05
 41
0.9
  7
MS PGothic
 11
-1396.924573932038
 21
699.9440780315003
 31
0.0
100
AcDbText
 73
     1
  0
LINE
  5
2EB
330
1F
100
AcDbEntity
  8
NOTE
  6
Continuous
100
AcDbLine
 10
-967.3444264577975
 20
115.8852298408107
 30
0.0
 11
-185.0459433492569
 21
115.8852298408107
 31
0.0
  0
TEXT
  5
2EC
330
1F
100
AcDbEntity
  8
NOTE
  6
Continuous
100
AcDbText
 10
-689.2722292467517
 20
135.4882396348971
 30
0.0
 40
59.57818181818182
  1
(現地ロウ付部)
 41
0.9
  7
MS PGothic
 11
-689.2722292467517
 21
123.3063632712607
 31
0.0
100
AcDbText
 73
     1
  0
TEXT
  5
2ED
330
1F
100
AcDbEntity
  8
NOTE
  6
Continuous
100
AcDbText
 10
-949.7815573346146
 20
135.4882396348971
 30
0.0
 40
59.57818181818182
  1
φ25.4
 41
0.9
  7
MS PGothic
 11
-949.7815573346146
 21
123.3063632712607
 31
0.0
100
AcDbText
 73
     1
  0
LINE
  5
2EE
330
1F
100
AcDbEntity
  8
NOTE
  6
Continuous
100
AcDbLine
 10
-185.0459433492569
 20
115.8852298408107
 30
0.0
 11
108.9999999999999
 21
339.0000000000001
 31
0.0
  0
LINE
  5
2EF
330
1F
100
AcDbEntity
  8
NOTE
  6
Continuous
100
AcDbLine
 10
108.9999999999999
 20
339.0000000000001
 30
0.0
 11
84.47838213014786
 21
307.3979385604113
 31
0.0
  0
LINE
  5
2F0
330
1F
100
AcDbEntity
  8
NOTE
  6
Continuous
100
AcDbLine
 10
108.9999999999999
 20
339.0000000000001
 30
0.0
 11
71.96262561648452
 21
323.8926220136438
 31
0.0
  0
ENDSEC
  0
SECTION
  2
OBJECTS
  0
DICTIONARY
  5
C
330
0
100
AcDbDictionary
281
     1
  3
ACAD_DETAILVIEWSTYLE
350
32C
  3
ACAD_GROUP
350
D
  3
ACAD_IMAGE_VARS
350
6B
  3
ACAD_LAYOUT
350
1A
  3
ACAD_MATERIAL
350
43
  3
ACAD_MLEADERSTYLE
350
32B
  3
ACAD_MLINESTYLE
350
17
  3
ACAD_PLOTSETTINGS
350
19
  3
ACAD_PLOTSTYLENAME
350
E
  3
ACAD_SCALELIST
350
47
  3
ACAD_SECTIONVIEWSTYLE
350
32D
  3
ACAD_TABLESTYLE
350
32A
  3
ACAD_VISUALSTYLE
350
2A
  3
AcDbVariableDictionary
350
2F1
  0
DICTIONARY
  5
32C
102
{ACAD_REACTORS
330
C
102
}
330
C
100
AcDbDictionary
281
     1
  0
DICTIONARY
  5
D
102
{ACAD_REACTORS
330
C
102
}
330
C
100
AcDbDictionary
281
     1
  0
RASTERVARIABLES
  5
6B
102
{ACAD_REACTORS
330
C
102
}
330
C
100
AcDbRasterVariables
 90
        0
 70
     0
 71
     1
 72
     0
  0
DICTIONARY
  5
1A
102
{ACAD_REACTORS
330
C
102
}
330
C
100
AcDbDictionary
281
     1
  3
Layout1
350
1E
  3
Layout2
350
26
  3
Model
350
22
  0
DICTIONARY
  5
43
102
{ACAD_REACTORS
330
C
102
}
330
C
100
AcDbDictionary
281
     1
  3
ByBlock
350
45
  3
ByLayer
350
44
  3
Global
350
46
  0
DICTIONARY
  5
32B
102
{ACAD_REACTORS
330
C
102
}
330
C
100
AcDbDictionary
281
     1
  0
DICTIONARY
  5
17
102
{ACAD_REACTORS
330
C
102
}
330
C
100
AcDbDictionary
281
     1
  3
Standard
350
18
  0
DICTIONARY
  5
19
102
{ACAD_REACTORS
330
C
102
}
330
C
100
AcDbDictionary
281
     1
  0
ACDBDICTIONARYWDFLT
  5
E
102
{ACAD_REACTORS
330
C
102
}
330
C
100
AcDbDictionary
281
     1
  3
Normal
350
F
100
AcDbDictionaryWithDefault
340
F
  0
DICTIONARY
  5
47
102
{ACAD_REACTORS
330
C
102
}
330
C
100
AcDbDictionary
281
     1
  3
A0
350
48
  3
A1
350
49
  3
A2
350
4A
  3
A3
350
4B
  3
A4
350
4C
  3
A5
350
4D
  3
A6
350
4E
  3
A7
350
4F
  3
A8
350
50
  3
A9
350
51
  3
B0
350
52
  3
B1
350
53
  3
B2
350
54
  3
B3
350
55
  3
B4
350
56
  3
B5
350
57
  3
B6
350
58
  3
B7
350
59
  3
B8
350
5A
  3
B9
350
5B
  3
C0
350
5C
  3
C1
350
5D
  3
C2
350
5E
  3
C3
350
5F
  3
C4
350
60
  3
C5
350
61
  3
C6
350
62
  3
C7
350
63
  3
C8
350
64
  3
C9
350
65
  3
D0
350
66
  3
D1
350
67
  3
D2
350
68
  0
DICTIONARY
  5
32D
102
{ACAD_REACTORS
330
C
102
}
330
C
100
AcDbDictionary
281
     1
  0
DICTIONARY
  5
32A
102
{ACAD_REACTORS
330
C
102
}
330
C
100
AcDbDictionary
281
     1
  0
DICTIONARY
  5
2A
102
{ACAD_REACTORS
330
C
102
}
330
C
100
AcDbDictionary
281
     1
  3
2dWireframe
350
2F
  3
Basic
350
32
  3
Brighten
350
36
  3
ColorChange
350
3A
  3
Conceptual
350
34
  3
Dim
350
35
  3
EdgeColorOff
350
3D
  3
Facepattern
350
39
  3
Flat
350
2B
  3
FlatWithEdges
350
2C
  3
Gouraud
350
2D
  3
GouraudWithEdges
350
2E
  3
Hidden
350
31
  3
JitterOff
350
3B
  3
Linepattern
350
38
  3
OverhangOff
350
3C
  3
Realistic
350
33
  3
Shaded
350
42
  3
Shaded with edges
350
41
  3
Shades of Gray
350
3E
  3
Sketchy
350
3F
  3
Thicken
350
37
  3
Wireframe
350
30
  3
X-Ray
350
40
  0
DICTIONARY
  5
2F1
102
{ACAD_REACTORS
330
C
102
}
330
C
100
AcDbDictionary
281
     1
  3
CANNOSCALE
350
2F2
  3
MSLTSCALE
350
2F3
  0
LAYOUT
  5
1E
102
{ACAD_REACTORS
330
1A
102
}
330
1A
100
AcDbPlotSettings
  1

  2
none_device
  4

  6

 40
0.0
 41
0.0
 42
0.0
 43
0.0
 44
0.0
 45
0.0
 46
0.0
 47
0.0
 48
0.0
 49
0.0
140
0.0
141
0.0
142
1.0
143
1.0
 70
   688
 72
     0
 73
     0
 74
     5
  7

 75
    16
 76
     0
 77
     2
 78
   300
147
1.0
148
0.0
149
0.0
100
AcDbLayout
  1
Layout1
 70
     1
 71
     1
 10
0.0
 20
0.0
 11
12.0
 21
9.0
 12
0.0
 22
0.0
 32
0.0
 14
1.000000000000000E+20
 24
1.000000000000000E+20
 34
1.000000000000000E+20
 15
-1.000000000000000E+20
 25
-1.000000000000000E+20
 35
-1.000000000000000E+20
146
0.0
 13
0.0
 23
0.0
 33
0.0
 16
1.0
 26
0.0
 36
0.0
 17
0.0
 27
1.0
 37
0.0
 76
     0
330
1B
  0
LAYOUT
  5
26
102
{ACAD_REACTORS
330
1A
102
}
330
1A
100
AcDbPlotSettings
  1

  2
none_device
  4

  6

 40
0.0
 41
0.0
 42
0.0
 43
0.0
 44
0.0
 45
0.0
 46
0.0
 47
0.0
 48
0.0
 49
0.0
140
0.0
141
0.0
142
1.0
143
1.0
 70
   688
 72
     0
 73
     0
 74
     5
  7

 75
    16
 76
     0
 77
     2
 78
   300
147
1.0
148
0.0
149
0.0
100
AcDbLayout
  1
Layout2
 70
     1
 71
     2
 10
0.0
 20
0.0
 11
0.0
 21
0.0
 12
0.0
 22
0.0
 32
0.0
 14
0.0
 24
0.0
 34
0.0
 15
0.0
 25
0.0
 35
0.0
146
0.0
 13
0.0
 23
0.0
 33
0.0
 16
1.0
 26
0.0
 36
0.0
 17
0.0
 27
1.0
 37
0.0
 76
     0
330
23
  0
LAYOUT
  5
22
102
{ACAD_REACTORS
330
1A
102
}
330
1A
100
AcDbPlotSettings
  1

  2
none_device
  4
Letter_(8.50_x_11.00_Inches)
  6

 40
6.35
 41
6.35
 42
6.35000508
 43
6.35000508
 44
215.9
 45
279.4
 46
0.0
 47
0.0
 48
0.0
 49
0.0
140
0.0
141
0.0
142
1.0
143
1.0
 70
  1712
 72
     0
 73
     0
 74
     0
  7

 75
     0
 76
     0
 77
     2
 78
   300
147
1.0
148
0.0
149
0.0
100
AcDbLayout
  1
Model
 70
     1
 71
     0
 10
-1801.840050864325
 20
-625.5947894407259
 11
1791.276214139966
 21
2170.737955224519
 12
0.0
 22
0.0
 32
0.0
 14
-1801.840050864325
 24
-625.5947894407259
 34
0.0
 15
1791.276214139966
 25
2170.737955224519
 35
0.0
146
0.0
 13
0.0
 23
0.0
 33
0.0
 16
1.0
 26
0.0
 36
0.0
 17
0.0
 27
1.0
 37
0.0
 76
     0
330
1F
331
29
  0
MATERIAL
  5
45
102
{ACAD_REACTORS
330
43
102
}
102
{ACAD_XDICTIONARY
360
326
102
}
330
43
100
AcDbMaterial
  1
ByBlock
  0
MATERIAL
  5
44
102
{ACAD_REACTORS
330
43
102
}
102
{ACAD_XDICTIONARY
360
324
102
}
330
43
100
AcDbMaterial
  1
ByLayer
  0
MATERIAL
  5
46
102
{ACAD_REACTORS
330
43
102
}
102
{ACAD_XDICTIONARY
360
328
102
}
330
43
100
AcDbMaterial
  1
Global
  0
MLINESTYLE
  5
18
102
{ACAD_REACTORS
330
17
102
}
330
17
100
AcDbMlineStyle
  2
Standard
 70
     0
  3

 62
   256
 51
90.0
 52
90.0
 71
     2
 49
0.5
 62
   256
  6
BYLAYER
 49
-0.5
 62
   256
  6
BYLAYER
  0
ACDBPLACEHOLDER
  5
F
102
{ACAD_REACTORS
330
E
102
}
330
E
  0
SCALE
  5
48
102
{ACAD_REACTORS
330
47
102
}
330
47
100
AcDbScale
 70
     0
300
1:1
140
1.0
141
1.0
290
     1
  0
SCALE
  5
49
102
{ACAD_REACTORS
330
47
102
}
330
47
100
AcDbScale
 70
     0
300
1:2
140
1.0
141
2.0
290
     0
  0
SCALE
  5
4A
102
{ACAD_REACTORS
330
47
102
}
330
47
100
AcDbScale
 70
     0
300
1:4
140
1.0
141
4.0
290
     0
  0
SCALE
  5
4B
102
{ACAD_REACTORS
330
47
102
}
330
47
100
AcDbScale
 70
     0
300
1:5
140
1.0
141
5.0
290
     0
  0
SCALE
  5
4C
102
{ACAD_REACTORS
330
47
102
}
330
47
100
AcDbScale
 70
     0
300
1:8
140
1.0
141
8.0
290
     0
  0
SCALE
  5
4D
102
{ACAD_REACTORS
330
47
102
}
330
47
100
AcDbScale
 70
     0
300
1:10
140
1.0
141
10.0
290
     0
  0
SCALE
  5
4E
102
{ACAD_REACTORS
330
47
102
}
330
47
100
AcDbScale
 70
     0
300
1:16
140
1.0
141
16.0
290
     0
  0
SCALE
  5
4F
102
{ACAD_REACTORS
330
47
102
}
330
47
100
AcDbScale
 70
     0
300
1:20
140
1.0
141
20.0
290
     0
  0
SCALE
  5
50
102
{ACAD_REACTORS
330
47
102
}
330
47
100
AcDbScale
 70
     0
300
1:30
140
1.0
141
30.0
290
     0
  0
SCALE
  5
51
102
{ACAD_REACTORS
330
47
102
}
330
47
100
AcDbScale
 70
     0
300
1:40
140
1.0
141
40.0
290
     0
  0
SCALE
  5
52
102
{ACAD_REACTORS
330
47
102
}
330
47
100
AcDbScale
 70
     0
300
1:50
140
1.0
141
50.0
290
     0
  0
SCALE
  5
53
102
{ACAD_REACTORS
330
47
102
}
330
47
100
AcDbScale
 70
     0
300
1:100
140
1.0
141
100.0
290
     0
  0
SCALE
  5
54
102
{ACAD_REACTORS
330
47
102
}
330
47
100
AcDbScale
 70
     0
300
2:1
140
2.0
141
1.0
290
     0
  0
SCALE
  5
55
102
{ACAD_REACTORS
330
47
102
}
330
47
100
AcDbScale
 70
     0
300
4:1
140
4.0
141
1.0
290
     0
  0
SCALE
  5
56
102
{ACAD_REACTORS
330
47
102
}
330
47
100
AcDbScale
 70
     0
300
8:1
140
8.0
141
1.0
290
     0
  0
SCALE
  5
57
102
{ACAD_REACTORS
330
47
102
}
330
47
100
AcDbScale
 70
     0
300
10:1
140
10.0
141
1.0
290
     0
  0
SCALE
  5
58
102
{ACAD_REACTORS
330
47
102
}
330
47
100
AcDbScale
 70
     0
300
100:1
140
100.0
141
1.0
290
     0
  0
SCALE
  5
59
102
{ACAD_REACTORS
330
47
102
}
330
47
100
AcDbScale
 70
     0
300
1/128" = 1'-0"
140
0.0078125
141
12.0
290
     0
  0
SCALE
  5
5A
102
{ACAD_REACTORS
330
47
102
}
330
47
100
AcDbScale
 70
     0
300
1/64" = 1'-0"
140
0.015625
141
12.0
290
     0
  0
SCALE
  5
5B
102
{ACAD_REACTORS
330
47
102
}
330
47
100
AcDbScale
 70
     0
300
1/32" = 1'-0"
140
0.03125
141
12.0
290
     0
  0
SCALE
  5
5C
102
{ACAD_REACTORS
330
47
102
}
330
47
100
AcDbScale
 70
     0
300
1/16" = 1'-0"
140
0.0625
141
12.0
290
     0
  0
SCALE
  5
5D
102
{ACAD_REACTORS
330
47
102
}
330
47
100
AcDbScale
 70
     0
300
3/32" = 1'-0"
140
0.09375
141
12.0
290
     0
  0
SCALE
  5
5E
102
{ACAD_REACTORS
330
47
102
}
330
47
100
AcDbScale
 70
     0
300
1/8" = 1'-0"
140
0.125
141
12.0
290
     0
  0
SCALE
  5
5F
102
{ACAD_REACTORS
330
47
102
}
330
47
100
AcDbScale
 70
     0
300
3/16" = 1'-0"
140
0.1875
141
12.0
290
     0
  0
SCALE
  5
60
102
{ACAD_REACTORS
330
47
102
}
330
47
100
AcDbScale
 70
     0
300
1/4" = 1'-0"
140
0.25
141
12.0
290
     0
  0
SCALE
  5
61
102
{ACAD_REACTORS
330
47
102
}
330
47
100
AcDbScale
 70
     0
300
3/8" = 1'-0"
140
0.375
141
12.0
290
     0
  0
SCALE
  5
62
102
{ACAD_REACTORS
330
47
102
}
330
47
100
AcDbScale
 70
     0
300
1/2" = 1'-0"
140
0.5
141
12.0
290
     0
  0
SCALE
  5
63
102
{ACAD_REACTORS
330
47
102
}
330
47
100
AcDbScale
 70
     0
300
3/4" = 1'-0"
140
0.75
141
12.0
290
     0
  0
SCALE
  5
64
102
{ACAD_REACTORS
330
47
102
}
330
47
100
AcDbScale
 70
     0
300
1" = 1'-0"
140
1.0
141
12.0
290
     0
  0
SCALE
  5
65
102
{ACAD_REACTORS
330
47
102
}
330
47
100
AcDbScale
 70
     0
300
1-1/2" = 1'-0"
140
1.5
141
12.0
290
     0
  0
SCALE
  5
66
102
{ACAD_REACTORS
330
47
102
}
330
47
100
AcDbScale
 70
     0
300
3" = 1'-0"
140
3.0
141
12.0
290
     0
  0
SCALE
  5
67
102
{ACAD_REACTORS
330
47
102
}
330
47
100
AcDbScale
 70
     0
300
6" = 1'-0"
140
6.0
141
12.0
290
     0
  0
SCALE
  5
68
102
{ACAD_REACTORS
330
47
102
}
330
47
100
AcDbScale
 70
     0
300
1'-0" = 1'-0"
140
12.0
141
12.0
290
     0
  0
VISUALSTYLE
  5
2F
102
{ACAD_REACTORS
330
2A
102
}
102
{ACAD_XDICTIONARY
360
2FC
102
}
330
2A
100
AcDbVisualStyle
  2
2dWireframe
 70
     4
 71
     0
 72
     2
 73
     0
 90
        0
 40
0.6
 41
30.0
 62
     5
 63
     7
421
 16777215
 74
     1
 91
        4
 64
     7
 65
   257
 75
     1
175
     1
 42
1.0
 92
        0
 66
   257
 43
1.0
 76
     1
 77
     6
 78
     2
 67
     7
 79
     5
170
     0
171
     0
290
     0
174
     0
 93
        1
 44
0.0
173
     0
291
     0
 45
0.0
1001
ACAD
1000
AcDbSavedByObjectVersion
1070
     0
  0
VISUALSTYLE
  5
32
102
{ACAD_REACTORS
330
2A
102
}
102
{ACAD_XDICTIONARY
360
302
102
}
330
2A
100
AcDbVisualStyle
  2
Basic
 70
     7
 71
     1
 72
     0
 73
     1
 90
        0
 40
0.6
 41
30.0
 62
     5
 63
     7
421
 16777215
 74
     0
 91
        4
 64
     7
 65
   257
 75
     1
175
     1
 42
1.0
 92
        8
 66
     7
 43
1.0
 76
     1
 77
     6
 78
     2
 67
     7
 79
     5
170
     0
171
     0
290
     0
174
     0
 93
        1
 44
0.0
173
     0
291
     1
 45
0.0
1001
ACAD
1000
AcDbSavedByObjectVersion
1070
     0
  0
VISUALSTYLE
  5
36
102
{ACAD_REACTORS
330
2A
102
}
102
{ACAD_XDICTIONARY
360
30A
102
}
330
2A
100
AcDbVisualStyle
  2
Brighten
 70
    12
 71
     2
 72
     2
 73
     0
 90
        0
 40
0.6
 41
30.0
 62
     5
 63
     7
421
 16777215
 74
     1
 91
        4
 64
     7
 65
   257
 75
     1
175
     1
 42
1.0
 92
        8
 66
     7
 43
1.0
 76
     1
 77
     6
 78
     2
 67
     7
 79
     5
170
     0
171
     0
290
     0
174
     0
 93
        1
 44
50.0
173
     0
291
     1
 45
0.0
1001
ACAD
1000
AcDbSavedByObjectVersion
1070
     0
  0
VISUALSTYLE
  5
3A
102
{ACAD_REACTORS
330
2A
102
}
102
{ACAD_XDICTIONARY
360
312
102
}
330
2A
100
AcDbVisualStyle
  2
ColorChange
 70
    16
 71
     2
 72
     2
 73
     3
 90
        0
 40
0.6
 41
30.0
 62
     5
 63
     8
421
  8421504
 74
     1
 91
        4
 64
     7
 65
   257
 75
     1
175
     1
 42
1.0
 92
        8
 66
     8
424
  8421504
 43
1.0
 76
     1
 77
     6
 78
     2
 67
     7
 79
     5
170
     0
171
     0
290
     0
174
     0
 93
        1
 44
0.0
173
     0
291
     1
 45
0.0
1001
ACAD
1000
AcDbSavedByObjectVersion
1070
     0
  0
VISUALSTYLE
  5
34
102
{ACAD_REACTORS
330
2A
102
}
102
{ACAD_XDICTIONARY
360
306
102
}
330
2A
100
AcDbVisualStyle
  2
Conceptual
 70
     9
 71
     3
 72
     2
 73
     0
 90
        0
 40
0.6
 41
30.0
 62
     5
 63
     7
421
 16777215
 74
     2
 91
        2
 64
     7
 65
   257
 75
     1
175
     1
 42
179.0
 92
        8
 66
     7
 43
1.0
 76
     1
 77
     6
 78
     2
 67
     7
 79
     3
170
     0
171
     0
290
     0
174
     0
 93
        1
 44
0.0
173
     0
291
     0
 45
0.0
1001
ACAD
1000
AcDbSavedByObjectVersion
1070
     0
  0
VISUALSTYLE
  5
35
102
{ACAD_REACTORS
330
2A
102
}
102
{ACAD_XDICTIONARY
360
308
102
}
330
2A
100
AcDbVisualStyle
  2
Dim
 70
    11
 71
     2
 72
     2
 73
     0
 90
        0
 40
0.6
 41
30.0
 62
     5
 63
     7
421
 16777215
 74
     1
 91
        4
 64
     7
 65
   257
 75
     1
175
     1
 42
1.0
 92
        8
 66
     7
 43
1.0
 76
     1
 77
     6
 78
     2
 67
     7
 79
     5
170
     0
171
     0
290
     0
174
     0
 93
        1
 44
-50.0
173
     0
291
     1
 45
0.0
1001
ACAD
1000
AcDbSavedByObjectVersion
1070
     0
  0
VISUALSTYLE
  5
3D
102
{ACAD_REACTORS
330
2A
102
}
102
{ACAD_XDICTIONARY
360
318
102
}
330
2A
100
AcDbVisualStyle
  2
EdgeColorOff
 70
    22
 71
     2
 72
     2
 73
     0
 90
        0
 40
0.6
 41
30.0
 62
     5
 63
     7
421
 16777215
 74
     1
 91
        4
 64
     7
 65
   257
 75
     1
175
     1
 42
1.0
 92
        8
 66
     7
 43
1.0
 76
     1
 77
     6
 78
     2
 67
     7
 79
     5
170
     0
171
     0
290
     0
174
     0
 93
        1
 44
0.0
173
     0
291
     1
 45
0.0
1001
ACAD
1000
AcDbSavedByObjectVersion
1070
     0
  0
VISUALSTYLE
  5
39
102
{ACAD_REACTORS
330
2A
102
}
102
{ACAD_XDICTIONARY
360
310
102
}
330
2A
100
AcDbVisualStyle
  2
Facepattern
 70
    15
 71
     2
 72
     2
 73
     0
 90
        0
 40
0.6
 41
30.0
 62
     5
 63
     7
421
 16777215
 74
     1
 91
        4
 64
     7
 65
   257
 75
     1
175
     1
 42
1.0
 92
        8
 66
     7
 43
1.0
 76
     1
 77
     6
 78
     2
 67
     7
 79
     5
170
     0
171
     0
290
     0
174
     0
 93
        1
 44
0.0
173
     0
291
     1
 45
0.0
1001
ACAD
1000
AcDbSavedByObjectVersion
1070
     0
  0
VISUALSTYLE
  5
2B
102
{ACAD_REACTORS
330
2A
102
}
102
{ACAD_XDICTIONARY
360
2F4
102
}
330
2A
100
AcDbVisualStyle
  2
Flat
 70
     0
 71
     2
 72
     1
 73
     1
 90
        2
 40
0.6
 41
30.0
 62
     5
 63
     7
421
 16777215
 74
     0
 91
        0
 64
     7
 65
   257
 75
     1
175
     1
 42
1.0
 92
        8
 66
     7
 43
1.0
 76
     1
 77
     6
 78
     2
 67
     7
 79
     5
170
     0
171
     0
290
     0
174
     0
 93
       13
 44
0.0
173
     0
291
     1
 45
0.0
1001
ACAD
1000
AcDbSavedByObjectVersion
1070
     0
  0
VISUALSTYLE
  5
2C
102
{ACAD_REACTORS
330
2A
102
}
102
{ACAD_XDICTIONARY
360
2F6
102
}
330
2A
100
AcDbVisualStyle
  2
FlatWithEdges
 70
     1
 71
     2
 72
     1
 73
     1
 90
        2
 40
0.6
 41
30.0
 62
     5
 63
     7
421
 16777215
 74
     1
 91
        0
 64
     7
 65
   257
 75
     1
175
     1
 42
1.0
 92
        0
 66
   257
 43
1.0
 76
     1
 77
     6
 78
     2
 67
     7
 79
     5
170
     0
171
     0
290
     0
174
     0
 93
       13
 44
0.0
173
     0
291
     1
 45
0.0
1001
ACAD
1000
AcDbSavedByObjectVersion
1070
     0
  0
VISUALSTYLE
  5
2D
102
{ACAD_REACTORS
330
2A
102
}
102
{ACAD_XDICTIONARY
360
2F8
102
}
330
2A
100
AcDbVisualStyle
  2
Gouraud
 70
     2
 71
     2
 72
     2
 73
     1
 90
        2
 40
0.6
 41
30.0
 62
     5
 63
     7
421
 16777215
 74
     0
 91
        0
 64
     7
 65
   257
 75
     1
175
     1
 42
1.0
 92
        0
 66
     7
 43
1.0
 76
     1
 77
     6
 78
     2
 67
     7
 79
     5
170
     0
171
     0
290
     0
174
     0
 93
       13
 44
0.0
173
     0
291
     1
 45
0.0
1001
ACAD
1000
AcDbSavedByObjectVersion
1070
     0
  0
VISUALSTYLE
  5
2E
102
{ACAD_REACTORS
330
2A
102
}
102
{ACAD_XDICTIONARY
360
2FA
102
}
330
2A
100
AcDbVisualStyle
  2
GouraudWithEdges
 70
     3
 71
     2
 72
     2
 73
     1
 90
        2
 40
0.6
 41
30.0
 62
     5
 63
     7
421
 16777215
 74
     1
 91
        0
 64
     7
 65
   257
 75
     1
175
     1
 42
1.0
 92
        0
 66
   257
 43
1.0
 76
     1
 77
     6
 78
     2
 67
     7
 79
     5
170
     0
171
     0
290
     0
174
     0
 93
       13
 44
0.0
173
     0
291
     1
 45
0.0
1001
ACAD
1000
AcDbSavedByObjectVersion
1070
     0
  0
VISUALSTYLE
  5
31
102
{ACAD_REACTORS
330
2A
102
}
102
{ACAD_XDICTIONARY
360
300
102
}
330
2A
100
AcDbVisualStyle
  2
Hidden
 70
     6
 71
     1
 72
     2
 73
     2
 90
        0
 40
0.6
 41
30.0
 62
     5
 63
     7
421
 16777215
 74
     2
 91
        2
 64
     7
 65
   257
 75
     2
175
     1
 42
40.0
 92
        0
 66
   257
 43
1.0
 76
     1
 77
     6
 78
     2
 67
     7
 79
     3
170
     0
171
     0
290
     0
174
     0
 93
        1
 44
0.0
173
     0
291
     0
 45
0.0
1001
ACAD
1000
AcDbSavedByObjectVersion
1070
     0
  0
VISUALSTYLE
  5
3B
102
{ACAD_REACTORS
330
2A
102
}
102
{ACAD_XDICTIONARY
360
314
102
}
330
2A
100
AcDbVisualStyle
  2
JitterOff
 70
    20
 71
     2
 72
     2
 73
     0
 90
        0
 40
0.6
 41
30.0
 62
     5
 63
     7
421
 16777215
 74
     1
 91
        4
 64
     7
 65
   257
 75
     1
175
     1
 42
1.0
 92
       10
 66
     7
 43
1.0
 76
     1
 77
     6
 78
     2
 67
     7
 79
     5
170
     0
171
     0
290
     0
174
     0
 93
        1
 44
0.0
173
     0
291
     1
 45
0.0
1001
ACAD
1000
AcDbSavedByObjectVersion
1070
     0
  0
VISUALSTYLE
  5
38
102
{ACAD_REACTORS
330
2A
102
}
102
{ACAD_XDICTIONARY
360
30E
102
}
330
2A
100
AcDbVisualStyle
  2
Linepattern
 70
    14
 71
     2
 72
     2
 73
     0
 90
        0
 40
0.6
 41
30.0
 62
     5
 63
     7
421
 16777215
 74
     1
 91
        4
 64
     7
 65
   257
 75
     7
175
     7
 42
1.0
 92
        8
 66
     7
 43
1.0
 76
     1
 77
     6
 78
     2
 67
     7
 79
     5
170
     0
171
     0
290
     0
174
     0
 93
        1
 44
0.0
173
     0
291
     1
 45
0.0
1001
ACAD
1000
AcDbSavedByObjectVersion
1070
     0
  0
VISUALSTYLE
  5
3C
102
{ACAD_REACTORS
330
2A
102
}
102
{ACAD_XDICTIONARY
360
316
102
}
330
2A
100
AcDbVisualStyle
  2
OverhangOff
 70
    21
 71
     2
 72
     2
 73
     0
 90
        0
 40
0.6
 41
30.0
 62
     5
 63
     7
421
 16777215
 74
     1
 91
        4
 64
     7
 65
   257
 75
     1
175
     1
 42
1.0
 92
        9
 66
     7
 43
1.0
 76
     1
 77
     6
 78
     2
 67
     7
 79
     5
170
     0
171
     0
290
     0
174
     0
 93
        1
 44
0.0
173
     0
291
     1
 45
0.0
1001
ACAD
1000
AcDbSavedByObjectVersion
1070
     0
  0
VISUALSTYLE
  5
33
102
{ACAD_REACTORS
330
2A
102
}
102
{ACAD_XDICTIONARY
360
304
102
}
330
2A
100
AcDbVisualStyle
  2
Realistic
 70
     8
 71
     2
 72
     3
 73
     0
 90
        2
 40
0.6
 41
30.0
 62
     5
 63
     7
421
 16777215
 74
     0
 91
        0
 64
     7
 65
   257
 75
     1
175
     1
 42
1.0
 92
        8
 66
   257
 43
1.0
 76
     1
 77
     6
 78
     2
 67
     7
 79
     3
170
     0
171
     0
290
     0
174
     0
 93
       13
 44
0.0
173
     0
291
     0
 45
0.0
1001
ACAD
1000
AcDbSavedByObjectVersion
1070
     0
  0
VISUALSTYLE
  5
42
102
{ACAD_REACTORS
330
2A
102
}
102
{ACAD_XDICTIONARY
360
322
102
}
330
2A
100
AcDbVisualStyle
  2
Shaded
 70
    27
 71
     2
 72
     2
 73
     1
 90
        2
 40
0.6
 41
30.0
 62
     5
 63
     7
421
 16777215
 74
     0
 91
        4
 64
     7
 65
   257
 75
     1
175
     1
 42
1.0
 92
        8
 66
   257
 43
1.0
 76
     1
 77
     6
 78
     2
 67
     8
425
  7895160
 79
     3
170
     0
171
     0
290
     0
174
     0
 93
        5
 44
0.0
173
     0
291
     0
 45
0.0
1001
ACAD
1000
AcDbSavedByObjectVersion
1070
     0
  0
VISUALSTYLE
  5
41
102
{ACAD_REACTORS
330
2A
102
}
102
{ACAD_XDICTIONARY
360
320
102
}
330
2A
100
AcDbVisualStyle
  2
Shaded with edges
 70
    26
 71
     2
 72
     2
 73
     1
 90
        2
 40
0.6
 41
30.0
 62
     5
 63
     7
421
 16777215
 74
     1
 91
       10
 64
     7
 65
   257
 75
     2
175
     1
 42
1.0
 92
        8
 66
   257
 43
1.0
 76
     1
 77
     6
 78
     2
 67
     7
 79
     3
170
     0
171
     0
290
     0
174
     0
 93
        5
 44
0.0
173
     0
291
     0
 45
0.0
1001
ACAD
1000
AcDbSavedByObjectVersion
1070
     0
  0
VISUALSTYLE
  5
3E
102
{ACAD_REACTORS
330
2A
102
}
102
{ACAD_XDICTIONARY
360
31A
102
}
330
2A
100
AcDbVisualStyle
  2
Shades of Gray
 70
    23
 71
     2
 72
     2
 73
     3
 90
        0
 40
0.6
 41
30.0
 62
     5
 63
     7
421
 16777215
 74
     2
 91
        2
 64
     7
 65
     7
 75
     1
175
     1
 42
40.0
 92
        8
 66
     7
 43
1.0
 76
     1
 77
     6
 78
     2
 67
     7
 79
     3
170
     0
171
     0
290
     0
174
     0
 93
        1
 44
0.0
173
     0
291
     0
 45
0.0
1001
ACAD
1000
AcDbSavedByObjectVersion
1070
     0
  0
VISUALSTYLE
  5
3F
102
{ACAD_REACTORS
330
2A
102
}
102
{ACAD_XDICTIONARY
360
31C
102
}
330
2A
100
AcDbVisualStyle
  2
Sketchy
 70
    24
 71
     1
 72
     2
 73
     2
 90
        0
 40
0.6
 41
30.0
 62
     5
 63
     7
421
 16777215
 74
     2
 91
        2
 64
     7
 65
     7
 75
     1
175
     1
 42
40.0
 92
       11
 66
     7
 43
1.0
 76
     1
 77
     6
 78
     2
 67
     7
 79
     6
170
     0
171
     0
290
     0
174
     0
 93
        1
 44
0.0
173
     0
291
     0
 45
0.0
1001
ACAD
1000
AcDbSavedByObjectVersion
1070
     0
  0
VISUALSTYLE
  5
37
102
{ACAD_REACTORS
330
2A
102
}
102
{ACAD_XDICTIONARY
360
30C
102
}
330
2A
100
AcDbVisualStyle
  2
Thicken
 70
    13
 71
     2
 72
     2
 73
     0
 90
        0
 40
0.6
 41
30.0
 62
     5
 63
     7
421
 16777215
 74
     1
 91
        4
 64
     7
 65
   257
 75
     1
175
     1
 42
1.0
 92
       12
 66
     7
 43
1.0
 76
     1
 77
     6
 78
     2
 67
     7
 79
     5
170
     0
171
     0
290
     0
174
     0
 93
        1
 44
0.0
173
     0
291
     1
 45
0.0
1001
ACAD
1000
AcDbSavedByObjectVersion
1070
     0
  0
VISUALSTYLE
  5
30
102
{ACAD_REACTORS
330
2A
102
}
102
{ACAD_XDICTIONARY
360
2FE
102
}
330
2A
100
AcDbVisualStyle
  2
Wireframe
 70
     5
 71
     0
 72
     2
 73
     0
 90
        0
 40
0.6
 41
30.0
 62
     5
 63
     7
421
 16777215
 74
     1
 91
        4
 64
     7
 65
   257
 75
     1
175
     1
 42
1.0
 92
        0
 66
   257
 43
1.0
 76
     1
 77
     6
 78
     2
 67
     7
 79
     3
170
     0
171
     0
290
     0
174
     0
 93
        1
 44
0.0
173
     0
291
     0
 45
0.0
1001
ACAD
1000
AcDbSavedByObjectVersion
1070
     0
  0
VISUALSTYLE
  5
40
102
{ACAD_REACTORS
330
2A
102
}
102
{ACAD_XDICTIONARY
360
31E
102
}
330
2A
100
AcDbVisualStyle
  2
X-Ray
 70
    25
 71
     2
 72
     2
 73
     1
 90
        1
 40
0.5
 41
30.0
 62
     5
 63
     7
421
 16777215
 74
     1
 91
        0
 64
     7
 65
   257
 75
     1
175
     1
 42
1.0
 92
        8
 66
     7
 43
1.0
 76
     1
 77
     6
 78
     2
 67
     7
 79
     3
170
     0
171
     0
290
     0
174
     0
 93
       13
 44
0.0
173
     0
291
     0
 45
0.0
1001
ACAD
1000
AcDbSavedByObjectVersion
1070
     0
  0
DICTIONARYVAR
  5
2F2
102
{ACAD_REACTORS
330
2F1
102
}
330
2F1
100
DictionaryVariables
280
     0
  1
1:1
  0
DICTIONARYVAR
  5
2F3
102
{ACAD_REACTORS
330
2F1
102
}
330
2F1
100
DictionaryVariables
280
     0
  1
1
  0
DICTIONARY
  5
326
330
45
100
AcDbDictionary
280
     1
281
     1
  3
ACAD_XREC_ROUNDTRIP
360
327
  0
DICTIONARY
  5
324
330
44
100
AcDbDictionary
280
     1
281
     1
  3
ACAD_XREC_ROUNDTRIP
360
325
  0
DICTIONARY
  5
328
330
46
100
AcDbDictionary
280
     1
281
     1
  3
ACAD_XREC_ROUNDTRIP
360
329
  0
DICTIONARY
  5
2FC
330
2F
100
AcDbDictionary
280
     1
281
     1
  3
ACAD_XREC_ROUNDTRIP
360
2FD
  0
DICTIONARY
  5
302
330
32
100
AcDbDictionary
280
     1
281
     1
  3
ACAD_XREC_ROUNDTRIP
360
303
  0
DICTIONARY
  5
30A
330
36
100
AcDbDictionary
280
     1
281
     1
  3
ACAD_XREC_ROUNDTRIP
360
30B
  0
DICTIONARY
  5
312
330
3A
100
AcDbDictionary
280
     1
281
     1
  3
ACAD_XREC_ROUNDTRIP
360
313
  0
DICTIONARY
  5
306
330
34
100
AcDbDictionary
280
     1
281
     1
  3
ACAD_XREC_ROUNDTRIP
360
307
  0
DICTIONARY
  5
308
330
35
100
AcDbDictionary
280
     1
281
     1
  3
ACAD_XREC_ROUNDTRIP
360
309
  0
DICTIONARY
  5
318
330
3D
100
AcDbDictionary
280
     1
281
     1
  3
ACAD_XREC_ROUNDTRIP
360
319
  0
DICTIONARY
  5
310
330
39
100
AcDbDictionary
280
     1
281
     1
  3
ACAD_XREC_ROUNDTRIP
360
311
  0
DICTIONARY
  5
2F4
330
2B
100
AcDbDictionary
280
     1
281
     1
  3
ACAD_XREC_ROUNDTRIP
360
2F5
  0
DICTIONARY
  5
2F6
330
2C
100
AcDbDictionary
280
     1
281
     1
  3
ACAD_XREC_ROUNDTRIP
360
2F7
  0
DICTIONARY
  5
2F8
330
2D
100
AcDbDictionary
280
     1
281
     1
  3
ACAD_XREC_ROUNDTRIP
360
2F9
  0
DICTIONARY
  5
2FA
330
2E
100
AcDbDictionary
280
     1
281
     1
  3
ACAD_XREC_ROUNDTRIP
360
2FB
  0
DICTIONARY
  5
300
330
31
100
AcDbDictionary
280
     1
281
     1
  3
ACAD_XREC_ROUNDTRIP
360
301
  0
DICTIONARY
  5
314
330
3B
100
AcDbDictionary
280
     1
281
     1
  3
ACAD_XREC_ROUNDTRIP
360
315
  0
DICTIONARY
  5
30E
330
38
100
AcDbDictionary
280
     1
281
     1
  3
ACAD_XREC_ROUNDTRIP
360
30F
  0
DICTIONARY
  5
316
330
3C
100
AcDbDictionary
280
     1
281
     1
  3
ACAD_XREC_ROUNDTRIP
360
317
  0
DICTIONARY
  5
304
330
33
100
AcDbDictionary
280
     1
281
     1
  3
ACAD_XREC_ROUNDTRIP
360
305
  0
DICTIONARY
  5
322
330
42
100
AcDbDictionary
280
     1
281
     1
  3
ACAD_XREC_ROUNDTRIP
360
323
  0
DICTIONARY
  5
320
330
41
100
AcDbDictionary
280
     1
281
     1
  3
ACAD_XREC_ROUNDTRIP
360
321
  0
DICTIONARY
  5
31A
330
3E
100
AcDbDictionary
280
     1
281
     1
  3
ACAD_XREC_ROUNDTRIP
360
31B
  0
DICTIONARY
  5
31C
330
3F
100
AcDbDictionary
280
     1
281
     1
  3
ACAD_XREC_ROUNDTRIP
360
31D
  0
DICTIONARY
  5
30C
330
37
100
AcDbDictionary
280
     1
281
     1
  3
ACAD_XREC_ROUNDTRIP
360
30D
  0
DICTIONARY
  5
2FE
330
30
100
AcDbDictionary
280
     1
281
     1
  3
ACAD_XREC_ROUNDTRIP
360
2FF
  0
DICTIONARY
  5
31E
330
40
100
AcDbDictionary
280
     1
281
     1
  3
ACAD_XREC_ROUNDTRIP
360
31F
  0
XRECORD
  5
327
102
{ACAD_REACTORS
330
326
102
}
330
326
100
AcDbXrecord
280
     1
102
MATERIAL
148
0.0
149
0.0
149
0.0
 93
        0
 94
      127
282
     0
 72
     1
 77
     1
171
     1
175
     1
179
     1
273
     0
  0
XRECORD
  5
325
102
{ACAD_REACTORS
330
324
102
}
330
324
100
AcDbXrecord
280
     1
102
MATERIAL
148
0.0
149
0.0
149
0.0
 93
        0
 94
      127
282
     0
 72
     1
 77
     1
171
     1
175
     1
179
     1
273
     0
  0
XRECORD
  5
329
102
{ACAD_REACTORS
330
328
102
}
330
328
100
AcDbXrecord
280
     1
102
MATERIAL
148
0.0
149
0.0
149
0.0
 93
        0
 94
      127
282
     0
 72
     1
 77
     1
171
     1
175
     1
179
     1
273
     0
  0
XRECORD
  5
2FD
102
{ACAD_REACTORS
330
2FC
102
}
330
2FC
100
AcDbXrecord
280
     1
102
RTVSPropertyOp0
 70
     1
102
RTVSPropertyOp1
 70
     1
102
RTVSPropertyOp2
 70
     1
102
RTVSPropertyOp3
 70
     1
102
RTVSPropertyOp4
 70
     1
102
RTVSPropertyOp5
 70
     1
102
RTVSPropertyOp6
 70
     1
102
RTVSPropertyOp7
 70
     1
102
RTVSPropertyOp8
 70
     1
102
RTVSPropertyOp9
 70
     1
102
RTVSPropertyOp10
 70
     1
102
RTVSPropertyOp11
 70
     1
102
RTVSPropertyOp12
 70
     1
102
RTVSPropertyOp13
 70
     1
102
RTVSPropertyOp14
 70
     1
102
RTVSPropertyOp15
 70
     1
102
RTVSPropertyOp16
 70
     1
102
RTVSPropertyOp17
 70
     1
102
RTVSPropertyOp18
 70
     1
102
RTVSPropertyOp19
 70
     1
102
RTVSPropertyOp20
 70
     1
102
RTVSPropertyOp21
 70
     1
102
RTVSPropertyOp22
 70
     1
102
RTVSPropertyOp23
 70
     1
102
RTVSPropertyOp24
 70
     1
102
RTVSPropertyOp25
 70
     1
102
RTVSPropertyOp26
 70
     1
102
RTVSPropertyOp27
 70
     1
102
RTVSPropertyOp28
 70
     1
102
RTVSPropertyOp29
 70
     1
102
RTVSPropertyOp30
 70
     1
102
RTVSPropertyOp31
 70
     1
102
RTVSPropertyOp32
 70
     1
102
RTVSPropertyOp33
 70
     1
102
RTVSPropertyOp34
 70
     1
102
RTVSPropertyOp35
 70
     1
102
RTVSPropertyOp36
 70
     1
102
RTVSPropertyOp37
 70
     1
102
RTVSPropertyOp38
 70
     1
102
RTVSPropertyOp39
 70
     1
102
RTVSPropertyOp40
 70
     1
102
RTVSPropertyOp41
 70
     1
102
RTVSPropertyOp42
 70
     1
102
RTVSPropertyOp43
 70
     1
102
RTVSPropertyOp44
 70
     1
102
RTVSPropertyOp45
 70
     1
102
RTVSPropertyOp46
 70
     1
102
RTVSPropertyOp47
 70
     1
102
RTVSPropertyOp48
 70
     1
102
RTVSPropertyOp49
 70
     1
102
RTVSPropertyOp50
 70
     1
102
RTVSPropertyOp51
 70
     0
102
RTVSPropertyOp52
 70
     0
102
RTVSPropertyOp53
 70
     1
102
RTVSPropertyOp54
 70
     1
102
RTVSPropertyOp55
 70
     1
102
RTVSPropertyOp56
 70
     1
102
RTVSPropertyOp57
 70
     1
102
RTVSPost2010Prop28
280
     1
102
RTVSPost2010PropOp28
 70
     1
102
RTVSPost2010Prop29
280
     1
102
RTVSPost2010PropOp29
 70
     1
102
RTVSPost2010Prop30
280
     0
102
RTVSPost2010PropOp30
 70
     1
102
RTVSPost2010Prop31
280
     0
102
RTVSPost2010PropOp31
 70
     1
102
RTVSPost2010Prop32
280
     0
102
RTVSPost2010PropOp32
 70
     1
102
RTVSPost2010Prop33
280
     0
102
RTVSPost2010PropOp33
 70
     1
102
RTVSPost2010Prop34
280
     0
102
RTVSPost2010PropOp34
 70
     1
102
RTVSPost2010Prop35
280
     0
102
RTVSPost2010PropOp35
 70
     1
102
RTVSPost2010Prop36
280
     0
102
RTVSPost2010PropOp36
 70
     1
102
RTVSPost2010Prop37
 90
       50
102
RTVSPost2010PropOp37
 70
     1
102
RTVSPost2010Prop38
140
0.0
102
RTVSPost2010PropOp38
 70
     1
102
RTVSPost2010Prop39
140
1.0
102
RTVSPost2010PropOp39
 70
     1
102
RTVSPost2010Prop40
 90
        0
102
RTVSPost2010PropOp40
 70
     1
102
RTVSPost2010Prop41ColorIndex
 90
       18
102
RTVSPost2010Prop41ColorRGB
 90
        0
102
RTVSPost2010PropOp41
 70
     1
102
RTVSPost2010Prop42
 90
       50
102
RTVSPost2010PropOp42
 70
     1
102
RTVSPost2010Prop43
 90
        3
102
RTVSPost2010PropOp43
 70
     1
102
RTVSPost2010Prop44ColorIndex
 90
        5
102
RTVSPost2010Prop44ColorRGB
 90
      255
102
RTVSPost2010PropOp44
 70
     1
102
RTVSPost2010Prop45
280
     0
102
RTVSPost2010PropOp45
 70
     1
102
RTVSPost2010Prop46
 90
       50
102
RTVSPost2010PropOp46
 70
     1
102
RTVSPost2010Prop47
 90
       50
102
RTVSPost2010PropOp47
 70
     1
102
RTVSPost2010Prop48
 90
       50
102
RTVSPost2010PropOp48
 70
     1
102
RTVSPost2010Prop49
280
     0
102
RTVSPost2010PropOp49
 70
     1
102
RTVSPost2010Prop50
 90
       50
102
RTVSPost2010PropOp50
 70
     1
102
RTVSPost2010Prop51ColorIndex
 90
      256
102
RTVSPost2010Prop51ColorRGB
 90
-16777216
102
RTVSPost2010PropOp51
 70
     0
102
RTVSPost2010Prop52
140
1.0
102
RTVSPost2010PropOp52
 70
     0
102
RTVSPost2010Prop53
 90
        2
102
RTVSPost2010PropOp53
 70
     1
102
RTVSPost2010Prop54
  1
strokes_ogs.tif
102
RTVSPost2010PropOp54
 70
     1
102
RTVSPost2010Prop55
280
     0
102
RTVSPost2010PropOp55
 70
     1
102
RTVSPost2010Prop56
140
1.0
102
RTVSPost2010PropOp56
 70
     1
102
RTVSPost2010Prop57
140
1.0
102
RTVSPost2010PropOp57
 70
     1
  0
XRECORD
  5
303
102
{ACAD_REACTORS
330
302
102
}
330
302
100
AcDbXrecord
280
     1
102
RTVSPropertyOp0
 70
     1
102
RTVSPropertyOp1
 70
     1
102
RTVSPropertyOp2
 70
     1
102
RTVSPropertyOp3
 70
     1
102
RTVSPropertyOp4
 70
     1
102
RTVSPropertyOp5
 70
     1
102
RTVSPropertyOp6
 70
     1
102
RTVSPropertyOp7
 70
     1
102
RTVSPropertyOp8
 70
     1
102
RTVSPropertyOp9
 70
     1
102
RTVSPropertyOp10
 70
     1
102
RTVSPropertyOp11
 70
     1
102
RTVSPropertyOp12
 70
     1
102
RTVSPropertyOp13
 70
     1
102
RTVSPropertyOp14
 70
     1
102
RTVSPropertyOp15
 70
     1
102
RTVSPropertyOp16
 70
     1
102
RTVSPropertyOp17
 70
     1
102
RTVSPropertyOp18
 70
     1
102
RTVSPropertyOp19
 70
     1
102
RTVSPropertyOp20
 70
     1
102
RTVSPropertyOp21
 70
     1
102
RTVSPropertyOp22
 70
     1
102
RTVSPropertyOp23
 70
     1
102
RTVSPropertyOp24
 70
     1
102
RTVSPropertyOp25
 70
     1
102
RTVSPropertyOp26
 70
     1
102
RTVSPropertyOp27
 70
     1
102
RTVSPropertyOp28
 70
     1
102
RTVSPropertyOp29
 70
     1
102
RTVSPropertyOp30
 70
     1
102
RTVSPropertyOp31
 70
     1
102
RTVSPropertyOp32
 70
     1
102
RTVSPropertyOp33
 70
     1
102
RTVSPropertyOp34
 70
     1
102
RTVSPropertyOp35
 70
     1
102
RTVSPropertyOp36
 70
     1
102
RTVSPropertyOp37
 70
     1
102
RTVSPropertyOp38
 70
     1
102
RTVSPropertyOp39
 70
     1
102
RTVSPropertyOp40
 70
     1
102
RTVSPropertyOp41
 70
     1
102
RTVSPropertyOp42
 70
     1
102
RTVSPropertyOp43
 70
     1
102
RTVSPropertyOp44
 70
     1
102
RTVSPropertyOp45
 70
     1
102
RTVSPropertyOp46
 70
     1
102
RTVSPropertyOp47
 70
     1
102
RTVSPropertyOp48
 70
     1
102
RTVSPropertyOp49
 70
     1
102
RTVSPropertyOp50
 70
     1
102
RTVSPropertyOp51
 70
     0
102
RTVSPropertyOp52
 70
     0
102
RTVSPropertyOp53
 70
     1
102
RTVSPropertyOp54
 70
     1
102
RTVSPropertyOp55
 70
     1
102
RTVSPropertyOp56
 70
     1
102
RTVSPropertyOp57
 70
     1
102
RTVSPost2010Prop28
280
     0
102
RTVSPost2010PropOp28
 70
     1
102
RTVSPost2010Prop29
280
     1
102
RTVSPost2010PropOp29
 70
     1
102
RTVSPost2010Prop30
280
     1
102
RTVSPost2010PropOp30
 70
     1
102
RTVSPost2010Prop31
280
     0
102
RTVSPost2010PropOp31
 70
     1
102
RTVSPost2010Prop32
280
     0
102
RTVSPost2010PropOp32
 70
     1
102
RTVSPost2010Prop33
280
     0
102
RTVSPost2010PropOp33
 70
     1
102
RTVSPost2010Prop34
280
     0
102
RTVSPost2010PropOp34
 70
     1
102
RTVSPost2010Prop35
280
     0
102
RTVSPost2010PropOp35
 70
     1
102
RTVSPost2010Prop36
280
     0
102
RTVSPost2010PropOp36
 70
     1
102
RTVSPost2010Prop37
 90
       50
102
RTVSPost2010PropOp37
 70
     1
102
RTVSPost2010Prop38
140
0.0
102
RTVSPost2010PropOp38
 70
     1
102
RTVSPost2010Prop39
140
1.0
102
RTVSPost2010PropOp39
 70
     1
102
RTVSPost2010Prop40
 90
        0
102
RTVSPost2010PropOp40
 70
     1
102
RTVSPost2010Prop41ColorIndex
 90
       18
102
RTVSPost2010Prop41ColorRGB
 90
        0
102
RTVSPost2010PropOp41
 70
     1
102
RTVSPost2010Prop42
 90
       50
102
RTVSPost2010PropOp42
 70
     1
102
RTVSPost2010Prop43
 90
        3
102
RTVSPost2010PropOp43
 70
     1
102
RTVSPost2010Prop44ColorIndex
 90
        5
102
RTVSPost2010Prop44ColorRGB
 90
      255
102
RTVSPost2010PropOp44
 70
     1
102
RTVSPost2010Prop45
280
     0
102
RTVSPost2010PropOp45
 70
     1
102
RTVSPost2010Prop46
 90
       50
102
RTVSPost2010PropOp46
 70
     1
102
RTVSPost2010Prop47
 90
       50
102
RTVSPost2010PropOp47
 70
     1
102
RTVSPost2010Prop48
 90
       50
102
RTVSPost2010PropOp48
 70
     1
102
RTVSPost2010Prop49
280
     0
102
RTVSPost2010PropOp49
 70
     1
102
RTVSPost2010Prop50
 90
       50
102
RTVSPost2010PropOp50
 70
     1
102
RTVSPost2010Prop51ColorIndex
 90
      256
102
RTVSPost2010Prop51ColorRGB
 90
-16777216
102
RTVSPost2010PropOp51
 70
     0
102
RTVSPost2010Prop52
140
1.0
102
RTVSPost2010PropOp52
 70
     0
102
RTVSPost2010Prop53
 90
        2
102
RTVSPost2010PropOp53
 70
     1
102
RTVSPost2010Prop54
  1
strokes_ogs.tif
102
RTVSPost2010PropOp54
 70
     1
102
RTVSPost2010Prop55
280
     0
102
RTVSPost2010PropOp55
 70
     1
102
RTVSPost2010Prop56
140
1.0
102
RTVSPost2010PropOp56
 70
     1
102
RTVSPost2010Prop57
140
1.0
102
RTVSPost2010PropOp57
 70
     1
  0
XRECORD
  5
30B
102
{ACAD_REACTORS
330
30A
102
}
330
30A
100
AcDbXrecord
280
     1
102
RTVSPropertyOp0
 70
     1
102
RTVSPropertyOp1
 70
     1
102
RTVSPropertyOp2
 70
     1
102
RTVSPropertyOp3
 70
     1
102
RTVSPropertyOp4
 70
     1
102
RTVSPropertyOp5
 70
     1
102
RTVSPropertyOp6
 70
     1
102
RTVSPropertyOp7
 70
     1
102
RTVSPropertyOp8
 70
     1
102
RTVSPropertyOp9
 70
     1
102
RTVSPropertyOp10
 70
     1
102
RTVSPropertyOp11
 70
     1
102
RTVSPropertyOp12
 70
     1
102
RTVSPropertyOp13
 70
     1
102
RTVSPropertyOp14
 70
     1
102
RTVSPropertyOp15
 70
     1
102
RTVSPropertyOp16
 70
     1
102
RTVSPropertyOp17
 70
     1
102
RTVSPropertyOp18
 70
     1
102
RTVSPropertyOp19
 70
     1
102
RTVSPropertyOp20
 70
     1
102
RTVSPropertyOp21
 70
     1
102
RTVSPropertyOp22
 70
     1
102
RTVSPropertyOp23
 70
     1
102
RTVSPropertyOp24
 70
     1
102
RTVSPropertyOp25
 70
     1
102
RTVSPropertyOp26
 70
     1
102
RTVSPropertyOp27
 70
     1
102
RTVSPropertyOp28
 70
     1
102
RTVSPropertyOp29
 70
     1
102
RTVSPropertyOp30
 70
     1
102
RTVSPropertyOp31
 70
     1
102
RTVSPropertyOp32
 70
     1
102
RTVSPropertyOp33
 70
     1
102
RTVSPropertyOp34
 70
     1
102
RTVSPropertyOp35
 70
     1
102
RTVSPropertyOp36
 70
     1
102
RTVSPropertyOp37
 70
     1
102
RTVSPropertyOp38
 70
     1
102
RTVSPropertyOp39
 70
     1
102
RTVSPropertyOp40
 70
     1
102
RTVSPropertyOp41
 70
     1
102
RTVSPropertyOp42
 70
     1
102
RTVSPropertyOp43
 70
     1
102
RTVSPropertyOp44
 70
     1
102
RTVSPropertyOp45
 70
     1
102
RTVSPropertyOp46
 70
     1
102
RTVSPropertyOp47
 70
     1
102
RTVSPropertyOp48
 70
     1
102
RTVSPropertyOp49
 70
     1
102
RTVSPropertyOp50
 70
     1
102
RTVSPropertyOp51
 70
     0
102
RTVSPropertyOp52
 70
     0
102
RTVSPropertyOp53
 70
     1
102
RTVSPropertyOp54
 70
     1
102
RTVSPropertyOp55
 70
     1
102
RTVSPropertyOp56
 70
     1
102
RTVSPropertyOp57
 70
     1
102
RTVSPost2010Prop28
280
     0
102
RTVSPost2010PropOp28
 70
     1
102
RTVSPost2010Prop29
280
     1
102
RTVSPost2010PropOp29
 70
     1
102
RTVSPost2010Prop30
280
     1
102
RTVSPost2010PropOp30
 70
     1
102
RTVSPost2010Prop31
280
     0
102
RTVSPost2010PropOp31
 70
     1
102
RTVSPost2010Prop32
280
     0
102
RTVSPost2010PropOp32
 70
     1
102
RTVSPost2010Prop33
280
     0
102
RTVSPost2010PropOp33
 70
     1
102
RTVSPost2010Prop34
280
     0
102
RTVSPost2010PropOp34
 70
     1
102
RTVSPost2010Prop35
280
     0
102
RTVSPost2010PropOp35
 70
     1
102
RTVSPost2010Prop36
280
     0
102
RTVSPost2010PropOp36
 70
     1
102
RTVSPost2010Prop37
 90
       50
102
RTVSPost2010PropOp37
 70
     1
102
RTVSPost2010Prop38
140
0.0
102
RTVSPost2010PropOp38
 70
     1
102
RTVSPost2010Prop39
140
1.0
102
RTVSPost2010PropOp39
 70
     1
102
RTVSPost2010Prop40
 90
        0
102
RTVSPost2010PropOp40
 70
     1
102
RTVSPost2010Prop41ColorIndex
 90
       18
102
RTVSPost2010Prop41ColorRGB
 90
        0
102
RTVSPost2010PropOp41
 70
     1
102
RTVSPost2010Prop42
 90
       50
102
RTVSPost2010PropOp42
 70
     1
102
RTVSPost2010Prop43
 90
        3
102
RTVSPost2010PropOp43
 70
     1
102
RTVSPost2010Prop44ColorIndex
 90
        5
102
RTVSPost2010Prop44ColorRGB
 90
      255
102
RTVSPost2010PropOp44
 70
     1
102
RTVSPost2010Prop45
280
     0
102
RTVSPost2010PropOp45
 70
     1
102
RTVSPost2010Prop46
 90
       50
102
RTVSPost2010PropOp46
 70
     1
102
RTVSPost2010Prop47
 90
       50
102
RTVSPost2010PropOp47
 70
     1
102
RTVSPost2010Prop48
 90
       50
102
RTVSPost2010PropOp48
 70
     1
102
RTVSPost2010Prop49
280
     0
102
RTVSPost2010PropOp49
 70
     1
102
RTVSPost2010Prop50
 90
       50
102
RTVSPost2010PropOp50
 70
     1
102
RTVSPost2010Prop51ColorIndex
 90
      256
102
RTVSPost2010Prop51ColorRGB
 90
-16777216
102
RTVSPost2010PropOp51
 70
     0
102
RTVSPost2010Prop52
140
1.0
102
RTVSPost2010PropOp52
 70
     0
102
RTVSPost2010Prop53
 90
        2
102
RTVSPost2010PropOp53
 70
     1
102
RTVSPost2010Prop54
  1
strokes_ogs.tif
102
RTVSPost2010PropOp54
 70
     1
102
RTVSPost2010Prop55
280
     0
102
RTVSPost2010PropOp55
 70
     1
102
RTVSPost2010Prop56
140
1.0
102
RTVSPost2010PropOp56
 70
     1
102
RTVSPost2010Prop57
140
1.0
102
RTVSPost2010PropOp57
 70
     1
  0
XRECORD
  5
313
102
{ACAD_REACTORS
330
312
102
}
330
312
100
AcDbXrecord
280
     1
102
RTVSPropertyOp0
 70
     1
102
RTVSPropertyOp1
 70
     1
102
RTVSPropertyOp2
 70
     1
102
RTVSPropertyOp3
 70
     1
102
RTVSPropertyOp4
 70
     1
102
RTVSPropertyOp5
 70
     1
102
RTVSPropertyOp6
 70
     1
102
RTVSPropertyOp7
 70
     1
102
RTVSPropertyOp8
 70
     1
102
RTVSPropertyOp9
 70
     1
102
RTVSPropertyOp10
 70
     1
102
RTVSPropertyOp11
 70
     1
102
RTVSPropertyOp12
 70
     1
102
RTVSPropertyOp13
 70
     1
102
RTVSPropertyOp14
 70
     1
102
RTVSPropertyOp15
 70
     1
102
RTVSPropertyOp16
 70
     1
102
RTVSPropertyOp17
 70
     1
102
RTVSPropertyOp18
 70
     1
102
RTVSPropertyOp19
 70
     1
102
RTVSPropertyOp20
 70
     1
102
RTVSPropertyOp21
 70
     1
102
RTVSPropertyOp22
 70
     1
102
RTVSPropertyOp23
 70
     1
102
RTVSPropertyOp24
 70
     1
102
RTVSPropertyOp25
 70
     1
102
RTVSPropertyOp26
 70
     1
102
RTVSPropertyOp27
 70
     1
102
RTVSPropertyOp28
 70
     1
102
RTVSPropertyOp29
 70
     1
102
RTVSPropertyOp30
 70
     1
102
RTVSPropertyOp31
 70
     1
102
RTVSPropertyOp32
 70
     1
102
RTVSPropertyOp33
 70
     1
102
RTVSPropertyOp34
 70
     1
102
RTVSPropertyOp35
 70
     1
102
RTVSPropertyOp36
 70
     1
102
RTVSPropertyOp37
 70
     1
102
RTVSPropertyOp38
 70
     1
102
RTVSPropertyOp39
 70
     1
102
RTVSPropertyOp40
 70
     1
102
RTVSPropertyOp41
 70
     1
102
RTVSPropertyOp42
 70
     1
102
RTVSPropertyOp43
 70
     1
102
RTVSPropertyOp44
 70
     1
102
RTVSPropertyOp45
 70
     1
102
RTVSPropertyOp46
 70
     1
102
RTVSPropertyOp47
 70
     1
102
RTVSPropertyOp48
 70
     1
102
RTVSPropertyOp49
 70
     1
102
RTVSPropertyOp50
 70
     1
102
RTVSPropertyOp51
 70
     0
102
RTVSPropertyOp52
 70
     0
102
RTVSPropertyOp53
 70
     1
102
RTVSPropertyOp54
 70
     1
102
RTVSPropertyOp55
 70
     1
102
RTVSPropertyOp56
 70
     1
102
RTVSPropertyOp57
 70
     1
102
RTVSPost2010Prop28
280
     0
102
RTVSPost2010PropOp28
 70
     1
102
RTVSPost2010Prop29
280
     1
102
RTVSPost2010PropOp29
 70
     1
102
RTVSPost2010Prop30
280
     1
102
RTVSPost2010PropOp30
 70
     1
102
RTVSPost2010Prop31
280
     0
102
RTVSPost2010PropOp31
 70
     1
102
RTVSPost2010Prop32
280
     0
102
RTVSPost2010PropOp32
 70
     1
102
RTVSPost2010Prop33
280
     0
102
RTVSPost2010PropOp33
 70
     1
102
RTVSPost2010Prop34
280
     0
102
RTVSPost2010PropOp34
 70
     1
102
RTVSPost2010Prop35
280
     0
102
RTVSPost2010PropOp35
 70
     1
102
RTVSPost2010Prop36
280
     0
102
RTVSPost2010PropOp36
 70
     1
102
RTVSPost2010Prop37
 90
       50
102
RTVSPost2010PropOp37
 70
     1
102
RTVSPost2010Prop38
140
0.0
102
RTVSPost2010PropOp38
 70
     1
102
RTVSPost2010Prop39
140
1.0
102
RTVSPost2010PropOp39
 70
     1
102
RTVSPost2010Prop40
 90
        0
102
RTVSPost2010PropOp40
 70
     1
102
RTVSPost2010Prop41ColorIndex
 90
       18
102
RTVSPost2010Prop41ColorRGB
 90
        0
102
RTVSPost2010PropOp41
 70
     1
102
RTVSPost2010Prop42
 90
       50
102
RTVSPost2010PropOp42
 70
     1
102
RTVSPost2010Prop43
 90
        3
102
RTVSPost2010PropOp43
 70
     1
102
RTVSPost2010Prop44ColorIndex
 90
        5
102
RTVSPost2010Prop44ColorRGB
 90
      255
102
RTVSPost2010PropOp44
 70
     1
102
RTVSPost2010Prop45
280
     0
102
RTVSPost2010PropOp45
 70
     1
102
RTVSPost2010Prop46
 90
       50
102
RTVSPost2010PropOp46
 70
     1
102
RTVSPost2010Prop47
 90
       50
102
RTVSPost2010PropOp47
 70
     1
102
RTVSPost2010Prop48
 90
       50
102
RTVSPost2010PropOp48
 70
     1
102
RTVSPost2010Prop49
280
     0
102
RTVSPost2010PropOp49
 70
     1
102
RTVSPost2010Prop50
 90
       50
102
RTVSPost2010PropOp50
 70
     1
102
RTVSPost2010Prop51ColorIndex
 90
      256
102
RTVSPost2010Prop51ColorRGB
 90
-16777216
102
RTVSPost2010PropOp51
 70
     0
102
RTVSPost2010Prop52
140
1.0
102
RTVSPost2010PropOp52
 70
     0
102
RTVSPost2010Prop53
 90
        2
102
RTVSPost2010PropOp53
 70
     1
102
RTVSPost2010Prop54
  1
strokes_ogs.tif
102
RTVSPost2010PropOp54
 70
     1
102
RTVSPost2010Prop55
280
     0
102
RTVSPost2010PropOp55
 70
     1
102
RTVSPost2010Prop56
140
1.0
102
RTVSPost2010PropOp56
 70
     1
102
RTVSPost2010Prop57
140
1.0
102
RTVSPost2010PropOp57
 70
     1
  0
XRECORD
  5
307
102
{ACAD_REACTORS
330
306
102
}
330
306
100
AcDbXrecord
280
     1
102
RTVSPropertyOp0
 70
     1
102
RTVSPropertyOp1
 70
     1
102
RTVSPropertyOp2
 70
     1
102
RTVSPropertyOp3
 70
     1
102
RTVSPropertyOp4
 70
     1
102
RTVSPropertyOp5
 70
     1
102
RTVSPropertyOp6
 70
     1
102
RTVSPropertyOp7
 70
     1
102
RTVSPropertyOp8
 70
     1
102
RTVSPropertyOp9
 70
     1
102
RTVSPropertyOp10
 70
     1
102
RTVSPropertyOp11
 70
     1
102
RTVSPropertyOp12
 70
     1
102
RTVSPropertyOp13
 70
     1
102
RTVSPropertyOp14
 70
     1
102
RTVSPropertyOp15
 70
     1
102
RTVSPropertyOp16
 70
     1
102
RTVSPropertyOp17
 70
     1
102
RTVSPropertyOp18
 70
     1
102
RTVSPropertyOp19
 70
     1
102
RTVSPropertyOp20
 70
     1
102
RTVSPropertyOp21
 70
     1
102
RTVSPropertyOp22
 70
     1
102
RTVSPropertyOp23
 70
     1
102
RTVSPropertyOp24
 70
     1
102
RTVSPropertyOp25
 70
     1
102
RTVSPropertyOp26
 70
     1
102
RTVSPropertyOp27
 70
     1
102
RTVSPropertyOp28
 70
     1
102
RTVSPropertyOp29
 70
     1
102
RTVSPropertyOp30
 70
     1
102
RTVSPropertyOp31
 70
     1
102
RTVSPropertyOp32
 70
     1
102
RTVSPropertyOp33
 70
     1
102
RTVSPropertyOp34
 70
     1
102
RTVSPropertyOp35
 70
     1
102
RTVSPropertyOp36
 70
     1
102
RTVSPropertyOp37
 70
     1
102
RTVSPropertyOp38
 70
     1
102
RTVSPropertyOp39
 70
     1
102
RTVSPropertyOp40
 70
     1
102
RTVSPropertyOp41
 70
     1
102
RTVSPropertyOp42
 70
     1
102
RTVSPropertyOp43
 70
     1
102
RTVSPropertyOp44
 70
     1
102
RTVSPropertyOp45
 70
     1
102
RTVSPropertyOp46
 70
     1
102
RTVSPropertyOp47
 70
     1
102
RTVSPropertyOp48
 70
     1
102
RTVSPropertyOp49
 70
     1
102
RTVSPropertyOp50
 70
     1
102
RTVSPropertyOp51
 70
     0
102
RTVSPropertyOp52
 70
     0
102
RTVSPropertyOp53
 70
     1
102
RTVSPropertyOp54
 70
     1
102
RTVSPropertyOp55
 70
     1
102
RTVSPropertyOp56
 70
     1
102
RTVSPropertyOp57
 70
     1
102
RTVSPost2010Prop28
280
     0
102
RTVSPost2010PropOp28
 70
     1
102
RTVSPost2010Prop29
280
     1
102
RTVSPost2010PropOp29
 70
     1
102
RTVSPost2010Prop30
280
     1
102
RTVSPost2010PropOp30
 70
     1
102
RTVSPost2010Prop31
280
     0
102
RTVSPost2010PropOp31
 70
     1
102
RTVSPost2010Prop32
280
     0
102
RTVSPost2010PropOp32
 70
     1
102
RTVSPost2010Prop33
280
     0
102
RTVSPost2010PropOp33
 70
     1
102
RTVSPost2010Prop34
280
     0
102
RTVSPost2010PropOp34
 70
     1
102
RTVSPost2010Prop35
280
     0
102
RTVSPost2010PropOp35
 70
     1
102
RTVSPost2010Prop36
280
     0
102
RTVSPost2010PropOp36
 70
     1
102
RTVSPost2010Prop37
 90
       50
102
RTVSPost2010PropOp37
 70
     1
102
RTVSPost2010Prop38
140
0.0
102
RTVSPost2010PropOp38
 70
     1
102
RTVSPost2010Prop39
140
1.0
102
RTVSPost2010PropOp39
 70
     1
102
RTVSPost2010Prop40
 90
        0
102
RTVSPost2010PropOp40
 70
     1
102
RTVSPost2010Prop41ColorIndex
 90
       18
102
RTVSPost2010Prop41ColorRGB
 90
        0
102
RTVSPost2010PropOp41
 70
     1
102
RTVSPost2010Prop42
 90
       50
102
RTVSPost2010PropOp42
 70
     1
102
RTVSPost2010Prop43
 90
        3
102
RTVSPost2010PropOp43
 70
     1
102
RTVSPost2010Prop44ColorIndex
 90
        5
102
RTVSPost2010Prop44ColorRGB
 90
      255
102
RTVSPost2010PropOp44
 70
     1
102
RTVSPost2010Prop45
280
     0
102
RTVSPost2010PropOp45
 70
     1
102
RTVSPost2010Prop46
 90
       50
102
RTVSPost2010PropOp46
 70
     1
102
RTVSPost2010Prop47
 90
       50
102
RTVSPost2010PropOp47
 70
     1
102
RTVSPost2010Prop48
 90
       50
102
RTVSPost2010PropOp48
 70
     1
102
RTVSPost2010Prop49
280
     0
102
RTVSPost2010PropOp49
 70
     1
102
RTVSPost2010Prop50
 90
       50
102
RTVSPost2010PropOp50
 70
     1
102
RTVSPost2010Prop51ColorIndex
 90
      256
102
RTVSPost2010Prop51ColorRGB
 90
-16777216
102
RTVSPost2010PropOp51
 70
     0
102
RTVSPost2010Prop52
140
1.0
102
RTVSPost2010PropOp52
 70
     0
102
RTVSPost2010Prop53
 90
        2
102
RTVSPost2010PropOp53
 70
     1
102
RTVSPost2010Prop54
  1
strokes_ogs.tif
102
RTVSPost2010PropOp54
 70
     1
102
RTVSPost2010Prop55
280
     0
102
RTVSPost2010PropOp55
 70
     1
102
RTVSPost2010Prop56
140
1.0
102
RTVSPost2010PropOp56
 70
     1
102
RTVSPost2010Prop57
140
1.0
102
RTVSPost2010PropOp57
 70
     1
  0
XRECORD
  5
309
102
{ACAD_REACTORS
330
308
102
}
330
308
100
AcDbXrecord
280
     1
102
RTVSPropertyOp0
 70
     1
102
RTVSPropertyOp1
 70
     1
102
RTVSPropertyOp2
 70
     1
102
RTVSPropertyOp3
 70
     1
102
RTVSPropertyOp4
 70
     1
102
RTVSPropertyOp5
 70
     1
102
RTVSPropertyOp6
 70
     1
102
RTVSPropertyOp7
 70
     1
102
RTVSPropertyOp8
 70
     1
102
RTVSPropertyOp9
 70
     1
102
RTVSPropertyOp10
 70
     1
102
RTVSPropertyOp11
 70
     1
102
RTVSPropertyOp12
 70
     1
102
RTVSPropertyOp13
 70
     1
102
RTVSPropertyOp14
 70
     1
102
RTVSPropertyOp15
 70
     1
102
RTVSPropertyOp16
 70
     1
102
RTVSPropertyOp17
 70
     1
102
RTVSPropertyOp18
 70
     1
102
RTVSPropertyOp19
 70
     1
102
RTVSPropertyOp20
 70
     1
102
RTVSPropertyOp21
 70
     1
102
RTVSPropertyOp22
 70
     1
102
RTVSPropertyOp23
 70
     1
102
RTVSPropertyOp24
 70
     1
102
RTVSPropertyOp25
 70
     1
102
RTVSPropertyOp26
 70
     1
102
RTVSPropertyOp27
 70
     1
102
RTVSPropertyOp28
 70
     1
102
RTVSPropertyOp29
 70
     1
102
RTVSPropertyOp30
 70
     1
102
RTVSPropertyOp31
 70
     1
102
RTVSPropertyOp32
 70
     1
102
RTVSPropertyOp33
 70
     1
102
RTVSPropertyOp34
 70
     1
102
RTVSPropertyOp35
 70
     1
102
RTVSPropertyOp36
 70
     1
102
RTVSPropertyOp37
 70
     1
102
RTVSPropertyOp38
 70
     1
102
RTVSPropertyOp39
 70
     1
102
RTVSPropertyOp40
 70
     1
102
RTVSPropertyOp41
 70
     1
102
RTVSPropertyOp42
 70
     1
102
RTVSPropertyOp43
 70
     1
102
RTVSPropertyOp44
 70
     1
102
RTVSPropertyOp45
 70
     1
102
RTVSPropertyOp46
 70
     1
102
RTVSPropertyOp47
 70
     1
102
RTVSPropertyOp48
 70
     1
102
RTVSPropertyOp49
 70
     1
102
RTVSPropertyOp50
 70
     1
102
RTVSPropertyOp51
 70
     0
102
RTVSPropertyOp52
 70
     0
102
RTVSPropertyOp53
 70
     1
102
RTVSPropertyOp54
 70
     1
102
RTVSPropertyOp55
 70
     1
102
RTVSPropertyOp56
 70
     1
102
RTVSPropertyOp57
 70
     1
102
RTVSPost2010Prop28
280
     0
102
RTVSPost2010PropOp28
 70
     1
102
RTVSPost2010Prop29
280
     1
102
RTVSPost2010PropOp29
 70
     1
102
RTVSPost2010Prop30
280
     1
102
RTVSPost2010PropOp30
 70
     1
102
RTVSPost2010Prop31
280
     0
102
RTVSPost2010PropOp31
 70
     1
102
RTVSPost2010Prop32
280
     0
102
RTVSPost2010PropOp32
 70
     1
102
RTVSPost2010Prop33
280
     0
102
RTVSPost2010PropOp33
 70
     1
102
RTVSPost2010Prop34
280
     0
102
RTVSPost2010PropOp34
 70
     1
102
RTVSPost2010Prop35
280
     0
102
RTVSPost2010PropOp35
 70
     1
102
RTVSPost2010Prop36
280
     0
102
RTVSPost2010PropOp36
 70
     1
102
RTVSPost2010Prop37
 90
       50
102
RTVSPost2010PropOp37
 70
     1
102
RTVSPost2010Prop38
140
0.0
102
RTVSPost2010PropOp38
 70
     1
102
RTVSPost2010Prop39
140
1.0
102
RTVSPost2010PropOp39
 70
     1
102
RTVSPost2010Prop40
 90
        0
102
RTVSPost2010PropOp40
 70
     1
102
RTVSPost2010Prop41ColorIndex
 90
       18
102
RTVSPost2010Prop41ColorRGB
 90
        0
102
RTVSPost2010PropOp41
 70
     1
102
RTVSPost2010Prop42
 90
       50
102
RTVSPost2010PropOp42
 70
     1
102
RTVSPost2010Prop43
 90
        3
102
RTVSPost2010PropOp43
 70
     1
102
RTVSPost2010Prop44ColorIndex
 90
        5
102
RTVSPost2010Prop44ColorRGB
 90
      255
102
RTVSPost2010PropOp44
 70
     1
102
RTVSPost2010Prop45
280
     0
102
RTVSPost2010PropOp45
 70
     1
102
RTVSPost2010Prop46
 90
       50
102
RTVSPost2010PropOp46
 70
     1
102
RTVSPost2010Prop47
 90
       50
102
RTVSPost2010PropOp47
 70
     1
102
RTVSPost2010Prop48
 90
       50
102
RTVSPost2010PropOp48
 70
     1
102
RTVSPost2010Prop49
280
     0
102
RTVSPost2010PropOp49
 70
     1
102
RTVSPost2010Prop50
 90
       50
102
RTVSPost2010PropOp50
 70
     1
102
RTVSPost2010Prop51ColorIndex
 90
      256
102
RTVSPost2010Prop51ColorRGB
 90
-16777216
102
RTVSPost2010PropOp51
 70
     0
102
RTVSPost2010Prop52
140
1.0
102
RTVSPost2010PropOp52
 70
     0
102
RTVSPost2010Prop53
 90
        2
102
RTVSPost2010PropOp53
 70
     1
102
RTVSPost2010Prop54
  1
strokes_ogs.tif
102
RTVSPost2010PropOp54
 70
     1
102
RTVSPost2010Prop55
280
     0
102
RTVSPost2010PropOp55
 70
     1
102
RTVSPost2010Prop56
140
1.0
102
RTVSPost2010PropOp56
 70
     1
102
RTVSPost2010Prop57
140
1.0
102
RTVSPost2010PropOp57
 70
     1
  0
XRECORD
  5
319
102
{ACAD_REACTORS
330
318
102
}
330
318
100
AcDbXrecord
280
     1
102
RTVSPropertyOp0
 70
     0
102
RTVSPropertyOp1
 70
     0
102
RTVSPropertyOp2
 70
     0
102
RTVSPropertyOp3
 70
     0
102
RTVSPropertyOp4
 70
     0
102
RTVSPropertyOp5
 70
     0
102
RTVSPropertyOp6
 70
     0
102
RTVSPropertyOp7
 70
     0
102
RTVSPropertyOp8
 70
     0
102
RTVSPropertyOp9
 70
     0
102
RTVSPropertyOp10
 70
     0
102
RTVSPropertyOp11
 70
     0
102
RTVSPropertyOp12
 70
     0
102
RTVSPropertyOp13
 70
     0
102
RTVSPropertyOp14
 70
     2
102
RTVSPropertyOp15
 70
     0
102
RTVSPropertyOp16
 70
     0
102
RTVSPropertyOp17
 70
     0
102
RTVSPropertyOp18
 70
     0
102
RTVSPropertyOp19
 70
     0
102
RTVSPropertyOp20
 70
     0
102
RTVSPropertyOp21
 70
     0
102
RTVSPropertyOp22
 70
     0
102
RTVSPropertyOp23
 70
     0
102
RTVSPropertyOp24
 70
     0
102
RTVSPropertyOp25
 70
     0
102
RTVSPropertyOp26
 70
     0
102
RTVSPropertyOp27
 70
     0
102
RTVSPropertyOp28
 70
     0
102
RTVSPropertyOp29
 70
     0
102
RTVSPropertyOp30
 70
     0
102
RTVSPropertyOp31
 70
     0
102
RTVSPropertyOp32
 70
     0
102
RTVSPropertyOp33
 70
     0
102
RTVSPropertyOp34
 70
     0
102
RTVSPropertyOp35
 70
     0
102
RTVSPropertyOp36
 70
     0
102
RTVSPropertyOp37
 70
     0
102
RTVSPropertyOp38
 70
     0
102
RTVSPropertyOp39
 70
     0
102
RTVSPropertyOp40
 70
     0
102
RTVSPropertyOp41
 70
     0
102
RTVSPropertyOp42
 70
     0
102
RTVSPropertyOp43
 70
     0
102
RTVSPropertyOp44
 70
     0
102
RTVSPropertyOp45
 70
     0
102
RTVSPropertyOp46
 70
     0
102
RTVSPropertyOp47
 70
     0
102
RTVSPropertyOp48
 70
     0
102
RTVSPropertyOp49
 70
     0
102
RTVSPropertyOp50
 70
     0
102
RTVSPropertyOp51
 70
     0
102
RTVSPropertyOp52
 70
     0
102
RTVSPropertyOp53
 70
     0
102
RTVSPropertyOp54
 70
     0
102
RTVSPropertyOp55
 70
     0
102
RTVSPropertyOp56
 70
     0
102
RTVSPropertyOp57
 70
     0
102
RTVSPost2010Prop28
280
     0
102
RTVSPost2010PropOp28
 70
     0
102
RTVSPost2010Prop29
280
     1
102
RTVSPost2010PropOp29
 70
     0
102
RTVSPost2010Prop30
280
     1
102
RTVSPost2010PropOp30
 70
     0
102
RTVSPost2010Prop31
280
     0
102
RTVSPost2010PropOp31
 70
     0
102
RTVSPost2010Prop32
280
     0
102
RTVSPost2010PropOp32
 70
     0
102
RTVSPost2010Prop33
280
     0
102
RTVSPost2010PropOp33
 70
     0
102
RTVSPost2010Prop34
280
     0
102
RTVSPost2010PropOp34
 70
     0
102
RTVSPost2010Prop35
280
     0
102
RTVSPost2010PropOp35
 70
     0
102
RTVSPost2010Prop36
280
     0
102
RTVSPost2010PropOp36
 70
     0
102
RTVSPost2010Prop37
 90
       50
102
RTVSPost2010PropOp37
 70
     0
102
RTVSPost2010Prop38
140
0.0
102
RTVSPost2010PropOp38
 70
     0
102
RTVSPost2010Prop39
140
1.0
102
RTVSPost2010PropOp39
 70
     0
102
RTVSPost2010Prop40
 90
        0
102
RTVSPost2010PropOp40
 70
     0
102
RTVSPost2010Prop41ColorIndex
 90
       18
102
RTVSPost2010Prop41ColorRGB
 90
        0
102
RTVSPost2010PropOp41
 70
     0
102
RTVSPost2010Prop42
 90
       50
102
RTVSPost2010PropOp42
 70
     0
102
RTVSPost2010Prop43
 90
        3
102
RTVSPost2010PropOp43
 70
     0
102
RTVSPost2010Prop44ColorIndex
 90
        5
102
RTVSPost2010Prop44ColorRGB
 90
      255
102
RTVSPost2010PropOp44
 70
     0
102
RTVSPost2010Prop45
280
     0
102
RTVSPost2010PropOp45
 70
     0
102
RTVSPost2010Prop46
 90
       50
102
RTVSPost2010PropOp46
 70
     0
102
RTVSPost2010Prop47
 90
       50
102
RTVSPost2010PropOp47
 70
     0
102
RTVSPost2010Prop48
 90
       50
102
RTVSPost2010PropOp48
 70
     0
102
RTVSPost2010Prop49
280
     0
102
RTVSPost2010PropOp49
 70
     0
102
RTVSPost2010Prop50
 90
       50
102
RTVSPost2010PropOp50
 70
     0
102
RTVSPost2010Prop51ColorIndex
 90
      256
102
RTVSPost2010Prop51ColorRGB
 90
-16777216
102
RTVSPost2010PropOp51
 70
     0
102
RTVSPost2010Prop52
140
1.0
102
RTVSPost2010PropOp52
 70
     0
102
RTVSPost2010Prop53
 90
        2
102
RTVSPost2010PropOp53
 70
     0
102
RTVSPost2010Prop54
  1
strokes_ogs.tif
102
RTVSPost2010PropOp54
 70
     0
102
RTVSPost2010Prop55
280
     0
102
RTVSPost2010PropOp55
 70
     0
102
RTVSPost2010Prop56
140
1.0
102
RTVSPost2010PropOp56
 70
     0
102
RTVSPost2010Prop57
140
1.0
102
RTVSPost2010PropOp57
 70
     0
  0
XRECORD
  5
311
102
{ACAD_REACTORS
330
310
102
}
330
310
100
AcDbXrecord
280
     1
102
RTVSPropertyOp0
 70
     1
102
RTVSPropertyOp1
 70
     1
102
RTVSPropertyOp2
 70
     1
102
RTVSPropertyOp3
 70
     1
102
RTVSPropertyOp4
 70
     1
102
RTVSPropertyOp5
 70
     1
102
RTVSPropertyOp6
 70
     1
102
RTVSPropertyOp7
 70
     1
102
RTVSPropertyOp8
 70
     1
102
RTVSPropertyOp9
 70
     1
102
RTVSPropertyOp10
 70
     1
102
RTVSPropertyOp11
 70
     1
102
RTVSPropertyOp12
 70
     1
102
RTVSPropertyOp13
 70
     1
102
RTVSPropertyOp14
 70
     1
102
RTVSPropertyOp15
 70
     1
102
RTVSPropertyOp16
 70
     1
102
RTVSPropertyOp17
 70
     1
102
RTVSPropertyOp18
 70
     1
102
RTVSPropertyOp19
 70
     1
102
RTVSPropertyOp20
 70
     1
102
RTVSPropertyOp21
 70
     1
102
RTVSPropertyOp22
 70
     1
102
RTVSPropertyOp23
 70
     1
102
RTVSPropertyOp24
 70
     1
102
RTVSPropertyOp25
 70
     1
102
RTVSPropertyOp26
 70
     1
102
RTVSPropertyOp27
 70
     1
102
RTVSPropertyOp28
 70
     1
102
RTVSPropertyOp29
 70
     1
102
RTVSPropertyOp30
 70
     1
102
RTVSPropertyOp31
 70
     1
102
RTVSPropertyOp32
 70
     1
102
RTVSPropertyOp33
 70
     1
102
RTVSPropertyOp34
 70
     1
102
RTVSPropertyOp35
 70
     1
102
RTVSPropertyOp36
 70
     1
102
RTVSPropertyOp37
 70
     1
102
RTVSPropertyOp38
 70
     1
102
RTVSPropertyOp39
 70
     1
102
RTVSPropertyOp40
 70
     1
102
RTVSPropertyOp41
 70
     1
102
RTVSPropertyOp42
 70
     1
102
RTVSPropertyOp43
 70
     1
102
RTVSPropertyOp44
 70
     1
102
RTVSPropertyOp45
 70
     1
102
RTVSPropertyOp46
 70
     1
102
RTVSPropertyOp47
 70
     1
102
RTVSPropertyOp48
 70
     1
102
RTVSPropertyOp49
 70
     1
102
RTVSPropertyOp50
 70
     1
102
RTVSPropertyOp51
 70
     0
102
RTVSPropertyOp52
 70
     0
102
RTVSPropertyOp53
 70
     1
102
RTVSPropertyOp54
 70
     1
102
RTVSPropertyOp55
 70
     1
102
RTVSPropertyOp56
 70
     1
102
RTVSPropertyOp57
 70
     1
102
RTVSPost2010Prop28
280
     0
102
RTVSPost2010PropOp28
 70
     1
102
RTVSPost2010Prop29
280
     1
102
RTVSPost2010PropOp29
 70
     1
102
RTVSPost2010Prop30
280
     1
102
RTVSPost2010PropOp30
 70
     1
102
RTVSPost2010Prop31
280
     0
102
RTVSPost2010PropOp31
 70
     1
102
RTVSPost2010Prop32
280
     0
102
RTVSPost2010PropOp32
 70
     1
102
RTVSPost2010Prop33
280
     0
102
RTVSPost2010PropOp33
 70
     1
102
RTVSPost2010Prop34
280
     0
102
RTVSPost2010PropOp34
 70
     1
102
RTVSPost2010Prop35
280
     0
102
RTVSPost2010PropOp35
 70
     1
102
RTVSPost2010Prop36
280
     0
102
RTVSPost2010PropOp36
 70
     1
102
RTVSPost2010Prop37
 90
       50
102
RTVSPost2010PropOp37
 70
     1
102
RTVSPost2010Prop38
140
0.0
102
RTVSPost2010PropOp38
 70
     1
102
RTVSPost2010Prop39
140
1.0
102
RTVSPost2010PropOp39
 70
     1
102
RTVSPost2010Prop40
 90
        0
102
RTVSPost2010PropOp40
 70
     1
102
RTVSPost2010Prop41ColorIndex
 90
       18
102
RTVSPost2010Prop41ColorRGB
 90
        0
102
RTVSPost2010PropOp41
 70
     1
102
RTVSPost2010Prop42
 90
       50
102
RTVSPost2010PropOp42
 70
     1
102
RTVSPost2010Prop43
 90
        3
102
RTVSPost2010PropOp43
 70
     1
102
RTVSPost2010Prop44ColorIndex
 90
        5
102
RTVSPost2010Prop44ColorRGB
 90
      255
102
RTVSPost2010PropOp44
 70
     1
102
RTVSPost2010Prop45
280
     0
102
RTVSPost2010PropOp45
 70
     1
102
RTVSPost2010Prop46
 90
       50
102
RTVSPost2010PropOp46
 70
     1
102
RTVSPost2010Prop47
 90
       50
102
RTVSPost2010PropOp47
 70
     1
102
RTVSPost2010Prop48
 90
       50
102
RTVSPost2010PropOp48
 70
     1
102
RTVSPost2010Prop49
280
     0
102
RTVSPost2010PropOp49
 70
     1
102
RTVSPost2010Prop50
 90
       50
102
RTVSPost2010PropOp50
 70
     1
102
RTVSPost2010Prop51ColorIndex
 90
      256
102
RTVSPost2010Prop51ColorRGB
 90
-16777216
102
RTVSPost2010PropOp51
 70
     0
102
RTVSPost2010Prop52
140
1.0
102
RTVSPost2010PropOp52
 70
     0
102
RTVSPost2010Prop53
 90
        2
102
RTVSPost2010PropOp53
 70
     1
102
RTVSPost2010Prop54
  1
strokes_ogs.tif
102
RTVSPost2010PropOp54
 70
     1
102
RTVSPost2010Prop55
280
     0
102
RTVSPost2010PropOp55
 70
     1
102
RTVSPost2010Prop56
140
1.0
102
RTVSPost2010PropOp56
 70
     1
102
RTVSPost2010Prop57
140
1.0
102
RTVSPost2010PropOp57
 70
     1
  0
XRECORD
  5
2F5
102
{ACAD_REACTORS
330
2F4
102
}
330
2F4
100
AcDbXrecord
280
     1
102
RTVSPropertyOp0
 70
     1
102
RTVSPropertyOp1
 70
     1
102
RTVSPropertyOp2
 70
     1
102
RTVSPropertyOp3
 70
     1
102
RTVSPropertyOp4
 70
     1
102
RTVSPropertyOp5
 70
     1
102
RTVSPropertyOp6
 70
     1
102
RTVSPropertyOp7
 70
     1
102
RTVSPropertyOp8
 70
     1
102
RTVSPropertyOp9
 70
     1
102
RTVSPropertyOp10
 70
     1
102
RTVSPropertyOp11
 70
     1
102
RTVSPropertyOp12
 70
     1
102
RTVSPropertyOp13
 70
     1
102
RTVSPropertyOp14
 70
     1
102
RTVSPropertyOp15
 70
     1
102
RTVSPropertyOp16
 70
     1
102
RTVSPropertyOp17
 70
     1
102
RTVSPropertyOp18
 70
     1
102
RTVSPropertyOp19
 70
     1
102
RTVSPropertyOp20
 70
     1
102
RTVSPropertyOp21
 70
     1
102
RTVSPropertyOp22
 70
     1
102
RTVSPropertyOp23
 70
     1
102
RTVSPropertyOp24
 70
     1
102
RTVSPropertyOp25
 70
     1
102
RTVSPropertyOp26
 70
     1
102
RTVSPropertyOp27
 70
     1
102
RTVSPropertyOp28
 70
     1
102
RTVSPropertyOp29
 70
     1
102
RTVSPropertyOp30
 70
     1
102
RTVSPropertyOp31
 70
     1
102
RTVSPropertyOp32
 70
     1
102
RTVSPropertyOp33
 70
     1
102
RTVSPropertyOp34
 70
     1
102
RTVSPropertyOp35
 70
     1
102
RTVSPropertyOp36
 70
     1
102
RTVSPropertyOp37
 70
     1
102
RTVSPropertyOp38
 70
     1
102
RTVSPropertyOp39
 70
     1
102
RTVSPropertyOp40
 70
     1
102
RTVSPropertyOp41
 70
     1
102
RTVSPropertyOp42
 70
     1
102
RTVSPropertyOp43
 70
     1
102
RTVSPropertyOp44
 70
     1
102
RTVSPropertyOp45
 70
     1
102
RTVSPropertyOp46
 70
     1
102
RTVSPropertyOp47
 70
     1
102
RTVSPropertyOp48
 70
     1
102
RTVSPropertyOp49
 70
     1
102
RTVSPropertyOp50
 70
     1
102
RTVSPropertyOp51
 70
     0
102
RTVSPropertyOp52
 70
     0
102
RTVSPropertyOp53
 70
     1
102
RTVSPropertyOp54
 70
     1
102
RTVSPropertyOp55
 70
     1
102
RTVSPropertyOp56
 70
     1
102
RTVSPropertyOp57
 70
     1
102
RTVSPost2010Prop28
280
     0
102
RTVSPost2010PropOp28
 70
     1
102
RTVSPost2010Prop29
280
     1
102
RTVSPost2010PropOp29
 70
     1
102
RTVSPost2010Prop30
280
     1
102
RTVSPost2010PropOp30
 70
     1
102
RTVSPost2010Prop31
280
     0
102
RTVSPost2010PropOp31
 70
     1
102
RTVSPost2010Prop32
280
     0
102
RTVSPost2010PropOp32
 70
     1
102
RTVSPost2010Prop33
280
     0
102
RTVSPost2010PropOp33
 70
     1
102
RTVSPost2010Prop34
280
     0
102
RTVSPost2010PropOp34
 70
     1
102
RTVSPost2010Prop35
280
     0
102
RTVSPost2010PropOp35
 70
     1
102
RTVSPost2010Prop36
280
     0
102
RTVSPost2010PropOp36
 70
     1
102
RTVSPost2010Prop37
 90
       50
102
RTVSPost2010PropOp37
 70
     1
102
RTVSPost2010Prop38
140
0.0
102
RTVSPost2010PropOp38
 70
     1
102
RTVSPost2010Prop39
140
1.0
102
RTVSPost2010PropOp39
 70
     1
102
RTVSPost2010Prop40
 90
        0
102
RTVSPost2010PropOp40
 70
     1
102
RTVSPost2010Prop41ColorIndex
 90
       18
102
RTVSPost2010Prop41ColorRGB
 90
        0
102
RTVSPost2010PropOp41
 70
     1
102
RTVSPost2010Prop42
 90
       50
102
RTVSPost2010PropOp42
 70
     1
102
RTVSPost2010Prop43
 90
        3
102
RTVSPost2010PropOp43
 70
     1
102
RTVSPost2010Prop44ColorIndex
 90
        5
102
RTVSPost2010Prop44ColorRGB
 90
      255
102
RTVSPost2010PropOp44
 70
     1
102
RTVSPost2010Prop45
280
     0
102
RTVSPost2010PropOp45
 70
     1
102
RTVSPost2010Prop46
 90
       50
102
RTVSPost2010PropOp46
 70
     1
102
RTVSPost2010Prop47
 90
       50
102
RTVSPost2010PropOp47
 70
     1
102
RTVSPost2010Prop48
 90
       50
102
RTVSPost2010PropOp48
 70
     1
102
RTVSPost2010Prop49
280
     0
102
RTVSPost2010PropOp49
 70
     1
102
RTVSPost2010Prop50
 90
       50
102
RTVSPost2010PropOp50
 70
     1
102
RTVSPost2010Prop51ColorIndex
 90
      256
102
RTVSPost2010Prop51ColorRGB
 90
-16777216
102
RTVSPost2010PropOp51
 70
     0
102
RTVSPost2010Prop52
140
1.0
102
RTVSPost2010PropOp52
 70
     0
102
RTVSPost2010Prop53
 90
        2
102
RTVSPost2010PropOp53
 70
     1
102
RTVSPost2010Prop54
  1
strokes_ogs.tif
102
RTVSPost2010PropOp54
 70
     1
102
RTVSPost2010Prop55
280
     0
102
RTVSPost2010PropOp55
 70
     1
102
RTVSPost2010Prop56
140
1.0
102
RTVSPost2010PropOp56
 70
     1
102
RTVSPost2010Prop57
140
1.0
102
RTVSPost2010PropOp57
 70
     1
  0
XRECORD
  5
2F7
102
{ACAD_REACTORS
330
2F6
102
}
330
2F6
100
AcDbXrecord
280
     1
102
RTVSPropertyOp0
 70
     1
102
RTVSPropertyOp1
 70
     1
102
RTVSPropertyOp2
 70
     1
102
RTVSPropertyOp3
 70
     1
102
RTVSPropertyOp4
 70
     1
102
RTVSPropertyOp5
 70
     1
102
RTVSPropertyOp6
 70
     1
102
RTVSPropertyOp7
 70
     1
102
RTVSPropertyOp8
 70
     1
102
RTVSPropertyOp9
 70
     1
102
RTVSPropertyOp10
 70
     1
102
RTVSPropertyOp11
 70
     1
102
RTVSPropertyOp12
 70
     1
102
RTVSPropertyOp13
 70
     1
102
RTVSPropertyOp14
 70
     1
102
RTVSPropertyOp15
 70
     1
102
RTVSPropertyOp16
 70
     1
102
RTVSPropertyOp17
 70
     1
102
RTVSPropertyOp18
 70
     1
102
RTVSPropertyOp19
 70
     1
102
RTVSPropertyOp20
 70
     1
102
RTVSPropertyOp21
 70
     1
102
RTVSPropertyOp22
 70
     1
102
RTVSPropertyOp23
 70
     1
102
RTVSPropertyOp24
 70
     1
102
RTVSPropertyOp25
 70
     1
102
RTVSPropertyOp26
 70
     1
102
RTVSPropertyOp27
 70
     1
102
RTVSPropertyOp28
 70
     1
102
RTVSPropertyOp29
 70
     1
102
RTVSPropertyOp30
 70
     1
102
RTVSPropertyOp31
 70
     1
102
RTVSPropertyOp32
 70
     1
102
RTVSPropertyOp33
 70
     1
102
RTVSPropertyOp34
 70
     1
102
RTVSPropertyOp35
 70
     1
102
RTVSPropertyOp36
 70
     1
102
RTVSPropertyOp37
 70
     1
102
RTVSPropertyOp38
 70
     1
102
RTVSPropertyOp39
 70
     1
102
RTVSPropertyOp40
 70
     1
102
RTVSPropertyOp41
 70
     1
102
RTVSPropertyOp42
 70
     1
102
RTVSPropertyOp43
 70
     1
102
RTVSPropertyOp44
 70
     1
102
RTVSPropertyOp45
 70
     1
102
RTVSPropertyOp46
 70
     1
102
RTVSPropertyOp47
 70
     1
102
RTVSPropertyOp48
 70
     1
102
RTVSPropertyOp49
 70
     1
102
RTVSPropertyOp50
 70
     1
102
RTVSPropertyOp51
 70
     0
102
RTVSPropertyOp52
 70
     0
102
RTVSPropertyOp53
 70
     1
102
RTVSPropertyOp54
 70
     1
102
RTVSPropertyOp55
 70
     1
102
RTVSPropertyOp56
 70
     1
102
RTVSPropertyOp57
 70
     1
102
RTVSPost2010Prop28
280
     0
102
RTVSPost2010PropOp28
 70
     1
102
RTVSPost2010Prop29
280
     1
102
RTVSPost2010PropOp29
 70
     1
102
RTVSPost2010Prop30
280
     1
102
RTVSPost2010PropOp30
 70
     1
102
RTVSPost2010Prop31
280
     0
102
RTVSPost2010PropOp31
 70
     1
102
RTVSPost2010Prop32
280
     0
102
RTVSPost2010PropOp32
 70
     1
102
RTVSPost2010Prop33
280
     0
102
RTVSPost2010PropOp33
 70
     1
102
RTVSPost2010Prop34
280
     0
102
RTVSPost2010PropOp34
 70
     1
102
RTVSPost2010Prop35
280
     0
102
RTVSPost2010PropOp35
 70
     1
102
RTVSPost2010Prop36
280
     0
102
RTVSPost2010PropOp36
 70
     1
102
RTVSPost2010Prop37
 90
       50
102
RTVSPost2010PropOp37
 70
     1
102
RTVSPost2010Prop38
140
0.0
102
RTVSPost2010PropOp38
 70
     1
102
RTVSPost2010Prop39
140
1.0
102
RTVSPost2010PropOp39
 70
     1
102
RTVSPost2010Prop40
 90
        0
102
RTVSPost2010PropOp40
 70
     1
102
RTVSPost2010Prop41ColorIndex
 90
       18
102
RTVSPost2010Prop41ColorRGB
 90
        0
102
RTVSPost2010PropOp41
 70
     1
102
RTVSPost2010Prop42
 90
       50
102
RTVSPost2010PropOp42
 70
     1
102
RTVSPost2010Prop43
 90
        3
102
RTVSPost2010PropOp43
 70
     1
102
RTVSPost2010Prop44ColorIndex
 90
        5
102
RTVSPost2010Prop44ColorRGB
 90
      255
102
RTVSPost2010PropOp44
 70
     1
102
RTVSPost2010Prop45
280
     0
102
RTVSPost2010PropOp45
 70
     1
102
RTVSPost2010Prop46
 90
       50
102
RTVSPost2010PropOp46
 70
     1
102
RTVSPost2010Prop47
 90
       50
102
RTVSPost2010PropOp47
 70
     1
102
RTVSPost2010Prop48
 90
       50
102
RTVSPost2010PropOp48
 70
     1
102
RTVSPost2010Prop49
280
     0
102
RTVSPost2010PropOp49
 70
     1
102
RTVSPost2010Prop50
 90
       50
102
RTVSPost2010PropOp50
 70
     1
102
RTVSPost2010Prop51ColorIndex
 90
      256
102
RTVSPost2010Prop51ColorRGB
 90
-16777216
102
RTVSPost2010PropOp51
 70
     0
102
RTVSPost2010Prop52
140
1.0
102
RTVSPost2010PropOp52
 70
     0
102
RTVSPost2010Prop53
 90
        2
102
RTVSPost2010PropOp53
 70
     1
102
RTVSPost2010Prop54
  1
strokes_ogs.tif
102
RTVSPost2010PropOp54
 70
     1
102
RTVSPost2010Prop55
280
     0
102
RTVSPost2010PropOp55
 70
     1
102
RTVSPost2010Prop56
140
1.0
102
RTVSPost2010PropOp56
 70
     1
102
RTVSPost2010Prop57
140
1.0
102
RTVSPost2010PropOp57
 70
     1
  0
XRECORD
  5
2F9
102
{ACAD_REACTORS
330
2F8
102
}
330
2F8
100
AcDbXrecord
280
     1
102
RTVSPropertyOp0
 70
     1
102
RTVSPropertyOp1
 70
     1
102
RTVSPropertyOp2
 70
     1
102
RTVSPropertyOp3
 70
     1
102
RTVSPropertyOp4
 70
     1
102
RTVSPropertyOp5
 70
     1
102
RTVSPropertyOp6
 70
     1
102
RTVSPropertyOp7
 70
     1
102
RTVSPropertyOp8
 70
     1
102
RTVSPropertyOp9
 70
     1
102
RTVSPropertyOp10
 70
     1
102
RTVSPropertyOp11
 70
     1
102
RTVSPropertyOp12
 70
     1
102
RTVSPropertyOp13
 70
     1
102
RTVSPropertyOp14
 70
     1
102
RTVSPropertyOp15
 70
     1
102
RTVSPropertyOp16
 70
     1
102
RTVSPropertyOp17
 70
     1
102
RTVSPropertyOp18
 70
     1
102
RTVSPropertyOp19
 70
     1
102
RTVSPropertyOp20
 70
     1
102
RTVSPropertyOp21
 70
     1
102
RTVSPropertyOp22
 70
     1
102
RTVSPropertyOp23
 70
     1
102
RTVSPropertyOp24
 70
     1
102
RTVSPropertyOp25
 70
     1
102
RTVSPropertyOp26
 70
     1
102
RTVSPropertyOp27
 70
     1
102
RTVSPropertyOp28
 70
     1
102
RTVSPropertyOp29
 70
     1
102
RTVSPropertyOp30
 70
     1
102
RTVSPropertyOp31
 70
     1
102
RTVSPropertyOp32
 70
     1
102
RTVSPropertyOp33
 70
     1
102
RTVSPropertyOp34
 70
     1
102
RTVSPropertyOp35
 70
     1
102
RTVSPropertyOp36
 70
     1
102
RTVSPropertyOp37
 70
     1
102
RTVSPropertyOp38
 70
     1
102
RTVSPropertyOp39
 70
     1
102
RTVSPropertyOp40
 70
     1
102
RTVSPropertyOp41
 70
     1
102
RTVSPropertyOp42
 70
     1
102
RTVSPropertyOp43
 70
     1
102
RTVSPropertyOp44
 70
     1
102
RTVSPropertyOp45
 70
     1
102
RTVSPropertyOp46
 70
     1
102
RTVSPropertyOp47
 70
     1
102
RTVSPropertyOp48
 70
     1
102
RTVSPropertyOp49
 70
     1
102
RTVSPropertyOp50
 70
     1
102
RTVSPropertyOp51
 70
     0
102
RTVSPropertyOp52
 70
     0
102
RTVSPropertyOp53
 70
     1
102
RTVSPropertyOp54
 70
     1
102
RTVSPropertyOp55
 70
     1
102
RTVSPropertyOp56
 70
     1
102
RTVSPropertyOp57
 70
     1
102
RTVSPost2010Prop28
280
     0
102
RTVSPost2010PropOp28
 70
     1
102
RTVSPost2010Prop29
280
     1
102
RTVSPost2010PropOp29
 70
     1
102
RTVSPost2010Prop30
280
     1
102
RTVSPost2010PropOp30
 70
     1
102
RTVSPost2010Prop31
280
     0
102
RTVSPost2010PropOp31
 70
     1
102
RTVSPost2010Prop32
280
     0
102
RTVSPost2010PropOp32
 70
     1
102
RTVSPost2010Prop33
280
     0
102
RTVSPost2010PropOp33
 70
     1
102
RTVSPost2010Prop34
280
     0
102
RTVSPost2010PropOp34
 70
     1
102
RTVSPost2010Prop35
280
     0
102
RTVSPost2010PropOp35
 70
     1
102
RTVSPost2010Prop36
280
     0
102
RTVSPost2010PropOp36
 70
     1
102
RTVSPost2010Prop37
 90
       50
102
RTVSPost2010PropOp37
 70
     1
102
RTVSPost2010Prop38
140
0.0
102
RTVSPost2010PropOp38
 70
     1
102
RTVSPost2010Prop39
140
1.0
102
RTVSPost2010PropOp39
 70
     1
102
RTVSPost2010Prop40
 90
        0
102
RTVSPost2010PropOp40
 70
     1
102
RTVSPost2010Prop41ColorIndex
 90
       18
102
RTVSPost2010Prop41ColorRGB
 90
        0
102
RTVSPost2010PropOp41
 70
     1
102
RTVSPost2010Prop42
 90
       50
102
RTVSPost2010PropOp42
 70
     1
102
RTVSPost2010Prop43
 90
        3
102
RTVSPost2010PropOp43
 70
     1
102
RTVSPost2010Prop44ColorIndex
 90
        5
102
RTVSPost2010Prop44ColorRGB
 90
      255
102
RTVSPost2010PropOp44
 70
     1
102
RTVSPost2010Prop45
280
     0
102
RTVSPost2010PropOp45
 70
     1
102
RTVSPost2010Prop46
 90
       50
102
RTVSPost2010PropOp46
 70
     1
102
RTVSPost2010Prop47
 90
       50
102
RTVSPost2010PropOp47
 70
     1
102
RTVSPost2010Prop48
 90
       50
102
RTVSPost2010PropOp48
 70
     1
102
RTVSPost2010Prop49
280
     0
102
RTVSPost2010PropOp49
 70
     1
102
RTVSPost2010Prop50
 90
       50
102
RTVSPost2010PropOp50
 70
     1
102
RTVSPost2010Prop51ColorIndex
 90
      256
102
RTVSPost2010Prop51ColorRGB
 90
-16777216
102
RTVSPost2010PropOp51
 70
     0
102
RTVSPost2010Prop52
140
1.0
102
RTVSPost2010PropOp52
 70
     0
102
RTVSPost2010Prop53
 90
        2
102
RTVSPost2010PropOp53
 70
     1
102
RTVSPost2010Prop54
  1
strokes_ogs.tif
102
RTVSPost2010PropOp54
 70
     1
102
RTVSPost2010Prop55
280
     0
102
RTVSPost2010PropOp55
 70
     1
102
RTVSPost2010Prop56
140
1.0
102
RTVSPost2010PropOp56
 70
     1
102
RTVSPost2010Prop57
140
1.0
102
RTVSPost2010PropOp57
 70
     1
  0
XRECORD
  5
2FB
102
{ACAD_REACTORS
330
2FA
102
}
330
2FA
100
AcDbXrecord
280
     1
102
RTVSPropertyOp0
 70
     1
102
RTVSPropertyOp1
 70
     1
102
RTVSPropertyOp2
 70
     1
102
RTVSPropertyOp3
 70
     1
102
RTVSPropertyOp4
 70
     1
102
RTVSPropertyOp5
 70
     1
102
RTVSPropertyOp6
 70
     1
102
RTVSPropertyOp7
 70
     1
102
RTVSPropertyOp8
 70
     1
102
RTVSPropertyOp9
 70
     1
102
RTVSPropertyOp10
 70
     1
102
RTVSPropertyOp11
 70
     1
102
RTVSPropertyOp12
 70
     1
102
RTVSPropertyOp13
 70
     1
102
RTVSPropertyOp14
 70
     1
102
RTVSPropertyOp15
 70
     1
102
RTVSPropertyOp16
 70
     1
102
RTVSPropertyOp17
 70
     1
102
RTVSPropertyOp18
 70
     1
102
RTVSPropertyOp19
 70
     1
102
RTVSPropertyOp20
 70
     1
102
RTVSPropertyOp21
 70
     1
102
RTVSPropertyOp22
 70
     1
102
RTVSPropertyOp23
 70
     1
102
RTVSPropertyOp24
 70
     1
102
RTVSPropertyOp25
 70
     1
102
RTVSPropertyOp26
 70
     1
102
RTVSPropertyOp27
 70
     1
102
RTVSPropertyOp28
 70
     1
102
RTVSPropertyOp29
 70
     1
102
RTVSPropertyOp30
 70
     1
102
RTVSPropertyOp31
 70
     1
102
RTVSPropertyOp32
 70
     1
102
RTVSPropertyOp33
 70
     1
102
RTVSPropertyOp34
 70
     1
102
RTVSPropertyOp35
 70
     1
102
RTVSPropertyOp36
 70
     1
102
RTVSPropertyOp37
 70
     1
102
RTVSPropertyOp38
 70
     1
102
RTVSPropertyOp39
 70
     1
102
RTVSPropertyOp40
 70
     1
102
RTVSPropertyOp41
 70
     1
102
RTVSPropertyOp42
 70
     1
102
RTVSPropertyOp43
 70
     1
102
RTVSPropertyOp44
 70
     1
102
RTVSPropertyOp45
 70
     1
102
RTVSPropertyOp46
 70
     1
102
RTVSPropertyOp47
 70
     1
102
RTVSPropertyOp48
 70
     1
102
RTVSPropertyOp49
 70
     1
102
RTVSPropertyOp50
 70
     1
102
RTVSPropertyOp51
 70
     0
102
RTVSPropertyOp52
 70
     0
102
RTVSPropertyOp53
 70
     1
102
RTVSPropertyOp54
 70
     1
102
RTVSPropertyOp55
 70
     1
102
RTVSPropertyOp56
 70
     1
102
RTVSPropertyOp57
 70
     1
102
RTVSPost2010Prop28
280
     0
102
RTVSPost2010PropOp28
 70
     1
102
RTVSPost2010Prop29
280
     1
102
RTVSPost2010PropOp29
 70
     1
102
RTVSPost2010Prop30
280
     1
102
RTVSPost2010PropOp30
 70
     1
102
RTVSPost2010Prop31
280
     0
102
RTVSPost2010PropOp31
 70
     1
102
RTVSPost2010Prop32
280
     0
102
RTVSPost2010PropOp32
 70
     1
102
RTVSPost2010Prop33
280
     0
102
RTVSPost2010PropOp33
 70
     1
102
RTVSPost2010Prop34
280
     0
102
RTVSPost2010PropOp34
 70
     1
102
RTVSPost2010Prop35
280
     0
102
RTVSPost2010PropOp35
 70
     1
102
RTVSPost2010Prop36
280
     0
102
RTVSPost2010PropOp36
 70
     1
102
RTVSPost2010Prop37
 90
       50
102
RTVSPost2010PropOp37
 70
     1
102
RTVSPost2010Prop38
140
0.0
102
RTVSPost2010PropOp38
 70
     1
102
RTVSPost2010Prop39
140
1.0
102
RTVSPost2010PropOp39
 70
     1
102
RTVSPost2010Prop40
 90
        0
102
RTVSPost2010PropOp40
 70
     1
102
RTVSPost2010Prop41ColorIndex
 90
       18
102
RTVSPost2010Prop41ColorRGB
 90
        0
102
RTVSPost2010PropOp41
 70
     1
102
RTVSPost2010Prop42
 90
       50
102
RTVSPost2010PropOp42
 70
     1
102
RTVSPost2010Prop43
 90
        3
102
RTVSPost2010PropOp43
 70
     1
102
RTVSPost2010Prop44ColorIndex
 90
        5
102
RTVSPost2010Prop44ColorRGB
 90
      255
102
RTVSPost2010PropOp44
 70
     1
102
RTVSPost2010Prop45
280
     0
102
RTVSPost2010PropOp45
 70
     1
102
RTVSPost2010Prop46
 90
       50
102
RTVSPost2010PropOp46
 70
     1
102
RTVSPost2010Prop47
 90
       50
102
RTVSPost2010PropOp47
 70
     1
102
RTVSPost2010Prop48
 90
       50
102
RTVSPost2010PropOp48
 70
     1
102
RTVSPost2010Prop49
280
     0
102
RTVSPost2010PropOp49
 70
     1
102
RTVSPost2010Prop50
 90
       50
102
RTVSPost2010PropOp50
 70
     1
102
RTVSPost2010Prop51ColorIndex
 90
      256
102
RTVSPost2010Prop51ColorRGB
 90
-16777216
102
RTVSPost2010PropOp51
 70
     0
102
RTVSPost2010Prop52
140
1.0
102
RTVSPost2010PropOp52
 70
     0
102
RTVSPost2010Prop53
 90
        2
102
RTVSPost2010PropOp53
 70
     1
102
RTVSPost2010Prop54
  1
strokes_ogs.tif
102
RTVSPost2010PropOp54
 70
     1
102
RTVSPost2010Prop55
280
     0
102
RTVSPost2010PropOp55
 70
     1
102
RTVSPost2010Prop56
140
1.0
102
RTVSPost2010PropOp56
 70
     1
102
RTVSPost2010Prop57
140
1.0
102
RTVSPost2010PropOp57
 70
     1
  0
XRECORD
  5
301
102
{ACAD_REACTORS
330
300
102
}
330
300
100
AcDbXrecord
280
     1
102
RTVSPropertyOp0
 70
     1
102
RTVSPropertyOp1
 70
     1
102
RTVSPropertyOp2
 70
     1
102
RTVSPropertyOp3
 70
     1
102
RTVSPropertyOp4
 70
     1
102
RTVSPropertyOp5
 70
     1
102
RTVSPropertyOp6
 70
     1
102
RTVSPropertyOp7
 70
     1
102
RTVSPropertyOp8
 70
     1
102
RTVSPropertyOp9
 70
     1
102
RTVSPropertyOp10
 70
     1
102
RTVSPropertyOp11
 70
     1
102
RTVSPropertyOp12
 70
     1
102
RTVSPropertyOp13
 70
     1
102
RTVSPropertyOp14
 70
     1
102
RTVSPropertyOp15
 70
     1
102
RTVSPropertyOp16
 70
     1
102
RTVSPropertyOp17
 70
     1
102
RTVSPropertyOp18
 70
     1
102
RTVSPropertyOp19
 70
     1
102
RTVSPropertyOp20
 70
     1
102
RTVSPropertyOp21
 70
     1
102
RTVSPropertyOp22
 70
     1
102
RTVSPropertyOp23
 70
     1
102
RTVSPropertyOp24
 70
     1
102
RTVSPropertyOp25
 70
     1
102
RTVSPropertyOp26
 70
     1
102
RTVSPropertyOp27
 70
     1
102
RTVSPropertyOp28
 70
     1
102
RTVSPropertyOp29
 70
     1
102
RTVSPropertyOp30
 70
     1
102
RTVSPropertyOp31
 70
     1
102
RTVSPropertyOp32
 70
     1
102
RTVSPropertyOp33
 70
     1
102
RTVSPropertyOp34
 70
     1
102
RTVSPropertyOp35
 70
     1
102
RTVSPropertyOp36
 70
     1
102
RTVSPropertyOp37
 70
     1
102
RTVSPropertyOp38
 70
     1
102
RTVSPropertyOp39
 70
     1
102
RTVSPropertyOp40
 70
     1
102
RTVSPropertyOp41
 70
     1
102
RTVSPropertyOp42
 70
     1
102
RTVSPropertyOp43
 70
     1
102
RTVSPropertyOp44
 70
     1
102
RTVSPropertyOp45
 70
     1
102
RTVSPropertyOp46
 70
     1
102
RTVSPropertyOp47
 70
     1
102
RTVSPropertyOp48
 70
     1
102
RTVSPropertyOp49
 70
     1
102
RTVSPropertyOp50
 70
     1
102
RTVSPropertyOp51
 70
     0
102
RTVSPropertyOp52
 70
     0
102
RTVSPropertyOp53
 70
     1
102
RTVSPropertyOp54
 70
     1
102
RTVSPropertyOp55
 70
     1
102
RTVSPropertyOp56
 70
     1
102
RTVSPropertyOp57
 70
     1
102
RTVSPost2010Prop28
280
     0
102
RTVSPost2010PropOp28
 70
     1
102
RTVSPost2010Prop29
280
     1
102
RTVSPost2010PropOp29
 70
     1
102
RTVSPost2010Prop30
280
     1
102
RTVSPost2010PropOp30
 70
     1
102
RTVSPost2010Prop31
280
     0
102
RTVSPost2010PropOp31
 70
     1
102
RTVSPost2010Prop32
280
     0
102
RTVSPost2010PropOp32
 70
     1
102
RTVSPost2010Prop33
280
     0
102
RTVSPost2010PropOp33
 70
     1
102
RTVSPost2010Prop34
280
     0
102
RTVSPost2010PropOp34
 70
     1
102
RTVSPost2010Prop35
280
     0
102
RTVSPost2010PropOp35
 70
     1
102
RTVSPost2010Prop36
280
     0
102
RTVSPost2010PropOp36
 70
     1
102
RTVSPost2010Prop37
 90
       50
102
RTVSPost2010PropOp37
 70
     1
102
RTVSPost2010Prop38
140
0.0
102
RTVSPost2010PropOp38
 70
     1
102
RTVSPost2010Prop39
140
1.0
102
RTVSPost2010PropOp39
 70
     1
102
RTVSPost2010Prop40
 90
        0
102
RTVSPost2010PropOp40
 70
     1
102
RTVSPost2010Prop41ColorIndex
 90
       18
102
RTVSPost2010Prop41ColorRGB
 90
        0
102
RTVSPost2010PropOp41
 70
     1
102
RTVSPost2010Prop42
 90
       50
102
RTVSPost2010PropOp42
 70
     1
102
RTVSPost2010Prop43
 90
        3
102
RTVSPost2010PropOp43
 70
     1
102
RTVSPost2010Prop44ColorIndex
 90
        5
102
RTVSPost2010Prop44ColorRGB
 90
      255
102
RTVSPost2010PropOp44
 70
     1
102
RTVSPost2010Prop45
280
     0
102
RTVSPost2010PropOp45
 70
     1
102
RTVSPost2010Prop46
 90
       50
102
RTVSPost2010PropOp46
 70
     1
102
RTVSPost2010Prop47
 90
       50
102
RTVSPost2010PropOp47
 70
     1
102
RTVSPost2010Prop48
 90
       50
102
RTVSPost2010PropOp48
 70
     1
102
RTVSPost2010Prop49
280
     0
102
RTVSPost2010PropOp49
 70
     1
102
RTVSPost2010Prop50
 90
       50
102
RTVSPost2010PropOp50
 70
     1
102
RTVSPost2010Prop51ColorIndex
 90
      256
102
RTVSPost2010Prop51ColorRGB
 90
-16777216
102
RTVSPost2010PropOp51
 70
     0
102
RTVSPost2010Prop52
140
1.0
102
RTVSPost2010PropOp52
 70
     0
102
RTVSPost2010Prop53
 90
        2
102
RTVSPost2010PropOp53
 70
     1
102
RTVSPost2010Prop54
  1
strokes_ogs.tif
102
RTVSPost2010PropOp54
 70
     1
102
RTVSPost2010Prop55
280
     0
102
RTVSPost2010PropOp55
 70
     1
102
RTVSPost2010Prop56
140
1.0
102
RTVSPost2010PropOp56
 70
     1
102
RTVSPost2010Prop57
140
1.0
102
RTVSPost2010PropOp57
 70
     1
  0
XRECORD
  5
315
102
{ACAD_REACTORS
330
314
102
}
330
314
100
AcDbXrecord
280
     1
102
RTVSPropertyOp0
 70
     0
102
RTVSPropertyOp1
 70
     0
102
RTVSPropertyOp2
 70
     0
102
RTVSPropertyOp3
 70
     0
102
RTVSPropertyOp4
 70
     0
102
RTVSPropertyOp5
 70
     0
102
RTVSPropertyOp6
 70
     0
102
RTVSPropertyOp7
 70
     0
102
RTVSPropertyOp8
 70
     0
102
RTVSPropertyOp9
 70
     0
102
RTVSPropertyOp10
 70
     0
102
RTVSPropertyOp11
 70
     0
102
RTVSPropertyOp12
 70
     0
102
RTVSPropertyOp13
 70
     0
102
RTVSPropertyOp14
 70
     2
102
RTVSPropertyOp15
 70
     0
102
RTVSPropertyOp16
 70
     0
102
RTVSPropertyOp17
 70
     0
102
RTVSPropertyOp18
 70
     0
102
RTVSPropertyOp19
 70
     0
102
RTVSPropertyOp20
 70
     0
102
RTVSPropertyOp21
 70
     0
102
RTVSPropertyOp22
 70
     0
102
RTVSPropertyOp23
 70
     0
102
RTVSPropertyOp24
 70
     0
102
RTVSPropertyOp25
 70
     0
102
RTVSPropertyOp26
 70
     0
102
RTVSPropertyOp27
 70
     0
102
RTVSPropertyOp28
 70
     0
102
RTVSPropertyOp29
 70
     0
102
RTVSPropertyOp30
 70
     0
102
RTVSPropertyOp31
 70
     0
102
RTVSPropertyOp32
 70
     0
102
RTVSPropertyOp33
 70
     0
102
RTVSPropertyOp34
 70
     0
102
RTVSPropertyOp35
 70
     0
102
RTVSPropertyOp36
 70
     0
102
RTVSPropertyOp37
 70
     0
102
RTVSPropertyOp38
 70
     0
102
RTVSPropertyOp39
 70
     0
102
RTVSPropertyOp40
 70
     0
102
RTVSPropertyOp41
 70
     0
102
RTVSPropertyOp42
 70
     0
102
RTVSPropertyOp43
 70
     0
102
RTVSPropertyOp44
 70
     0
102
RTVSPropertyOp45
 70
     0
102
RTVSPropertyOp46
 70
     0
102
RTVSPropertyOp47
 70
     0
102
RTVSPropertyOp48
 70
     0
102
RTVSPropertyOp49
 70
     0
102
RTVSPropertyOp50
 70
     0
102
RTVSPropertyOp51
 70
     0
102
RTVSPropertyOp52
 70
     0
102
RTVSPropertyOp53
 70
     0
102
RTVSPropertyOp54
 70
     0
102
RTVSPropertyOp55
 70
     0
102
RTVSPropertyOp56
 70
     0
102
RTVSPropertyOp57
 70
     0
102
RTVSPost2010Prop28
280
     0
102
RTVSPost2010PropOp28
 70
     0
102
RTVSPost2010Prop29
280
     1
102
RTVSPost2010PropOp29
 70
     0
102
RTVSPost2010Prop30
280
     1
102
RTVSPost2010PropOp30
 70
     0
102
RTVSPost2010Prop31
280
     0
102
RTVSPost2010PropOp31
 70
     0
102
RTVSPost2010Prop32
280
     0
102
RTVSPost2010PropOp32
 70
     0
102
RTVSPost2010Prop33
280
     0
102
RTVSPost2010PropOp33
 70
     0
102
RTVSPost2010Prop34
280
     0
102
RTVSPost2010PropOp34
 70
     0
102
RTVSPost2010Prop35
280
     0
102
RTVSPost2010PropOp35
 70
     0
102
RTVSPost2010Prop36
280
     0
102
RTVSPost2010PropOp36
 70
     0
102
RTVSPost2010Prop37
 90
       50
102
RTVSPost2010PropOp37
 70
     0
102
RTVSPost2010Prop38
140
0.0
102
RTVSPost2010PropOp38
 70
     0
102
RTVSPost2010Prop39
140
1.0
102
RTVSPost2010PropOp39
 70
     0
102
RTVSPost2010Prop40
 90
        0
102
RTVSPost2010PropOp40
 70
     0
102
RTVSPost2010Prop41ColorIndex
 90
       18
102
RTVSPost2010Prop41ColorRGB
 90
        0
102
RTVSPost2010PropOp41
 70
     0
102
RTVSPost2010Prop42
 90
       50
102
RTVSPost2010PropOp42
 70
     0
102
RTVSPost2010Prop43
 90
        3
102
RTVSPost2010PropOp43
 70
     0
102
RTVSPost2010Prop44ColorIndex
 90
        5
102
RTVSPost2010Prop44ColorRGB
 90
      255
102
RTVSPost2010PropOp44
 70
     0
102
RTVSPost2010Prop45
280
     0
102
RTVSPost2010PropOp45
 70
     0
102
RTVSPost2010Prop46
 90
       50
102
RTVSPost2010PropOp46
 70
     0
102
RTVSPost2010Prop47
 90
       50
102
RTVSPost2010PropOp47
 70
     0
102
RTVSPost2010Prop48
 90
       50
102
RTVSPost2010PropOp48
 70
     0
102
RTVSPost2010Prop49
280
     0
102
RTVSPost2010PropOp49
 70
     0
102
RTVSPost2010Prop50
 90
       50
102
RTVSPost2010PropOp50
 70
     0
102
RTVSPost2010Prop51ColorIndex
 90
      256
102
RTVSPost2010Prop51ColorRGB
 90
-16777216
102
RTVSPost2010PropOp51
 70
     0
102
RTVSPost2010Prop52
140
1.0
102
RTVSPost2010PropOp52
 70
     0
102
RTVSPost2010Prop53
 90
        2
102
RTVSPost2010PropOp53
 70
     0
102
RTVSPost2010Prop54
  1
strokes_ogs.tif
102
RTVSPost2010PropOp54
 70
     0
102
RTVSPost2010Prop55
280
     0
102
RTVSPost2010PropOp55
 70
     0
102
RTVSPost2010Prop56
140
1.0
102
RTVSPost2010PropOp56
 70
     0
102
RTVSPost2010Prop57
140
1.0
102
RTVSPost2010PropOp57
 70
     0
  0
XRECORD
  5
30F
102
{ACAD_REACTORS
330
30E
102
}
330
30E
100
AcDbXrecord
280
     1
102
RTVSPropertyOp0
 70
     1
102
RTVSPropertyOp1
 70
     1
102
RTVSPropertyOp2
 70
     1
102
RTVSPropertyOp3
 70
     1
102
RTVSPropertyOp4
 70
     1
102
RTVSPropertyOp5
 70
     1
102
RTVSPropertyOp6
 70
     1
102
RTVSPropertyOp7
 70
     1
102
RTVSPropertyOp8
 70
     1
102
RTVSPropertyOp9
 70
     1
102
RTVSPropertyOp10
 70
     1
102
RTVSPropertyOp11
 70
     1
102
RTVSPropertyOp12
 70
     1
102
RTVSPropertyOp13
 70
     1
102
RTVSPropertyOp14
 70
     1
102
RTVSPropertyOp15
 70
     1
102
RTVSPropertyOp16
 70
     1
102
RTVSPropertyOp17
 70
     1
102
RTVSPropertyOp18
 70
     1
102
RTVSPropertyOp19
 70
     1
102
RTVSPropertyOp20
 70
     1
102
RTVSPropertyOp21
 70
     1
102
RTVSPropertyOp22
 70
     1
102
RTVSPropertyOp23
 70
     1
102
RTVSPropertyOp24
 70
     1
102
RTVSPropertyOp25
 70
     1
102
RTVSPropertyOp26
 70
     1
102
RTVSPropertyOp27
 70
     1
102
RTVSPropertyOp28
 70
     1
102
RTVSPropertyOp29
 70
     1
102
RTVSPropertyOp30
 70
     1
102
RTVSPropertyOp31
 70
     1
102
RTVSPropertyOp32
 70
     1
102
RTVSPropertyOp33
 70
     1
102
RTVSPropertyOp34
 70
     1
102
RTVSPropertyOp35
 70
     1
102
RTVSPropertyOp36
 70
     1
102
RTVSPropertyOp37
 70
     1
102
RTVSPropertyOp38
 70
     1
102
RTVSPropertyOp39
 70
     1
102
RTVSPropertyOp40
 70
     1
102
RTVSPropertyOp41
 70
     1
102
RTVSPropertyOp42
 70
     1
102
RTVSPropertyOp43
 70
     1
102
RTVSPropertyOp44
 70
     1
102
RTVSPropertyOp45
 70
     1
102
RTVSPropertyOp46
 70
     1
102
RTVSPropertyOp47
 70
     1
102
RTVSPropertyOp48
 70
     1
102
RTVSPropertyOp49
 70
     1
102
RTVSPropertyOp50
 70
     1
102
RTVSPropertyOp51
 70
     0
102
RTVSPropertyOp52
 70
     0
102
RTVSPropertyOp53
 70
     1
102
RTVSPropertyOp54
 70
     1
102
RTVSPropertyOp55
 70
     1
102
RTVSPropertyOp56
 70
     1
102
RTVSPropertyOp57
 70
     1
102
RTVSPost2010Prop28
280
     0
102
RTVSPost2010PropOp28
 70
     1
102
RTVSPost2010Prop29
280
     1
102
RTVSPost2010PropOp29
 70
     1
102
RTVSPost2010Prop30
280
     1
102
RTVSPost2010PropOp30
 70
     1
102
RTVSPost2010Prop31
280
     0
102
RTVSPost2010PropOp31
 70
     1
102
RTVSPost2010Prop32
280
     0
102
RTVSPost2010PropOp32
 70
     1
102
RTVSPost2010Prop33
280
     0
102
RTVSPost2010PropOp33
 70
     1
102
RTVSPost2010Prop34
280
     0
102
RTVSPost2010PropOp34
 70
     1
102
RTVSPost2010Prop35
280
     0
102
RTVSPost2010PropOp35
 70
     1
102
RTVSPost2010Prop36
280
     0
102
RTVSPost2010PropOp36
 70
     1
102
RTVSPost2010Prop37
 90
       50
102
RTVSPost2010PropOp37
 70
     1
102
RTVSPost2010Prop38
140
0.0
102
RTVSPost2010PropOp38
 70
     1
102
RTVSPost2010Prop39
140
1.0
102
RTVSPost2010PropOp39
 70
     1
102
RTVSPost2010Prop40
 90
        0
102
RTVSPost2010PropOp40
 70
     1
102
RTVSPost2010Prop41ColorIndex
 90
       18
102
RTVSPost2010Prop41ColorRGB
 90
        0
102
RTVSPost2010PropOp41
 70
     1
102
RTVSPost2010Prop42
 90
       50
102
RTVSPost2010PropOp42
 70
     1
102
RTVSPost2010Prop43
 90
        3
102
RTVSPost2010PropOp43
 70
     1
102
RTVSPost2010Prop44ColorIndex
 90
        5
102
RTVSPost2010Prop44ColorRGB
 90
      255
102
RTVSPost2010PropOp44
 70
     1
102
RTVSPost2010Prop45
280
     0
102
RTVSPost2010PropOp45
 70
     1
102
RTVSPost2010Prop46
 90
       50
102
RTVSPost2010PropOp46
 70
     1
102
RTVSPost2010Prop47
 90
       50
102
RTVSPost2010PropOp47
 70
     1
102
RTVSPost2010Prop48
 90
       50
102
RTVSPost2010PropOp48
 70
     1
102
RTVSPost2010Prop49
280
     0
102
RTVSPost2010PropOp49
 70
     1
102
RTVSPost2010Prop50
 90
       50
102
RTVSPost2010PropOp50
 70
     1
102
RTVSPost2010Prop51ColorIndex
 90
      256
102
RTVSPost2010Prop51ColorRGB
 90
-16777216
102
RTVSPost2010PropOp51
 70
     0
102
RTVSPost2010Prop52
140
1.0
102
RTVSPost2010PropOp52
 70
     0
102
RTVSPost2010Prop53
 90
        2
102
RTVSPost2010PropOp53
 70
     1
102
RTVSPost2010Prop54
  1
strokes_ogs.tif
102
RTVSPost2010PropOp54
 70
     1
102
RTVSPost2010Prop55
280
     0
102
RTVSPost2010PropOp55
 70
     1
102
RTVSPost2010Prop56
140
1.0
102
RTVSPost2010PropOp56
 70
     1
102
RTVSPost2010Prop57
140
1.0
102
RTVSPost2010PropOp57
 70
     1
  0
XRECORD
  5
317
102
{ACAD_REACTORS
330
316
102
}
330
316
100
AcDbXrecord
280
     1
102
RTVSPropertyOp0
 70
     0
102
RTVSPropertyOp1
 70
     0
102
RTVSPropertyOp2
 70
     0
102
RTVSPropertyOp3
 70
     0
102
RTVSPropertyOp4
 70
     0
102
RTVSPropertyOp5
 70
     0
102
RTVSPropertyOp6
 70
     0
102
RTVSPropertyOp7
 70
     0
102
RTVSPropertyOp8
 70
     0
102
RTVSPropertyOp9
 70
     0
102
RTVSPropertyOp10
 70
     0
102
RTVSPropertyOp11
 70
     0
102
RTVSPropertyOp12
 70
     0
102
RTVSPropertyOp13
 70
     0
102
RTVSPropertyOp14
 70
     2
102
RTVSPropertyOp15
 70
     0
102
RTVSPropertyOp16
 70
     0
102
RTVSPropertyOp17
 70
     0
102
RTVSPropertyOp18
 70
     0
102
RTVSPropertyOp19
 70
     0
102
RTVSPropertyOp20
 70
     0
102
RTVSPropertyOp21
 70
     0
102
RTVSPropertyOp22
 70
     0
102
RTVSPropertyOp23
 70
     0
102
RTVSPropertyOp24
 70
     0
102
RTVSPropertyOp25
 70
     0
102
RTVSPropertyOp26
 70
     0
102
RTVSPropertyOp27
 70
     0
102
RTVSPropertyOp28
 70
     0
102
RTVSPropertyOp29
 70
     0
102
RTVSPropertyOp30
 70
     0
102
RTVSPropertyOp31
 70
     0
102
RTVSPropertyOp32
 70
     0
102
RTVSPropertyOp33
 70
     0
102
RTVSPropertyOp34
 70
     0
102
RTVSPropertyOp35
 70
     0
102
RTVSPropertyOp36
 70
     0
102
RTVSPropertyOp37
 70
     0
102
RTVSPropertyOp38
 70
     0
102
RTVSPropertyOp39
 70
     0
102
RTVSPropertyOp40
 70
     0
102
RTVSPropertyOp41
 70
     0
102
RTVSPropertyOp42
 70
     0
102
RTVSPropertyOp43
 70
     0
102
RTVSPropertyOp44
 70
     0
102
RTVSPropertyOp45
 70
     0
102
RTVSPropertyOp46
 70
     0
102
RTVSPropertyOp47
 70
     0
102
RTVSPropertyOp48
 70
     0
102
RTVSPropertyOp49
 70
     0
102
RTVSPropertyOp50
 70
     0
102
RTVSPropertyOp51
 70
     0
102
RTVSPropertyOp52
 70
     0
102
RTVSPropertyOp53
 70
     0
102
RTVSPropertyOp54
 70
     0
102
RTVSPropertyOp55
 70
     0
102
RTVSPropertyOp56
 70
     0
102
RTVSPropertyOp57
 70
     0
102
RTVSPost2010Prop28
280
     0
102
RTVSPost2010PropOp28
 70
     0
102
RTVSPost2010Prop29
280
     1
102
RTVSPost2010PropOp29
 70
     0
102
RTVSPost2010Prop30
280
     1
102
RTVSPost2010PropOp30
 70
     0
102
RTVSPost2010Prop31
280
     0
102
RTVSPost2010PropOp31
 70
     0
102
RTVSPost2010Prop32
280
     0
102
RTVSPost2010PropOp32
 70
     0
102
RTVSPost2010Prop33
280
     0
102
RTVSPost2010PropOp33
 70
     0
102
RTVSPost2010Prop34
280
     0
102
RTVSPost2010PropOp34
 70
     0
102
RTVSPost2010Prop35
280
     0
102
RTVSPost2010PropOp35
 70
     0
102
RTVSPost2010Prop36
280
     0
102
RTVSPost2010PropOp36
 70
     0
102
RTVSPost2010Prop37
 90
       50
102
RTVSPost2010PropOp37
 70
     0
102
RTVSPost2010Prop38
140
0.0
102
RTVSPost2010PropOp38
 70
     0
102
RTVSPost2010Prop39
140
1.0
102
RTVSPost2010PropOp39
 70
     0
102
RTVSPost2010Prop40
 90
        0
102
RTVSPost2010PropOp40
 70
     0
102
RTVSPost2010Prop41ColorIndex
 90
       18
102
RTVSPost2010Prop41ColorRGB
 90
        0
102
RTVSPost2010PropOp41
 70
     0
102
RTVSPost2010Prop42
 90
       50
102
RTVSPost2010PropOp42
 70
     0
102
RTVSPost2010Prop43
 90
        3
102
RTVSPost2010PropOp43
 70
     0
102
RTVSPost2010Prop44ColorIndex
 90
        5
102
RTVSPost2010Prop44ColorRGB
 90
      255
102
RTVSPost2010PropOp44
 70
     0
102
RTVSPost2010Prop45
280
     0
102
RTVSPost2010PropOp45
 70
     0
102
RTVSPost2010Prop46
 90
       50
102
RTVSPost2010PropOp46
 70
     0
102
RTVSPost2010Prop47
 90
       50
102
RTVSPost2010PropOp47
 70
     0
102
RTVSPost2010Prop48
 90
       50
102
RTVSPost2010PropOp48
 70
     0
102
RTVSPost2010Prop49
280
     0
102
RTVSPost2010PropOp49
 70
     0
102
RTVSPost2010Prop50
 90
       50
102
RTVSPost2010PropOp50
 70
     0
102
RTVSPost2010Prop51ColorIndex
 90
      256
102
RTVSPost2010Prop51ColorRGB
 90
-16777216
102
RTVSPost2010PropOp51
 70
     0
102
RTVSPost2010Prop52
140
1.0
102
RTVSPost2010PropOp52
 70
     0
102
RTVSPost2010Prop53
 90
        2
102
RTVSPost2010PropOp53
 70
     0
102
RTVSPost2010Prop54
  1
strokes_ogs.tif
102
RTVSPost2010PropOp54
 70
     0
102
RTVSPost2010Prop55
280
     0
102
RTVSPost2010PropOp55
 70
     0
102
RTVSPost2010Prop56
140
1.0
102
RTVSPost2010PropOp56
 70
     0
102
RTVSPost2010Prop57
140
1.0
102
RTVSPost2010PropOp57
 70
     0
  0
XRECORD
  5
305
102
{ACAD_REACTORS
330
304
102
}
330
304
100
AcDbXrecord
280
     1
102
RTVSPropertyOp0
 70
     1
102
RTVSPropertyOp1
 70
     1
102
RTVSPropertyOp2
 70
     1
102
RTVSPropertyOp3
 70
     1
102
RTVSPropertyOp4
 70
     1
102
RTVSPropertyOp5
 70
     1
102
RTVSPropertyOp6
 70
     1
102
RTVSPropertyOp7
 70
     1
102
RTVSPropertyOp8
 70
     1
102
RTVSPropertyOp9
 70
     1
102
RTVSPropertyOp10
 70
     1
102
RTVSPropertyOp11
 70
     1
102
RTVSPropertyOp12
 70
     1
102
RTVSPropertyOp13
 70
     1
102
RTVSPropertyOp14
 70
     1
102
RTVSPropertyOp15
 70
     1
102
RTVSPropertyOp16
 70
     1
102
RTVSPropertyOp17
 70
     1
102
RTVSPropertyOp18
 70
     1
102
RTVSPropertyOp19
 70
     1
102
RTVSPropertyOp20
 70
     1
102
RTVSPropertyOp21
 70
     1
102
RTVSPropertyOp22
 70
     1
102
RTVSPropertyOp23
 70
     1
102
RTVSPropertyOp24
 70
     1
102
RTVSPropertyOp25
 70
     1
102
RTVSPropertyOp26
 70
     1
102
RTVSPropertyOp27
 70
     1
102
RTVSPropertyOp28
 70
     1
102
RTVSPropertyOp29
 70
     1
102
RTVSPropertyOp30
 70
     1
102
RTVSPropertyOp31
 70
     1
102
RTVSPropertyOp32
 70
     1
102
RTVSPropertyOp33
 70
     1
102
RTVSPropertyOp34
 70
     1
102
RTVSPropertyOp35
 70
     1
102
RTVSPropertyOp36
 70
     1
102
RTVSPropertyOp37
 70
     1
102
RTVSPropertyOp38
 70
     1
102
RTVSPropertyOp39
 70
     1
102
RTVSPropertyOp40
 70
     1
102
RTVSPropertyOp41
 70
     1
102
RTVSPropertyOp42
 70
     1
102
RTVSPropertyOp43
 70
     1
102
RTVSPropertyOp44
 70
     1
102
RTVSPropertyOp45
 70
     1
102
RTVSPropertyOp46
 70
     1
102
RTVSPropertyOp47
 70
     1
102
RTVSPropertyOp48
 70
     1
102
RTVSPropertyOp49
 70
     1
102
RTVSPropertyOp50
 70
     1
102
RTVSPropertyOp51
 70
     0
102
RTVSPropertyOp52
 70
     0
102
RTVSPropertyOp53
 70
     1
102
RTVSPropertyOp54
 70
     1
102
RTVSPropertyOp55
 70
     1
102
RTVSPropertyOp56
 70
     1
102
RTVSPropertyOp57
 70
     1
102
RTVSPost2010Prop28
280
     0
102
RTVSPost2010PropOp28
 70
     1
102
RTVSPost2010Prop29
280
     1
102
RTVSPost2010PropOp29
 70
     1
102
RTVSPost2010Prop30
280
     1
102
RTVSPost2010PropOp30
 70
     1
102
RTVSPost2010Prop31
280
     0
102
RTVSPost2010PropOp31
 70
     1
102
RTVSPost2010Prop32
280
     0
102
RTVSPost2010PropOp32
 70
     1
102
RTVSPost2010Prop33
280
     0
102
RTVSPost2010PropOp33
 70
     1
102
RTVSPost2010Prop34
280
     0
102
RTVSPost2010PropOp34
 70
     1
102
RTVSPost2010Prop35
280
     0
102
RTVSPost2010PropOp35
 70
     1
102
RTVSPost2010Prop36
280
     0
102
RTVSPost2010PropOp36
 70
     1
102
RTVSPost2010Prop37
 90
       50
102
RTVSPost2010PropOp37
 70
     1
102
RTVSPost2010Prop38
140
0.0
102
RTVSPost2010PropOp38
 70
     1
102
RTVSPost2010Prop39
140
1.0
102
RTVSPost2010PropOp39
 70
     1
102
RTVSPost2010Prop40
 90
        0
102
RTVSPost2010PropOp40
 70
     1
102
RTVSPost2010Prop41ColorIndex
 90
       18
102
RTVSPost2010Prop41ColorRGB
 90
        0
102
RTVSPost2010PropOp41
 70
     1
102
RTVSPost2010Prop42
 90
       50
102
RTVSPost2010PropOp42
 70
     1
102
RTVSPost2010Prop43
 90
        3
102
RTVSPost2010PropOp43
 70
     1
102
RTVSPost2010Prop44ColorIndex
 90
        5
102
RTVSPost2010Prop44ColorRGB
 90
      255
102
RTVSPost2010PropOp44
 70
     1
102
RTVSPost2010Prop45
280
     0
102
RTVSPost2010PropOp45
 70
     1
102
RTVSPost2010Prop46
 90
       50
102
RTVSPost2010PropOp46
 70
     1
102
RTVSPost2010Prop47
 90
       50
102
RTVSPost2010PropOp47
 70
     1
102
RTVSPost2010Prop48
 90
       50
102
RTVSPost2010PropOp48
 70
     1
102
RTVSPost2010Prop49
280
     0
102
RTVSPost2010PropOp49
 70
     1
102
RTVSPost2010Prop50
 90
       50
102
RTVSPost2010PropOp50
 70
     1
102
RTVSPost2010Prop51ColorIndex
 90
      256
102
RTVSPost2010Prop51ColorRGB
 90
-16777216
102
RTVSPost2010PropOp51
 70
     0
102
RTVSPost2010Prop52
140
1.0
102
RTVSPost2010PropOp52
 70
     0
102
RTVSPost2010Prop53
 90
        2
102
RTVSPost2010PropOp53
 70
     1
102
RTVSPost2010Prop54
  1
strokes_ogs.tif
102
RTVSPost2010PropOp54
 70
     1
102
RTVSPost2010Prop55
280
     0
102
RTVSPost2010PropOp55
 70
     1
102
RTVSPost2010Prop56
140
1.0
102
RTVSPost2010PropOp56
 70
     1
102
RTVSPost2010Prop57
140
1.0
102
RTVSPost2010PropOp57
 70
     1
  0
XRECORD
  5
323
102
{ACAD_REACTORS
330
322
102
}
330
322
100
AcDbXrecord
280
     1
102
RTVSPropertyOp0
 70
     1
102
RTVSPropertyOp1
 70
     1
102
RTVSPropertyOp2
 70
     1
102
RTVSPropertyOp3
 70
     1
102
RTVSPropertyOp4
 70
     1
102
RTVSPropertyOp5
 70
     1
102
RTVSPropertyOp6
 70
     1
102
RTVSPropertyOp7
 70
     1
102
RTVSPropertyOp8
 70
     1
102
RTVSPropertyOp9
 70
     1
102
RTVSPropertyOp10
 70
     1
102
RTVSPropertyOp11
 70
     1
102
RTVSPropertyOp12
 70
     1
102
RTVSPropertyOp13
 70
     1
102
RTVSPropertyOp14
 70
     1
102
RTVSPropertyOp15
 70
     1
102
RTVSPropertyOp16
 70
     1
102
RTVSPropertyOp17
 70
     1
102
RTVSPropertyOp18
 70
     1
102
RTVSPropertyOp19
 70
     1
102
RTVSPropertyOp20
 70
     1
102
RTVSPropertyOp21
 70
     1
102
RTVSPropertyOp22
 70
     1
102
RTVSPropertyOp23
 70
     1
102
RTVSPropertyOp24
 70
     1
102
RTVSPropertyOp25
 70
     1
102
RTVSPropertyOp26
 70
     1
102
RTVSPropertyOp27
 70
     1
102
RTVSPropertyOp28
 70
     1
102
RTVSPropertyOp29
 70
     1
102
RTVSPropertyOp30
 70
     1
102
RTVSPropertyOp31
 70
     1
102
RTVSPropertyOp32
 70
     1
102
RTVSPropertyOp33
 70
     1
102
RTVSPropertyOp34
 70
     1
102
RTVSPropertyOp35
 70
     1
102
RTVSPropertyOp36
 70
     1
102
RTVSPropertyOp37
 70
     1
102
RTVSPropertyOp38
 70
     1
102
RTVSPropertyOp39
 70
     1
102
RTVSPropertyOp40
 70
     1
102
RTVSPropertyOp41
 70
     1
102
RTVSPropertyOp42
 70
     1
102
RTVSPropertyOp43
 70
     1
102
RTVSPropertyOp44
 70
     1
102
RTVSPropertyOp45
 70
     1
102
RTVSPropertyOp46
 70
     1
102
RTVSPropertyOp47
 70
     1
102
RTVSPropertyOp48
 70
     1
102
RTVSPropertyOp49
 70
     1
102
RTVSPropertyOp50
 70
     1
102
RTVSPropertyOp51
 70
     0
102
RTVSPropertyOp52
 70
     0
102
RTVSPropertyOp53
 70
     1
102
RTVSPropertyOp54
 70
     1
102
RTVSPropertyOp55
 70
     1
102
RTVSPropertyOp56
 70
     1
102
RTVSPropertyOp57
 70
     1
102
RTVSPost2010Prop28
280
     0
102
RTVSPost2010PropOp28
 70
     1
102
RTVSPost2010Prop29
280
     1
102
RTVSPost2010PropOp29
 70
     1
102
RTVSPost2010Prop30
280
     1
102
RTVSPost2010PropOp30
 70
     1
102
RTVSPost2010Prop31
280
     0
102
RTVSPost2010PropOp31
 70
     1
102
RTVSPost2010Prop32
280
     0
102
RTVSPost2010PropOp32
 70
     1
102
RTVSPost2010Prop33
280
     0
102
RTVSPost2010PropOp33
 70
     1
102
RTVSPost2010Prop34
280
     0
102
RTVSPost2010PropOp34
 70
     1
102
RTVSPost2010Prop35
280
     0
102
RTVSPost2010PropOp35
 70
     1
102
RTVSPost2010Prop36
280
     0
102
RTVSPost2010PropOp36
 70
     1
102
RTVSPost2010Prop37
 90
       50
102
RTVSPost2010PropOp37
 70
     1
102
RTVSPost2010Prop38
140
0.0
102
RTVSPost2010PropOp38
 70
     1
102
RTVSPost2010Prop39
140
1.0
102
RTVSPost2010PropOp39
 70
     1
102
RTVSPost2010Prop40
 90
        0
102
RTVSPost2010PropOp40
 70
     1
102
RTVSPost2010Prop41ColorIndex
 90
       18
102
RTVSPost2010Prop41ColorRGB
 90
        0
102
RTVSPost2010PropOp41
 70
     1
102
RTVSPost2010Prop42
 90
       50
102
RTVSPost2010PropOp42
 70
     1
102
RTVSPost2010Prop43
 90
        3
102
RTVSPost2010PropOp43
 70
     1
102
RTVSPost2010Prop44ColorIndex
 90
        5
102
RTVSPost2010Prop44ColorRGB
 90
      255
102
RTVSPost2010PropOp44
 70
     1
102
RTVSPost2010Prop45
280
     0
102
RTVSPost2010PropOp45
 70
     1
102
RTVSPost2010Prop46
 90
       50
102
RTVSPost2010PropOp46
 70
     1
102
RTVSPost2010Prop47
 90
       50
102
RTVSPost2010PropOp47
 70
     1
102
RTVSPost2010Prop48
 90
       50
102
RTVSPost2010PropOp48
 70
     1
102
RTVSPost2010Prop49
280
     0
102
RTVSPost2010PropOp49
 70
     1
102
RTVSPost2010Prop50
 90
       50
102
RTVSPost2010PropOp50
 70
     1
102
RTVSPost2010Prop51ColorIndex
 90
      256
102
RTVSPost2010Prop51ColorRGB
 90
-16777216
102
RTVSPost2010PropOp51
 70
     0
102
RTVSPost2010Prop52
140
1.0
102
RTVSPost2010PropOp52
 70
     0
102
RTVSPost2010Prop53
 90
        2
102
RTVSPost2010PropOp53
 70
     1
102
RTVSPost2010Prop54
  1
strokes_ogs.tif
102
RTVSPost2010PropOp54
 70
     1
102
RTVSPost2010Prop55
280
     0
102
RTVSPost2010PropOp55
 70
     1
102
RTVSPost2010Prop56
140
1.0
102
RTVSPost2010PropOp56
 70
     1
102
RTVSPost2010Prop57
140
1.0
102
RTVSPost2010PropOp57
 70
     1
  0
XRECORD
  5
321
102
{ACAD_REACTORS
330
320
102
}
330
320
100
AcDbXrecord
280
     1
102
RTVSPropertyOp0
 70
     1
102
RTVSPropertyOp1
 70
     1
102
RTVSPropertyOp2
 70
     1
102
RTVSPropertyOp3
 70
     1
102
RTVSPropertyOp4
 70
     1
102
RTVSPropertyOp5
 70
     1
102
RTVSPropertyOp6
 70
     1
102
RTVSPropertyOp7
 70
     1
102
RTVSPropertyOp8
 70
     1
102
RTVSPropertyOp9
 70
     1
102
RTVSPropertyOp10
 70
     1
102
RTVSPropertyOp11
 70
     1
102
RTVSPropertyOp12
 70
     1
102
RTVSPropertyOp13
 70
     1
102
RTVSPropertyOp14
 70
     1
102
RTVSPropertyOp15
 70
     1
102
RTVSPropertyOp16
 70
     1
102
RTVSPropertyOp17
 70
     1
102
RTVSPropertyOp18
 70
     1
102
RTVSPropertyOp19
 70
     1
102
RTVSPropertyOp20
 70
     1
102
RTVSPropertyOp21
 70
     1
102
RTVSPropertyOp22
 70
     1
102
RTVSPropertyOp23
 70
     1
102
RTVSPropertyOp24
 70
     1
102
RTVSPropertyOp25
 70
     1
102
RTVSPropertyOp26
 70
     1
102
RTVSPropertyOp27
 70
     1
102
RTVSPropertyOp28
 70
     1
102
RTVSPropertyOp29
 70
     1
102
RTVSPropertyOp30
 70
     1
102
RTVSPropertyOp31
 70
     1
102
RTVSPropertyOp32
 70
     1
102
RTVSPropertyOp33
 70
     1
102
RTVSPropertyOp34
 70
     1
102
RTVSPropertyOp35
 70
     1
102
RTVSPropertyOp36
 70
     1
102
RTVSPropertyOp37
 70
     1
102
RTVSPropertyOp38
 70
     1
102
RTVSPropertyOp39
 70
     1
102
RTVSPropertyOp40
 70
     1
102
RTVSPropertyOp41
 70
     1
102
RTVSPropertyOp42
 70
     1
102
RTVSPropertyOp43
 70
     1
102
RTVSPropertyOp44
 70
     1
102
RTVSPropertyOp45
 70
     1
102
RTVSPropertyOp46
 70
     1
102
RTVSPropertyOp47
 70
     1
102
RTVSPropertyOp48
 70
     1
102
RTVSPropertyOp49
 70
     1
102
RTVSPropertyOp50
 70
     1
102
RTVSPropertyOp51
 70
     0
102
RTVSPropertyOp52
 70
     0
102
RTVSPropertyOp53
 70
     1
102
RTVSPropertyOp54
 70
     1
102
RTVSPropertyOp55
 70
     1
102
RTVSPropertyOp56
 70
     1
102
RTVSPropertyOp57
 70
     1
102
RTVSPost2010Prop28
280
     0
102
RTVSPost2010PropOp28
 70
     1
102
RTVSPost2010Prop29
280
     1
102
RTVSPost2010PropOp29
 70
     1
102
RTVSPost2010Prop30
280
     1
102
RTVSPost2010PropOp30
 70
     1
102
RTVSPost2010Prop31
280
     0
102
RTVSPost2010PropOp31
 70
     1
102
RTVSPost2010Prop32
280
     0
102
RTVSPost2010PropOp32
 70
     1
102
RTVSPost2010Prop33
280
     0
102
RTVSPost2010PropOp33
 70
     1
102
RTVSPost2010Prop34
280
     0
102
RTVSPost2010PropOp34
 70
     1
102
RTVSPost2010Prop35
280
     0
102
RTVSPost2010PropOp35
 70
     1
102
RTVSPost2010Prop36
280
     0
102
RTVSPost2010PropOp36
 70
     1
102
RTVSPost2010Prop37
 90
       50
102
RTVSPost2010PropOp37
 70
     1
102
RTVSPost2010Prop38
140
0.0
102
RTVSPost2010PropOp38
 70
     1
102
RTVSPost2010Prop39
140
1.0
102
RTVSPost2010PropOp39
 70
     1
102
RTVSPost2010Prop40
 90
        0
102
RTVSPost2010PropOp40
 70
     1
102
RTVSPost2010Prop41ColorIndex
 90
       18
102
RTVSPost2010Prop41ColorRGB
 90
        0
102
RTVSPost2010PropOp41
 70
     1
102
RTVSPost2010Prop42
 90
       50
102
RTVSPost2010PropOp42
 70
     1
102
RTVSPost2010Prop43
 90
        3
102
RTVSPost2010PropOp43
 70
     1
102
RTVSPost2010Prop44ColorIndex
 90
        5
102
RTVSPost2010Prop44ColorRGB
 90
      255
102
RTVSPost2010PropOp44
 70
     1
102
RTVSPost2010Prop45
280
     0
102
RTVSPost2010PropOp45
 70
     1
102
RTVSPost2010Prop46
 90
       50
102
RTVSPost2010PropOp46
 70
     1
102
RTVSPost2010Prop47
 90
       50
102
RTVSPost2010PropOp47
 70
     1
102
RTVSPost2010Prop48
 90
       50
102
RTVSPost2010PropOp48
 70
     1
102
RTVSPost2010Prop49
280
     0
102
RTVSPost2010PropOp49
 70
     1
102
RTVSPost2010Prop50
 90
       50
102
RTVSPost2010PropOp50
 70
     1
102
RTVSPost2010Prop51ColorIndex
 90
      256
102
RTVSPost2010Prop51ColorRGB
 90
-16777216
102
RTVSPost2010PropOp51
 70
     0
102
RTVSPost2010Prop52
140
1.0
102
RTVSPost2010PropOp52
 70
     0
102
RTVSPost2010Prop53
 90
        2
102
RTVSPost2010PropOp53
 70
     1
102
RTVSPost2010Prop54
  1
strokes_ogs.tif
102
RTVSPost2010PropOp54
 70
     1
102
RTVSPost2010Prop55
280
     0
102
RTVSPost2010PropOp55
 70
     1
102
RTVSPost2010Prop56
140
1.0
102
RTVSPost2010PropOp56
 70
     1
102
RTVSPost2010Prop57
140
1.0
102
RTVSPost2010PropOp57
 70
     1
  0
XRECORD
  5
31B
102
{ACAD_REACTORS
330
31A
102
}
330
31A
100
AcDbXrecord
280
     1
102
RTVSPropertyOp0
 70
     1
102
RTVSPropertyOp1
 70
     1
102
RTVSPropertyOp2
 70
     1
102
RTVSPropertyOp3
 70
     1
102
RTVSPropertyOp4
 70
     1
102
RTVSPropertyOp5
 70
     1
102
RTVSPropertyOp6
 70
     1
102
RTVSPropertyOp7
 70
     1
102
RTVSPropertyOp8
 70
     1
102
RTVSPropertyOp9
 70
     1
102
RTVSPropertyOp10
 70
     1
102
RTVSPropertyOp11
 70
     1
102
RTVSPropertyOp12
 70
     1
102
RTVSPropertyOp13
 70
     1
102
RTVSPropertyOp14
 70
     1
102
RTVSPropertyOp15
 70
     1
102
RTVSPropertyOp16
 70
     1
102
RTVSPropertyOp17
 70
     1
102
RTVSPropertyOp18
 70
     1
102
RTVSPropertyOp19
 70
     1
102
RTVSPropertyOp20
 70
     1
102
RTVSPropertyOp21
 70
     1
102
RTVSPropertyOp22
 70
     1
102
RTVSPropertyOp23
 70
     1
102
RTVSPropertyOp24
 70
     1
102
RTVSPropertyOp25
 70
     1
102
RTVSPropertyOp26
 70
     1
102
RTVSPropertyOp27
 70
     1
102
RTVSPropertyOp28
 70
     1
102
RTVSPropertyOp29
 70
     1
102
RTVSPropertyOp30
 70
     1
102
RTVSPropertyOp31
 70
     1
102
RTVSPropertyOp32
 70
     1
102
RTVSPropertyOp33
 70
     1
102
RTVSPropertyOp34
 70
     1
102
RTVSPropertyOp35
 70
     1
102
RTVSPropertyOp36
 70
     1
102
RTVSPropertyOp37
 70
     1
102
RTVSPropertyOp38
 70
     1
102
RTVSPropertyOp39
 70
     1
102
RTVSPropertyOp40
 70
     1
102
RTVSPropertyOp41
 70
     1
102
RTVSPropertyOp42
 70
     1
102
RTVSPropertyOp43
 70
     1
102
RTVSPropertyOp44
 70
     1
102
RTVSPropertyOp45
 70
     1
102
RTVSPropertyOp46
 70
     1
102
RTVSPropertyOp47
 70
     1
102
RTVSPropertyOp48
 70
     1
102
RTVSPropertyOp49
 70
     1
102
RTVSPropertyOp50
 70
     1
102
RTVSPropertyOp51
 70
     0
102
RTVSPropertyOp52
 70
     0
102
RTVSPropertyOp53
 70
     1
102
RTVSPropertyOp54
 70
     1
102
RTVSPropertyOp55
 70
     1
102
RTVSPropertyOp56
 70
     1
102
RTVSPropertyOp57
 70
     1
102
RTVSPost2010Prop28
280
     0
102
RTVSPost2010PropOp28
 70
     1
102
RTVSPost2010Prop29
280
     1
102
RTVSPost2010PropOp29
 70
     1
102
RTVSPost2010Prop30
280
     1
102
RTVSPost2010PropOp30
 70
     1
102
RTVSPost2010Prop31
280
     0
102
RTVSPost2010PropOp31
 70
     1
102
RTVSPost2010Prop32
280
     0
102
RTVSPost2010PropOp32
 70
     1
102
RTVSPost2010Prop33
280
     0
102
RTVSPost2010PropOp33
 70
     1
102
RTVSPost2010Prop34
280
     0
102
RTVSPost2010PropOp34
 70
     1
102
RTVSPost2010Prop35
280
     0
102
RTVSPost2010PropOp35
 70
     1
102
RTVSPost2010Prop36
280
     0
102
RTVSPost2010PropOp36
 70
     1
102
RTVSPost2010Prop37
 90
       50
102
RTVSPost2010PropOp37
 70
     1
102
RTVSPost2010Prop38
140
0.0
102
RTVSPost2010PropOp38
 70
     1
102
RTVSPost2010Prop39
140
1.0
102
RTVSPost2010PropOp39
 70
     1
102
RTVSPost2010Prop40
 90
        0
102
RTVSPost2010PropOp40
 70
     1
102
RTVSPost2010Prop41ColorIndex
 90
       18
102
RTVSPost2010Prop41ColorRGB
 90
        0
102
RTVSPost2010PropOp41
 70
     1
102
RTVSPost2010Prop42
 90
       50
102
RTVSPost2010PropOp42
 70
     1
102
RTVSPost2010Prop43
 90
        3
102
RTVSPost2010PropOp43
 70
     1
102
RTVSPost2010Prop44ColorIndex
 90
        5
102
RTVSPost2010Prop44ColorRGB
 90
      255
102
RTVSPost2010PropOp44
 70
     1
102
RTVSPost2010Prop45
280
     0
102
RTVSPost2010PropOp45
 70
     1
102
RTVSPost2010Prop46
 90
       50
102
RTVSPost2010PropOp46
 70
     1
102
RTVSPost2010Prop47
 90
       50
102
RTVSPost2010PropOp47
 70
     1
102
RTVSPost2010Prop48
 90
       50
102
RTVSPost2010PropOp48
 70
     1
102
RTVSPost2010Prop49
280
     0
102
RTVSPost2010PropOp49
 70
     1
102
RTVSPost2010Prop50
 90
       50
102
RTVSPost2010PropOp50
 70
     1
102
RTVSPost2010Prop51ColorIndex
 90
      256
102
RTVSPost2010Prop51ColorRGB
 90
-16777216
102
RTVSPost2010PropOp51
 70
     0
102
RTVSPost2010Prop52
140
1.0
102
RTVSPost2010PropOp52
 70
     0
102
RTVSPost2010Prop53
 90
        2
102
RTVSPost2010PropOp53
 70
     1
102
RTVSPost2010Prop54
  1
strokes_ogs.tif
102
RTVSPost2010PropOp54
 70
     1
102
RTVSPost2010Prop55
280
     0
102
RTVSPost2010PropOp55
 70
     1
102
RTVSPost2010Prop56
140
1.0
102
RTVSPost2010PropOp56
 70
     1
102
RTVSPost2010Prop57
140
1.0
102
RTVSPost2010PropOp57
 70
     1
  0
XRECORD
  5
31D
102
{ACAD_REACTORS
330
31C
102
}
330
31C
100
AcDbXrecord
280
     1
102
RTVSPropertyOp0
 70
     1
102
RTVSPropertyOp1
 70
     1
102
RTVSPropertyOp2
 70
     1
102
RTVSPropertyOp3
 70
     1
102
RTVSPropertyOp4
 70
     1
102
RTVSPropertyOp5
 70
     1
102
RTVSPropertyOp6
 70
     1
102
RTVSPropertyOp7
 70
     1
102
RTVSPropertyOp8
 70
     1
102
RTVSPropertyOp9
 70
     1
102
RTVSPropertyOp10
 70
     1
102
RTVSPropertyOp11
 70
     1
102
RTVSPropertyOp12
 70
     1
102
RTVSPropertyOp13
 70
     1
102
RTVSPropertyOp14
 70
     1
102
RTVSPropertyOp15
 70
     1
102
RTVSPropertyOp16
 70
     1
102
RTVSPropertyOp17
 70
     1
102
RTVSPropertyOp18
 70
     1
102
RTVSPropertyOp19
 70
     1
102
RTVSPropertyOp20
 70
     1
102
RTVSPropertyOp21
 70
     1
102
RTVSPropertyOp22
 70
     1
102
RTVSPropertyOp23
 70
     1
102
RTVSPropertyOp24
 70
     1
102
RTVSPropertyOp25
 70
     1
102
RTVSPropertyOp26
 70
     1
102
RTVSPropertyOp27
 70
     1
102
RTVSPropertyOp28
 70
     1
102
RTVSPropertyOp29
 70
     1
102
RTVSPropertyOp30
 70
     1
102
RTVSPropertyOp31
 70
     1
102
RTVSPropertyOp32
 70
     1
102
RTVSPropertyOp33
 70
     1
102
RTVSPropertyOp34
 70
     1
102
RTVSPropertyOp35
 70
     1
102
RTVSPropertyOp36
 70
     1
102
RTVSPropertyOp37
 70
     1
102
RTVSPropertyOp38
 70
     1
102
RTVSPropertyOp39
 70
     1
102
RTVSPropertyOp40
 70
     1
102
RTVSPropertyOp41
 70
     1
102
RTVSPropertyOp42
 70
     1
102
RTVSPropertyOp43
 70
     1
102
RTVSPropertyOp44
 70
     1
102
RTVSPropertyOp45
 70
     1
102
RTVSPropertyOp46
 70
     1
102
RTVSPropertyOp47
 70
     1
102
RTVSPropertyOp48
 70
     1
102
RTVSPropertyOp49
 70
     1
102
RTVSPropertyOp50
 70
     1
102
RTVSPropertyOp51
 70
     0
102
RTVSPropertyOp52
 70
     0
102
RTVSPropertyOp53
 70
     1
102
RTVSPropertyOp54
 70
     1
102
RTVSPropertyOp55
 70
     1
102
RTVSPropertyOp56
 70
     1
102
RTVSPropertyOp57
 70
     1
102
RTVSPost2010Prop28
280
     0
102
RTVSPost2010PropOp28
 70
     1
102
RTVSPost2010Prop29
280
     1
102
RTVSPost2010PropOp29
 70
     1
102
RTVSPost2010Prop30
280
     1
102
RTVSPost2010PropOp30
 70
     1
102
RTVSPost2010Prop31
280
     0
102
RTVSPost2010PropOp31
 70
     1
102
RTVSPost2010Prop32
280
     0
102
RTVSPost2010PropOp32
 70
     1
102
RTVSPost2010Prop33
280
     0
102
RTVSPost2010PropOp33
 70
     1
102
RTVSPost2010Prop34
280
     0
102
RTVSPost2010PropOp34
 70
     1
102
RTVSPost2010Prop35
280
     0
102
RTVSPost2010PropOp35
 70
     1
102
RTVSPost2010Prop36
280
     0
102
RTVSPost2010PropOp36
 70
     1
102
RTVSPost2010Prop37
 90
       50
102
RTVSPost2010PropOp37
 70
     1
102
RTVSPost2010Prop38
140
0.0
102
RTVSPost2010PropOp38
 70
     1
102
RTVSPost2010Prop39
140
1.0
102
RTVSPost2010PropOp39
 70
     1
102
RTVSPost2010Prop40
 90
        0
102
RTVSPost2010PropOp40
 70
     1
102
RTVSPost2010Prop41ColorIndex
 90
       18
102
RTVSPost2010Prop41ColorRGB
 90
        0
102
RTVSPost2010PropOp41
 70
     1
102
RTVSPost2010Prop42
 90
       50
102
RTVSPost2010PropOp42
 70
     1
102
RTVSPost2010Prop43
 90
        3
102
RTVSPost2010PropOp43
 70
     1
102
RTVSPost2010Prop44ColorIndex
 90
        5
102
RTVSPost2010Prop44ColorRGB
 90
      255
102
RTVSPost2010PropOp44
 70
     1
102
RTVSPost2010Prop45
280
     0
102
RTVSPost2010PropOp45
 70
     1
102
RTVSPost2010Prop46
 90
       50
102
RTVSPost2010PropOp46
 70
     1
102
RTVSPost2010Prop47
 90
       50
102
RTVSPost2010PropOp47
 70
     1
102
RTVSPost2010Prop48
 90
       50
102
RTVSPost2010PropOp48
 70
     1
102
RTVSPost2010Prop49
280
     0
102
RTVSPost2010PropOp49
 70
     1
102
RTVSPost2010Prop50
 90
       50
102
RTVSPost2010PropOp50
 70
     1
102
RTVSPost2010Prop51ColorIndex
 90
      256
102
RTVSPost2010Prop51ColorRGB
 90
-16777216
102
RTVSPost2010PropOp51
 70
     0
102
RTVSPost2010Prop52
140
1.0
102
RTVSPost2010PropOp52
 70
     0
102
RTVSPost2010Prop53
 90
        2
102
RTVSPost2010PropOp53
 70
     1
102
RTVSPost2010Prop54
  1
strokes_ogs.tif
102
RTVSPost2010PropOp54
 70
     1
102
RTVSPost2010Prop55
280
     0
102
RTVSPost2010PropOp55
 70
     1
102
RTVSPost2010Prop56
140
1.0
102
RTVSPost2010PropOp56
 70
     1
102
RTVSPost2010Prop57
140
1.0
102
RTVSPost2010PropOp57
 70
     1
  0
XRECORD
  5
30D
102
{ACAD_REACTORS
330
30C
102
}
330
30C
100
AcDbXrecord
280
     1
102
RTVSPropertyOp0
 70
     1
102
RTVSPropertyOp1
 70
     1
102
RTVSPropertyOp2
 70
     1
102
RTVSPropertyOp3
 70
     1
102
RTVSPropertyOp4
 70
     1
102
RTVSPropertyOp5
 70
     1
102
RTVSPropertyOp6
 70
     1
102
RTVSPropertyOp7
 70
     1
102
RTVSPropertyOp8
 70
     1
102
RTVSPropertyOp9
 70
     1
102
RTVSPropertyOp10
 70
     1
102
RTVSPropertyOp11
 70
     1
102
RTVSPropertyOp12
 70
     1
102
RTVSPropertyOp13
 70
     1
102
RTVSPropertyOp14
 70
     1
102
RTVSPropertyOp15
 70
     1
102
RTVSPropertyOp16
 70
     1
102
RTVSPropertyOp17
 70
     1
102
RTVSPropertyOp18
 70
     1
102
RTVSPropertyOp19
 70
     1
102
RTVSPropertyOp20
 70
     1
102
RTVSPropertyOp21
 70
     1
102
RTVSPropertyOp22
 70
     1
102
RTVSPropertyOp23
 70
     1
102
RTVSPropertyOp24
 70
     1
102
RTVSPropertyOp25
 70
     1
102
RTVSPropertyOp26
 70
     1
102
RTVSPropertyOp27
 70
     1
102
RTVSPropertyOp28
 70
     1
102
RTVSPropertyOp29
 70
     1
102
RTVSPropertyOp30
 70
     1
102
RTVSPropertyOp31
 70
     1
102
RTVSPropertyOp32
 70
     1
102
RTVSPropertyOp33
 70
     1
102
RTVSPropertyOp34
 70
     1
102
RTVSPropertyOp35
 70
     1
102
RTVSPropertyOp36
 70
     1
102
RTVSPropertyOp37
 70
     1
102
RTVSPropertyOp38
 70
     1
102
RTVSPropertyOp39
 70
     1
102
RTVSPropertyOp40
 70
     1
102
RTVSPropertyOp41
 70
     1
102
RTVSPropertyOp42
 70
     1
102
RTVSPropertyOp43
 70
     1
102
RTVSPropertyOp44
 70
     1
102
RTVSPropertyOp45
 70
     1
102
RTVSPropertyOp46
 70
     1
102
RTVSPropertyOp47
 70
     1
102
RTVSPropertyOp48
 70
     1
102
RTVSPropertyOp49
 70
     1
102
RTVSPropertyOp50
 70
     1
102
RTVSPropertyOp51
 70
     0
102
RTVSPropertyOp52
 70
     0
102
RTVSPropertyOp53
 70
     1
102
RTVSPropertyOp54
 70
     1
102
RTVSPropertyOp55
 70
     1
102
RTVSPropertyOp56
 70
     1
102
RTVSPropertyOp57
 70
     1
102
RTVSPost2010Prop28
280
     0
102
RTVSPost2010PropOp28
 70
     1
102
RTVSPost2010Prop29
280
     1
102
RTVSPost2010PropOp29
 70
     1
102
RTVSPost2010Prop30
280
     1
102
RTVSPost2010PropOp30
 70
     1
102
RTVSPost2010Prop31
280
     0
102
RTVSPost2010PropOp31
 70
     1
102
RTVSPost2010Prop32
280
     0
102
RTVSPost2010PropOp32
 70
     1
102
RTVSPost2010Prop33
280
     0
102
RTVSPost2010PropOp33
 70
     1
102
RTVSPost2010Prop34
280
     0
102
RTVSPost2010PropOp34
 70
     1
102
RTVSPost2010Prop35
280
     0
102
RTVSPost2010PropOp35
 70
     1
102
RTVSPost2010Prop36
280
     0
102
RTVSPost2010PropOp36
 70
     1
102
RTVSPost2010Prop37
 90
       50
102
RTVSPost2010PropOp37
 70
     1
102
RTVSPost2010Prop38
140
0.0
102
RTVSPost2010PropOp38
 70
     1
102
RTVSPost2010Prop39
140
1.0
102
RTVSPost2010PropOp39
 70
     1
102
RTVSPost2010Prop40
 90
        0
102
RTVSPost2010PropOp40
 70
     1
102
RTVSPost2010Prop41ColorIndex
 90
       18
102
RTVSPost2010Prop41ColorRGB
 90
        0
102
RTVSPost2010PropOp41
 70
     1
102
RTVSPost2010Prop42
 90
       50
102
RTVSPost2010PropOp42
 70
     1
102
RTVSPost2010Prop43
 90
        3
102
RTVSPost2010PropOp43
 70
     1
102
RTVSPost2010Prop44ColorIndex
 90
        5
102
RTVSPost2010Prop44ColorRGB
 90
      255
102
RTVSPost2010PropOp44
 70
     1
102
RTVSPost2010Prop45
280
     0
102
RTVSPost2010PropOp45
 70
     1
102
RTVSPost2010Prop46
 90
       50
102
RTVSPost2010PropOp46
 70
     1
102
RTVSPost2010Prop47
 90
       50
102
RTVSPost2010PropOp47
 70
     1
102
RTVSPost2010Prop48
 90
       50
102
RTVSPost2010PropOp48
 70
     1
102
RTVSPost2010Prop49
280
     0
102
RTVSPost2010PropOp49
 70
     1
102
RTVSPost2010Prop50
 90
       50
102
RTVSPost2010PropOp50
 70
     1
102
RTVSPost2010Prop51ColorIndex
 90
      256
102
RTVSPost2010Prop51ColorRGB
 90
-16777216
102
RTVSPost2010PropOp51
 70
     0
102
RTVSPost2010Prop52
140
1.0
102
RTVSPost2010PropOp52
 70
     0
102
RTVSPost2010Prop53
 90
        2
102
RTVSPost2010PropOp53
 70
     1
102
RTVSPost2010Prop54
  1
strokes_ogs.tif
102
RTVSPost2010PropOp54
 70
     1
102
RTVSPost2010Prop55
280
     0
102
RTVSPost2010PropOp55
 70
     1
102
RTVSPost2010Prop56
140
1.0
102
RTVSPost2010PropOp56
 70
     1
102
RTVSPost2010Prop57
140
1.0
102
RTVSPost2010PropOp57
 70
     1
  0
XRECORD
  5
2FF
102
{ACAD_REACTORS
330
2FE
102
}
330
2FE
100
AcDbXrecord
280
     1
102
RTVSPropertyOp0
 70
     1
102
RTVSPropertyOp1
 70
     1
102
RTVSPropertyOp2
 70
     1
102
RTVSPropertyOp3
 70
     1
102
RTVSPropertyOp4
 70
     1
102
RTVSPropertyOp5
 70
     1
102
RTVSPropertyOp6
 70
     1
102
RTVSPropertyOp7
 70
     1
102
RTVSPropertyOp8
 70
     1
102
RTVSPropertyOp9
 70
     1
102
RTVSPropertyOp10
 70
     1
102
RTVSPropertyOp11
 70
     1
102
RTVSPropertyOp12
 70
     1
102
RTVSPropertyOp13
 70
     1
102
RTVSPropertyOp14
 70
     1
102
RTVSPropertyOp15
 70
     1
102
RTVSPropertyOp16
 70
     1
102
RTVSPropertyOp17
 70
     1
102
RTVSPropertyOp18
 70
     1
102
RTVSPropertyOp19
 70
     1
102
RTVSPropertyOp20
 70
     1
102
RTVSPropertyOp21
 70
     1
102
RTVSPropertyOp22
 70
     1
102
RTVSPropertyOp23
 70
     1
102
RTVSPropertyOp24
 70
     1
102
RTVSPropertyOp25
 70
     1
102
RTVSPropertyOp26
 70
     1
102
RTVSPropertyOp27
 70
     1
102
RTVSPropertyOp28
 70
     1
102
RTVSPropertyOp29
 70
     1
102
RTVSPropertyOp30
 70
     1
102
RTVSPropertyOp31
 70
     1
102
RTVSPropertyOp32
 70
     1
102
RTVSPropertyOp33
 70
     1
102
RTVSPropertyOp34
 70
     1
102
RTVSPropertyOp35
 70
     1
102
RTVSPropertyOp36
 70
     1
102
RTVSPropertyOp37
 70
     1
102
RTVSPropertyOp38
 70
     1
102
RTVSPropertyOp39
 70
     1
102
RTVSPropertyOp40
 70
     1
102
RTVSPropertyOp41
 70
     1
102
RTVSPropertyOp42
 70
     1
102
RTVSPropertyOp43
 70
     1
102
RTVSPropertyOp44
 70
     1
102
RTVSPropertyOp45
 70
     1
102
RTVSPropertyOp46
 70
     1
102
RTVSPropertyOp47
 70
     1
102
RTVSPropertyOp48
 70
     1
102
RTVSPropertyOp49
 70
     1
102
RTVSPropertyOp50
 70
     1
102
RTVSPropertyOp51
 70
     0
102
RTVSPropertyOp52
 70
     0
102
RTVSPropertyOp53
 70
     1
102
RTVSPropertyOp54
 70
     1
102
RTVSPropertyOp55
 70
     1
102
RTVSPropertyOp56
 70
     1
102
RTVSPropertyOp57
 70
     1
102
RTVSPost2010Prop28
280
     0
102
RTVSPost2010PropOp28
 70
     1
102
RTVSPost2010Prop29
280
     1
102
RTVSPost2010PropOp29
 70
     1
102
RTVSPost2010Prop30
280
     1
102
RTVSPost2010PropOp30
 70
     1
102
RTVSPost2010Prop31
280
     0
102
RTVSPost2010PropOp31
 70
     1
102
RTVSPost2010Prop32
280
     0
102
RTVSPost2010PropOp32
 70
     1
102
RTVSPost2010Prop33
280
     0
102
RTVSPost2010PropOp33
 70
     1
102
RTVSPost2010Prop34
280
     0
102
RTVSPost2010PropOp34
 70
     1
102
RTVSPost2010Prop35
280
     0
102
RTVSPost2010PropOp35
 70
     1
102
RTVSPost2010Prop36
280
     0
102
RTVSPost2010PropOp36
 70
     1
102
RTVSPost2010Prop37
 90
       50
102
RTVSPost2010PropOp37
 70
     1
102
RTVSPost2010Prop38
140
0.0
102
RTVSPost2010PropOp38
 70
     1
102
RTVSPost2010Prop39
140
1.0
102
RTVSPost2010PropOp39
 70
     1
102
RTVSPost2010Prop40
 90
        0
102
RTVSPost2010PropOp40
 70
     1
102
RTVSPost2010Prop41ColorIndex
 90
       18
102
RTVSPost2010Prop41ColorRGB
 90
        0
102
RTVSPost2010PropOp41
 70
     1
102
RTVSPost2010Prop42
 90
       50
102
RTVSPost2010PropOp42
 70
     1
102
RTVSPost2010Prop43
 90
        3
102
RTVSPost2010PropOp43
 70
     1
102
RTVSPost2010Prop44ColorIndex
 90
        5
102
RTVSPost2010Prop44ColorRGB
 90
      255
102
RTVSPost2010PropOp44
 70
     1
102
RTVSPost2010Prop45
280
     0
102
RTVSPost2010PropOp45
 70
     1
102
RTVSPost2010Prop46
 90
       50
102
RTVSPost2010PropOp46
 70
     1
102
RTVSPost2010Prop47
 90
       50
102
RTVSPost2010PropOp47
 70
     1
102
RTVSPost2010Prop48
 90
       50
102
RTVSPost2010PropOp48
 70
     1
102
RTVSPost2010Prop49
280
     0
102
RTVSPost2010PropOp49
 70
     1
102
RTVSPost2010Prop50
 90
       50
102
RTVSPost2010PropOp50
 70
     1
102
RTVSPost2010Prop51ColorIndex
 90
      256
102
RTVSPost2010Prop51ColorRGB
 90
-16777216
102
RTVSPost2010PropOp51
 70
     0
102
RTVSPost2010Prop52
140
1.0
102
RTVSPost2010PropOp52
 70
     0
102
RTVSPost2010Prop53
 90
        2
102
RTVSPost2010PropOp53
 70
     1
102
RTVSPost2010Prop54
  1
strokes_ogs.tif
102
RTVSPost2010PropOp54
 70
     1
102
RTVSPost2010Prop55
280
     0
102
RTVSPost2010PropOp55
 70
     1
102
RTVSPost2010Prop56
140
1.0
102
RTVSPost2010PropOp56
 70
     1
102
RTVSPost2010Prop57
140
1.0
102
RTVSPost2010PropOp57
 70
     1
  0
XRECORD
  5
31F
102
{ACAD_REACTORS
330
31E
102
}
330
31E
100
AcDbXrecord
280
     1
102
RTVSPropertyOp0
 70
     1
102
RTVSPropertyOp1
 70
     1
102
RTVSPropertyOp2
 70
     1
102
RTVSPropertyOp3
 70
     1
102
RTVSPropertyOp4
 70
     1
102
RTVSPropertyOp5
 70
     1
102
RTVSPropertyOp6
 70
     1
102
RTVSPropertyOp7
 70
     1
102
RTVSPropertyOp8
 70
     1
102
RTVSPropertyOp9
 70
     1
102
RTVSPropertyOp10
 70
     1
102
RTVSPropertyOp11
 70
     1
102
RTVSPropertyOp12
 70
     1
102
RTVSPropertyOp13
 70
     1
102
RTVSPropertyOp14
 70
     1
102
RTVSPropertyOp15
 70
     1
102
RTVSPropertyOp16
 70
     1
102
RTVSPropertyOp17
 70
     1
102
RTVSPropertyOp18
 70
     1
102
RTVSPropertyOp19
 70
     1
102
RTVSPropertyOp20
 70
     1
102
RTVSPropertyOp21
 70
     1
102
RTVSPropertyOp22
 70
     1
102
RTVSPropertyOp23
 70
     1
102
RTVSPropertyOp24
 70
     1
102
RTVSPropertyOp25
 70
     1
102
RTVSPropertyOp26
 70
     1
102
RTVSPropertyOp27
 70
     1
102
RTVSPropertyOp28
 70
     1
102
RTVSPropertyOp29
 70
     1
102
RTVSPropertyOp30
 70
     1
102
RTVSPropertyOp31
 70
     1
102
RTVSPropertyOp32
 70
     1
102
RTVSPropertyOp33
 70
     1
102
RTVSPropertyOp34
 70
     1
102
RTVSPropertyOp35
 70
     1
102
RTVSPropertyOp36
 70
     1
102
RTVSPropertyOp37
 70
     1
102
RTVSPropertyOp38
 70
     1
102
RTVSPropertyOp39
 70
     1
102
RTVSPropertyOp40
 70
     1
102
RTVSPropertyOp41
 70
     1
102
RTVSPropertyOp42
 70
     1
102
RTVSPropertyOp43
 70
     1
102
RTVSPropertyOp44
 70
     1
102
RTVSPropertyOp45
 70
     1
102
RTVSPropertyOp46
 70
     1
102
RTVSPropertyOp47
 70
     1
102
RTVSPropertyOp48
 70
     1
102
RTVSPropertyOp49
 70
     1
102
RTVSPropertyOp50
 70
     1
102
RTVSPropertyOp51
 70
     0
102
RTVSPropertyOp52
 70
     0
102
RTVSPropertyOp53
 70
     1
102
RTVSPropertyOp54
 70
     1
102
RTVSPropertyOp55
 70
     1
102
RTVSPropertyOp56
 70
     1
102
RTVSPropertyOp57
 70
     1
102
RTVSPost2010Prop28
280
     0
102
RTVSPost2010PropOp28
 70
     1
102
RTVSPost2010Prop29
280
     1
102
RTVSPost2010PropOp29
 70
     1
102
RTVSPost2010Prop30
280
     1
102
RTVSPost2010PropOp30
 70
     1
102
RTVSPost2010Prop31
280
     0
102
RTVSPost2010PropOp31
 70
     1
102
RTVSPost2010Prop32
280
     0
102
RTVSPost2010PropOp32
 70
     1
102
RTVSPost2010Prop33
280
     0
102
RTVSPost2010PropOp33
 70
     1
102
RTVSPost2010Prop34
280
     0
102
RTVSPost2010PropOp34
 70
     1
102
RTVSPost2010Prop35
280
     0
102
RTVSPost2010PropOp35
 70
     1
102
RTVSPost2010Prop36
280
     0
102
RTVSPost2010PropOp36
 70
     1
102
RTVSPost2010Prop37
 90
       50
102
RTVSPost2010PropOp37
 70
     1
102
RTVSPost2010Prop38
140
0.0
102
RTVSPost2010PropOp38
 70
     1
102
RTVSPost2010Prop39
140
1.0
102
RTVSPost2010PropOp39
 70
     1
102
RTVSPost2010Prop40
 90
        0
102
RTVSPost2010PropOp40
 70
     1
102
RTVSPost2010Prop41ColorIndex
 90
       18
102
RTVSPost2010Prop41ColorRGB
 90
        0
102
RTVSPost2010PropOp41
 70
     1
102
RTVSPost2010Prop42
 90
       50
102
RTVSPost2010PropOp42
 70
     1
102
RTVSPost2010Prop43
 90
        3
102
RTVSPost2010PropOp43
 70
     1
102
RTVSPost2010Prop44ColorIndex
 90
        5
102
RTVSPost2010Prop44ColorRGB
 90
      255
102
RTVSPost2010PropOp44
 70
     1
102
RTVSPost2010Prop45
280
     0
102
RTVSPost2010PropOp45
 70
     1
102
RTVSPost2010Prop46
 90
       50
102
RTVSPost2010PropOp46
 70
     1
102
RTVSPost2010Prop47
 90
       50
102
RTVSPost2010PropOp47
 70
     1
102
RTVSPost2010Prop48
 90
       50
102
RTVSPost2010PropOp48
 70
     1
102
RTVSPost2010Prop49
280
     0
102
RTVSPost2010PropOp49
 70
     1
102
RTVSPost2010Prop50
 90
       50
102
RTVSPost2010PropOp50
 70
     1
102
RTVSPost2010Prop51ColorIndex
 90
      256
102
RTVSPost2010Prop51ColorRGB
 90
-16777216
102
RTVSPost2010PropOp51
 70
     0
102
RTVSPost2010Prop52
140
1.0
102
RTVSPost2010PropOp52
 70
     0
102
RTVSPost2010Prop53
 90
        2
102
RTVSPost2010PropOp53
 70
     1
102
RTVSPost2010Prop54
  1
strokes_ogs.tif
102
RTVSPost2010PropOp54
 70
     1
102
RTVSPost2010Prop55
280
     0
102
RTVSPost2010PropOp55
 70
     1
102
RTVSPost2010Prop56
140
1.0
102
RTVSPost2010PropOp56
 70
     1
102
RTVSPost2010Prop57
140
1.0
102
RTVSPost2010PropOp57
 70
     1
  0
ENDSEC
  0
SECTION
  2
THUMBNAILIMAGE
 90
    16364
310
28000000B40000005500000001000800000000000000000000000000000000000000000000000000FFFFFF00FF000000FFFF000000FF000000FFFF000000FF00FF00FF000000000080808000C0C0C000FF000000FF7F7F00A5000000A55252007F0000007F3F3F004C0000004C2626002600000026131300FF3F0000FF9F7F
310
00A5290000A56752007F1F00007F4F3F004C1300004C2F26002609000026171300FF7F0000FFBF7F00A5520000A57C52007F3F00007F5F3F004C2600004C39260026130000261C1300FFBF0000FFDF7F00A57C0000A59152007F5F00007F6F3F004C3900004C422600261C000026211300FFFF0000FFFF7F00A5A50000A5A5
310
52007F7F00007F7F3F004C4C00004C4C26002626000026261300BFFF0000DFFF7F007CA5000091A552005F7F00006F7F3F00394C0000424C26001C260000212613007FFF0000BFFF7F0052A500007CA552003F7F00005F7F3F00264C0000394C2600132600001C2613003FFF00009FFF7F0029A5000067A552001F7F00004F
310
7F3F00134C00002F4C2600092600001726130000FF00007FFF7F0000A5000052A55200007F00003F7F3F00004C0000264C2600002600001326130000FF3F007FFF9F0000A5290052A56700007F1F003F7F4F00004C1300264C2F00002609001326170000FF7F007FFFBF0000A5520052A57C00007F3F003F7F5F00004C2600
310
264C39000026130013261C0000FFBF007FFFDF0000A57C0052A59100007F5F003F7F6F00004C3900264C420000261C001326210000FFFF007FFFFF0000A5A50052A5A500007F7F003F7F7F00004C4C00264C4C00002626001326260000BFFF007FDFFF00007CA5005291A500005F7F003F6F7F0000394C0026424C00001C26
310
0013212600007FFF007FBFFF000052A500527CA500003F7F003F5F7F0000264C0026394C0000132600131C2600003FFF007F9FFF000029A5005267A500001F7F003F4F7F0000134C00262F4C0000092600131726000000FF007F7FFF000000A5005252A50000007F003F3F7F0000004C0026264C0000002600131326003F00
310
FF009F7FFF002900A5006752A5001F007F004F3F7F0013004C002F264C0009002600171326007F00FF00BF7FFF005200A5007C52A5003F007F005F3F7F0026004C0039264C00130026001C132600BF00FF00DF7FFF007C00A5009152A5005F007F006F3F7F0039004C0042264C001C00260021132600FF00FF00FF7FFF00A5
310
00A500A552A5007F007F007F3F7F004C004C004C264C002600260026132600FF00BF00FF7FDF00A5007C00A55291007F005F007F3F6F004C0039004C26420026001C0026132100FF007F00FF7FBF00A5005200A5527C007F003F007F3F5F004C0026004C2639002600130026131C00FF003F00FF7F9F00A5002900A5526700
310
7F001F007F3F4F004C0013004C262F002600090026131700000000002D2D2D005B5B5B0089898900B7B7B700B3B3B30000000000000000000000000000000000000000000000000000000000000000000000000000000000000000000000000000000000000000000000000000000000000000000000000000000000000000
310
00000000000000000000000000000000000000000000000000000000000000000000000000000000000000000000000000000000000000000000000000000000000000000000000000000000000000000000000000000000000000000000000000000000000000000000000000000000000000000000000000000000000000
310
00000000000000000000000000000000000000000000000000000000000000000000000000000000000000000000000000000000000000000000000000000000000000000000000000000000000000000000000000000000000000000000000000000000000000000000000000000000000000000000000000000000000000
310
00000000000000000000000000000000000000000000000000000000000000000000000000000000000000000000000000000000000000000000000000000000000000000000000000000000000000000000000000000000000000000000000000000000000000000000000000009800000000000000000000000000009800
310
00000000000000000000000000000000000000000000000000000000000000000000000000000000000000000000000000000000000000000000000000000000000000000000000000000000000000000000000000000000000000000000000000000000000000000000000000000000000000000000000000000000000000
310
00000000000000000000000000000000000000000000000000000000000000000000000098989898989898989898989898989898000000000000000000000000000000000000000000000000000000000000000000000000000000000000000000000000000000000000000000000000000000000000000000000000000000
310
00000000000000000000000000000000000000000000000000000000000000000000000000000000000000000000000000000000000000000000000000000000000000000000000000000000000000000000000000000000009800000000989898980000000000009800000000000000000000000000000000000000000000
310
00000000000000000000000000000000000000000000000000000000000000000000000000000000000000000000000000000000000000000000000000000000000000000000000000000000000000000000000000000000000000000000000000000000000000000000000000000000000000000000000000000000000000
310
00000000000000000000000000000098000000000098989898000000000098000000000000000000000000000000000000000000000000000000000000000000000000000000000000000000000000000000000000000000000000000000000000000000000000000000000000000000000000000000000000000000000000
310
00000000000000000000000000000000000000000000000000000000000000000000000000000000000000000000000000000000000000000000000000000000000000009800000000000000000000000000009800000000000000000000000000000000000000000000000000000000000000000000000000000000000000
310
00000000000000000000000000000000000000000000000000000000000000000000000000000000000000000000000000000000000000000000000000000000000000000000000000000000000000000000000000000000000000000000000000000000000000000000000000000000000000000000000000980000000000
310
00000000000000009898000000000000000000000000000000000000000000000000000000000000000000000000000000000000000000000000000000000000000000000000000000000000000000000000000000000000000000000000000000000000000000000000000000000000000000000000000000000000000000
310
00000000000000000000000000000000000000000000000000000000000000000000000000000000000098989898989898989898989898989898989898989898989898980000000000000000000000000000000000000000000000000000000000000000000000000000000000000000000000000000000000000000000000
310
00000000000000000000000000000000000000000000000000000000000000000000000000000000000000000000000000000000000000000000000000000000000000000000000000000202020202020002020002020202000000000000000098989800980000000098989898980000000098989898989800000002020202
310
02020000020202000002020200000000000000000000006767676767676767670000000000000000000000000000000000000000000000000000000000000000000000000000000000000000000000000000000000000000000000000000000000000000000000000000000000000000000000000000000000000000000202
310
02020202020202020202020202020202020202000000989898009800000000989898980000000000989800989898000002020202020202020202020202020202020202020202000000000000676767676767676767000000000000000000000000000000000000000000000000000000000000000000000000000000000000
310
00000000000000000000000000000000000000000000000000000000000000000000000000000000000000000000000000000000000202020202020202020002020202000000000002000000000000980000000000000000000000000098980000000000020000020202020202020202020202020202000000000000000000
310
00006767676767676767670000000000000000000000000000000000000000000000000000000000000000000000000000000000000000000000000000000000000000000000000000000000000000000000000000000000000000000000000000000000000000000000000000000000000000000000000000000000000002
310
00000000009800000000000000000000000000989800000000020000000000000000000000000000000000000000000000000000000000006767000067676767000000000000000000000000000000000000000000000000000000000000000000000000000000000000000000000000000000000000000000000000000000
310
00000000000000000000000000000000000000000000000000000000000000000000000000000000000000000000000000000000020000000000980000000000000000000000000098980000000002000000000000000000000000000000000000000000000000000000000067676767670067676700676767670000000000
310
00000000000000000000000000000000000000000000000000000000000000000000000000000000000000000000000000000000000000000000000000000000000000000000000000000000000000000000000000000000000000000000000000000000000000000000020000000098000000000000000000000000009898
310
00000002000000000000000000000000000000000000000000000000000000000000676767676767676767676767676700000000000000000000000000000000000000000000000000000000000000000000000000000000000000000000000000000000000000000000000000000000000000000000000000000000000000
310
00000000000000000000000000000000000000000000000000000000000000000002000000980000000000000000000000000098980000020000000000000000000000000000000000000000000000000000000000000067676767676767676767676767670000000000000000000000000000000000000000000000000000
310
00000000000000000000000000000000000000000000000000000000000000000000000000000000000000000000000000000000000000000000000000000000000000000000000000000000000000000000000000000002000098000000000000000000000000009898000200000000000000000000000000000000000000
310
00000000000000000000000000006700000000000067006767000000000000000000000000000000000000000000000000000000000000000000000000000000000000000000000000000000000000000000000000000000000000000000000000000000000000000000000000000000000000000000000000000000000000
310
00000000000000000000000000000200980000000000000000000000000098980200000000000000000000000000000000000000000000000000000000000000000000000000000000000000000000000000000000000000000000000000000000000000000000000000000000000000000000000000000000000000000000
310
00000000000000000000000000000000000000000000000000000000000000000000000000000000000000000000000000000000000000000000000000000000000000020098000000000000060000000000009898020000000000000000000000000000000000000000000000000000000000000000000000000000000000
310
000000000000000000000000000000000000000000000000000000000000000000000000000000000000000000000000000000000000000000000000000000000000000000000000000000000000000000000000000000000000000000000000000000000000000000000000000000000000000000000000000298B5B50000
310
0005060500000000B598980000000000000000000000000000000000000000000000000000000000000000000000000000000000000000000000000000000000000000000000000000000000000000000000000000000000000000000000000000000000000000000000000000000000000000000000000000000000000000
310
0000000000000000000000000000000000000000000000000000000000000000000000000000000000000000000000B503030303030303030303030303030303989898989898989898989898989898989898989898989898989898989898989800000000000000000000000000000000000000000000000000000000000000
310
00000000000000000000000000000000000000000000000000000000000000000000000000000000000000000000000000000000000000000000000000000000000000000000000000000000000000000000000000000000000000000000000000000000000303030303030303030303030303030300000000980000009800
310
00000098000000000098000000000098000000980000000000000000000000000000000000000000000000000000000000000000000000000000000000000000000000000000000000000000000000000000000000000000000000000000000000000000000000000000000000000000000000000000000000000000000000
310
0000000000000000000000000000000000000000000000000000000003000000000006000000000003B500000000009800000098000000009800000000009800000000009800000098000000000000000000000000000000000000000000000000000000000000000000000000000000000000000000000000000000000000
310
00000000000000000000000000000000000000000000000000000000000000000000000000000000000000000000000000000000000000000000000000000000000000000000000000000000000000000003000000000006000000000003030000989898980000009800000000980000000000980000000000980000009800
310
00000000000000000000000000000000000000000000000000000000000000000000000000000000000000000000000000000000000000000000000000000000000000000000000000000000000000000000000000000000000000000000000000000000000000000002020202020202020202020202020202020202020202
310
02020202020202030000000000060000000000030300009898989800000098000000009800009898989800000000009800000098000000000000000000000000000000000000000000000000000000000000000000000000000000000000000000000000000000000000000000000000000000000000000000000000000000
310
00000000000000000000000000000000000000000000000000000000000000000202020202020202000202020202020202020202020202020202020202020000000006000000000003030000989898989898989800989898980000989898980000000000980000009800000000000000000000000000000000000000000000
310
00000000000000000000000000000000000000000000000000000000000000000000000000000000000000000000000000000000000000000000000000000000000000000000000000000000000000000000000000000202020202000200020202020202020202020202020202020202020300020000000600000000000303
310
00009898989898989898009898989800009898989800000000009800000098000000000000000000000000000000000000000000000000000000000000000000000000000000000000000000000000000000000000000000000000000000000000000000000000000000000000000000000000000000000000000000000000
310
00000000000000000000000000000000000000000000000000000200000002020000000202000003000002000006000000000003030000989800989898989800989898980000989898980000000000980000009800000000000000000000000000000000000000000000000000000000000000000000000000000000000000
310
00000000000000000000000000000000000000000000000000000000000000000000000000000000000000000000000000000000000000000000000000000000000000000000000000000000000000000000020200000000000000000300000002020600000000000303000000000098989898980098989898000000000098
310
00000000009800000098000000000000000000000000000000000000000000000000000000000000000000000000000000000000000000000000000000000000000000000000000000000000000000000000000000000000000000000000000000000000000000000000000000000000000000000000000000000000000000
310
00000000020202020202020202020202020203000000000002000000000003030000000000980000009800009898980000000000980000000000980000009800000000000000000000000000000000000000000000000000000000000000000000000000000000000000000000000000000000000000000000000000000000
310
00000000000000000000000000000000000000000000000000000000000000000000000000000000000000000000000000000000000000000002020200020202020202020200000302020000000602000000000303000000000098000000980000000098000000000098000000000098000000980000000000000000000000
310
00000000000000000000000000000000000000000000000000000000000000000000000000000000000000000000000000000000000000000000000000000000000000000000000000000000000000000000000000000000000000000000000000000000000000000000000000000202020000020002020202020000030000
310
02020006000202000003030000000000980000009800000000980000000000980000000000980000009800000000000000000000000000000000000000000000000000000000000000000000000000000000000000000000000000000000000000000000000000000000000000000000000000000000000000000000000000
310
00000000000000000000000000000000000000000000000000000000000000000000000000000000000000000000000000000300000000020200000202029898989898989898000000980000000098000000000098000000000098000000980000000000000000000000000000000000000000000000000000000000000000
310
00000000000000000000000000000000000000000000000000000000000000000000000000000000000000000000000000000000000000000000000000000000000000000000000000000000000000000000000000000000000000000000000000000000000000030000000000060202000200030300000000009800000098
310
00000000980000000000980000000000980000009800000000000000000000000000000000000000000000000000000000000000000000000000000000000000000000000000000000000000000000000000000000000000000000000000000000000000000000000000000000000000000000000000000000000000000000
310
00000000000000000000000000000000000000000000000000000000000300000000000600000202060303989898989898989898989898989898989898989898980000000098000000980000000000000000000000000000000000000000000000000000000000000000000000000000000000000000000000000000000000
310
00000000000000000000000000000000000000000000000000000000000000000000000000000000000000000000000000000000000000000000000000000000000000000000000000000000000000000000030000000000060000020202030398989898989898989898980000009800000000009800009800009800000098
310
00000000000000000000000000000000000000000000000000000000000000000000000000000000000000000000000000000000000000000000000000000000000000000000000000000000000000000000000000000000000000000000000000000000000000000000000000000000000000000000000000000000000000
310
00000000000000000300000000000600000202020303989898989898989898989898989898980000000098000098989898000000980000000000000000000000000000000000000000000000000000000000000000000000000000000000000000000000000000000000000000000000000000000000000000000000000000
310
00000000000000000000000000000000000000000000000000000000000000000000000000000000000000000000000000000000000000000000000000030000000000060000020298030300000000000000000000000000000000000000009800009898989800000098000000000000000000000000000000000000000000
310
00000000000000000000000000000000000000000000000000000000000000000000000000000000000000000000000000000000000000000000000000000000000000000000000000000000000000000000000000000000000000000000000000000000000000000000000000000000000003000000000006020200989803
310
03000000000000000000000000000000000000000098000098989898000000980000000000000000000000000000000000000000000000000000000000000000000000000000000000000000000000000000000000000000000000000000000000000000000000000000000000000000000000000000000000000000000000
310
00000000000000000000000000000000000000000000000000000000000000000000000000000000030000000000020000009898030300000000000000000000000000000000000000009800009898989800000098000000000000000000000000000000000000000000000000000000000000000000000000000000000000
310
00000000000000000000000000000000000000000000000000000000000000000000000000000000000000000000000000000000000000000000000000000000000000000000000000000000000000000000000000000000000000000003000000000206000000989803030000000000000000000000000000000000000000
310
98000098989898009800980000000000000000000000000000000000000000000000000000000000000000000000000000000000000000000000000000000000000000000000000000000000000000000000000000000000000000000000000000000000000000000000000000000000000000000000000000000000000000
310
00000000000000000000000000000000000000030000000200060000009898030300000000000000000000000000000000000000009800000098009898989898000000000000000000000000000000000000000000000000000000000000000000000000000000000000000000000000000000000000000000000000000000
310
00000000000000000000000000000000000000000000000000000000000000000000000000000000000000000000000000000000000000000000000000000000000000000000000003000002000006000000989803030000000000000000000000000000000000989898980000000000989898989800000000000000000000
310
00000000000000000000000000000000000000000000000000000000000000000000000000000000000000000000000000000000000000000000000000000000000000000000000000000000000000000000000000000000000000000000000000000000000000000000000000000000000000000000000000000000000302
310
02000098989898989898030300000000000000000000000000000000009898989800000000009898989898000000000000000000000000000000000000000000000000000000000000000000000000000000000000000000000000000000000000000000000000000000000000000000000000000000000000000000000000
310
00000000000000000000000000000000000000000000000000000000000000000000000000000000000000000000000000000003000000000098989898989803030000000000000000000000000000000000989898980000000000989898989800000000000000000000000000000000000000000000000000000000000000
310
00000000000000000000000000000000000000000000000000000000000000000000000000000000000000000000000000000000000000000000020202020202020202020202020202020202020202020202020202020202020202020202020202020202020202020300000000000698980098000300000000000000000000
310
00000000000000009898989800000000009898989898000000000000000000000000000000000000000000000000000000000000000000000000000000000000000000000000000000000000000000000000000000000000000000000000000000000000000000000000000000000000000202020202020202020202020200
310
02020202020202020202020202020202020202020202020202020202020003000000000006000000980003030000000000000000000000000000000000000000980000000000980098989800000000000000000000000000000000000000000000000000000000000000000000000000000000000000000000000000000000
310
00000000000000000000000000000000000000000000000000000000000000000000000000000002020202020202020202020202000002020202020202020202020002020002020002020202020202020202000300000000989898989898980303000000000000000000000000000000000000000098000000000098000000
310
98000000000000000000000000000000000000000000000000000000000000000000000000000000000000000000000000000000000000000000000000000000000000000000000000000000000000000000000000000000000000000000000000000000000000000000000000000000000000000000000000000000000000
310
00000000000000000003000000000098989800980003030000000000000000000000000000000000000000980000000000980000009800000000000000000000000000000000000000000000000000000000000000000000000000000000000000000000000000000000000000000000000000000000000000000000000000
310
00000000000000000000000000000000000000000000000000000000000000000000000000000000000000000000000000000000000000000000000000000300000000009898980000000303000000000000000000000000000000000000000098000000000098000000980000000000000000000000000000000000000000
310
00000000000000000000000000000000000000000000000000000000000000000000000000000000000000000000000000000000000000000000000000000000000000000000000000000000000000000000000000000000000000000000000000000000000000000000000000000000000000030000000000060000000000
310
03030000000000000000000000000000000000000000980000000000980000009800000000000000000000000000000000000000000000000000000000000000000000000000000000000000000000000000000000000000000000000000000000000000000000000000000000000000000000000000000000000000000000
310
00000000000000000000000000000000000000000000000000000000000000000000000000000000000300000000000600000000000303000000000000000000000000000000000000000098000000000098000000980000000000000000000000000000000000000000000000000000000000000000000000000000000000
310
00000000000000000000000000000000000000000000000000000000000000000000000000000000000000000000000000000000000000000000000000000000000000000000000000000000000000000000000000000000000000000000030000000000060000000000030300000000000000000000000000000000000000
310
00980000000000980000009800000000000000000000000000000000000000000000000000000000000000000000000000000000000000000000000000000000000000000000000000000000000000000000000000000000000000000000000000000000000000000000000000000000000000000000000000000000000000
310
00000000000000000000000000000000000000000300000000000600000000000303000000000000000000000000000000000000000098000000000098000000980000000000000000000000000000000000000000000000000000000000000000000000000000000000000000000000000000000000000000000000000000
310
00000000000000000000000000000000000000000000000000000000000000000000000000000000000000000000000000000000000000000000000000000000000000000000000000030000000000060000000000030300000000000000000000000000000000000000009800000000009800000098000000000000000000
310
00000000000000000000000000000000000000000000000000000000000000000000000000000000000000000000000000000000000000000000000000000000000000000000000000000000000000000000000000000000000000000000000000000000000000000000000000000000000000000000000000000000000003
310
00000000000600000000000303000000000000000000000000000000000000000098000000000098000000980000000000000000000000000000000000000000000000000000000000000000000000000000000000000000000000000000000000000000000000000000000000000000000000000000000000000000000000
310
00000000000000000000000000000000000000000000000000000000000000000000000000000000000000000000000000000000030000000000060000000000030300000000000000000000000000000000000000009800000000009800000098000000000000000000000000000000000000000000000000000000000000
310
00000000000000000000000000000000000000000000000000000000000000000000000000000000000000000000000000000000000000000000000000000000000000000000000000000000000000000000000000000000000000000000000000000000000000000003000000000006000000060603030606989898989898
310
98989898989898989898989898980000000098000000980000000000000000000000000000000000000000000000000000000000000000000000000000000000000000000000000000000000000000000000000000000000000000000000000000000000000000000000000000000000000000000000000000000000000000
310
00000000000000000000000000000000000000000000000000000000000000030000000000060000000000030300000000000000000000000000000000000000000000000000009800000098000000000000000000000000000000000000000000000000000000000000000000000000000000000000000000000000000000
310
00000000000000000000000000000000000000000000000000000000000000000000000000000000000000000000000000000000000000000000000000000000000000000000000000000000000000000000000003000000000006000000000203039898989898989898989898989898989898989898989898989898989800
310
00980000000000000000000000000000000000000000000000000000000000000000000000000000000000000000000000000000000000000000000000000000000000000000000000000000000000000000000000000000000000000000000000000000000000000000000000000000000000000000000000000000000000
310
00000000000000000000030000000000060000000002030300000000000000000000000000000000000000000000000000000000000098000000000000000000000000000000000000000000000000000000000000000000000000000000000000000000000000000000000000000000000000000000000000000000000000
310
00000000000000000000000000000000000000000000000000000000000000000000000000000000000000000000000000000000000000000000000000000003000000000006000002020003030000000000000000000000000000000000000000000000000000000000009800000000000000000000000000000000000000
310
00000000000000000000000000000000000000000000000000000000000000000000000000000000000000000000000000000000000000000000000000000000000000000000000000000000000000000000000000000000000000000000000000000000000000000000000000000000000000000300000000000600020000
310
00030300000000000000000000000000000000000000000000000000000000000098000000000000000000000000000000000000000000000000000000000000000000000000000000000000000000000000000000000000000000000000000000000000000000000000000000000000000000000000000000000000000000
310
00000000000000000000000000000000000000000000000000000000000000000000000000000000000003000000000006020000000003030000000000000000000000000000000000000000000000000000000000009800000000000000000000000000000000000000000000000000000000000000000000000000000000
310
00000000000000000000000000000000000000000000000000000000000000000000000000000000000000000000000000000000000000000000000000000000000000000000000000000000000000000000000000000000000000000000000300000000000200000000000303000000000000000000000000000000000000
310
00000000000000000000000098000000000000000000000000000000000000000000000000000000000000000000000000000000000000000000000000000000000000000000000000000000000000000000000000000000000000000000000000000000000000000000000000000000000000000000000000000000000000
310
00000000000000000000000000000000000000000003000000020206000000000003030000000000000000000000000000000000000000000000000000000000009800000000000000000000000000000000000000000000000000000000000000000000000000000000000000000000000000000000000000000000000000
310
00000000000000000000000000000000000000000000000000000000000000000000000000000000000000000000000000000000000000000000000000000000000000000000000000000300000200000600000000000303000000000000000000000000000000000000000000000000000000000000980000000000000000
310
00000000000000000000000000000000000000000000000000000000000000000000000000000000000000000000000000000000000000000000000000000000000000000000000000000000000000000000000000000000000000000000000000000000000000000000000000000000000000000000000000000000000000
310
03000200000006000000000003030000000000000000000000000000000000000000000000000000000000009800000000000000000000000000000000000000000000000000000000000000000000000000000000000000000000000000000000000000000000000000000000000000000000000000000000000000000000
310
00000000000000000000000000000000000000000000000000000000000000000000000000000000000000000000000000000000000302000000000600000000000398000000000000000000000000000000000000000000000000000000000000980000000000000000000000000000000000000000000000000000000000
310
00000000000000000000000000000000000000000000000000000000000000000000000000000000000000000000000000000000000000000000000000000000000000000000000000000000000000000000000000000000000000000000000000000000000000000002030303030303030303030303039898989898989898
310
98989898989898989898989898989898989898989898989898980000000000000000000000000000000000000000000000000000000000000000000000000000000000000000000000000000000000000000000000000000000000000000000000000000000000000000000000000000000000000000000000000000000000
310
00000000000000000000000000000000000000000002020202020202020202009800000000000600000000009898000000000000000000000000000000000000000000000000000000000000000000000000000000000000000000000000000000000000000000000000000000000000000000000000000000000000000000
310
00000000000000000000000000000000000000000000000000000000000000000000000000000000000000000000000000000000000000000000000000000000000000000000000000000002020200020202000000980000000000060000000000989800000000000000000000000000000000000000000000000000000000
310
00000000000000000000000000000000000000000000000000000000000000000000000000000000000000000000000000000000000000000000000000000000000000000000000000000000000000000000000000000000000000000000000000000000000000000000000000000000000000000000000000000000000000
310
00020202000202020000009800000000000600000000009898000000000000000000000000000000000000000000000000000000000000000000000000000000000000000000000000000000000000000000000000000000000000000000000000000000000000000000000000000000000000000000000000000000000000
310
00000000000000000000000000000000000000000000000000000000000000000000000000000000000000000000000000000000000000000000000000000000980000000000000000000000989800000000000000000000000000000000000000000000000000000000000000000000000000000000000000000000000000
310
00000000000000000000000000000000000000000000000000000000000000000000000000000000000000000000000000000000000000000000000000000000000000000000000000000000000000000000000000000000000000000000000000000000000000000000000000000000000000000098000000000000000000
310
00009898000000000000000000000000000000000000000000000000000000000000000000000000000000000000000000000000000000000000000000000000000000000000000000000000000000000000000000000000000000000000000000000000000000000000000000000000000000000000000000000000000000
310
00000000000000000000000000000000000000000000000000000000000000000000000000000000000000980000000000000000000000989800000000000000000000000000000000000000000000000000000000000000000000000000000000000000000000000000000000000000000000000000000000000000000000
310
00000000000000000000000000000000000000000000000000000000000000000000000000000000000000000000000000000000000000000000000000000000000000000000000000000000000000000000000000000000000000000000000098000000000000000000000098980000000000000000000000000000000000
310
00000000000000000000000000000000000000000000000000000000000000000000000000000000000000000000000000000000000000000000000000000000000000000000000000000000000000000000000000000000000000000000000000000000000000000000000000000000000000000000000000000000000000
310
00000000000000000000000000000000000000000000980000000000000000000000989800000000000000000000000000000000000000000000000000000000000000000000000000000000000000000000000000000000000000000000000000000000000000000000000000000000000000000000000000000000000000
310
00000000000000000000000000000000000000000000000000000000000000000000000000000000000000000000000000000000000000000000000000000000000000000000000000000098000000000000000000000098980000000000000000000000000000000000000000000000000000000000000000000000000000
310
00000000000000000000000000000000000000000000000000000000000000000000000000000000000000000000000000000000000000000000000000000000000000000000000000000000000000000000000000000000000000000000000000000000000000000000000000000000000000000000000000000000000000
310
00980000000000000000000000989800000000000000000000000000000000000000000000000000000000000000000000000000000000000000000000000000000000000000000000000000000000000000000000000000000000000000000000000000000000000000000000000000000000000000000000000000000000
310
00000000000000000000000000000000000000000000000000000000000000000000000000000000000000000000000000000000000098989898989898989898989898989898989898980000000000000000000000000000000000000000000000000000000000000000000000000000000000000000000000000000000000
310
00000000000000000000000000000000000000000000000000000000000000000000000000000000000000000000000000000000000000000000000000000000000000000000000000000000000000000000000000000000000000000000000000000000000000000000009800000098989898980000009898009898980000
310
00000000000000000000000000000000000000000000000000000000000000000000000000000000000000000000000000000000000000000000000000000000000000000000000000000000000000000000000000000000000000000000000000000000000000000000000000000000000000000000000000000000000000
310
00000000000000000000000000000000000000000000000000000000000000000000000000989898989800000000000098989800000000000000000000000000000000000000000000000000000000000000000000000000000000000000000000000000000000000000000000000000000000000000000000000000000000
310
00000000000000000000000000000000000000000000000000000000000000000000000000000000000000000000000000000000000000000000000000000000000000000000000000000000000000000000000000000000000000000000000000000000000000000000000000000000000000000000000000000000000000
310
00000000000000000000000000000000000000000000000000000000000000000000000000000000000000000000000000000000000000000000000000000000000000000000000000000000000000000000000000000000000000000000000000000000000000000000000000000000000000000000000000000000000000
310
000000000000000000000000000000000000000000000000000000000000000000000000000000000000000000000000000000000000000000000000000000000000000000000000000000000000000000000000000000000000000000000000000000000000000000000000
  0
ENDSEC
  0
EOF
