  0
SECTION
  2
HEADER
  9
$ACADVER
  1
AC1014
  9
$ACADMAINTVER
 70
     9
  9
$DWGCODEPAGE
  3
ANSI_932
  9
$INSBASE
 10
0.0
 20
0.0
 30
0.0
  9
$EXTMIN
 10
-1147.228301539526
 20
-871.1566204368464
 30
-0.0015258207003583
  9
$EXTMAX
 10
1694.118417946028
 20
1065.073212901523
 30
0.0000000349246037
  9
$LIMMIN
 10
-1433.882499499075
 20
-1133.783603478484
  9
$LIMMAX
 10
1923.896029502928
 20
1261.640045950254
  9
$ORTHOMODE
 70
     1
  9
$REGENMODE
 70
     1
  9
$FILLMODE
 70
     1
  9
$QTEXTMODE
 70
     0
  9
$MIRRTEXT
 70
     0
  9
$DRAGMODE
 70
     2
  9
$LTSCALE
 40
20.0
  9
$OSMODE
 70
    39
  9
$ATTMODE
 70
     1
  9
$TEXTSIZE
 40
64.0
  9
$TRACEWID
 40
0.05
  9
$TEXTSTYLE
  7
STANDARD
  9
$CLAYER
  8
SIZE
  9
$CELTYPE
  6
CONTINUOUS
  9
$CECOLOR
 62
   256
  9
$CELTSCALE
 40
1.0
  9
$DELOBJ
 70
     1
  9
$DISPSILH
 70
     0
  9
$DIMSCALE
 40
1.0
  9
$DIMASZ
 40
10.0
  9
$DIMEXO
 40
20.0
  9
$DIMDLI
 40
200.0
  9
$DIMRND
 40
0.0
  9
$DIMDLE
 40
0.0
  9
$DIMEXE
 40
30.0
  9
$DIMTP
 40
0.0
  9
$DIMTM
 40
0.0
  9
$DIMTXT
 40
64.0
  9
$DIMCEN
 40
0.09
  9
$DIMTSZ
 40
0.0
  9
$DIMTOL
 70
     0
  9
$DIMLIM
 70
     0
  9
$DIMTIH
 70
     0
  9
$DIMTOH
 70
     0
  9
$DIMSE1
 70
     0
  9
$DIMSE2
 70
     0
  9
$DIMTAD
 70
     1
  9
$DIMZIN
 70
     8
  9
$DIMBLK
  1
ORIGIN
  9
$DIMASO
 70
     1
  9
$DIMSHO
 70
     0
  9
$DIMPOST
  1

  9
$DIMAPOST
  1

  9
$DIMALT
 70
     0
  9
$DIMALTD
 70
     2
  9
$DIMALTF
 40
25.4
  9
$DIMLFAC
 40
1.0
  9
$DIMTOFL
 70
     1
  9
$DIMTVP
 40
0.0
  9
$DIMTIX
 70
     0
  9
$DIMSOXD
 70
     0
  9
$DIMSAH
 70
     0
  9
$DIMBLK1
  1

  9
$DIMBLK2
  1

  9
$DIMSTYLE
  2
STANDARD
  9
$DIMCLRD
 70
     0
  9
$DIMCLRE
 70
     0
  9
$DIMCLRT
 70
     0
  9
$DIMTFAC
 40
1.0
  9
$DIMGAP
 40
10.0
  9
$DIMJUST
 70
     0
  9
$DIMSD1
 70
     0
  9
$DIMSD2
 70
     0
  9
$DIMTOLJ
 70
     1
  9
$DIMTZIN
 70
     0
  9
$DIMALTZ
 70
     0
  9
$DIMALTTZ
 70
     0
  9
$DIMFIT
 70
     3
  9
$DIMUPT
 70
     0
  9
$DIMUNIT
 70
     2
  9
$DIMDEC
 70
     4
  9
$DIMTDEC
 70
     4
  9
$DIMALTU
 70
     2
  9
$DIMALTTD
 70
     2
  9
$DIMTXSTY
  7
STANDARD
  9
$DIMAUNIT
 70
     0
  9
$LUNITS
 70
     2
  9
$LUPREC
 70
     4
  9
$SKETCHINC
 40
0.1
  9
$FILLETRAD
 40
6.0
  9
$AUNITS
 70
     1
  9
$AUPREC
 70
     3
  9
$MENU
  1
ACAD
  9
$ELEVATION
 40
0.0
  9
$PELEVATION
 40
0.0
  9
$THICKNESS
 40
0.0
  9
$LIMCHECK
 70
     0
  9
$BLIPMODE
 70
     0
  9
$CHAMFERA
 40
0.0
  9
$CHAMFERB
 40
0.0
  9
$CHAMFERC
 40
0.0
  9
$CHAMFERD
 40
0.0
  9
$SKPOLY
 70
     0
  9
$TDCREATE
 40
2450330.393205995
  9
$TDUPDATE
 40
2454729.378136029
  9
$TDINDWG
 40
0.4050210301
  9
$TDUSRTIMER
 40
0.4050209144
  9
$USRTIMER
 70
     1
  9
$ANGBASE
 50
0.0
  9
$ANGDIR
 70
     0
  9
$PDMODE
 70
     3
  9
$PDSIZE
 40
-2.0
  9
$PLINEWID
 40
0.0
  9
$COORDS
 70
     2
  9
$SPLFRAME
 70
     0
  9
$SPLINETYPE
 70
     6
  9
$SPLINESEGS
 70
     8
  9
$ATTDIA
 70
     0
  9
$ATTREQ
 70
     1
  9
$HANDLING
 70
-16383
  9
$HANDSEED
  5
25A4
  9
$SURFTAB1
 70
     6
  9
$SURFTAB2
 70
     6
  9
$SURFTYPE
 70
     6
  9
$SURFU
 70
     6
  9
$SURFV
 70
     6
  9
$UCSNAME
  2

  9
$UCSORG
 10
0.0
 20
0.0
 30
0.0
  9
$UCSXDIR
 10
1.0
 20
0.0
 30
0.0
  9
$UCSYDIR
 10
0.0
 20
1.0
 30
0.0
  9
$PUCSNAME
  2

  9
$PUCSORG
 10
0.0
 20
0.0
 30
0.0
  9
$PUCSXDIR
 10
1.0
 20
0.0
 30
0.0
  9
$PUCSYDIR
 10
0.0
 20
1.0
 30
0.0
  9
$USERI1
 70
     0
  9
$USERI2
 70
     0
  9
$USERI3
 70
     0
  9
$USERI4
 70
     0
  9
$USERI5
 70
     0
  9
$USERR1
 40
20.0
  9
$USERR2
 40
0.0
  9
$USERR3
 40
0.0
  9
$USERR4
 40
0.0
  9
$USERR5
 40
0.0
  9
$WORLDVIEW
 70
     1
  9
$SHADEDGE
 70
     3
  9
$SHADEDIF
 70
    70
  9
$TILEMODE
 70
     1
  9
$MAXACTVP
 70
    64
  9
$PINSBASE
 10
0.0
 20
0.0
 30
0.0
  9
$PLIMCHECK
 70
     0
  9
$PEXTMIN
 10
1.000000000000000E+20
 20
1.000000000000000E+20
 30
1.000000000000000E+20
  9
$PEXTMAX
 10
-1.000000000000000E+20
 20
-1.000000000000000E+20
 30
-1.000000000000000E+20
  9
$PLIMMIN
 10
0.0
 20
0.0
  9
$PLIMMAX
 10
12.0
 20
9.0
  9
$UNITMODE
 70
     0
  9
$VISRETAIN
 70
     1
  9
$PLINEGEN
 70
     0
  9
$PSLTSCALE
 70
     1
  9
$TREEDEPTH
 70
  3020
  9
$PICKSTYLE
 70
     1
  9
$CMLSTYLE
  2
STANDARD
  9
$CMLJUST
 70
     0
  9
$CMLSCALE
 40
1.0
  9
$PROXYGRAPHICS
 70
     1
  9
$MEASUREMENT
 70
     0
  0
ENDSEC
  0
SECTION
  2
CLASSES
  0
CLASS
  1
ACDBDICTIONARYWDFLT
  2
AcDbDictionaryWithDefault
  3
AutoCAD 2000
 90
        0
280
     0
281
     0
  0
CLASS
  1
ACDBPLACEHOLDER
  2
AcDbPlaceHolder
  3
AutoCAD 2000
 90
        0
280
     0
281
     0
  0
CLASS
  1
LAYOUT
  2
AcDbLayout
  3
AutoCAD 2000
 90
        0
280
     0
281
     0
  0
CLASS
  1
LONG_TRANSACTION
  2
AcDbLongTransaction
  3
AutoCAD 2000
 90
        0
280
     0
281
     0
  0
CLASS
  1
LWPOLYLINE
  2
AcDbPolyline
  3
AutoCAD 2000
 90
        0
280
     0
281
     1
  0
CLASS
  1
HATCH
  2
AcDbHatch
  3
AutoCAD 2000
 90
        0
280
     0
281
     1
  0
CLASS
  1
XRECORD
  2
AcDbXrecord
  3
AutoCAD 2000
 90
        0
280
     0
281
     0
  0
ENDSEC
  0
SECTION
  2
TABLES
  0
TABLE
  2
VPORT
  5
3D1
330
0
100
AcDbSymbolTable
 70
     3
  0
VPORT
  5
257E
330
3D1
100
AcDbSymbolTableRecord
100
AcDbViewportTableRecord
  2
*ACTIVE
 70
     0
 10
0.0
 20
0.0
 11
1.0
 21
1.0
 12
361.2067404613954
 22
128.0198272624572
 13
0.0
 23
0.0
 14
50.0
 24
50.0
 15
100.0
 25
100.0
 16
0.0
 26
0.0
 36
1.0
 17
0.0
 27
0.0
 37
0.0
 40
3160.517142563816
 41
1.299492385786801
 42
50.0
 43
0.0
 44
0.0
 50
0.0
 51
0.0
 71
     0
 72
   500
 73
     1
 74
     0
 75
     0
 76
     0
 77
     0
 78
     0
  0
ENDTAB
  0
TABLE
  2
LTYPE
  5
3CE
330
0
100
AcDbSymbolTable
 70
     3
  0
LTYPE
  5
3DC
330
3CE
100
AcDbSymbolTableRecord
100
AcDbLinetypeTableRecord
  2
BYBLOCK
 70
     0
  3

 72
    65
 73
     0
 40
0.0
  0
LTYPE
  5
3DD
330
3CE
100
AcDbSymbolTableRecord
100
AcDbLinetypeTableRecord
  2
BYLAYER
 70
     0
  3

 72
    65
 73
     0
 40
0.0
  0
LTYPE
  5
3DE
330
3CE
100
AcDbSymbolTableRecord
100
AcDbLinetypeTableRecord
  2
CONTINUOUS
 70
     0
  3
実線
 72
    65
 73
     0
 40
0.0
  0
LTYPE
  5
3ED
330
3CE
100
AcDbSymbolTableRecord
100
AcDbLinetypeTableRecord
  2
DASHDOT
 70
     0
  3
____ _ ____ _ ____ _ ____ _ ____ _ ____ _ ____
 72
    65
 73
     4
 40
5.5
 49
4.0
 74
     0
 49
-0.6
 74
     0
 49
0.3
 74
     0
 49
-0.6
 74
     0
  0
LTYPE
  5
3EE
330
3CE
100
AcDbSymbolTableRecord
100
AcDbLinetypeTableRecord
  2
CONTINOUS
 70
     0
  3
Solid line
 72
    65
 73
     0
 40
0.0
  0
ENDTAB
  0
TABLE
  2
LAYER
  5
3CB
330
0
100
AcDbSymbolTable
 70
    11
  0
LAYER
  5
3D9
330
3CB
100
AcDbSymbolTableRecord
100
AcDbLayerTableRecord
  2
0
 70
     0
 62
     7
  6
CONTINUOUS
  0
LAYER
  5
3EB
330
3CB
100
AcDbSymbolTableRecord
100
AcDbLayerTableRecord
  2
SIZE
 70
     0
 62
    32
  6
CONTINUOUS
  0
LAYER
  5
3F4
330
3CB
100
AcDbSymbolTableRecord
100
AcDbLayerTableRecord
  2
DETAIL
 70
     0
 62
     5
  6
CONTINUOUS
  0
LAYER
  5
3F5
330
3CB
100
AcDbSymbolTableRecord
100
AcDbLayerTableRecord
  2
OUTLINE
 70
     0
 62
     3
  6
CONTINUOUS
  0
LAYER
  5
3F6
330
3CB
100
AcDbSymbolTableRecord
100
AcDbLayerTableRecord
  2
BASIS
 70
     0
 62
     6
  6
DASHDOT
  0
LAYER
  5
3F7
330
3CB
100
AcDbSymbolTableRecord
100
AcDbLayerTableRecord
  2
NOTE
 70
     0
 62
     4
  6
CONTINUOUS
  0
LAYER
  5
3F8
330
3CB
100
AcDbSymbolTableRecord
100
AcDbLayerTableRecord
  2
ARRANGE
 70
     0
 62
     1
  6
CONTINUOUS
  0
LAYER
  5
3F9
330
3CB
100
AcDbSymbolTableRecord
100
AcDbLayerTableRecord
  2
FIX
 70
     0
 62
   241
  6
CONTINUOUS
  0
LAYER
  5
3FA
330
3CB
100
AcDbSymbolTableRecord
100
AcDbLayerTableRecord
  2
ETC
 70
     0
 62
    83
  6
CONTINUOUS
  0
LAYER
  5
3FB
330
3CB
100
AcDbSymbolTableRecord
100
AcDbLayerTableRecord
  2
SERVICESPACE
 70
     0
 62
     2
  6
CONTINUOUS
  0
LAYER
  5
3FD
330
3CB
100
AcDbSymbolTableRecord
100
AcDbLayerTableRecord
  2
DEFPOINTS
 70
     0
 62
     7
  6
CONTINUOUS
  0
ENDTAB
  0
TABLE
  2
STYLE
  5
3CC
330
0
100
AcDbSymbolTable
 70
     1
  0
STYLE
  5
3DA
330
3CC
100
AcDbSymbolTableRecord
100
AcDbTextStyleTableRecord
  2
STANDARD
 70
     0
 40
0.0
 41
0.9
 50
0.0
 71
     0
 42
64.0
  3
SIMPLEX
  4
BIGFONT
  0
ENDTAB
  0
TABLE
  2
VIEW
  5
3CF
330
0
100
AcDbSymbolTable
 70
     1
  0
VIEW
  5
3FF
330
3CF
100
AcDbSymbolTableRecord
100
AcDbViewTableRecord
  2
ALL
 70
     0
 40
4282.62
 10
0.0
 20
41.30990399999999
 41
5940.0
 11
0.0
 21
0.0
 31
1.0
 12
0.0
 22
0.0
 32
0.0
 42
50.0
 43
0.0
 44
0.0
 50
0.0
 71
     0
  0
ENDTAB
  0
TABLE
  2
UCS
  5
3D0
330
0
100
AcDbSymbolTable
 70
     0
  0
ENDTAB
  0
TABLE
  2
APPID
  5
3D2
330
0
100
AcDbSymbolTable
 70
     1
  0
APPID
  5
3DB
330
3D2
100
AcDbSymbolTableRecord
100
AcDbRegAppTableRecord
  2
ACAD
 70
     0
  0
ENDTAB
  0
TABLE
  2
DIMSTYLE
  5
3D3
330
0
100
AcDbSymbolTable
 70
     1
  0
DIMSTYLE
105
400
330
3D3
100
AcDbSymbolTableRecord
100
AcDbDimStyleTableRecord
  2
STANDARD
 70
     0
  3

  4

  5

  6

  7

 40
1.0
 41
0.18
 42
0.0625
 43
0.38
 44
0.18
 45
0.0
 46
0.0
 47
0.0
 48
0.0
140
0.18
141
0.09
142
0.0
143
25.4
144
1.0
145
0.0
146
1.0
147
0.09
 71
     0
 72
     0
 73
     1
 74
     1
 75
     0
 76
     0
 77
     0
 78
     0
170
     0
171
     2
172
     0
173
     0
174
     0
175
     0
176
     0
177
     0
178
     0
270
     2
271
     4
272
     4
273
     2
274
     2
340
3DA
275
     1
280
     0
281
     0
282
     0
283
     1
284
     8
285
     8
286
     8
287
     5
288
     0
  0
ENDTAB
  0
TABLE
  2
BLOCK_RECORD
  5
3CA
330
0
100
AcDbSymbolTable
 70
    97
  0
BLOCK_RECORD
  5
3E7
102
{ACAD_XDICTIONARY
360
25A2
102
}
330
3CA
100
AcDbSymbolTableRecord
100
AcDbBlockTableRecord
  2
*MODEL_SPACE
  0
BLOCK_RECORD
  5
3E3
102
{ACAD_XDICTIONARY
360
25A0
102
}
330
3CA
100
AcDbSymbolTableRecord
100
AcDbBlockTableRecord
  2
*PAPER_SPACE
  0
BLOCK_RECORD
  5
4A9
330
3CA
100
AcDbSymbolTableRecord
100
AcDbBlockTableRecord
  2
_ORIGIN
  0
BLOCK_RECORD
  5
4B4
330
3CA
100
AcDbSymbolTableRecord
100
AcDbBlockTableRecord
  2
_DOTBLANK
  0
ENDTAB
  0
ENDSEC
  0
SECTION
  2
BLOCKS
  0
BLOCK
  5
3E8
330
3E7
100
AcDbEntity
  8
0
100
AcDbBlockBegin
  2
*MODEL_SPACE
 70
     0
 10
0.0
 20
0.0
 30
0.0
  3
*MODEL_SPACE
  1

  0
ENDBLK
  5
3E9
330
3E7
100
AcDbEntity
  8
0
100
AcDbBlockEnd
  0
BLOCK
  5
3E4
330
3E3
100
AcDbEntity
 67
     1
  8
0
100
AcDbBlockBegin
  2
*PAPER_SPACE
 70
     0
 10
0.0
 20
0.0
 30
0.0
  3
*PAPER_SPACE
  1

  0
ENDBLK
  5
3E5
330
3E3
100
AcDbEntity
 67
     1
  8
0
100
AcDbBlockEnd
  0
BLOCK
  5
4AA
330
4A9
100
AcDbEntity
  8
0
100
AcDbBlockBegin
  2
_ORIGIN
 70
     0
 10
0.0
 20
0.0
 30
0.0
  3
_ORIGIN
  1

  0
CIRCLE
  5
4AB
330
4A9
100
AcDbEntity
  8
0
  6
BYBLOCK
 62
     0
100
AcDbCircle
 10
0.0
 20
0.0
 30
0.0
 40
0.5
  0
LINE
  5
4AC
330
4A9
100
AcDbEntity
  8
0
  6
BYBLOCK
 62
     0
100
AcDbLine
 10
0.0
 20
0.0
 30
0.0
 11
-1.0
 21
0.0
 31
0.0
  0
ENDBLK
  5
4AD
330
4A9
100
AcDbEntity
  8
0
100
AcDbBlockEnd
  0
BLOCK
  5
4B5
330
4B4
100
AcDbEntity
  8
0
100
AcDbBlockBegin
  2
_DOTBLANK
 70
     0
 10
0.0
 20
0.0
 30
0.0
  3
_DOTBLANK
  1

  0
CIRCLE
  5
4B6
330
4B4
100
AcDbEntity
  8
0
  6
BYBLOCK
 62
     0
100
AcDbCircle
 10
0.0
 20
0.0
 30
0.0
 40
0.5
  0
LINE
  5
4B7
330
4B4
100
AcDbEntity
  8
0
  6
BYBLOCK
 62
     0
100
AcDbLine
 10
-0.5
 20
0.0
 30
0.0
 11
-1.0
 21
0.0
 31
0.0
  0
ENDBLK
  5
4B8
330
4B4
100
AcDbEntity
  8
0
100
AcDbBlockEnd
  0
ENDSEC
  0
SECTION
  2
ENTITIES
  0
LINE
  5
13DC
330
3E7
100
AcDbEntity
  8
DETAIL
  6
CONTINOUS
100
AcDbLine
 10
284.0
 20
-165.0
 30
0.0
 11
-284.0
 21
-165.0
 31
0.0
  0
LINE
  5
13DD
330
3E7
100
AcDbEntity
  8
DETAIL
  6
CONTINOUS
100
AcDbLine
 10
284.0
 20
164.9999999999991
 30
0.0
 11
-284.0
 21
165.0
 31
0.0
  0
CIRCLE
  5
13DE
330
3E7
100
AcDbEntity
  8
FIX
  6
CONTINUOUS
100
AcDbCircle
 10
300.0
 20
185.0
 30
0.0
 40
40.0
  0
LINE
  5
13DF
330
3E7
100
AcDbEntity
  8
NOTE
  6
CONTINOUS
100
AcDbLine
 10
295.0
 20
-165.0
 30
0.0
 11
255.0
 21
-165.0
 31
0.0
  0
CIRCLE
  5
13E1
330
3E7
100
AcDbEntity
  8
FIX
  6
CONTINUOUS
100
AcDbCircle
 10
300.0
 20
-185.0
 30
0.0
 40
40.0
  0
LWPOLYLINE
  5
13E2
330
3E7
100
AcDbEntity
  8
NOTE
  6
CONTINUOUS
100
AcDbPolyline
 90
        3
 70
     0
 43
0.0
 10
257.7846728056788
 20
-201.1058517009369
 10
275.0
 20
-165.0
 10
242.0381638788712
 20
-187.6609214970303
  0
LINE
  5
13E4
330
3E7
100
AcDbEntity
  8
NOTE
  6
CONTINUOUS
100
AcDbLine
 10
275.0
 20
-165.0
 30
0.0
 11
117.3246862707628
 21
-352.5583878916504
 31
0.0
  0
LINE
  5
13E5
330
3E7
100
AcDbEntity
  8
BASIS
  6
DASHDOT
100
AcDbLine
 10
518.9188715
 20
0.0
 30
0.0
 11
-518.9188715
 21
0.0
 31
0.0
  0
LINE
  5
13E8
330
3E7
100
AcDbEntity
  8
DETAIL
  6
CONTINOUS
100
AcDbLine
 10
-284.0
 20
204.0
 30
0.0
 11
-284.0
 21
-213.0
 31
0.0
  0
LINE
  5
13E9
330
3E7
100
AcDbEntity
  8
DETAIL
  6
CONTINOUS
100
AcDbLine
 10
-316.0
 20
204.0
 30
0.0
 11
-316.0
 21
-213.0
 31
0.0
  0
CIRCLE
  5
13EA
330
3E7
100
AcDbEntity
  8
ARRANGE
  6
CONTINUOUS
100
AcDbCircle
 10
0.0
 20
0.0
 30
0.0
 40
40.0
  0
LINE
  5
13EB
330
3E7
100
AcDbEntity
  8
BASIS
  6
DASHDOT
100
AcDbLine
 10
0.0
 20
224.9004311819999
 30
0.0
 11
0.0
 21
-224.9004311819999
 31
0.0
  0
LINE
  5
13EC
330
3E7
100
AcDbEntity
  8
DETAIL
  6
CONTINOUS
100
AcDbLine
 10
-475.0
 20
165.0
 30
0.0
 11
-475.0
 21
-165.0
 31
0.0
  0
LINE
  5
13EE
330
3E7
100
AcDbEntity
  8
NOTE
  6
CONTINUOUS
100
AcDbLine
 10
-1103.609479033234
 20
-459.2326822769409
 30
0.0
 11
-530.5400718084968
 21
-459.2326822769409
 31
0.0
  0
TEXT
  5
13EF
330
3E7
100
AcDbEntity
  8
NOTE
  6
CONTINUOUS
100
AcDbText
 10
-1088.829174033236
 20
-444.130381276942
 30
0.0
 40
64.0
  1
AH 2-12×36
 41
0.9
100
AcDbText
  0
LINE
  5
13F4
330
3E7
100
AcDbEntity
  8
NOTE
  6
CONTINUOUS
100
AcDbLine
 10
-300.0
 20
-185.0
 30
0.0
 11
-530.5400718084968
 21
-459.2326822769409
 31
0.0
  0
LINE
  5
13F6
330
3E7
100
AcDbEntity
  8
DETAIL
  6
CONTINOUS
100
AcDbLine
 10
-316.0
 20
-165.0
 30
0.0
 11
-475.0
 21
-165.0
 31
0.0
  0
LINE
  5
13FA
330
3E7
100
AcDbEntity
  8
DETAIL
  6
CONTINOUS
100
AcDbLine
 10
-441.9999999998472
 20
-165.0
 30
0.0
 11
-441.9999999998472
 21
-190.0
 31
0.0
  0
LINE
  5
13FD
330
3E7
100
AcDbEntity
  8
DETAIL
  6
CONTINOUS
 62
     5
100
AcDbLine
 10
-306.0
 20
-173.0
 30
0.0
 11
-306.0
 21
-197.0
 31
0.0
  0
LINE
  5
13FE
330
3E7
100
AcDbEntity
  8
DETAIL
  6
CONTINOUS
 62
     5
100
AcDbLine
 10
-294.0
 20
-173.0
 30
0.0
 11
-294.0
 21
-197.0
 31
0.0
  0
LINE
  5
13FF
330
3E7
100
AcDbEntity
  8
NOTE
  6
CONTINOUS
100
AcDbLine
 10
-300.0
 20
-165.0
 30
0.0
 11
-300.0
 21
-205.0
 31
0.0
  0
CIRCLE
  5
1400
330
3E7
100
AcDbEntity
  8
FIX
  6
CONTINUOUS
100
AcDbCircle
 10
-300.0
 20
-185.0
 30
0.0
 40
40.0
  0
LINE
  5
1402
330
3E7
100
AcDbEntity
  8
NOTE
  6
CONTINOUS
100
AcDbLine
 10
-280.0
 20
-185.0
 30
0.0
 11
-320.0
 21
-185.0
 31
0.0
  0
LINE
  5
1403
330
3E7
100
AcDbEntity
  8
DETAIL
  6
CONTINOUS
100
AcDbLine
 10
-284.0
 20
-213.0
 30
0.0
 11
-316.0
 21
-213.0
 31
0.0
  0
LWPOLYLINE
  5
1404
330
3E7
100
AcDbEntity
  8
NOTE
  6
CONTINUOUS
100
AcDbPolyline
 90
        3
 70
     0
 43
0.0
 10
-317.2153271943211
 20
-221.1058517009369
 10
-300.0
 20
-185.0
 10
-332.9618361211282
 20
-207.6609214970303
  0
ARC
  5
1405
330
3E7
100
AcDbEntity
  8
DETAIL
  6
CONTINOUS
 62
     5
100
AcDbCircle
 10
-300.0
 20
-197.0
 30
0.0
 40
6.0
100
AcDbArc
 50
180.0
 51
270.0
  0
ARC
  5
1406
330
3E7
100
AcDbEntity
  8
DETAIL
  6
CONTINOUS
 62
     5
100
AcDbCircle
 10
-300.0
 20
-197.0
 30
0.0
 40
6.0
100
AcDbArc
 50
270.0
 51
0.0
  0
ARC
  5
1407
330
3E7
100
AcDbEntity
  8
DETAIL
  6
CONTINOUS
 62
     5
100
AcDbCircle
 10
-300.0
 20
-173.0
 30
0.0
 40
6.0
100
AcDbArc
 50
0.0
 51
90.0
  0
ARC
  5
1408
330
3E7
100
AcDbEntity
  8
DETAIL
  6
CONTINOUS
 62
     5
100
AcDbCircle
 10
-300.0
 20
-173.0
 30
0.0
 40
6.0
100
AcDbArc
 50
90.0
 51
180.0
  0
TEXT
  5
1409
330
3E7
100
AcDbEntity
  8
NOTE
  6
CONTINUOUS
100
AcDbText
 10
-116.31534602696
 20
-337.4560868916505
 30
0.0
 40
64.0
  1
EL,CL
 41
0.9
100
AcDbText
  0
LINE
  5
140A
330
3E7
100
AcDbEntity
  8
NOTE
  6
CONTINUOUS
100
AcDbLine
 10
-131.0956510269596
 20
-352.5583878916504
 30
0.0
 11
117.3246862707628
 21
-352.5583878916504
 31
0.0
  0
POINT
  5
140B
330
3E7
100
AcDbEntity
  8
ARRANGE
  6
CONTINUOUS
100
AcDbPoint
 10
0.0
 20
0.0
 30
0.0
  0
LINE
  5
140C
330
3E7
100
AcDbEntity
  8
BASIS
  6
DASHDOT
100
AcDbLine
 10
-153.0
 20
-252.8656195000003
 30
0.0
 11
-153.0
 21
-117.1343804999996
 31
0.0
  0
LINE
  5
140E
330
3E7
100
AcDbEntity
  8
DETAIL
  6
CONTINOUS
100
AcDbLine
 10
136.000000000153
 20
-165.0
 30
0.0
 11
136.000000000153
 21
-190.0
 31
0.0
  0
TEXT
  5
140F
330
3E7
100
AcDbEntity
  8
NOTE
  6
CONTINUOUS
100
AcDbText
 10
-1119.055049453289
 20
328.8893408547592
 30
0.0
 40
64.0
  1
AH 2-U cut
 41
0.9
100
AcDbText
  0
LINE
  5
1410
330
3E7
100
AcDbEntity
  8
NOTE
  6
CONTINUOUS
100
AcDbLine
 10
-1146.761119453289
 20
318.3016428547589
 30
0.0
 11
-588.3803723624724
 21
318.3016428547584
 31
0.0
  0
LINE
  5
1412
330
3E7
100
AcDbEntity
  8
NOTE
  6
CONTINUOUS
100
AcDbLine
 10
-299.9999999999999
 20
185.0
 30
0.0
 11
-588.3803723624724
 21
318.3016428547584
 31
0.0
  0
LINE
  5
1414
330
3E7
100
AcDbEntity
  8
DETAIL
  6
CONTINOUS
100
AcDbLine
 10
-316.0
 20
165.0
 30
0.0
 11
-475.0
 21
165.0
 31
0.0
  0
CIRCLE
  5
1415
330
3E7
100
AcDbEntity
  8
FIX
  6
CONTINUOUS
100
AcDbCircle
 10
-300.0
 20
185.0
 30
0.0
 40
40.0
  0
LINE
  5
1417
330
3E7
100
AcDbEntity
  8
NOTE
  6
CONTINOUS
100
AcDbLine
 10
-280.0
 20
185.0
 30
0.0
 11
-320.0
 21
185.0
 31
0.0
  0
LINE
  5
1418
330
3E7
100
AcDbEntity
  8
DETAIL
  6
CONTINOUS
100
AcDbLine
 10
-284.0
 20
204.0
 30
0.0
 11
-294.0
 21
204.0
 31
0.0
  0
LINE
  5
141C
330
3E7
100
AcDbEntity
  8
NOTE
  6
CONTINOUS
100
AcDbLine
 10
-300.0
 20
205.0
 30
0.0
 11
-300.0
 21
165.0
 31
0.0
  0
LINE
  5
141D
330
3E7
100
AcDbEntity
  8
DETAIL
  6
CONTINOUS
 62
     5
100
AcDbLine
 10
-294.0
 20
204.0
 30
0.0
 11
-294.0
 21
183.0
 31
0.0
  0
LINE
  5
141E
330
3E7
100
AcDbEntity
  8
DETAIL
  6
CONTINOUS
 62
     5
100
AcDbLine
 10
-306.0
 20
204.0
 30
0.0
 11
-306.0
 21
183.0
 31
0.0
  0
LWPOLYLINE
  5
141F
330
3E7
100
AcDbEntity
  8
NOTE
  6
CONTINUOUS
100
AcDbPolyline
 90
        3
 70
     0
 43
0.0
 10
-339.3619516049734
 20
192.1159527334907
 10
-299.9999999999999
 20
185.0
 10
-330.5304738423106
 20
210.8435711645015
  0
ARC
  5
1421
330
3E7
100
AcDbEntity
  8
DETAIL
  6
CONTINUOUS
100
AcDbCircle
 10
-300.0
 20
183.0
 30
0.0
 40
6.0
100
AcDbArc
 50
180.0
 51
0.0
  0
LINE
  5
1423
330
3E7
100
AcDbEntity
  8
DETAIL
  6
CONTINOUS
100
AcDbLine
 10
-306.0
 20
204.0
 30
0.0
 11
-316.0
 21
204.0
 31
0.0
  0
LINE
  5
1426
330
3E7
100
AcDbEntity
  8
DETAIL
  6
CONTINOUS
100
AcDbLine
 10
475.0
 20
-165.0
 30
0.0
 11
475.0
 21
165.0
 31
0.0
  0
LINE
  5
1428
330
3E7
100
AcDbEntity
  8
DETAIL
  6
CONTINOUS
100
AcDbLine
 10
316.0
 20
204.0
 30
0.0
 11
316.0
 21
-213.0
 31
0.0
  0
LINE
  5
1429
330
3E7
100
AcDbEntity
  8
DETAIL
  6
CONTINOUS
100
AcDbLine
 10
284.0
 20
204.0
 30
0.0
 11
284.0
 21
-213.0
 31
0.0
  0
LINE
  5
1438
330
3E7
100
AcDbEntity
  8
DETAIL
  6
CONTINOUS
100
AcDbLine
 10
475.0
 20
-165.0
 30
0.0
 11
316.0
 21
-165.0
 31
0.0
  0
LINE
  5
143B
330
3E7
100
AcDbEntity
  8
NOTE
  6
CONTINOUS
100
AcDbLine
 10
275.0
 20
-185.0
 30
0.0
 11
275.0
 21
-145.0
 31
0.0
  0
LINE
  5
143C
330
3E7
100
AcDbEntity
  8
NOTE
  6
CONTINOUS
100
AcDbLine
 10
300.0
 20
-165.0
 30
0.0
 11
300.0
 21
-205.0
 31
0.0
  0
LINE
  5
143D
330
3E7
100
AcDbEntity
  8
DETAIL
  6
CONTINOUS
 62
     5
100
AcDbLine
 10
306.0
 20
-173.0
 30
0.0
 11
306.0
 21
-197.0
 31
0.0
  0
LINE
  5
143E
330
3E7
100
AcDbEntity
  8
DETAIL
  6
CONTINOUS
 62
     5
100
AcDbLine
 10
294.0
 20
-173.0
 30
0.0
 11
294.0
 21
-197.0
 31
0.0
  0
LINE
  5
1440
330
3E7
100
AcDbEntity
  8
DETAIL
  6
CONTINOUS
100
AcDbLine
 10
316.0
 20
-213.0
 30
0.0
 11
284.0
 21
-213.0
 31
0.0
  0
LINE
  5
1441
330
3E7
100
AcDbEntity
  8
NOTE
  6
CONTINOUS
100
AcDbLine
 10
320.0
 20
-185.0
 30
0.0
 11
280.0
 21
-185.0
 31
0.0
  0
ARC
  5
1442
330
3E7
100
AcDbEntity
  8
DETAIL
  6
CONTINOUS
 62
     5
100
AcDbCircle
 10
300.0
 20
-197.0
 30
0.0
 40
6.0
100
AcDbArc
 50
180.0
 51
270.0
  0
ARC
  5
1443
330
3E7
100
AcDbEntity
  8
DETAIL
  6
CONTINOUS
 62
     5
100
AcDbCircle
 10
300.0
 20
-197.0
 30
0.0
 40
6.0
100
AcDbArc
 50
270.0
 51
0.0
  0
LINE
  5
1444
330
3E7
100
AcDbEntity
  8
NOTE
  6
CONTINOUS
100
AcDbLine
 10
300.0
 20
-172.0
 30
0.0
 11
300.0
 21
-172.0
 31
0.0
  0
ARC
  5
1445
330
3E7
100
AcDbEntity
  8
DETAIL
  6
CONTINOUS
 62
     5
100
AcDbCircle
 10
300.0
 20
-173.0
 30
0.0
 40
6.0
100
AcDbArc
 50
90.0
 51
180.0
  0
ARC
  5
1446
330
3E7
100
AcDbEntity
  8
DETAIL
  6
CONTINOUS
 62
     5
100
AcDbCircle
 10
300.0
 20
-173.0
 30
0.0
 40
6.0
100
AcDbArc
 50
0.0
 51
90.0
  0
TEXT
  5
144A
330
3E7
100
AcDbEntity
  8
ETC
  6
CONTINUOUS
100
AcDbText
 10
1266.207844660201
 20
875.5129180359427
 30
0.0
 40
64.0
  1
SMPU4916
 41
0.9
100
AcDbText
  0
TEXT
  5
144B
330
3E7
100
AcDbEntity
  8
ETC
  6
CONTINUOUS
100
AcDbText
 10
1278.030588660202
 20
1000.875627629229
 30
0.0
 40
64.0
  1
PAC
 41
0.9
100
AcDbText
  0
LINE
  5
1453
330
3E7
100
AcDbEntity
  8
DETAIL
  6
CONTINOUS
100
AcDbLine
 10
475.0
 20
165.0
 30
0.0
 11
316.0
 21
164.9999999999991
 31
0.0
  0
LINE
  5
1458
330
3E7
100
AcDbEntity
  8
DETAIL
  6
CONTINOUS
 62
     5
100
AcDbLine
 10
306.0
 20
204.0
 30
0.0
 11
306.0
 21
183.0
 31
0.0
  0
LINE
  5
1459
330
3E7
100
AcDbEntity
  8
DETAIL
  6
CONTINOUS
 62
     5
100
AcDbLine
 10
294.0
 20
204.0
 30
0.0
 11
294.0
 21
183.0
 31
0.0
  0
LINE
  5
145A
330
3E7
100
AcDbEntity
  8
NOTE
  6
CONTINOUS
100
AcDbLine
 10
300.0
 20
205.0
 30
0.0
 11
300.0
 21
165.0
 31
0.0
  0
LINE
  5
145B
330
3E7
100
AcDbEntity
  8
NOTE
  6
CONTINOUS
100
AcDbLine
 10
280.0
 20
185.0
 30
0.0
 11
320.0
 21
185.0
 31
0.0
  0
ARC
  5
145D
330
3E7
100
AcDbEntity
  8
DETAIL
  6
CONTINUOUS
100
AcDbCircle
 10
300.0
 20
183.0
 30
0.0
 40
6.0
100
AcDbArc
 50
180.0
 51
0.0
  0
LINE
  5
145F
330
3E7
100
AcDbEntity
  8
DETAIL
  6
CONTINOUS
100
AcDbLine
 10
284.0
 20
204.0
 30
0.0
 11
294.0
 21
204.0
 31
0.0
  0
LINE
  5
1461
330
3E7
100
AcDbEntity
  8
DETAIL
  6
CONTINOUS
100
AcDbLine
 10
306.0
 20
204.0
 30
0.0
 11
316.0
 21
204.0
 31
0.0
  0
LINE
  5
19DD
330
3E7
100
AcDbEntity
  8
DETAIL
  6
CONTINOUS
100
AcDbLine
 10
136.000000000153
 20
-190.0
 30
0.0
 11
-284.0
 21
-190.0
 31
0.0
  0
LINE
  5
19DE
330
3E7
100
AcDbEntity
  8
DETAIL
  6
CONTINOUS
100
AcDbLine
 10
-316.0
 20
-190.0
 30
0.0
 11
-441.9999999998472
 21
-190.0
 31
0.0
  0
LINE
  5
1A80
330
3E7
100
AcDbEntity
  8
NOTE
  6
CONTINUOUS
100
AcDbLine
 10
380.2413560316864
 20
-120.8007234981223
 30
0.0
 11
718.7506037687013
 21
513.4108473520618
 31
0.0
  0
LINE
  5
1A81
330
3E7
100
AcDbEntity
  8
NOTE
  6
CONTINUOUS
100
AcDbLine
 10
437.73873254025
 20
-103.9953244905654
 30
0.0
 11
695.2227840386418
 21
378.4120716480797
 31
0.0
  0
LINE
  5
1A82
330
3E7
100
AcDbEntity
  8
NOTE
  6
CONTINUOUS
100
AcDbLine
 10
695.2227840386418
 20
378.4120716480797
 30
0.0
 11
1129.349206149297
 21
378.4120716480801
 31
0.0
  0
TEXT
  5
1A83
330
3E7
100
AcDbEntity
  8
NOTE
  6
CONTINUOUS
100
AcDbText
 10
731.4876840863401
 20
533.1274946008911
 30
0.0
 40
64.0
  1
RL%%C9.52
 41
0.9
100
AcDbText
  0
LINE
  5
1A84
330
3E7
100
AcDbEntity
  8
NOTE
  6
CONTINUOUS
100
AcDbLine
 10
1070.117609824031
 20
513.4108473520618
 30
0.0
 11
718.7506037687013
 21
513.4108473520618
 31
0.0
  0
TEXT
  5
1A85
330
3E7
100
AcDbEntity
  8
NOTE
  6
CONTINUOUS
100
AcDbText
 10
730.8351247717744
 20
398.6934276480801
 30
0.0
 40
64.0
  1
RG%%C15.88
 41
0.9
100
AcDbText
  0
LINE
  5
1A89
330
3E7
100
AcDbEntity
  8
NOTE
  6
CONTINOUS
100
AcDbLine
 10
454.0
 20
-111.0
 30
0.0
 11
414.0
 21
-111.0
 31
0.0
  0
LWPOLYLINE
  5
1A8A
330
3E7
100
AcDbEntity
  8
NOTE
  6
CONTINUOUS
100
AcDbPolyline
 90
        3
 70
     0
 43
0.0
 10
447.0969113130331
 20
-65.10542210557378
 10
437.73873254025
 20
-103.9953244905654
 10
465.2881038167112
 20
-74.99477025719989
  0
LINE
  5
1A8C
330
3E7
100
AcDbEntity
  8
NOTE
  6
CONTINOUS
100
AcDbLine
 10
398.0
 20
-125.0
 30
0.0
 11
358.0
 21
-125.0
 31
0.0
  0
LWPOLYLINE
  5
1A8D
330
3E7
100
AcDbEntity
  8
NOTE
  6
CONTINUOUS
100
AcDbPolyline
 90
        3
 70
     0
 43
0.0
 10
389.5995348044695
 20
-81.91082111313063
 10
380.2413560316864
 20
-120.8007234981223
 10
407.7907273081477
 20
-91.80016926475673
  0
CIRCLE
  5
1A8E
330
3E7
100
AcDbEntity
  8
DETAIL
  6
CONTINUOUS
100
AcDbCircle
 10
378.0
 20
-125.0
 30
0.0
 40
4.759999999999998
  0
LINE
  5
1A8F
330
3E7
100
AcDbEntity
  8
NOTE
  6
CONTINOUS
100
AcDbLine
 10
378.0
 20
-145.0
 30
0.0
 11
378.0
 21
-105.0
 31
0.0
  0
CIRCLE
  5
1A90
330
3E7
100
AcDbEntity
  8
DETAIL
  6
CONTINUOUS
100
AcDbCircle
 10
434.0
 20
-111.0
 30
0.0
 40
7.94
  0
LINE
  5
1A91
330
3E7
100
AcDbEntity
  8
NOTE
  6
CONTINOUS
100
AcDbLine
 10
434.0
 20
-131.0
 30
0.0
 11
434.0
 21
-91.0
 31
0.0
  0
LINE
  5
1F2B
330
3E7
100
AcDbEntity
  8
SERVICESPACE
  6
DASHDOT
100
AcDbLine
 10
475.0
 20
-165.0
 30
0.0
 11
-485.0
 21
-165.0
 31
0.0
  0
LINE
  5
1F2C
330
3E7
100
AcDbEntity
  8
SERVICESPACE
  6
DASHDOT
100
AcDbLine
 10
-475.0
 20
165.0
 30
0.0
 11
475.0
 21
315.0
 31
0.0
  0
LINE
  5
1F2D
330
3E7
100
AcDbEntity
  8
SERVICESPACE
  6
DASHDOT
100
AcDbLine
 10
-475.0
 20
311.4906517315739
 30
0.0
 11
475.0
 21
165.0
 31
0.0
  0
LINE
  5
1F2E
330
3E7
100
AcDbEntity
  8
SERVICESPACE
  6
DASHDOT
100
AcDbLine
 10
475.0
 20
315.0
 30
0.0
 11
-475.0
 21
315.0
 31
0.0
  0
LINE
  5
1F2F
330
3E7
100
AcDbEntity
  8
SERVICESPACE
  6
DASHDOT
100
AcDbLine
 10
475.0
 20
165.0
 30
0.0
 11
-485.0
 21
165.0
 31
0.0
  0
LINE
  5
1F3C
330
3E7
100
AcDbEntity
  8
SERVICESPACE
  6
DASHDOT
100
AcDbLine
 10
-475.0
 20
315.0
 30
0.0
 11
-475.0
 21
-165.0
 31
0.0
  0
LINE
  5
1F3F
330
3E7
100
AcDbEntity
  8
SERVICESPACE
100
AcDbLine
 10
-485.0
 20
-165.0
 30
0.0
 11
-475.0
 21
165.0
 31
0.0
  0
LINE
  5
1F40
330
3E7
100
AcDbEntity
  8
SERVICESPACE
100
AcDbLine
 10
-485.0
 20
165.0
 30
0.0
 11
-475.0
 21
-165.0
 31
0.0
  0
LINE
  5
1F41
330
3E7
100
AcDbEntity
  8
SERVICESPACE
  6
DASHDOT
100
AcDbLine
 10
-485.0
 20
165.0
 30
0.0
 11
-485.0
 21
-165.0
 31
0.0
  0
TEXT
  5
1F46
330
3E7
100
AcDbEntity
  8
NOTE
  6
CONTINUOUS
100
AcDbText
 10
-952.0707322587629
 20
714.6438939147674
 30
0.0
 40
64.0
  1
ｻ-ﾋﾞｽｽﾍﾟ-ｽ
 41
0.9
100
AcDbText
  0
TEXT
  5
1F4A
330
3E7
100
AcDbEntity
  8
NOTE
  6
CONTINUOUS
100
AcDbText
 10
-225.6478407971451
 20
250.9938919243272
 30
0.0
 40
64.0
  1
ｻ-ﾋﾞｽｽﾍﾟ-ｽ
 41
0.9
100
AcDbText
  0
LINE
  5
1F4B
330
3E7
100
AcDbEntity
  8
SERVICESPACE
  6
DASHDOT
100
AcDbLine
 10
475.0
 20
315.0
 30
0.0
 11
475.0
 21
-665.0
 31
0.0
  0
LINE
  5
1F57
330
3E7
100
AcDbEntity
  8
SERVICESPACE
  6
DASHDOT
100
AcDbLine
 10
-25.0
 20
-165.0
 30
0.0
 11
-25.0
 21
-665.0
 31
0.0
  0
LINE
  5
1F58
330
3E7
100
AcDbEntity
  8
SERVICESPACE
  6
DASHDOT
100
AcDbLine
 10
-25.0
 20
-165.0
 30
0.0
 11
475.0
 21
-665.0
 31
0.0
  0
LINE
  5
1F59
330
3E7
100
AcDbEntity
  8
SERVICESPACE
  6
DASHDOT
100
AcDbLine
 10
-25.0
 20
-665.0
 30
0.0
 11
475.0
 21
-165.0
 31
0.0
  0
TEXT
  5
1F5E
330
3E7
100
AcDbEntity
  8
NOTE
  6
CONTINUOUS
100
AcDbText
 10
36.40524845343247
 20
-661.5086444605013
 30
0.0
 40
64.0
  1
ｻ-ﾋﾞｽｽﾍﾟ-ｽ
 41
0.9
100
AcDbText
  0
LINE
  5
1F5F
330
3E7
100
AcDbEntity
  8
SERVICESPACE
  6
DASHDOT
100
AcDbLine
 10
475.0
 20
-665.0
 30
0.0
 11
-25.0
 21
-665.0
 31
0.0
  0
LINE
  5
2203
330
3E7
100
AcDbEntity
  8
BASIS
  6
DASHDOT
100
AcDbLine
 10
-415.180566313702
 20
54.0
 30
0.0
 11
-474.8194336862979
 21
54.0
 31
0.0
  0
LINE
  5
2204
330
3E7
100
AcDbEntity
  8
BASIS
  6
DASHDOT
100
AcDbLine
 10
258.221823705524
 20
135.0
 30
0.0
 11
-268.0037806930595
 21
135.0
 31
0.0
  0
LINE
  5
2205
330
3E7
100
AcDbEntity
  8
BASIS
  6
CONTINUOUS
100
AcDbLine
 10
-475.0
 20
-165.0
 30
0.0
 11
-475.0
 21
-604.0863827828279
 31
0.0
  0
LINE
  5
2206
330
3E7
100
AcDbEntity
  8
BASIS
  6
DASHDOT
100
AcDbLine
 10
-445.0
 20
89.14525708821111
 30
0.0
 11
-445.0
 21
21.03755152607573
 31
0.0
  0
LINE
  5
220A
330
3E7
100
AcDbEntity
  8
BASIS
  6
DASHDOT
100
AcDbLine
 10
210.0
 20
178.6673916021727
 30
0.0
 11
210.0
 21
97.8508330396553
 31
0.0
  0
LINE
  5
220C
330
3E7
100
AcDbEntity
  8
BASIS
  6
DASHDOT
100
AcDbLine
 10
65.0
 20
178.6673916021727
 30
0.0
 11
65.0
 21
97.8508330396553
 31
0.0
  0
LINE
  5
220D
330
3E7
100
AcDbEntity
  8
BASIS
  6
DASHDOT
100
AcDbLine
 10
-80.0
 20
178.6673916021727
 30
0.0
 11
-80.0
 21
97.8508330396553
 31
0.0
  0
LINE
  5
220E
330
3E7
100
AcDbEntity
  8
BASIS
  6
DASHDOT
100
AcDbLine
 10
-225.0
 20
178.6673916021727
 30
0.0
 11
-225.0
 21
97.8508330396553
 31
0.0
  0
CIRCLE
  5
220F
330
3E7
100
AcDbEntity
  8
DETAIL
  6
CONTINUOUS
100
AcDbCircle
 10
-445.0
 20
54.0
 30
0.0
 40
16.5
  0
CIRCLE
  5
2210
330
3E7
100
AcDbEntity
  8
DETAIL
  6
CONTINUOUS
100
AcDbCircle
 10
-225.0
 20
135.0
 30
0.0
 40
16.5
  0
CIRCLE
  5
2211
330
3E7
100
AcDbEntity
  8
DETAIL
  6
CONTINUOUS
100
AcDbCircle
 10
-80.0
 20
135.0
 30
0.0
 40
16.5
  0
CIRCLE
  5
2212
330
3E7
100
AcDbEntity
  8
DETAIL
  6
CONTINUOUS
100
AcDbCircle
 10
65.0
 20
135.0
 30
0.0
 40
16.5
  0
CIRCLE
  5
2213
330
3E7
100
AcDbEntity
  8
DETAIL
  6
CONTINUOUS
100
AcDbCircle
 10
210.0
 20
135.0
 30
0.0
 40
16.5
  0
TEXT
  5
22FE
330
3E7
100
AcDbEntity
  8
NOTE
  6
CONTINUOUS
100
AcDbText
 10
579.5274692894532
 20
778.8267703369574
 30
0.0
 40
64.0
  1
D 5-%%C33
 41
0.9
100
AcDbText
  0
LINE
  5
22FF
330
3E7
100
AcDbEntity
  8
NOTE
  6
CONTINUOUS
100
AcDbLine
 10
964.9367919663928
 20
759.1101230881281
 30
0.0
 11
566.7903889718143
 21
759.1101230881281
 31
0.0
  0
LINE
  5
2300
330
3E7
100
AcDbEntity
  8
NOTE
  6
CONTINUOUS
100
AcDbLine
 10
210.0
 20
135.0
 30
0.0
 11
566.7903889718143
 21
759.1101230881281
 31
0.0
  0
LWPOLYLINE
  5
2301
330
3E7
100
AcDbEntity
  8
NOTE
  6
CONTINUOUS
100
AcDbPolyline
 90
        3
 70
     0
 43
0.0
 10
220.4839907828112
 20
173.6016315033894
 10
210.0
 20
135.0
 10
238.3802176423433
 20
163.1879983351759
  0
LINE
  5
2415
330
3E7
100
AcDbEntity
  8
SIZE
  6
CONTINUOUS
100
AcDbLine
 10
495.0
 20
-165.0
 30
0.0
 11
810.0261392178662
 21
-165.0
 31
0.0
  0
LINE
  5
2416
330
3E7
100
AcDbEntity
  8
SIZE
  6
CONTINUOUS
100
AcDbLine
 10
473.0
 20
-111.0
 30
0.0
 11
810.0261392178662
 21
-111.0000000000001
 31
0.0
  0
LINE
  5
2417
330
3E7
100
AcDbEntity
  8
SIZE
  6
CONTINUOUS
100
AcDbLine
 10
780.0261392178662
 20
-155.0
 30
0.0
 11
780.0261392178662
 21
-121.0
 31
0.0
  0
LINE
  5
241B
330
3E7
100
AcDbEntity
  8
SIZE
  6
CONTINUOUS
100
AcDbLine
 10
495.0
 20
-165.0
 30
0.0
 11
668.3605960443101
 21
-165.0
 31
0.0
  0
LINE
  5
241C
330
3E7
100
AcDbEntity
  8
SIZE
  6
CONTINUOUS
100
AcDbLine
 10
407.0
 20
-125.0
 30
0.0
 11
668.3605960443101
 21
-125.0
 31
0.0
  0
LINE
  5
241D
330
3E7
100
AcDbEntity
  8
SIZE
  6
CONTINUOUS
100
AcDbLine
 10
638.3605960443101
 20
-155.0
 30
0.0
 11
638.3605960443101
 21
-135.0
 31
0.0
  0
LINE
  5
2421
330
3E7
100
AcDbEntity
  8
SIZE
  6
CONTINUOUS
100
AcDbLine
 10
-495.0
 20
-165.0
 30
0.0
 11
-816.5666972732397
 21
-164.9999999999999
 31
0.0
  0
LINE
  5
2422
330
3E7
100
AcDbEntity
  8
SIZE
  6
CONTINUOUS
100
AcDbLine
 10
-495.0
 20
165.0
 30
0.0
 11
-816.5666972732397
 21
165.0
 31
0.0
  0
LINE
  5
2423
330
3E7
100
AcDbEntity
  8
SIZE
  6
CONTINUOUS
100
AcDbLine
 10
-786.5666972732396
 20
-154.9999999999999
 30
0.0
 11
-786.5666972732396
 21
155.0
 31
0.0
  0
LINE
  5
2427
330
3E7
100
AcDbEntity
  8
SIZE
  6
CONTINUOUS
100
AcDbLine
 10
336.0
 20
-213.0
 30
0.0
 11
1187.360200945136
 21
-213.0000000000002
 31
0.0
  0
LINE
  5
2428
330
3E7
100
AcDbEntity
  8
SIZE
  6
CONTINUOUS
100
AcDbLine
 10
336.0
 20
203.9999999999999
 30
0.0
 11
1187.360200945136
 21
203.9999999999997
 31
0.0
  0
LINE
  5
2429
330
3E7
100
AcDbEntity
  8
SIZE
  6
CONTINUOUS
100
AcDbLine
 10
1157.360200945137
 20
-203.0000000000002
 30
0.0
 11
1157.360200945137
 21
193.9999999999997
 31
0.0
  0
LINE
  5
242D
330
3E7
100
AcDbEntity
  8
SIZE
  6
CONTINUOUS
100
AcDbLine
 10
340.0
 20
-185.0
 30
0.0
 11
1004.912100634149
 21
-185.0000000000002
 31
0.0
  0
LINE
  5
242E
330
3E7
100
AcDbEntity
  8
SIZE
  6
CONTINUOUS
100
AcDbLine
 10
340.0
 20
184.9999999999999
 30
0.0
 11
1004.912100634149
 21
184.9999999999998
 31
0.0
  0
LINE
  5
242F
330
3E7
100
AcDbEntity
  8
SIZE
  6
CONTINUOUS
100
AcDbLine
 10
974.9121006341493
 20
-175.0000000000001
 30
0.0
 11
974.9121006341493
 21
174.9999999999998
 31
0.0
  0
LINE
  5
2433
330
3E7
100
AcDbEntity
  8
SIZE
  6
CONTINUOUS
100
AcDbLine
 10
-505.0
 20
-165.0
 30
0.0
 11
-635.1171778376738
 21
-164.9999999999999
 31
0.0
  0
LINE
  5
2434
330
3E7
100
AcDbEntity
  8
SIZE
  6
CONTINUOUS
100
AcDbLine
 10
-494.819433686298
 20
54.0
 30
0.0
 11
-635.1171778376738
 21
54.00000000000004
 31
0.0
  0
LINE
  5
2435
330
3E7
100
AcDbEntity
  8
SIZE
  6
CONTINUOUS
100
AcDbLine
 10
-605.1171778376738
 20
-154.9999999999999
 30
0.0
 11
-605.1171778376738
 21
44.00000000000003
 31
0.0
  0
LINE
  5
2439
330
3E7
100
AcDbEntity
  8
SIZE
  6
CONTINUOUS
100
AcDbLine
 10
-475.0
 20
-185.0
 30
0.0
 11
-475.0
 21
-480.2170793392524
 31
0.0
  0
LINE
  5
243A
330
3E7
100
AcDbEntity
  8
SIZE
  6
CONTINUOUS
100
AcDbLine
 10
-152.9999999999997
 20
-272.8656195000003
 30
0.0
 11
-152.9999999999997
 21
-480.2170793392524
 31
0.0
  0
LINE
  5
243B
330
3E7
100
AcDbEntity
  8
SIZE
  6
CONTINUOUS
100
AcDbLine
 10
-465.0
 20
-450.2170793392524
 30
0.0
 11
-162.9999999999997
 21
-450.2170793392524
 31
0.0
  0
LINE
  5
243F
330
3E7
100
AcDbEntity
  8
SIZE
  6
CONTINUOUS
100
AcDbLine
 10
-495.0
 20
-165.0
 30
0.0
 11
-816.5666972732397
 21
-164.9999999999999
 31
0.0
  0
LINE
  5
2440
330
3E7
100
AcDbEntity
  8
SIZE
  6
CONTINUOUS
100
AcDbLine
 10
-461.9999999998472
 20
-189.9999999999999
 30
0.0
 11
-816.5666972732397
 21
-189.9999999999998
 31
0.0
  0
LINE
  5
2441
330
3E7
100
AcDbEntity
  8
SIZE
  6
CONTINUOUS
100
AcDbLine
 10
-786.5666972732396
 20
-174.9999999999999
 30
0.0
 11
-786.5666972732396
 21
-179.9999999999998
 31
0.0
  0
LINE
  5
2442
330
3E7
100
AcDbEntity
  8
SIZE
  6
CONTINUOUS
100
AcDbLine
 10
-786.5666972732396
 20
-189.9999999999998
 30
0.0
 11
-786.5666972732398
 21
-337.5658145210753
 31
0.0
  0
LINE
  5
2446
330
3E7
100
AcDbEntity
  8
SIZE
  6
CONTINUOUS
100
AcDbLine
 10
475.0
 20
-185.0
 30
0.0
 11
475.0
 21
-442.8857332698171
 31
0.0
  0
LINE
  5
2447
330
3E7
100
AcDbEntity
  8
SIZE
  6
CONTINUOUS
100
AcDbLine
 10
434.0
 20
-151.0
 30
0.0
 11
434.0
 21
-442.8857332698171
 31
0.0
  0
LINE
  5
2448
330
3E7
100
AcDbEntity
  8
SIZE
  6
CONTINUOUS
100
AcDbLine
 10
465.0
 20
-412.8857332698171
 30
0.0
 11
444.0
 21
-412.8857332698171
 31
0.0
  0
LINE
  5
244C
330
3E7
100
AcDbEntity
  8
SIZE
  6
CONTINUOUS
100
AcDbLine
 10
475.0
 20
-185.0
 30
0.0
 11
475.0
 21
-618.3446328646132
 31
0.0
  0
LINE
  5
244D
330
3E7
100
AcDbEntity
  8
SIZE
  6
CONTINUOUS
100
AcDbLine
 10
275.0
 20
-165.0
 30
0.0
 11
274.9999999999999
 21
-618.3446328646132
 31
0.0
  0
LINE
  5
244E
330
3E7
100
AcDbEntity
  8
SIZE
  6
CONTINUOUS
100
AcDbLine
 10
465.0
 20
-588.3446328646132
 30
0.0
 11
285.0
 21
-588.3446328646132
 31
0.0
  0
LINE
  5
2452
330
3E7
100
AcDbEntity
  8
SIZE
  6
CONTINUOUS
100
AcDbLine
 10
340.0
 20
-185.0
 30
0.0
 11
1003.139910596912
 21
-185.0000000000002
 31
0.0
  0
LINE
  5
2453
330
3E7
100
AcDbEntity
  8
SIZE
  6
CONTINUOUS
100
AcDbLine
 10
336.0
 20
-213.0
 30
0.0
 11
1003.139910596912
 21
-213.0000000000002
 31
0.0
  0
LINE
  5
2454
330
3E7
100
AcDbEntity
  8
SIZE
  6
CONTINUOUS
100
AcDbLine
 10
973.1399105969121
 20
-195.0000000000001
 30
0.0
 11
973.1399105969121
 21
-203.0000000000002
 31
0.0
  0
LINE
  5
2455
330
3E7
100
AcDbEntity
  8
SIZE
  6
CONTINUOUS
100
AcDbLine
 10
973.1399105969121
 20
-213.0000000000002
 30
0.0
 11
973.1399105969121
 21
-349.076670716302
 31
0.0
  0
LINE
  5
2459
330
3E7
100
AcDbEntity
  8
SIZE
100
AcDbLine
 10
-25.0
 20
-685.0
 30
0.0
 11
-25.00000000000001
 21
-870.8050678898953
 31
0.0
  0
LINE
  5
245A
330
3E7
100
AcDbEntity
  8
SIZE
100
AcDbLine
 10
475.0
 20
-685.0
 30
0.0
 11
475.0
 21
-870.8050678898953
 31
0.0
  0
LINE
  5
245B
330
3E7
100
AcDbEntity
  8
SIZE
100
AcDbLine
 10
-15.00000000000001
 20
-840.8050678898954
 30
0.0
 11
465.0
 21
-840.8050678898954
 31
0.0
  0
LINE
  5
245F
330
3E7
100
AcDbEntity
  8
SIZE
  6
CONTINUOUS
100
AcDbLine
 10
434.0
 20
-151.0
 30
0.0
 11
434.0
 21
-442.8857332698171
 31
0.0
  0
LINE
  5
2460
330
3E7
100
AcDbEntity
  8
SIZE
  6
CONTINUOUS
100
AcDbLine
 10
378.0
 20
-165.0
 30
0.0
 11
378.0
 21
-442.8857332698171
 31
0.0
  0
LINE
  5
2461
330
3E7
100
AcDbEntity
  8
SIZE
  6
CONTINUOUS
100
AcDbLine
 10
424.0
 20
-412.8857332698171
 30
0.0
 11
388.0
 21
-412.8857332698171
 31
0.0
  0
LINE
  5
2465
330
3E7
100
AcDbEntity
  8
SIZE
100
AcDbLine
 10
495.0
 20
-165.0
 30
0.0
 11
810.0261392178662
 21
-165.0
 31
0.0
  0
LINE
  5
2466
330
3E7
100
AcDbEntity
  8
SIZE
100
AcDbLine
 10
495.0
 20
-665.0
 30
0.0
 11
810.026139217866
 21
-665.0000000000001
 31
0.0
  0
LINE
  5
2467
330
3E7
100
AcDbEntity
  8
SIZE
100
AcDbLine
 10
780.0261392178662
 20
-175.0
 30
0.0
 11
780.026139217866
 21
-655.0000000000001
 31
0.0
  0
LINE
  5
246B
330
3E7
100
AcDbEntity
  8
SIZE
  6
CONTINUOUS
100
AcDbLine
 10
-475.0
 20
185.0
 30
0.0
 11
-474.9999999999999
 21
824.4601169795979
 31
0.0
  0
LINE
  5
246C
330
3E7
100
AcDbEntity
  8
SIZE
  6
CONTINUOUS
100
AcDbLine
 10
475.0
 20
185.0
 30
0.0
 11
475.0
 21
824.4601169795979
 31
0.0
  0
LINE
  5
246D
330
3E7
100
AcDbEntity
  8
SIZE
  6
CONTINUOUS
100
AcDbLine
 10
-464.9999999999999
 20
794.4601169795978
 30
0.0
 11
465.0
 21
794.4601169795978
 31
0.0
  0
LINE
  5
2471
330
3E7
100
AcDbEntity
  8
SIZE
  6
CONTINUOUS
100
AcDbLine
 10
-475.0
 20
185.0
 30
0.0
 11
-474.9999999999999
 21
651.9493748375834
 31
0.0
  0
LINE
  5
2472
330
3E7
100
AcDbEntity
  8
SIZE
  6
CONTINUOUS
100
AcDbLine
 10
-300.0
 20
220.0
 30
0.0
 11
-300.0
 21
651.9493748375834
 31
0.0
  0
LINE
  5
2473
330
3E7
100
AcDbEntity
  8
SIZE
  6
CONTINUOUS
100
AcDbLine
 10
-485.0
 20
621.9493748375835
 30
0.0
 11
-495.0
 21
621.9493748375835
 31
0.0
  0
LINE
  5
2474
330
3E7
100
AcDbEntity
  8
SIZE
  6
CONTINUOUS
100
AcDbLine
 10
-290.0
 20
621.9493748375835
 30
0.0
 11
-280.0
 21
621.9493748375835
 31
0.0
  0
LINE
  5
2475
330
3E7
100
AcDbEntity
  8
SIZE
  6
CONTINUOUS
100
AcDbLine
 10
-475.0
 20
621.9493748375835
 30
0.0
 11
-300.0
 21
621.9493748375835
 31
0.0
  0
LINE
  5
2479
330
3E7
100
AcDbEntity
  8
SIZE
  6
CONTINUOUS
100
AcDbLine
 10
-445.0
 20
109.1452570882111
 30
0.0
 11
-445.0
 21
476.2614463212822
 31
0.0
  0
LINE
  5
247A
330
3E7
100
AcDbEntity
  8
SIZE
  6
CONTINUOUS
100
AcDbLine
 10
-225.0
 20
198.6673916021727
 30
0.0
 11
-224.9999999999999
 21
476.2614463212822
 31
0.0
  0
LINE
  5
247B
330
3E7
100
AcDbEntity
  8
SIZE
  6
CONTINUOUS
100
AcDbLine
 10
-435.0
 20
446.2614463212822
 30
0.0
 11
-234.9999999999999
 21
446.2614463212822
 31
0.0
  0
LINE
  5
247F
330
3E7
100
AcDbEntity
  8
SIZE
  6
CONTINUOUS
100
AcDbLine
 10
-288.0037806930595
 20
135.0
 30
0.0
 11
-635.1171778376738
 21
135.0000000000001
 31
0.0
  0
LINE
  5
2480
330
3E7
100
AcDbEntity
  8
SIZE
  6
CONTINUOUS
100
AcDbLine
 10
-494.819433686298
 20
54.0
 30
0.0
 11
-635.1171778376738
 21
54.00000000000004
 31
0.0
  0
LINE
  5
2481
330
3E7
100
AcDbEntity
  8
SIZE
  6
CONTINUOUS
100
AcDbLine
 10
-605.1171778376738
 20
125.0000000000001
 30
0.0
 11
-605.1171778376738
 21
64.00000000000003
 31
0.0
  0
LINE
  5
2485
330
3E7
100
AcDbEntity
  8
SIZE
  6
CONTINUOUS
100
AcDbLine
 10
-445.0
 20
109.1452570882111
 30
0.0
 11
-445.0
 21
476.2614463212822
 31
0.0
  0
LINE
  5
2486
330
3E7
100
AcDbEntity
  8
SIZE
  6
CONTINUOUS
100
AcDbLine
 10
-475.0
 20
185.0
 30
0.0
 11
-475.0
 21
476.2614463212822
 31
0.0
  0
LINE
  5
2487
330
3E7
100
AcDbEntity
  8
SIZE
  6
CONTINUOUS
100
AcDbLine
 10
-435.0
 20
446.2614463212822
 30
0.0
 11
-425.0
 21
446.2614463212822
 31
0.0
  0
LINE
  5
2488
330
3E7
100
AcDbEntity
  8
SIZE
  6
CONTINUOUS
100
AcDbLine
 10
-485.0
 20
446.2614463212822
 30
0.0
 11
-608.2571428571427
 21
446.2614463212822
 31
0.0
  0
LINE
  5
2489
330
3E7
100
AcDbEntity
  8
SIZE
  6
CONTINUOUS
100
AcDbLine
 10
-445.0
 20
446.2614463212822
 30
0.0
 11
-475.0
 21
446.2614463212822
 31
0.0
  0
LINE
  5
248D
330
3E7
100
AcDbEntity
  8
SIZE
100
AcDbLine
 10
-475.0
 20
185.0
 30
0.0
 11
-474.9999999999999
 21
651.9493748375834
 31
0.0
  0
LINE
  5
248E
330
3E7
100
AcDbEntity
  8
SIZE
100
AcDbLine
 10
-485.0
 20
185.0
 30
0.0
 11
-484.9999999999999
 21
651.9493748375834
 31
0.0
  0
LINE
  5
248F
330
3E7
100
AcDbEntity
  8
SIZE
100
AcDbLine
 10
-465.0
 20
621.9493748375835
 30
0.0
 11
-455.0
 21
621.9493748375835
 31
0.0
  0
LINE
  5
2490
330
3E7
100
AcDbEntity
  8
SIZE
100
AcDbLine
 10
-495.0
 20
621.9493748375835
 30
0.0
 11
-781.982857142857
 21
621.9493748375835
 31
0.0
  0
LINE
  5
2491
330
3E7
100
AcDbEntity
  8
SIZE
100
AcDbLine
 10
-475.0
 20
621.9493748375835
 30
0.0
 11
-485.0
 21
621.9493748375835
 31
0.0
  0
LINE
  5
2495
330
3E7
100
AcDbEntity
  8
SIZE
  6
CONTINUOUS
100
AcDbLine
 10
340.0
 20
184.9999999999999
 30
0.0
 11
1003.139910596912
 21
184.9999999999998
 31
0.0
  0
LINE
  5
2496
330
3E7
100
AcDbEntity
  8
SIZE
  6
CONTINUOUS
100
AcDbLine
 10
336.0
 20
203.9999999999999
 30
0.0
 11
1003.139910596912
 21
203.9999999999998
 31
0.0
  0
LINE
  5
2497
330
3E7
100
AcDbEntity
  8
SIZE
  6
CONTINUOUS
100
AcDbLine
 10
973.1399105969121
 20
174.9999999999998
 30
0.0
 11
973.1399105969121
 21
164.9999999999998
 31
0.0
  0
LINE
  5
2498
330
3E7
100
AcDbEntity
  8
SIZE
  6
CONTINUOUS
100
AcDbLine
 10
973.1399105969121
 20
213.9999999999997
 30
0.0
 11
973.1399105969122
 21
303.722857142857
 31
0.0
  0
LINE
  5
2499
330
3E7
100
AcDbEntity
  8
SIZE
  6
CONTINUOUS
100
AcDbLine
 10
973.1399105969121
 20
184.9999999999998
 30
0.0
 11
973.1399105969121
 21
203.9999999999998
 31
0.0
  0
LINE
  5
249D
330
3E7
100
AcDbEntity
  8
SIZE
  6
CONTINUOUS
100
AcDbLine
 10
300.0
 20
220.0
 30
0.0
 11
300.0
 21
651.9493748375834
 31
0.0
  0
LINE
  5
249E
330
3E7
100
AcDbEntity
  8
SIZE
  6
CONTINUOUS
100
AcDbLine
 10
475.0
 20
185.0
 30
0.0
 11
475.0
 21
651.9493748375834
 31
0.0
  0
LINE
  5
249F
330
3E7
100
AcDbEntity
  8
SIZE
  6
CONTINUOUS
100
AcDbLine
 10
310.0
 20
621.9493748375835
 30
0.0
 11
465.0
 21
621.9493748375835
 31
0.0
  0
LINE
  5
24A3
330
3E7
100
AcDbEntity
  8
SIZE
  6
CONTINUOUS
100
AcDbLine
 10
65.0
 20
198.6673916021727
 30
0.0
 11
65.00000000000001
 21
476.2614463212822
 31
0.0
  0
LINE
  5
24A4
330
3E7
100
AcDbEntity
  8
SIZE
  6
CONTINUOUS
100
AcDbLine
 10
210.0
 20
198.6673916021727
 30
0.0
 11
210.0
 21
476.2614463212822
 31
0.0
  0
LINE
  5
24A5
330
3E7
100
AcDbEntity
  8
SIZE
  6
CONTINUOUS
100
AcDbLine
 10
75.00000000000001
 20
446.2614463212822
 30
0.0
 11
200.0
 21
446.2614463212822
 31
0.0
  0
LINE
  5
24A9
330
3E7
100
AcDbEntity
  8
SIZE
  6
CONTINUOUS
100
AcDbLine
 10
-225.0
 20
198.6673916021727
 30
0.0
 11
-224.9999999999999
 21
476.2614463212822
 31
0.0
  0
LINE
  5
24AA
330
3E7
100
AcDbEntity
  8
SIZE
  6
CONTINUOUS
100
AcDbLine
 10
-80.0
 20
198.6673916021727
 30
0.0
 11
-79.99999999999999
 21
476.2614463212822
 31
0.0
  0
LINE
  5
24AB
330
3E7
100
AcDbEntity
  8
SIZE
  6
CONTINUOUS
100
AcDbLine
 10
-214.9999999999999
 20
446.2614463212822
 30
0.0
 11
-89.99999999999998
 21
446.2614463212822
 31
0.0
  0
LINE
  5
24AF
330
3E7
100
AcDbEntity
  8
SIZE
  6
CONTINUOUS
100
AcDbLine
 10
-80.0
 20
198.6673916021727
 30
0.0
 11
-79.99999999999999
 21
476.2614463212822
 31
0.0
  0
LINE
  5
24B0
330
3E7
100
AcDbEntity
  8
SIZE
  6
CONTINUOUS
100
AcDbLine
 10
65.0
 20
198.6673916021727
 30
0.0
 11
65.00000000000001
 21
476.2614463212822
 31
0.0
  0
LINE
  5
24B1
330
3E7
100
AcDbEntity
  8
SIZE
  6
CONTINUOUS
100
AcDbLine
 10
-69.99999999999999
 20
446.2614463212822
 30
0.0
 11
55.00000000000001
 21
446.2614463212822
 31
0.0
  0
LINE
  5
24B5
330
3E7
100
AcDbEntity
  8
SIZE
  6
CONTINUOUS
100
AcDbLine
 10
-300.0
 20
220.0
 30
0.0
 11
-300.0
 21
651.9493748375834
 31
0.0
  0
LINE
  5
24B6
330
3E7
100
AcDbEntity
  8
SIZE
  6
CONTINUOUS
100
AcDbLine
 10
300.0
 20
220.0
 30
0.0
 11
300.0
 21
651.9493748375834
 31
0.0
  0
LINE
  5
24B7
330
3E7
100
AcDbEntity
  8
SIZE
  6
CONTINUOUS
100
AcDbLine
 10
-290.0
 20
621.9493748375835
 30
0.0
 11
290.0
 21
621.9493748375835
 31
0.0
  0
LINE
  5
24BB
330
3E7
100
AcDbEntity
  8
SIZE
100
AcDbLine
 10
495.0
 20
165.0
 30
0.0
 11
656.9526591571301
 21
164.9999999999999
 31
0.0
  0
LINE
  5
24BC
330
3E7
100
AcDbEntity
  8
SIZE
100
AcDbLine
 10
495.0
 20
315.0
 30
0.0
 11
656.9526591571302
 21
314.9999999999999
 31
0.0
  0
LINE
  5
24BD
330
3E7
100
AcDbEntity
  8
SIZE
100
AcDbLine
 10
626.9526591571301
 20
174.9999999999999
 30
0.0
 11
626.9526591571302
 21
305.0
 31
0.0
  0
LINE
  5
24BE
330
3E7
100
AcDbEntity
  8
SIZE
100
AcDbLine
 10
626.9526591571302
 20
315.0
 30
0.0
 11
626.9526591571302
 21
656.84
 31
0.0
  0
TEXT
  5
24C2
330
3E7
100
AcDbEntity
  8
SIZE
  6
CONTINUOUS
100
AcDbText
 10
-615.1171778376737
 20
-122.7
 30
0.0
 40
64.0
  1
219
 50
90.0
 41
0.9
100
AcDbText
  0
TEXT
  5
24C3
330
3E7
100
AcDbEntity
  8
SIZE
  6
CONTINUOUS
100
AcDbText
 10
974.8221006341493
 20
-74.05714285714285
 30
0.0
 40
64.0
  1
370
 50
90.0
 41
0.9
100
AcDbText
  0
TEXT
  5
24C4
330
3E7
100
AcDbEntity
  8
SIZE
  6
CONTINUOUS
100
AcDbText
 10
1157.270200945137
 20
-106.1798278111174
 30
0.0
 40
64.0
  1
417
 50
90.0
 41
0.9
100
AcDbText
  0
TEXT
  5
24C5
330
3E7
100
AcDbEntity
  8
SIZE
  6
CONTINUOUS
100
AcDbText
 10
-786.6566972732397
 20
-73.29601640752564
 30
0.0
 40
64.0
  1
330
 50
90.0
 41
0.9
100
AcDbText
  0
TEXT
  5
24C6
330
3E7
100
AcDbEntity
  8
SIZE
  6
CONTINUOUS
100
AcDbText
 10
636.9022242363225
 20
-93.93676002644321
 30
0.0
 40
64.0
  1
40
 50
90.0
 41
0.9
100
AcDbText
  0
TEXT
  5
24C7
330
3E7
100
AcDbEntity
  8
SIZE
  6
CONTINUOUS
100
AcDbText
 10
766.9284831791356
 20
-97.51146535831777
 30
0.0
 40
64.0
  1
54
 50
90.0
 41
0.9
100
AcDbText
  0
TEXT
  5
24C8
330
3E7
100
AcDbEntity
  8
SIZE
  6
CONTINUOUS
100
AcDbText
 10
-366.2494805746017
 20
-450.1270793392524
 30
0.0
 40
64.0
  1
322
 41
0.9
100
AcDbText
  0
TEXT
  5
24C9
330
3E7
100
AcDbEntity
  8
SIZE
  6
CONTINUOUS
100
AcDbText
 10
-786.6566972732397
 20
-337.4758145210754
 30
0.0
 40
64.0
  1
25
 50
90.0
 41
0.9
100
AcDbText
  0
CIRCLE
  5
24CA
330
3E7
100
AcDbEntity
  8
SIZE
  6
BYBLOCK
100
AcDbCircle
 10
-786.5666972732396
 20
-164.9999999999999
 30
0.0
 40
5.0
  0
LINE
  5
24CB
330
3E7
100
AcDbEntity
  8
SIZE
  6
BYBLOCK
100
AcDbLine
 10
-786.5666972732396
 20
-169.9999999999999
 30
0.0
 11
-786.5666972732396
 21
-174.9999999999999
 31
0.0
  0
CIRCLE
  5
24CC
330
3E7
100
AcDbEntity
  8
SIZE
  6
BYBLOCK
100
AcDbCircle
 10
-786.5666972732396
 20
-164.9999999999999
 30
0.0
 40
5.0
  0
LINE
  5
24CD
330
3E7
100
AcDbEntity
  8
SIZE
  6
BYBLOCK
100
AcDbLine
 10
-786.5666972732396
 20
-159.9999999999999
 30
0.0
 11
-786.5666972732396
 21
-154.9999999999999
 31
0.0
  0
CIRCLE
  5
24CE
330
3E7
100
AcDbEntity
  8
SIZE
  6
BYBLOCK
100
AcDbCircle
 10
-786.5666972732396
 20
-189.9999999999998
 30
0.0
 40
5.0
  0
LINE
  5
24CF
330
3E7
100
AcDbEntity
  8
SIZE
  6
BYBLOCK
100
AcDbLine
 10
-786.5666972732396
 20
-184.9999999999998
 30
0.0
 11
-786.5666972732396
 21
-179.9999999999998
 31
0.0
  0
CIRCLE
  5
24D0
330
3E7
100
AcDbEntity
  8
SIZE
  6
BYBLOCK
100
AcDbCircle
 10
-475.0
 20
-450.2170793392524
 30
0.0
 40
5.0
  0
LINE
  5
24D1
330
3E7
100
AcDbEntity
  8
SIZE
  6
BYBLOCK
100
AcDbLine
 10
-470.0
 20
-450.2170793392524
 30
0.0
 11
-465.0
 21
-450.2170793392524
 31
0.0
  0
CIRCLE
  5
24D2
330
3E7
100
AcDbEntity
  8
SIZE
  6
BYBLOCK
100
AcDbCircle
 10
-605.1171778376738
 20
-164.9999999999999
 30
0.0
 40
5.0
  0
LINE
  5
24D3
330
3E7
100
AcDbEntity
  8
SIZE
  6
BYBLOCK
100
AcDbLine
 10
-605.1171778376738
 20
-164.9999999999999
 30
0.0
 11
-605.1171778376738
 21
-154.9999999999999
 31
0.0
  0
TEXT
  5
24D4
330
3E7
100
AcDbEntity
  8
SIZE
  6
CONTINUOUS
100
AcDbText
 10
314.6942321420603
 20
-588.2546328646132
 30
0.0
 40
64.0
  1
200
 41
0.9
100
AcDbText
  0
CIRCLE
  5
24D5
330
3E7
100
AcDbEntity
  8
SIZE
  6
BYBLOCK
100
AcDbCircle
 10
-25.00000000000001
 20
-840.8050678898954
 30
0.0
 40
5.0
  0
LINE
  5
24D6
330
3E7
100
AcDbEntity
  8
SIZE
  6
BYBLOCK
100
AcDbLine
 10
-25.00000000000001
 20
-840.8050678898954
 30
0.0
 11
-15.00000000000001
 21
-840.8050678898954
 31
0.0
  0
TEXT
  5
24D7
330
3E7
100
AcDbEntity
  8
SIZE
  6
CONTINUOUS
100
AcDbText
 10
73.59428571428569
 20
-820.8050678898953
 30
0.0
 40
64.0
  1
500以上
 41
0.9
100
AcDbText
  0
CIRCLE
  5
24D8
330
3E7
100
AcDbEntity
  8
SIZE
  6
BYBLOCK
100
AcDbCircle
 10
275.0
 20
-588.3446328646132
 30
0.0
 40
5.0
  0
LINE
  5
24D9
330
3E7
100
AcDbEntity
  8
SIZE
  6
BYBLOCK
100
AcDbLine
 10
280.0
 20
-588.3446328646132
 30
0.0
 11
285.0
 21
-588.3446328646132
 31
0.0
  0
CIRCLE
  5
24DA
330
3E7
100
AcDbEntity
  8
SIZE
  6
BYBLOCK
100
AcDbCircle
 10
-152.9999999999997
 20
-450.2170793392524
 30
0.0
 40
5.0
  0
LINE
  5
24DB
330
3E7
100
AcDbEntity
  8
SIZE
  6
BYBLOCK
100
AcDbLine
 10
-157.9999999999997
 20
-450.2170793392524
 30
0.0
 11
-162.9999999999997
 21
-450.2170793392524
 31
0.0
  0
TEXT
  5
24DC
330
3E7
100
AcDbEntity
  8
SIZE
  6
CONTINUOUS
100
AcDbText
 10
266.2428969812334
 20
-412.9673503153235
 30
0.0
 40
64.0
  1
56
 41
0.9
100
AcDbText
  0
CIRCLE
  5
24DD
330
3E7
100
AcDbEntity
  8
SIZE
  6
BYBLOCK
100
AcDbCircle
 10
378.0
 20
-412.8857332698171
 30
0.0
 40
5.0
  0
LINE
  5
24DE
330
3E7
100
AcDbEntity
  8
SIZE
  6
BYBLOCK
100
AcDbLine
 10
383.0
 20
-412.8857332698171
 30
0.0
 11
388.0
 21
-412.8857332698171
 31
0.0
  0
CIRCLE
  5
24DF
330
3E7
100
AcDbEntity
  8
SIZE
  6
BYBLOCK
100
AcDbCircle
 10
434.0
 20
-412.8857332698171
 30
0.0
 40
5.0
  0
LINE
  5
24E0
330
3E7
100
AcDbEntity
  8
SIZE
  6
BYBLOCK
100
AcDbLine
 10
429.0
 20
-412.8857332698171
 30
0.0
 11
424.0
 21
-412.8857332698171
 31
0.0
  0
CIRCLE
  5
24E1
330
3E7
100
AcDbEntity
  8
SIZE
  6
BYBLOCK
100
AcDbCircle
 10
434.0
 20
-412.8857332698171
 30
0.0
 40
5.0
  0
LINE
  5
24E2
330
3E7
100
AcDbEntity
  8
SIZE
  6
BYBLOCK
100
AcDbLine
 10
439.0
 20
-412.8857332698171
 30
0.0
 11
444.0
 21
-412.8857332698171
 31
0.0
  0
TEXT
  5
24E3
330
3E7
100
AcDbEntity
  8
SIZE
  6
CONTINUOUS
100
AcDbText
 10
760.0261392178662
 20
-566.4057142857142
 30
0.0
 40
64.0
  1
500以上
 50
90.0
 41
0.9
100
AcDbText
  0
CIRCLE
  5
24E4
330
3E7
100
AcDbEntity
  8
SIZE
  6
BYBLOCK
100
AcDbCircle
 10
475.0
 20
-840.8050678898954
 30
0.0
 40
5.0
  0
LINE
  5
24E5
330
3E7
100
AcDbEntity
  8
SIZE
  6
BYBLOCK
100
AcDbLine
 10
475.0
 20
-840.8050678898954
 30
0.0
 11
465.0
 21
-840.8050678898954
 31
0.0
  0
CIRCLE
  5
24E6
330
3E7
100
AcDbEntity
  8
SIZE
  6
BYBLOCK
100
AcDbCircle
 10
475.0
 20
-588.3446328646132
 30
0.0
 40
5.0
  0
LINE
  5
24E7
330
3E7
100
AcDbEntity
  8
SIZE
  6
BYBLOCK
100
AcDbLine
 10
470.0
 20
-588.3446328646132
 30
0.0
 11
465.0
 21
-588.3446328646132
 31
0.0
  0
CIRCLE
  5
24E8
330
3E7
100
AcDbEntity
  8
SIZE
  6
BYBLOCK
100
AcDbCircle
 10
780.026139217866
 20
-665.0000000000001
 30
0.0
 40
5.0
  0
LINE
  5
24E9
330
3E7
100
AcDbEntity
  8
SIZE
  6
BYBLOCK
100
AcDbLine
 10
780.026139217866
 20
-665.0000000000001
 30
0.0
 11
780.026139217866
 21
-655.0000000000001
 31
0.0
  0
TEXT
  5
24EA
330
3E7
100
AcDbEntity
  8
SIZE
  6
CONTINUOUS
100
AcDbText
 10
514.1138600290847
 20
-399.2375166362862
 30
0.0
 40
64.0
  1
41
 41
0.9
100
AcDbText
  0
CIRCLE
  5
24EB
330
3E7
100
AcDbEntity
  8
SIZE
  6
BYBLOCK
100
AcDbCircle
 10
475.0
 20
-412.8857332698171
 30
0.0
 40
5.0
  0
LINE
  5
24EC
330
3E7
100
AcDbEntity
  8
SIZE
  6
BYBLOCK
100
AcDbLine
 10
470.0
 20
-412.8857332698171
 30
0.0
 11
465.0
 21
-412.8857332698171
 31
0.0
  0
CIRCLE
  5
24ED
330
3E7
100
AcDbEntity
  8
SIZE
  6
BYBLOCK
100
AcDbCircle
 10
638.3605960443101
 20
-165.0
 30
0.0
 40
5.0
  0
LINE
  5
24EE
330
3E7
100
AcDbEntity
  8
SIZE
  6
BYBLOCK
100
AcDbLine
 10
638.3605960443101
 20
-160.0
 30
0.0
 11
638.3605960443101
 21
-155.0
 31
0.0
  0
CIRCLE
  5
24EF
330
3E7
100
AcDbEntity
  8
SIZE
  6
BYBLOCK
100
AcDbCircle
 10
638.3605960443101
 20
-125.0
 30
0.0
 40
5.0
  0
LINE
  5
24F0
330
3E7
100
AcDbEntity
  8
SIZE
  6
BYBLOCK
100
AcDbLine
 10
638.3605960443101
 20
-130.0
 30
0.0
 11
638.3605960443101
 21
-135.0
 31
0.0
  0
CIRCLE
  5
24F1
330
3E7
100
AcDbEntity
  8
SIZE
  6
BYBLOCK
100
AcDbCircle
 10
780.0261392178662
 20
-165.0
 30
0.0
 40
5.0
  0
LINE
  5
24F2
330
3E7
100
AcDbEntity
  8
SIZE
  6
BYBLOCK
100
AcDbLine
 10
780.0261392178662
 20
-165.0
 30
0.0
 11
780.0261392178662
 21
-175.0
 31
0.0
  0
CIRCLE
  5
24F3
330
3E7
100
AcDbEntity
  8
SIZE
  6
BYBLOCK
100
AcDbCircle
 10
780.0261392178662
 20
-165.0
 30
0.0
 40
5.0
  0
LINE
  5
24F4
330
3E7
100
AcDbEntity
  8
SIZE
  6
BYBLOCK
100
AcDbLine
 10
780.0261392178662
 20
-160.0
 30
0.0
 11
780.0261392178662
 21
-155.0
 31
0.0
  0
CIRCLE
  5
24F5
330
3E7
100
AcDbEntity
  8
SIZE
  6
BYBLOCK
100
AcDbCircle
 10
780.0261392178662
 20
-111.0
 30
0.0
 40
5.0
  0
LINE
  5
24F6
330
3E7
100
AcDbEntity
  8
SIZE
  6
BYBLOCK
100
AcDbLine
 10
780.0261392178662
 20
-116.0
 30
0.0
 11
780.0261392178662
 21
-121.0
 31
0.0
  0
TEXT
  5
24F7
330
3E7
100
AcDbEntity
  8
SIZE
  6
CONTINUOUS
100
AcDbText
 10
973.0499105969121
 20
-348.9866707163019
 30
0.0
 40
64.0
  1
28
 50
90.0
 41
0.9
100
AcDbText
  0
CIRCLE
  5
24F8
330
3E7
100
AcDbEntity
  8
SIZE
  6
BYBLOCK
100
AcDbCircle
 10
973.1399105969121
 20
-213.0000000000002
 30
0.0
 40
5.0
  0
LINE
  5
24F9
330
3E7
100
AcDbEntity
  8
SIZE
  6
BYBLOCK
100
AcDbLine
 10
973.1399105969121
 20
-208.0000000000001
 30
0.0
 11
973.1399105969121
 21
-203.0000000000002
 31
0.0
  0
CIRCLE
  5
24FA
330
3E7
100
AcDbEntity
  8
SIZE
  6
BYBLOCK
100
AcDbCircle
 10
973.1399105969121
 20
-185.0000000000002
 30
0.0
 40
5.0
  0
LINE
  5
24FB
330
3E7
100
AcDbEntity
  8
SIZE
  6
BYBLOCK
100
AcDbLine
 10
973.1399105969121
 20
-190.0000000000002
 30
0.0
 11
973.1399105969121
 21
-195.0000000000001
 31
0.0
  0
CIRCLE
  5
24FC
330
3E7
100
AcDbEntity
  8
SIZE
  6
BYBLOCK
100
AcDbCircle
 10
974.9121006341493
 20
-185.0000000000002
 30
0.0
 40
5.0
  0
LINE
  5
24FD
330
3E7
100
AcDbEntity
  8
SIZE
  6
BYBLOCK
100
AcDbLine
 10
974.9121006341493
 20
-180.0000000000002
 30
0.0
 11
974.9121006341493
 21
-175.0000000000001
 31
0.0
  0
CIRCLE
  5
24FE
330
3E7
100
AcDbEntity
  8
SIZE
  6
BYBLOCK
100
AcDbCircle
 10
1157.360200945137
 20
-213.0000000000002
 30
0.0
 40
5.0
  0
LINE
  5
24FF
330
3E7
100
AcDbEntity
  8
SIZE
  6
BYBLOCK
100
AcDbLine
 10
1157.360200945137
 20
-208.0000000000002
 30
0.0
 11
1157.360200945137
 21
-203.0000000000002
 31
0.0
  0
TEXT
  5
2500
330
3E7
100
AcDbEntity
  8
SIZE
  6
CONTINUOUS
100
AcDbText
 10
-409.0571428571427
 20
456.2614463212821
 30
0.0
 40
64.0
  1
220
 41
0.9
100
AcDbText
  0
TEXT
  5
2501
330
3E7
100
AcDbEntity
  8
SIZE
  6
CONTINUOUS
100
AcDbText
 10
-444.7521986789634
 20
622.0393748375835
 30
0.0
 40
64.0
  1
175
 41
0.9
100
AcDbText
  0
TEXT
  5
2502
330
3E7
100
AcDbEntity
  8
SIZE
  6
CONTINUOUS
100
AcDbText
 10
-598.2571428571427
 20
456.2614463212821
 30
0.0
 40
64.0
  1
30
 41
0.9
100
AcDbText
  0
CIRCLE
  5
2503
330
3E7
100
AcDbEntity
  8
SIZE
  6
BYBLOCK
100
AcDbCircle
 10
-786.5666972732396
 20
165.0
 30
0.0
 40
5.0
  0
LINE
  5
2504
330
3E7
100
AcDbEntity
  8
SIZE
  6
BYBLOCK
100
AcDbLine
 10
-786.5666972732396
 20
160.0
 30
0.0
 11
-786.5666972732396
 21
155.0
 31
0.0
  0
TEXT
  5
2505
330
3E7
100
AcDbEntity
  8
SIZE
  6
CONTINUOUS
100
AcDbText
 10
-615.1171778376737
 20
60.21428571428568
 30
0.0
 40
64.0
  1
81
 50
90.0
 41
0.9
100
AcDbText
  0
CIRCLE
  5
2506
330
3E7
100
AcDbEntity
  8
SIZE
  6
BYBLOCK
100
AcDbCircle
 10
-605.1171778376738
 20
54.00000000000003
 30
0.0
 40
5.0
  0
LINE
  5
2507
330
3E7
100
AcDbEntity
  8
SIZE
  6
BYBLOCK
100
AcDbLine
 10
-605.1171778376738
 20
54.00000000000003
 30
0.0
 11
-605.1171778376738
 21
64.00000000000003
 31
0.0
  0
CIRCLE
  5
2508
330
3E7
100
AcDbEntity
  8
SIZE
  6
BYBLOCK
100
AcDbCircle
 10
-605.1171778376738
 20
54.00000000000003
 30
0.0
 40
5.0
  0
LINE
  5
2509
330
3E7
100
AcDbEntity
  8
SIZE
  6
BYBLOCK
100
AcDbLine
 10
-605.1171778376738
 20
54.00000000000003
 30
0.0
 11
-605.1171778376738
 21
44.00000000000003
 31
0.0
  0
CIRCLE
  5
250A
330
3E7
100
AcDbEntity
  8
SIZE
  6
BYBLOCK
100
AcDbCircle
 10
-605.1171778376738
 20
135.0000000000001
 30
0.0
 40
5.0
  0
LINE
  5
250B
330
3E7
100
AcDbEntity
  8
SIZE
  6
BYBLOCK
100
AcDbLine
 10
-605.1171778376738
 20
135.0000000000001
 30
0.0
 11
-605.1171778376738
 21
125.0000000000001
 31
0.0
  0
CIRCLE
  5
250C
330
3E7
100
AcDbEntity
  8
SIZE
  6
BYBLOCK
100
AcDbCircle
 10
-475.0
 20
446.2614463212822
 30
0.0
 40
5.0
  0
LINE
  5
250D
330
3E7
100
AcDbEntity
  8
SIZE
  6
BYBLOCK
100
AcDbLine
 10
-475.0
 20
446.2614463212822
 30
0.0
 11
-485.0
 21
446.2614463212822
 31
0.0
  0
CIRCLE
  5
250E
330
3E7
100
AcDbEntity
  8
SIZE
  6
BYBLOCK
100
AcDbCircle
 10
-445.0
 20
446.2614463212822
 30
0.0
 40
5.0
  0
LINE
  5
250F
330
3E7
100
AcDbEntity
  8
SIZE
  6
BYBLOCK
100
AcDbLine
 10
-445.0
 20
446.2614463212822
 30
0.0
 11
-435.0
 21
446.2614463212822
 31
0.0
  0
CIRCLE
  5
2510
330
3E7
100
AcDbEntity
  8
SIZE
  6
BYBLOCK
100
AcDbCircle
 10
-445.0
 20
446.2614463212822
 30
0.0
 40
5.0
  0
LINE
  5
2511
330
3E7
100
AcDbEntity
  8
SIZE
  6
BYBLOCK
100
AcDbLine
 10
-445.0
 20
446.2614463212822
 30
0.0
 11
-435.0
 21
446.2614463212822
 31
0.0
  0
TEXT
  5
2512
330
3E7
100
AcDbEntity
  8
SIZE
  6
CONTINUOUS
100
AcDbText
 10
-761.982857142857
 20
641.9493748375835
 30
0.0
 40
64.0
  1
10以上
 41
0.9
100
AcDbText
  0
CIRCLE
  5
2513
330
3E7
100
AcDbEntity
  8
SIZE
  6
BYBLOCK
100
AcDbCircle
 10
-485.0
 20
621.9493748375835
 30
0.0
 40
5.0
  0
LINE
  5
2514
330
3E7
100
AcDbEntity
  8
SIZE
  6
BYBLOCK
100
AcDbLine
 10
-485.0
 20
621.9493748375835
 30
0.0
 11
-495.0
 21
621.9493748375835
 31
0.0
  0
CIRCLE
  5
2515
330
3E7
100
AcDbEntity
  8
SIZE
  6
BYBLOCK
100
AcDbCircle
 10
-475.0
 20
621.9493748375835
 30
0.0
 40
5.0
  0
LINE
  5
2516
330
3E7
100
AcDbEntity
  8
SIZE
  6
BYBLOCK
100
AcDbLine
 10
-475.0
 20
621.9493748375835
 30
0.0
 11
-465.0
 21
621.9493748375835
 31
0.0
  0
CIRCLE
  5
2517
330
3E7
100
AcDbEntity
  8
SIZE
  6
BYBLOCK
100
AcDbCircle
 10
-475.0
 20
621.9493748375835
 30
0.0
 40
5.0
  0
LINE
  5
2518
330
3E7
100
AcDbEntity
  8
SIZE
  6
BYBLOCK
100
AcDbLine
 10
-480.0
 20
621.9493748375835
 30
0.0
 11
-485.0
 21
621.9493748375835
 31
0.0
  0
CIRCLE
  5
2519
330
3E7
100
AcDbEntity
  8
SIZE
  6
BYBLOCK
100
AcDbCircle
 10
-474.9999999999999
 20
794.4601169795978
 30
0.0
 40
5.0
  0
LINE
  5
251A
330
3E7
100
AcDbEntity
  8
SIZE
  6
BYBLOCK
100
AcDbLine
 10
-469.9999999999999
 20
794.4601169795978
 30
0.0
 11
-464.9999999999999
 21
794.4601169795978
 31
0.0
  0
TEXT
  5
251B
330
3E7
100
AcDbEntity
  8
SIZE
  6
CONTINUOUS
100
AcDbText
 10
-76.07142857142855
 20
456.2614463212821
 30
0.0
 40
64.0
  1
145
 41
0.9
100
AcDbText
  0
TEXT
  5
251C
330
3E7
100
AcDbEntity
  8
SIZE
  6
CONTINUOUS
100
AcDbText
 10
-221.0714285714285
 20
456.2614463212821
 30
0.0
 40
64.0
  1
145
 41
0.9
100
AcDbText
  0
TEXT
  5
251D
330
3E7
100
AcDbEntity
  8
SIZE
  6
CONTINUOUS
100
AcDbText
 10
68.92857142857145
 20
456.2614463212821
 30
0.0
 40
64.0
  1
145
 41
0.9
100
AcDbText
  0
CIRCLE
  5
251E
330
3E7
100
AcDbEntity
  8
SIZE
  6
BYBLOCK
100
AcDbCircle
 10
65.00000000000001
 20
446.2614463212822
 30
0.0
 40
5.0
  0
LINE
  5
251F
330
3E7
100
AcDbEntity
  8
SIZE
  6
BYBLOCK
100
AcDbLine
 10
65.00000000000001
 20
446.2614463212822
 30
0.0
 11
55.00000000000001
 21
446.2614463212822
 31
0.0
  0
CIRCLE
  5
2520
330
3E7
100
AcDbEntity
  8
SIZE
  6
BYBLOCK
100
AcDbCircle
 10
65.00000000000001
 20
446.2614463212822
 30
0.0
 40
5.0
  0
LINE
  5
2521
330
3E7
100
AcDbEntity
  8
SIZE
  6
BYBLOCK
100
AcDbLine
 10
65.00000000000001
 20
446.2614463212822
 30
0.0
 11
75.00000000000001
 21
446.2614463212822
 31
0.0
  0
CIRCLE
  5
2522
330
3E7
100
AcDbEntity
  8
SIZE
  6
BYBLOCK
100
AcDbCircle
 10
-224.9999999999999
 20
446.2614463212822
 30
0.0
 40
5.0
  0
LINE
  5
2523
330
3E7
100
AcDbEntity
  8
SIZE
  6
BYBLOCK
100
AcDbLine
 10
-224.9999999999999
 20
446.2614463212822
 30
0.0
 11
-214.9999999999999
 21
446.2614463212822
 31
0.0
  0
CIRCLE
  5
2524
330
3E7
100
AcDbEntity
  8
SIZE
  6
BYBLOCK
100
AcDbCircle
 10
-224.9999999999999
 20
446.2614463212822
 30
0.0
 40
5.0
  0
LINE
  5
2525
330
3E7
100
AcDbEntity
  8
SIZE
  6
BYBLOCK
100
AcDbLine
 10
-224.9999999999999
 20
446.2614463212822
 30
0.0
 11
-234.9999999999999
 21
446.2614463212822
 31
0.0
  0
CIRCLE
  5
2526
330
3E7
100
AcDbEntity
  8
SIZE
  6
BYBLOCK
100
AcDbCircle
 10
-79.99999999999999
 20
446.2614463212822
 30
0.0
 40
5.0
  0
LINE
  5
2527
330
3E7
100
AcDbEntity
  8
SIZE
  6
BYBLOCK
100
AcDbLine
 10
-79.99999999999999
 20
446.2614463212822
 30
0.0
 11
-69.99999999999999
 21
446.2614463212822
 31
0.0
  0
CIRCLE
  5
2528
330
3E7
100
AcDbEntity
  8
SIZE
  6
BYBLOCK
100
AcDbCircle
 10
-79.99999999999999
 20
446.2614463212822
 30
0.0
 40
5.0
  0
LINE
  5
2529
330
3E7
100
AcDbEntity
  8
SIZE
  6
BYBLOCK
100
AcDbLine
 10
-79.99999999999999
 20
446.2614463212822
 30
0.0
 11
-89.99999999999998
 21
446.2614463212822
 31
0.0
  0
CIRCLE
  5
252A
330
3E7
100
AcDbEntity
  8
SIZE
  6
BYBLOCK
100
AcDbCircle
 10
210.0
 20
446.2614463212822
 30
0.0
 40
5.0
  0
LINE
  5
252B
330
3E7
100
AcDbEntity
  8
SIZE
  6
BYBLOCK
100
AcDbLine
 10
210.0
 20
446.2614463212822
 30
0.0
 11
200.0
 21
446.2614463212822
 31
0.0
  0
CIRCLE
  5
252C
330
3E7
100
AcDbEntity
  8
SIZE
  6
BYBLOCK
100
AcDbCircle
 10
-300.0
 20
621.9493748375835
 30
0.0
 40
5.0
  0
LINE
  5
252D
330
3E7
100
AcDbEntity
  8
SIZE
  6
BYBLOCK
100
AcDbLine
 10
-295.0
 20
621.9493748375835
 30
0.0
 11
-290.0
 21
621.9493748375835
 31
0.0
  0
CIRCLE
  5
252E
330
3E7
100
AcDbEntity
  8
SIZE
  6
BYBLOCK
100
AcDbCircle
 10
-300.0
 20
621.9493748375835
 30
0.0
 40
5.0
  0
LINE
  5
252F
330
3E7
100
AcDbEntity
  8
SIZE
  6
BYBLOCK
100
AcDbLine
 10
-295.0
 20
621.9493748375835
 30
0.0
 11
-290.0
 21
621.9493748375835
 31
0.0
  0
TEXT
  5
2530
330
3E7
100
AcDbEntity
  8
SIZE
  6
CONTINUOUS
100
AcDbText
 10
-91.10131812127375
 20
622.0393748375835
 30
0.0
 40
64.0
  1
600
 41
0.9
100
AcDbText
  0
TEXT
  5
2531
330
3E7
100
AcDbEntity
  8
SIZE
  6
CONTINUOUS
100
AcDbText
 10
-110.2909258901608
 20
794.5501169795979
 30
0.0
 40
64.0
  1
950
 41
0.9
100
AcDbText
  0
TEXT
  5
2532
330
3E7
100
AcDbEntity
  8
SIZE
  6
CONTINUOUS
100
AcDbText
 10
321.204221243618
 20
622.0393748375835
 30
0.0
 40
64.0
  1
175
 41
0.9
100
AcDbText
  0
CIRCLE
  5
2533
330
3E7
100
AcDbEntity
  8
SIZE
  6
BYBLOCK
100
AcDbCircle
 10
300.0
 20
621.9493748375835
 30
0.0
 40
5.0
  0
LINE
  5
2534
330
3E7
100
AcDbEntity
  8
SIZE
  6
BYBLOCK
100
AcDbLine
 10
295.0
 20
621.9493748375835
 30
0.0
 11
290.0
 21
621.9493748375835
 31
0.0
  0
CIRCLE
  5
2535
330
3E7
100
AcDbEntity
  8
SIZE
  6
BYBLOCK
100
AcDbCircle
 10
300.0
 20
621.9493748375835
 30
0.0
 40
5.0
  0
LINE
  5
2536
330
3E7
100
AcDbEntity
  8
SIZE
  6
BYBLOCK
100
AcDbLine
 10
305.0
 20
621.9493748375835
 30
0.0
 11
310.0
 21
621.9493748375835
 31
0.0
  0
TEXT
  5
2537
330
3E7
100
AcDbEntity
  8
SIZE
  6
CONTINUOUS
100
AcDbText
 10
606.9526591571301
 20
345.0000000000001
 30
0.0
 40
64.0
  1
150以上
 50
90.0
 41
0.9
100
AcDbText
  0
CIRCLE
  5
2538
330
3E7
100
AcDbEntity
  8
SIZE
  6
BYBLOCK
100
AcDbCircle
 10
626.9526591571301
 20
164.9999999999999
 30
0.0
 40
5.0
  0
LINE
  5
2539
330
3E7
100
AcDbEntity
  8
SIZE
  6
BYBLOCK
100
AcDbLine
 10
626.9526591571301
 20
164.9999999999999
 30
0.0
 11
626.9526591571301
 21
174.9999999999999
 31
0.0
  0
CIRCLE
  5
253A
330
3E7
100
AcDbEntity
  8
SIZE
  6
BYBLOCK
100
AcDbCircle
 10
626.9526591571302
 20
315.0
 30
0.0
 40
5.0
  0
LINE
  5
253B
330
3E7
100
AcDbEntity
  8
SIZE
  6
BYBLOCK
100
AcDbLine
 10
626.9526591571302
 20
315.0
 30
0.0
 11
626.9526591571302
 21
305.0
 31
0.0
  0
CIRCLE
  5
253C
330
3E7
100
AcDbEntity
  8
SIZE
  6
BYBLOCK
100
AcDbCircle
 10
973.1399105969121
 20
203.9999999999998
 30
0.0
 40
5.0
  0
LINE
  5
253D
330
3E7
100
AcDbEntity
  8
SIZE
  6
BYBLOCK
100
AcDbLine
 10
973.1399105969121
 20
208.9999999999998
 30
0.0
 11
973.1399105969121
 21
213.9999999999997
 31
0.0
  0
CIRCLE
  5
253E
330
3E7
100
AcDbEntity
  8
SIZE
  6
BYBLOCK
100
AcDbCircle
 10
973.1399105969121
 20
184.9999999999998
 30
0.0
 40
5.0
  0
LINE
  5
253F
330
3E7
100
AcDbEntity
  8
SIZE
  6
BYBLOCK
100
AcDbLine
 10
973.1399105969121
 20
179.9999999999998
 30
0.0
 11
973.1399105969121
 21
174.9999999999998
 31
0.0
  0
CIRCLE
  5
2540
330
3E7
100
AcDbEntity
  8
SIZE
  6
BYBLOCK
100
AcDbCircle
 10
974.9121006341493
 20
184.9999999999998
 30
0.0
 40
5.0
  0
LINE
  5
2541
330
3E7
100
AcDbEntity
  8
SIZE
  6
BYBLOCK
100
AcDbLine
 10
974.9121006341493
 20
179.9999999999998
 30
0.0
 11
974.9121006341493
 21
174.9999999999998
 31
0.0
  0
CIRCLE
  5
2542
330
3E7
100
AcDbEntity
  8
SIZE
  6
BYBLOCK
100
AcDbCircle
 10
1157.360200945137
 20
203.9999999999997
 30
0.0
 40
5.0
  0
LINE
  5
2543
330
3E7
100
AcDbEntity
  8
SIZE
  6
BYBLOCK
100
AcDbLine
 10
1157.360200945137
 20
198.9999999999997
 30
0.0
 11
1157.360200945137
 21
193.9999999999997
 31
0.0
  0
TEXT
  5
2544
330
3E7
100
AcDbEntity
  8
SIZE
  6
CONTINUOUS
100
AcDbText
 10
973.0499105969121
 20
224.0899999999999
 30
0.0
 40
64.0
  1
19
 50
90.0
 41
0.9
100
AcDbText
  0
CIRCLE
  5
2545
330
3E7
100
AcDbEntity
  8
SIZE
  6
BYBLOCK
100
AcDbCircle
 10
475.0
 20
621.9493748375835
 30
0.0
 40
5.0
  0
LINE
  5
2546
330
3E7
100
AcDbEntity
  8
SIZE
  6
BYBLOCK
100
AcDbLine
 10
470.0
 20
621.9493748375835
 30
0.0
 11
465.0
 21
621.9493748375835
 31
0.0
  0
CIRCLE
  5
2547
330
3E7
100
AcDbEntity
  8
SIZE
  6
BYBLOCK
100
AcDbCircle
 10
475.0
 20
794.4601169795978
 30
0.0
 40
5.0
  0
LINE
  5
2548
330
3E7
100
AcDbEntity
  8
SIZE
  6
BYBLOCK
100
AcDbLine
 10
470.0000000000001
 20
794.4601169795978
 30
0.0
 11
465.0
 21
794.4601169795978
 31
0.0
  0
LINE
  5
2549
330
3E7
100
AcDbEntity
  8
OUTLINE
  6
CONTINOUS
100
AcDbLine
 10
-284.0
 20
204.0
 30
0.0
 11
-284.0
 21
-213.0
 31
0.0
  0
LINE
  5
254A
330
3E7
100
AcDbEntity
  8
OUTLINE
  6
CONTINOUS
100
AcDbLine
 10
-316.0
 20
204.0
 30
0.0
 11
-316.0
 21
-213.0
 31
0.0
  0
LINE
  5
254B
330
3E7
100
AcDbEntity
  8
OUTLINE
  6
CONTINOUS
100
AcDbLine
 10
-475.0
 20
165.0
 30
0.0
 11
-475.0
 21
-165.0
 31
0.0
  0
LINE
  5
254C
330
3E7
100
AcDbEntity
  8
OUTLINE
  6
CONTINOUS
100
AcDbLine
 10
475.0
 20
-165.0
 30
0.0
 11
475.0
 21
165.0
 31
0.0
  0
LINE
  5
254D
330
3E7
100
AcDbEntity
  8
OUTLINE
  6
CONTINOUS
100
AcDbLine
 10
316.0
 20
204.0
 30
0.0
 11
316.0
 21
-213.0
 31
0.0
  0
LINE
  5
254E
330
3E7
100
AcDbEntity
  8
OUTLINE
  6
CONTINOUS
100
AcDbLine
 10
284.0
 20
204.0
 30
0.0
 11
284.0
 21
-213.0
 31
0.0
  0
LINE
  5
254F
330
3E7
100
AcDbEntity
  8
OUTLINE
  6
CONTINOUS
100
AcDbLine
 10
-316.0
 20
-165.0
 30
0.0
 11
-475.0
 21
-165.0
 31
0.0
  0
LINE
  5
2550
330
3E7
100
AcDbEntity
  8
OUTLINE
  6
CONTINOUS
100
AcDbLine
 10
-316.0
 20
-190.0
 30
0.0
 11
-441.9999999998472
 21
-190.0
 31
0.0
  0
LINE
  5
2551
330
3E7
100
AcDbEntity
  8
OUTLINE
  6
CONTINOUS
100
AcDbLine
 10
-441.9999999998472
 20
-165.0
 30
0.0
 11
-441.9999999998472
 21
-190.0
 31
0.0
  0
LINE
  5
2552
330
3E7
100
AcDbEntity
  8
OUTLINE
  6
CONTINOUS
100
AcDbLine
 10
475.0
 20
-165.0
 30
0.0
 11
316.0
 21
-165.0
 31
0.0
  0
LINE
  5
2553
330
3E7
100
AcDbEntity
  8
OUTLINE
  6
CONTINOUS
100
AcDbLine
 10
284.0
 20
-165.0
 30
0.0
 11
-284.0
 21
-165.0
 31
0.0
  0
LINE
  5
2554
330
3E7
100
AcDbEntity
  8
OUTLINE
  6
CONTINOUS
100
AcDbLine
 10
136.0000000001532
 20
-190.0
 30
0.0
 11
-284.0
 21
-190.0
 31
0.0
  0
ARC
  5
2555
330
3E7
100
AcDbEntity
  8
OUTLINE
  6
CONTINOUS
100
AcDbCircle
 10
-300.0
 20
-173.0
 30
0.0
 40
6.0
100
AcDbArc
 50
0.0
 51
90.0
  0
ARC
  5
2556
330
3E7
100
AcDbEntity
  8
OUTLINE
  6
CONTINOUS
100
AcDbCircle
 10
-300.0
 20
-173.0
 30
0.0
 40
6.0
100
AcDbArc
 50
90.0
 51
180.0
  0
LINE
  5
2557
330
3E7
100
AcDbEntity
  8
OUTLINE
  6
CONTINOUS
100
AcDbLine
 10
-306.0
 20
-173.0
 30
0.0
 11
-306.0
 21
-197.0
 31
0.0
  0
LINE
  5
2558
330
3E7
100
AcDbEntity
  8
OUTLINE
  6
CONTINOUS
100
AcDbLine
 10
-294.0
 20
-173.0
 30
0.0
 11
-294.0
 21
-197.0
 31
0.0
  0
LINE
  5
2559
330
3E7
100
AcDbEntity
  8
OUTLINE
  6
CONTINOUS
100
AcDbLine
 10
-284.0
 20
-213.0
 30
0.0
 11
-316.0
 21
-213.0
 31
0.0
  0
ARC
  5
255A
330
3E7
100
AcDbEntity
  8
OUTLINE
  6
CONTINOUS
100
AcDbCircle
 10
-300.0
 20
-197.0
 30
0.0
 40
6.0
100
AcDbArc
 50
180.0
 51
270.0
  0
ARC
  5
255B
330
3E7
100
AcDbEntity
  8
OUTLINE
  6
CONTINOUS
100
AcDbCircle
 10
-300.0
 20
-197.0
 30
0.0
 40
6.0
100
AcDbArc
 50
270.0
 51
0.0
  0
LINE
  5
255C
330
3E7
100
AcDbEntity
  8
OUTLINE
  6
CONTINOUS
100
AcDbLine
 10
136.0000000001527
 20
-165.0
 30
0.0
 11
136.0000000001532
 21
-190.0
 31
0.0
  0
ARC
  5
255D
330
3E7
100
AcDbEntity
  8
OUTLINE
  6
CONTINOUS
100
AcDbCircle
 10
300.0
 20
-173.0
 30
0.0
 40
6.0
100
AcDbArc
 50
90.0
 51
180.0
  0
ARC
  5
255E
330
3E7
100
AcDbEntity
  8
OUTLINE
  6
CONTINOUS
100
AcDbCircle
 10
300.0
 20
-173.0
 30
0.0
 40
6.0
100
AcDbArc
 50
0.0
 51
90.0
  0
LINE
  5
255F
330
3E7
100
AcDbEntity
  8
OUTLINE
  6
CONTINOUS
100
AcDbLine
 10
306.0
 20
-173.0
 30
0.0
 11
306.0
 21
-197.0
 31
0.0
  0
LINE
  5
2560
330
3E7
100
AcDbEntity
  8
OUTLINE
  6
CONTINOUS
100
AcDbLine
 10
294.0
 20
-173.0
 30
0.0
 11
294.0
 21
-197.0
 31
0.0
  0
LINE
  5
2561
330
3E7
100
AcDbEntity
  8
OUTLINE
  6
CONTINOUS
100
AcDbLine
 10
316.0
 20
-213.0
 30
0.0
 11
284.0
 21
-213.0
 31
0.0
  0
ARC
  5
2562
330
3E7
100
AcDbEntity
  8
OUTLINE
  6
CONTINOUS
100
AcDbCircle
 10
300.0
 20
-197.0
 30
0.0
 40
6.0
100
AcDbArc
 50
180.0
 51
270.0
  0
ARC
  5
2563
330
3E7
100
AcDbEntity
  8
OUTLINE
  6
CONTINOUS
100
AcDbCircle
 10
300.0
 20
-197.0
 30
0.0
 40
6.0
100
AcDbArc
 50
270.0
 51
0.0
  0
LINE
  5
2566
330
3E7
100
AcDbEntity
  8
OUTLINE
  6
CONTINOUS
100
AcDbLine
 10
-316.0
 20
165.0
 30
0.0
 11
-475.0
 21
165.0
 31
0.0
  0
LINE
  5
2568
330
3E7
100
AcDbEntity
  8
OUTLINE
  6
CONTINOUS
100
AcDbLine
 10
475.0
 20
165.0
 30
0.0
 11
316.0
 21
164.9999999999991
 31
0.0
  0
LINE
  5
256A
330
3E7
100
AcDbEntity
  8
OUTLINE
  6
CONTINOUS
100
AcDbLine
 10
284.0
 20
164.9999999999991
 30
0.0
 11
-284.0
 21
165.0
 31
0.0
  0
LINE
  5
256C
330
3E7
100
AcDbEntity
  8
OUTLINE
  6
CONTINOUS
100
AcDbLine
 10
-284.0
 20
204.0
 30
0.0
 11
-294.0
 21
204.0
 31
0.0
  0
LINE
  5
256D
330
3E7
100
AcDbEntity
  8
OUTLINE
  6
CONTINOUS
100
AcDbLine
 10
-294.0
 20
204.0
 30
0.0
 11
-294.0
 21
183.0
 31
0.0
  0
LINE
  5
256E
330
3E7
100
AcDbEntity
  8
OUTLINE
  6
CONTINOUS
100
AcDbLine
 10
-306.0
 20
204.0
 30
0.0
 11
-306.0
 21
183.0
 31
0.0
  0
ARC
  5
256F
330
3E7
100
AcDbEntity
  8
OUTLINE
  6
CONTINUOUS
100
AcDbCircle
 10
-300.0
 20
183.0
 30
0.0
 40
6.0
100
AcDbArc
 50
180.0
 51
0.0
  0
LINE
  5
2570
330
3E7
100
AcDbEntity
  8
OUTLINE
  6
CONTINOUS
100
AcDbLine
 10
-306.0
 20
204.0
 30
0.0
 11
-316.0
 21
204.0
 31
0.0
  0
LINE
  5
2573
330
3E7
100
AcDbEntity
  8
OUTLINE
  6
CONTINOUS
100
AcDbLine
 10
306.0
 20
204.0
 30
0.0
 11
306.0
 21
183.0
 31
0.0
  0
LINE
  5
2574
330
3E7
100
AcDbEntity
  8
OUTLINE
  6
CONTINOUS
100
AcDbLine
 10
294.0
 20
204.0
 30
0.0
 11
294.0
 21
183.0
 31
0.0
  0
ARC
  5
2575
330
3E7
100
AcDbEntity
  8
OUTLINE
  6
CONTINUOUS
100
AcDbCircle
 10
300.0
 20
183.0
 30
0.0
 40
6.0
100
AcDbArc
 50
180.0
 51
0.0
  0
LINE
  5
2576
330
3E7
100
AcDbEntity
  8
OUTLINE
  6
CONTINOUS
100
AcDbLine
 10
284.0
 20
204.0
 30
0.0
 11
294.0
 21
204.0
 31
0.0
  0
LINE
  5
2577
330
3E7
100
AcDbEntity
  8
OUTLINE
  6
CONTINOUS
100
AcDbLine
 10
306.0
 20
204.0
 30
0.0
 11
316.0
 21
204.0
 31
0.0
  0
ENDSEC
  0
SECTION
  2
OBJECTS
  0
DICTIONARY
  5
3D5
330
0
100
AcDbDictionary
  3
ACAD_GROUP
350
3D6
  3
ACAD_LAYOUT
350
3E2
  3
ACAD_MLINESTYLE
350
3DF
  3
ACAD_PLOTSETTINGS
350
3E1
  3
ACAD_PLOTSTYLENAME
350
3D7
  3
ACDBHEADERROUNDTRIPXREC
350
257F
  0
DICTIONARY
  5
25A2
330
3E7
100
AcDbDictionary
280
     1
  3
ACAD_LAYOUTSELFREF
360
25A3
  0
DICTIONARY
  5
25A0
330
3E3
100
AcDbDictionary
280
     1
  3
ACAD_LAYOUTSELFREF
360
25A1
  0
DICTIONARY
  5
3D6
102
{ACAD_REACTORS
330
3D5
102
}
330
3D5
100
AcDbDictionary
  0
DICTIONARY
  5
3E2
102
{ACAD_REACTORS
330
3D5
102
}
330
3D5
100
AcDbDictionary
  0
DICTIONARY
  5
3DF
102
{ACAD_REACTORS
330
3D5
102
}
330
3D5
100
AcDbDictionary
  3
STANDARD
350
3E0
  0
DICTIONARY
  5
3E1
102
{ACAD_REACTORS
330
3D5
102
}
330
3D5
100
AcDbDictionary
  0
ACDBDICTIONARYWDFLT
  5
3D7
102
{ACAD_REACTORS
330
3D5
102
}
330
3D5
100
AcDbDictionary
281
     1
  3
Normal
350
3D8
100
AcDbDictionaryWithDefault
340
3D8
  0
DICTIONARY
  5
257F
102
{ACAD_REACTORS
330
3D5
102
}
330
3D5
100
AcDbDictionary
  3
CEPSNTYPE
350
2589
  3
DIMSTYLEDATA
350
258D
  3
FINGERPRINTGUID
350
258A
  3
HYPERLINKBASE
350
2582
  3
INSUNITS
350
2588
  3
LAYOUTDICT
350
2584
  3
LWETCUNION
350
2587
  3
PLOTSETDICT
350
2585
  3
PLOTSTYLNAMDICT
350
2586
  3
PSVPSCALE
350
258C
  3
PUCSBASE
350
2590
  3
PUCSORGBACK
350
2596
  3
PUCSORGBOTTOM
350
2592
  3
PUCSORGFRONT
350
2595
  3
PUCSORGLEFT
350
2593
  3
PUCSORGRIGHT
350
2594
  3
PUCSORGTOP
350
2591
  3
PUCSORTHOREF
350
258E
  3
PUCSORTHOVIEW
350
258F
  3
STYLESHEET
350
2583
  3
TSTACKALIGN
350
2580
  3
TSTACKSIZE
350
2581
  3
UCSBASE
350
2599
  3
UCSORGBACK
350
259F
  3
UCSORGBOTTOM
350
259B
  3
UCSORGFRONT
350
259E
  3
UCSORGLEFT
350
259C
  3
UCSORGRIGHT
350
259D
  3
UCSORGTOP
350
259A
  3
UCSORTHOREF
350
2597
  3
UCSORTHOVIEW
350
2598
  3
VERSIONGUID
350
258B
  0
XRECORD
  5
25A3
102
{ACAD_REACTORS
330
25A2
102
}
330
25A2
100
AcDbXrecord
340
3E7
  0
XRECORD
  5
25A1
102
{ACAD_REACTORS
330
25A0
102
}
330
25A0
100
AcDbXrecord
340
3E3
  0
MLINESTYLE
  5
3E0
102
{ACAD_REACTORS
330
3DF
102
}
330
3DF
100
AcDbMlineStyle
  2
STANDARD
 70
     0
  3

 62
   256
 51
90.0
 52
90.0
 71
     2
 49
0.5
 62
   256
  6
BYLAYER
 49
-0.5
 62
   256
  6
BYLAYER
  0
ACDBPLACEHOLDER
  5
3D8
102
{ACAD_REACTORS
330
3D7
102
}
330
3D7
100
AcDbPlaceHolder
280
     0
  0
XRECORD
  5
2589
102
{ACAD_REACTORS
330
257F
102
}
330
257F
100
AcDbXrecord
 90
        0
  0
XRECORD
  5
258D
102
{ACAD_REACTORS
330
257F
102
}
330
257F
100
AcDbXrecord
1000
DSTYLE
1002
{
1070
   341
340
4A9
1070
   342
340
4A9
1002
}
  0
XRECORD
  5
258A
102
{ACAD_REACTORS
330
257F
102
}
330
257F
100
AcDbXrecord
  1
{D2272796-D80D-4ABD-900F-0E7B08E93DCD}
  0
XRECORD
  5
2582
102
{ACAD_REACTORS
330
257F
102
}
330
257F
100
AcDbXrecord
  1

  0
XRECORD
  5
2588
102
{ACAD_REACTORS
330
257F
102
}
330
257F
100
AcDbXrecord
 90
        0
  0
XRECORD
  5
2584
102
{ACAD_REACTORS
330
257F
102
}
330
257F
100
AcDbXrecord
340
3E2
  0
XRECORD
  5
2587
102
{ACAD_REACTORS
330
257F
102
}
330
257F
100
AcDbXrecord
 90
    10781
  0
XRECORD
  5
2585
102
{ACAD_REACTORS
330
257F
102
}
330
257F
100
AcDbXrecord
340
3E1
  0
XRECORD
  5
2586
102
{ACAD_REACTORS
330
257F
102
}
330
257F
100
AcDbXrecord
340
3D7
  0
XRECORD
  5
258C
102
{ACAD_REACTORS
330
257F
102
}
330
257F
100
AcDbXrecord
 40
0.0
  0
XRECORD
  5
2590
102
{ACAD_REACTORS
330
257F
102
}
330
257F
100
AcDbXrecord
340
0
  0
XRECORD
  5
2596
102
{ACAD_REACTORS
330
257F
102
}
330
257F
100
AcDbXrecord
 10
0.0
 20
0.0
 30
0.0
  0
XRECORD
  5
2592
102
{ACAD_REACTORS
330
257F
102
}
330
257F
100
AcDbXrecord
 10
0.0
 20
0.0
 30
0.0
  0
XRECORD
  5
2595
102
{ACAD_REACTORS
330
257F
102
}
330
257F
100
AcDbXrecord
 10
0.0
 20
0.0
 30
0.0
  0
XRECORD
  5
2593
102
{ACAD_REACTORS
330
257F
102
}
330
257F
100
AcDbXrecord
 10
0.0
 20
0.0
 30
0.0
  0
XRECORD
  5
2594
102
{ACAD_REACTORS
330
257F
102
}
330
257F
100
AcDbXrecord
 10
0.0
 20
0.0
 30
0.0
  0
XRECORD
  5
2591
102
{ACAD_REACTORS
330
257F
102
}
330
257F
100
AcDbXrecord
 10
0.0
 20
0.0
 30
0.0
  0
XRECORD
  5
258E
102
{ACAD_REACTORS
330
257F
102
}
330
257F
100
AcDbXrecord
340
0
  0
XRECORD
  5
258F
102
{ACAD_REACTORS
330
257F
102
}
330
257F
100
AcDbXrecord
 70
     0
  0
XRECORD
  5
2583
102
{ACAD_REACTORS
330
257F
102
}
330
257F
100
AcDbXrecord
  1

  0
XRECORD
  5
2580
102
{ACAD_REACTORS
330
257F
102
}
330
257F
100
AcDbXrecord
 90
        1
  0
XRECORD
  5
2581
102
{ACAD_REACTORS
330
257F
102
}
330
257F
100
AcDbXrecord
 90
       70
  0
XRECORD
  5
2599
102
{ACAD_REACTORS
330
257F
102
}
330
257F
100
AcDbXrecord
340
0
  0
XRECORD
  5
259F
102
{ACAD_REACTORS
330
257F
102
}
330
257F
100
AcDbXrecord
 10
0.0
 20
0.0
 30
0.0
  0
XRECORD
  5
259B
102
{ACAD_REACTORS
330
257F
102
}
330
257F
100
AcDbXrecord
 10
0.0
 20
0.0
 30
0.0
  0
XRECORD
  5
259E
102
{ACAD_REACTORS
330
257F
102
}
330
257F
100
AcDbXrecord
 10
0.0
 20
0.0
 30
0.0
  0
XRECORD
  5
259C
102
{ACAD_REACTORS
330
257F
102
}
330
257F
100
AcDbXrecord
 10
0.0
 20
0.0
 30
0.0
  0
XRECORD
  5
259D
102
{ACAD_REACTORS
330
257F
102
}
330
257F
100
AcDbXrecord
 10
0.0
 20
0.0
 30
0.0
  0
XRECORD
  5
259A
102
{ACAD_REACTORS
330
257F
102
}
330
257F
100
AcDbXrecord
 10
0.0
 20
0.0
 30
0.0
  0
XRECORD
  5
2597
102
{ACAD_REACTORS
330
257F
102
}
330
257F
100
AcDbXrecord
340
0
  0
XRECORD
  5
2598
102
{ACAD_REACTORS
330
257F
102
}
330
257F
100
AcDbXrecord
 70
     0
  0
XRECORD
  5
258B
102
{ACAD_REACTORS
330
257F
102
}
330
257F
100
AcDbXrecord
  1
{3B6A4275-584D-493C-B546-1B9F7711E0F4}
  0
ENDSEC
  0
EOF
