  0
SECTION
  2
HEADER
  9
$ACADVER
  1
AC1014
  9
$ACADMAINTVER
 70
     9
  9
$DWGCODEPAGE
  3
ANSI_932
  9
$INSBASE
 10
0.0
 20
0.0
 30
0.0
  9
$EXTMIN
 10
-530.4215137956417
 20
-524.0812536761768
 30
-0.0015258207003583
  9
$EXTMAX
 10
1115.167824646199
 20
1846.796323481663
 30
0.0000000349246037
  9
$LIMMIN
 10
-1323.024477823699
 20
-861.6002697724034
  9
$LIMMAX
 10
1570.703013305512
 20
1966.481409052463
  9
$ORTHOMODE
 70
     1
  9
$REGENMODE
 70
     1
  9
$FILLMODE
 70
     1
  9
$QTEXTMODE
 70
     0
  9
$MIRRTEXT
 70
     0
  9
$DRAGMODE
 70
     2
  9
$LTSCALE
 40
20.0
  9
$OSMODE
 70
    39
  9
$ATTMODE
 70
     1
  9
$TEXTSIZE
 40
64.0
  9
$TRACEWID
 40
0.05
  9
$TEXTSTYLE
  7
STANDARD
  9
$CLAYER
  8
OUTLINE
  9
$CELTYPE
  6
BYLAYER
  9
$CECOLOR
 62
   256
  9
$CELTSCALE
 40
1.0
  9
$DELOBJ
 70
     1
  9
$DISPSILH
 70
     0
  9
$DIMSCALE
 40
1.0
  9
$DIMASZ
 40
10.0
  9
$DIMEXO
 40
20.0
  9
$DIMDLI
 40
200.0
  9
$DIMRND
 40
0.0
  9
$DIMDLE
 40
0.0
  9
$DIMEXE
 40
30.0
  9
$DIMTP
 40
0.0
  9
$DIMTM
 40
0.0
  9
$DIMTXT
 40
64.0
  9
$DIMCEN
 40
0.09
  9
$DIMTSZ
 40
0.0
  9
$DIMTOL
 70
     0
  9
$DIMLIM
 70
     0
  9
$DIMTIH
 70
     0
  9
$DIMTOH
 70
     0
  9
$DIMSE1
 70
     0
  9
$DIMSE2
 70
     0
  9
$DIMTAD
 70
     1
  9
$DIMZIN
 70
     8
  9
$DIMBLK
  1
ORIGIN
  9
$DIMASO
 70
     1
  9
$DIMSHO
 70
     0
  9
$DIMPOST
  1

  9
$DIMAPOST
  1

  9
$DIMALT
 70
     0
  9
$DIMALTD
 70
     2
  9
$DIMALTF
 40
25.4
  9
$DIMLFAC
 40
1.0
  9
$DIMTOFL
 70
     1
  9
$DIMTVP
 40
0.0
  9
$DIMTIX
 70
     0
  9
$DIMSOXD
 70
     0
  9
$DIMSAH
 70
     0
  9
$DIMBLK1
  1

  9
$DIMBLK2
  1

  9
$DIMSTYLE
  2
STANDARD
  9
$DIMCLRD
 70
     0
  9
$DIMCLRE
 70
     0
  9
$DIMCLRT
 70
     0
  9
$DIMTFAC
 40
1.0
  9
$DIMGAP
 40
20.0
  9
$DIMJUST
 70
     0
  9
$DIMSD1
 70
     0
  9
$DIMSD2
 70
     0
  9
$DIMTOLJ
 70
     1
  9
$DIMTZIN
 70
     0
  9
$DIMALTZ
 70
     0
  9
$DIMALTTZ
 70
     0
  9
$DIMFIT
 70
     3
  9
$DIMUPT
 70
     0
  9
$DIMUNIT
 70
     2
  9
$DIMDEC
 70
     4
  9
$DIMTDEC
 70
     4
  9
$DIMALTU
 70
     2
  9
$DIMALTTD
 70
     2
  9
$DIMTXSTY
  7
STANDARD
  9
$DIMAUNIT
 70
     0
  9
$LUNITS
 70
     2
  9
$LUPREC
 70
     4
  9
$SKETCHINC
 40
0.1
  9
$FILLETRAD
 40
6.0
  9
$AUNITS
 70
     1
  9
$AUPREC
 70
     3
  9
$MENU
  1
ACAD
  9
$ELEVATION
 40
0.0
  9
$PELEVATION
 40
0.0
  9
$THICKNESS
 40
0.0
  9
$LIMCHECK
 70
     0
  9
$BLIPMODE
 70
     0
  9
$CHAMFERA
 40
0.0
  9
$CHAMFERB
 40
0.0
  9
$CHAMFERC
 40
0.0
  9
$CHAMFERD
 40
0.0
  9
$SKPOLY
 70
     0
  9
$TDCREATE
 40
2450330.393205995
  9
$TDUPDATE
 40
2454729.391627060
  9
$TDINDWG
 40
1.1458782523
  9
$TDUSRTIMER
 40
1.1458781366
  9
$USRTIMER
 70
     1
  9
$ANGBASE
 50
0.0
  9
$ANGDIR
 70
     0
  9
$PDMODE
 70
     3
  9
$PDSIZE
 40
-2.0
  9
$PLINEWID
 40
0.0
  9
$COORDS
 70
     2
  9
$SPLFRAME
 70
     0
  9
$SPLINETYPE
 70
     6
  9
$SPLINESEGS
 70
     8
  9
$ATTDIA
 70
     0
  9
$ATTREQ
 70
     1
  9
$HANDLING
 70
-16383
  9
$HANDSEED
  5
16BBA
  9
$SURFTAB1
 70
     6
  9
$SURFTAB2
 70
     6
  9
$SURFTYPE
 70
     6
  9
$SURFU
 70
     6
  9
$SURFV
 70
     6
  9
$UCSNAME
  2

  9
$UCSORG
 10
0.0
 20
0.0
 30
0.0
  9
$UCSXDIR
 10
1.0
 20
0.0
 30
0.0
  9
$UCSYDIR
 10
0.0
 20
1.0
 30
0.0
  9
$PUCSNAME
  2

  9
$PUCSORG
 10
0.0
 20
0.0
 30
0.0
  9
$PUCSXDIR
 10
1.0
 20
0.0
 30
0.0
  9
$PUCSYDIR
 10
0.0
 20
1.0
 30
0.0
  9
$USERI1
 70
     0
  9
$USERI2
 70
     0
  9
$USERI3
 70
     0
  9
$USERI4
 70
     0
  9
$USERI5
 70
     0
  9
$USERR1
 40
20.0
  9
$USERR2
 40
0.0
  9
$USERR3
 40
0.0
  9
$USERR4
 40
0.0
  9
$USERR5
 40
0.0
  9
$WORLDVIEW
 70
     1
  9
$SHADEDGE
 70
     3
  9
$SHADEDIF
 70
    70
  9
$TILEMODE
 70
     1
  9
$MAXACTVP
 70
    64
  9
$PINSBASE
 10
0.0
 20
0.0
 30
0.0
  9
$PLIMCHECK
 70
     0
  9
$PEXTMIN
 10
1.000000000000000E+20
 20
1.000000000000000E+20
 30
1.000000000000000E+20
  9
$PEXTMAX
 10
-1.000000000000000E+20
 20
-1.000000000000000E+20
 30
-1.000000000000000E+20
  9
$PLIMMIN
 10
0.0
 20
0.0
  9
$PLIMMAX
 10
12.0
 20
9.0
  9
$UNITMODE
 70
     0
  9
$VISRETAIN
 70
     1
  9
$PLINEGEN
 70
     0
  9
$PSLTSCALE
 70
     1
  9
$TREEDEPTH
 70
  3020
  9
$PICKSTYLE
 70
     1
  9
$CMLSTYLE
  2
STANDARD
  9
$CMLJUST
 70
     0
  9
$CMLSCALE
 40
1.0
  9
$PROXYGRAPHICS
 70
     1
  9
$MEASUREMENT
 70
     0
  0
ENDSEC
  0
SECTION
  2
CLASSES
  0
CLASS
  1
ACDBDICTIONARYWDFLT
  2
AcDbDictionaryWithDefault
  3
AutoCAD 2000
 90
        0
280
     0
281
     0
  0
CLASS
  1
ACDBPLACEHOLDER
  2
AcDbPlaceHolder
  3
AutoCAD 2000
 90
        0
280
     0
281
     0
  0
CLASS
  1
LAYOUT
  2
AcDbLayout
  3
AutoCAD 2000
 90
        0
280
     0
281
     0
  0
CLASS
  1
LONG_TRANSACTION
  2
AcDbLongTransaction
  3
AutoCAD 2000
 90
        0
280
     0
281
     0
  0
CLASS
  1
LWPOLYLINE
  2
AcDbPolyline
  3
AutoCAD 2000
 90
        0
280
     0
281
     1
  0
CLASS
  1
HATCH
  2
AcDbHatch
  3
AutoCAD 2000
 90
        0
280
     0
281
     1
  0
CLASS
  1
XRECORD
  2
AcDbXrecord
  3
AutoCAD 2000
 90
        0
280
     0
281
     0
  0
ENDSEC
  0
SECTION
  2
TABLES
  0
TABLE
  2
VPORT
  5
3D1
330
0
100
AcDbSymbolTable
 70
     3
  0
VPORT
  5
16B94
330
3D1
100
AcDbSymbolTableRecord
100
AcDbViewportTableRecord
  2
*ACTIVE
 70
     0
 10
0.0
 20
0.0
 11
1.0
 21
1.0
 12
306.722849681244
 22
564.0121101868707
 13
0.0
 23
0.0
 14
50.0
 24
50.0
 15
100.0
 25
100.0
 16
0.0
 26
0.0
 36
1.0
 17
0.0
 27
0.0
 37
0.0
 40
3651.974517513552
 41
1.299492385786801
 42
50.0
 43
0.0
 44
0.0
 50
0.0
 51
0.0
 71
     0
 72
   500
 73
     1
 74
     0
 75
     0
 76
     0
 77
     0
 78
     0
  0
ENDTAB
  0
TABLE
  2
LTYPE
  5
3CE
330
0
100
AcDbSymbolTable
 70
     5
  0
LTYPE
  5
3DC
330
3CE
100
AcDbSymbolTableRecord
100
AcDbLinetypeTableRecord
  2
BYBLOCK
 70
     0
  3

 72
    65
 73
     0
 40
0.0
  0
LTYPE
  5
3DD
330
3CE
100
AcDbSymbolTableRecord
100
AcDbLinetypeTableRecord
  2
BYLAYER
 70
     0
  3

 72
    65
 73
     0
 40
0.0
  0
LTYPE
  5
3DE
330
3CE
100
AcDbSymbolTableRecord
100
AcDbLinetypeTableRecord
  2
CONTINUOUS
 70
     0
  3
実線
 72
    65
 73
     0
 40
0.0
  0
LTYPE
  5
3ED
330
3CE
100
AcDbSymbolTableRecord
100
AcDbLinetypeTableRecord
  2
DASHDOT
 70
     0
  3
____ _ ____ _ ____ _ ____ _ ____ _ ____ _ ____
 72
    65
 73
     4
 40
5.5
 49
4.0
 74
     0
 49
-0.6
 74
     0
 49
0.3
 74
     0
 49
-0.6
 74
     0
  0
LTYPE
  5
3EE
330
3CE
100
AcDbSymbolTableRecord
100
AcDbLinetypeTableRecord
  2
CONTINOUS
 70
     0
  3
Solid line
 72
    65
 73
     0
 40
0.0
  0
LTYPE
  5
26A7
330
3CE
100
AcDbSymbolTableRecord
100
AcDbLinetypeTableRecord
  2
DOT_CENTER
 70
     0
  3
Dot_Center
 72
    65
 73
     4
 40
14.0
 49
12.0
 74
     0
 49
-1.0
 74
     0
 49
0.0
 74
     0
 49
-1.0
 74
     0
  0
LTYPE
  5
26A8
330
3CE
100
AcDbSymbolTableRecord
100
AcDbLinetypeTableRecord
  2
PHANTOM
 70
     0
  3
Phantom
 72
    65
 73
     6
 40
13.0
 49
10.0
 74
     0
 49
-1.0
 74
     0
 49
0.0
 74
     0
 49
-1.0
 74
     0
 49
0.0
 74
     0
 49
-1.0
 74
     0
  0
ENDTAB
  0
TABLE
  2
LAYER
  5
3CB
330
0
100
AcDbSymbolTable
 70
    11
  0
LAYER
  5
3D9
330
3CB
100
AcDbSymbolTableRecord
100
AcDbLayerTableRecord
  2
0
 70
     0
 62
     7
  6
CONTINUOUS
  0
LAYER
  5
3EB
330
3CB
100
AcDbSymbolTableRecord
100
AcDbLayerTableRecord
  2
SIZE
 70
     0
 62
    32
  6
CONTINUOUS
  0
LAYER
  5
3F4
330
3CB
100
AcDbSymbolTableRecord
100
AcDbLayerTableRecord
  2
DETAIL
 70
     0
 62
     5
  6
CONTINUOUS
  0
LAYER
  5
3F5
330
3CB
100
AcDbSymbolTableRecord
100
AcDbLayerTableRecord
  2
OUTLINE
 70
     0
 62
     3
  6
CONTINUOUS
  0
LAYER
  5
3F6
330
3CB
100
AcDbSymbolTableRecord
100
AcDbLayerTableRecord
  2
BASIS
 70
     0
 62
     6
  6
CONTINUOUS
  0
LAYER
  5
3F7
330
3CB
100
AcDbSymbolTableRecord
100
AcDbLayerTableRecord
  2
NOTE
 70
     0
 62
     4
  6
CONTINUOUS
  0
LAYER
  5
3F8
330
3CB
100
AcDbSymbolTableRecord
100
AcDbLayerTableRecord
  2
ARRANGE
 70
     0
 62
     1
  6
CONTINUOUS
  0
LAYER
  5
3F9
330
3CB
100
AcDbSymbolTableRecord
100
AcDbLayerTableRecord
  2
FIX
 70
     0
 62
   241
  6
CONTINUOUS
  0
LAYER
  5
3FA
330
3CB
100
AcDbSymbolTableRecord
100
AcDbLayerTableRecord
  2
ETC
 70
     0
 62
    83
  6
CONTINUOUS
  0
LAYER
  5
3FB
330
3CB
100
AcDbSymbolTableRecord
100
AcDbLayerTableRecord
  2
SERVICESPACE
 70
     0
 62
     2
  6
DASHDOT
  0
LAYER
  5
3FD
330
3CB
100
AcDbSymbolTableRecord
100
AcDbLayerTableRecord
  2
DEFPOINTS
 70
     0
 62
     7
  6
CONTINUOUS
  0
ENDTAB
  0
TABLE
  2
STYLE
  5
3CC
330
0
100
AcDbSymbolTable
 70
     1
  0
STYLE
  5
3DA
330
3CC
100
AcDbSymbolTableRecord
100
AcDbTextStyleTableRecord
  2
STANDARD
 70
     0
 40
0.0
 41
0.9
 50
0.0
 71
     0
 42
64.0
  3
SIMPLEX
  4
BIGFONT
  0
ENDTAB
  0
TABLE
  2
VIEW
  5
3CF
330
0
100
AcDbSymbolTable
 70
     1
  0
VIEW
  5
3FF
330
3CF
100
AcDbSymbolTableRecord
100
AcDbViewTableRecord
  2
ALL
 70
     0
 40
4282.62
 10
0.0
 20
41.30990399999999
 41
5940.0
 11
0.0
 21
0.0
 31
1.0
 12
0.0
 22
0.0
 32
0.0
 42
50.0
 43
0.0
 44
0.0
 50
0.0
 71
     0
  0
ENDTAB
  0
TABLE
  2
UCS
  5
3D0
330
0
100
AcDbSymbolTable
 70
     0
  0
ENDTAB
  0
TABLE
  2
APPID
  5
3D2
330
0
100
AcDbSymbolTable
 70
     1
  0
APPID
  5
3DB
330
3D2
100
AcDbSymbolTableRecord
100
AcDbRegAppTableRecord
  2
ACAD
 70
     0
  0
ENDTAB
  0
TABLE
  2
DIMSTYLE
  5
3D3
330
0
100
AcDbSymbolTable
 70
     1
  0
DIMSTYLE
105
400
330
3D3
100
AcDbSymbolTableRecord
100
AcDbDimStyleTableRecord
  2
STANDARD
 70
     0
  3

  4

  5

  6

  7

 40
1.0
 41
0.18
 42
0.0625
 43
0.38
 44
0.18
 45
0.0
 46
0.0
 47
0.0
 48
0.0
140
0.18
141
0.09
142
0.0
143
25.4
144
1.0
145
0.0
146
1.0
147
0.09
 71
     0
 72
     0
 73
     1
 74
     1
 75
     0
 76
     0
 77
     0
 78
     0
170
     0
171
     2
172
     0
173
     0
174
     0
175
     0
176
     0
177
     0
178
     0
270
     2
271
     4
272
     4
273
     2
274
     2
340
3DA
275
     1
280
     0
281
     0
282
     0
283
     1
284
     8
285
     8
286
     8
287
     5
288
     0
  0
ENDTAB
  0
TABLE
  2
BLOCK_RECORD
  5
3CA
330
0
100
AcDbSymbolTable
 70
   101
  0
BLOCK_RECORD
  5
3E7
102
{ACAD_XDICTIONARY
360
16BB8
102
}
330
3CA
100
AcDbSymbolTableRecord
100
AcDbBlockTableRecord
  2
*MODEL_SPACE
  0
BLOCK_RECORD
  5
3E3
102
{ACAD_XDICTIONARY
360
16BB6
102
}
330
3CA
100
AcDbSymbolTableRecord
100
AcDbBlockTableRecord
  2
*PAPER_SPACE
  0
BLOCK_RECORD
  5
4A9
330
3CA
100
AcDbSymbolTableRecord
100
AcDbBlockTableRecord
  2
_ORIGIN
  0
ENDTAB
  0
ENDSEC
  0
SECTION
  2
BLOCKS
  0
BLOCK
  5
3E8
330
3E7
100
AcDbEntity
  8
0
100
AcDbBlockBegin
  2
*MODEL_SPACE
 70
     0
 10
0.0
 20
0.0
 30
0.0
  3
*MODEL_SPACE
  1

  0
ENDBLK
  5
3E9
330
3E7
100
AcDbEntity
  8
0
100
AcDbBlockEnd
  0
BLOCK
  5
3E4
330
3E3
100
AcDbEntity
 67
     1
  8
0
100
AcDbBlockBegin
  2
*PAPER_SPACE
 70
     0
 10
0.0
 20
0.0
 30
0.0
  3
*PAPER_SPACE
  1

  0
ENDBLK
  5
3E5
330
3E3
100
AcDbEntity
 67
     1
  8
0
100
AcDbBlockEnd
  0
BLOCK
  5
4AA
330
4A9
100
AcDbEntity
  8
0
100
AcDbBlockBegin
  2
_ORIGIN
 70
     0
 10
0.0
 20
0.0
 30
0.0
  3
_ORIGIN
  1

  0
CIRCLE
  5
4AB
330
4A9
100
AcDbEntity
  8
0
  6
BYBLOCK
 62
     0
100
AcDbCircle
 10
0.0
 20
0.0
 30
0.0
 40
0.5
  0
LINE
  5
4AC
330
4A9
100
AcDbEntity
  8
0
  6
BYBLOCK
 62
     0
100
AcDbLine
 10
0.0
 20
0.0
 30
0.0
 11
-1.0
 21
0.0
 31
0.0
  0
ENDBLK
  5
4AD
330
4A9
100
AcDbEntity
  8
0
100
AcDbBlockEnd
  0
ENDSEC
  0
SECTION
  2
ENTITIES
  0
TEXT
  5
D23
330
3E7
100
AcDbEntity
  8
ETC
  6
CONTINUOUS
100
AcDbText
 10
672.9649056733433
 20
1641.262808978118
 30
0.0
 40
64.0
  1
SMPU4943
 41
0.9
100
AcDbText
  0
LINE
  5
D27
330
3E7
100
AcDbEntity
  8
BASIS
  6
DASHDOT
100
AcDbLine
 10
0.0
 20
1372.507607152596
 30
0.0
 11
0.0
 21
0.0
 31
0.0
  0
POINT
  5
D2C
330
3E7
100
AcDbEntity
  8
ARRANGE
  6
CONTINUOUS
100
AcDbPoint
 10
0.0
 20
0.0
 30
0.0
  0
CIRCLE
  5
D2D
330
3E7
100
AcDbEntity
  8
ARRANGE
  6
CONTINUOUS
100
AcDbCircle
 10
0.0
 20
0.0
 30
0.0
 40
40.0
  0
LINE
  5
D33
330
3E7
100
AcDbEntity
  8
NOTE
  6
CONTINOUS
100
AcDbLine
 10
-300.0000152587927
 20
20.0
 30
0.0
 11
-300.0000152587927
 21
-20.0
 31
0.0
  0
CIRCLE
  5
D34
330
3E7
100
AcDbEntity
  8
FIX
  6
CONTINUOUS
100
AcDbCircle
 10
-300.0000152587927
 20
0.0
 30
0.0
 40
40.0
  0
LINE
  5
D39
330
3E7
100
AcDbEntity
  8
NOTE
  6
CONTINOUS
100
AcDbLine
 10
-280.0000152587927
 20
0.0
 30
0.0
 11
-320.0000152587926
 21
0.0
 31
0.0
  0
TEXT
  5
D40
330
3E7
100
AcDbEntity
  8
NOTE
  6
CONTINUOUS
100
AcDbText
 10
555.7722681211344
 20
-259.1303812769415
 30
0.0
 40
64.0
  1
AH 2-U cut
 41
0.9
100
AcDbText
  0
LINE
  5
D41
330
3E7
100
AcDbEntity
  8
NOTE
  6
CONTINUOUS
100
AcDbLine
 10
299.9999847412073
 20
0.0
 30
0.0
 11
530.5400565497075
 21
-274.2326822769414
 31
0.0
  0
LINE
  5
D43
330
3E7
100
AcDbEntity
  8
NOTE
  6
CONTINUOUS
100
AcDbLine
 10
1074.146298041894
 20
-274.2326822769414
 30
0.0
 11
530.5400565497075
 21
-274.2326822769414
 31
0.0
  0
TEXT
  5
D44
330
3E7
100
AcDbEntity
  8
ETC
  6
CONTINUOUS
100
AcDbText
 10
684.7876486733439
 20
1782.569264973697
 30
0.0
 40
64.0
  1
PAC
 41
0.9
100
AcDbText
  0
LINE
  5
D48
330
3E7
100
AcDbEntity
  8
NOTE
  6
CONTINOUS
100
AcDbLine
 10
299.9999847412073
 20
20.0
 30
0.0
 11
299.9999847412073
 21
-20.0
 31
0.0
  0
CIRCLE
  5
D49
330
3E7
100
AcDbEntity
  8
FIX
  6
CONTINUOUS
100
AcDbCircle
 10
299.9999847412073
 20
0.0
 30
0.0
 40
40.0
  0
LINE
  5
D4D
330
3E7
100
AcDbEntity
  8
NOTE
  6
CONTINOUS
100
AcDbLine
 10
319.9999847412072
 20
0.0
 30
0.0
 11
279.9999847412073
 21
0.0
 31
0.0
  0
LWPOLYLINE
  5
D4F
330
3E7
100
AcDbEntity
  8
NOTE
  6
CONTINUOUS
100
AcDbPolyline
 90
        3
 70
     0
 43
0.0
 10
317.2153119355316
 20
-36.10585170093691
 10
299.9999847412073
 20
0.0
 10
332.961820862336
 20
-22.6609214970299
  0
LINE
  5
97D6
330
3E7
100
AcDbEntity
  8
DETAIL
  6
CONTINUOUS
100
AcDbLine
 10
485.2000274658166
 20
99.79998779296693
 30
0.0
 11
485.2000274658166
 21
675.4000148773184
 31
0.0
  0
LINE
  5
97DC
330
3E7
100
AcDbEntity
  8
DETAIL
  6
CONTINUOUS
100
AcDbLine
 10
496.8000030517578
 20
599.4000244140624
 30
0.0
 11
496.8000030517578
 21
554.4000244140625
 31
0.0
  0
LINE
  5
97DD
330
3E7
100
AcDbEntity
  8
DETAIL
  6
CONTINUOUS
100
AcDbLine
 10
490.0000152587927
 20
599.4000244140624
 30
0.0
 11
490.0000152587927
 21
554.4000244140625
 31
0.0
  0
LINE
  5
97DF
330
3E7
100
AcDbEntity
  8
DETAIL
  6
CONTINUOUS
100
AcDbLine
 10
-528.0000152587891
 20
606.6000213623038
 30
0.0
 11
-528.0000152587963
 21
547.2000274658189
 31
0.0
  0
LINE
  5
97E0
330
3E7
100
AcDbEntity
  8
DETAIL
  6
CONTINUOUS
100
AcDbLine
 10
-448.0000152587854
 20
554.4000244140625
 30
0.0
 11
-448.0000152587854
 21
599.4000244140624
 31
0.0
  0
LINE
  5
97E1
330
3E7
100
AcDbEntity
  8
DETAIL
  6
CONTINUOUS
100
AcDbLine
 10
-454.8000030517687
 20
554.4000244140625
 30
0.0
 11
-454.8000030517687
 21
599.4000244140624
 31
0.0
  0
LINE
  5
97ED
330
3E7
100
AcDbEntity
  8
DETAIL
  6
CONTINUOUS
100
AcDbLine
 10
-501.500015258789
 20
204.0000305175772
 30
0.0
 11
-387.7698211670031
 21
204.0000305175772
 31
0.0
  0
ARC
  5
97F3
330
3E7
100
AcDbEntity
  8
DETAIL
  6
CONTINUOUS
100
AcDbCircle
 10
-460.0000027623536
 20
554.4000271763889
 30
0.0
 40
5.199999710585879
100
AcDbArc
 50
269.9998623088849
 51
359.9999695635218
  0
ARC
  5
97F4
330
3E7
100
AcDbEntity
  8
DETAIL
  6
CONTINUOUS
100
AcDbCircle
 10
-460.0000103917409
 20
554.4000195470107
 30
0.0
 40
11.99999513294786
100
AcDbArc
 50
269.9999767615569
 51
0.0000232384690482
  0
LINE
  5
97F5
330
3E7
100
AcDbEntity
  8
DETAIL
  6
CONTINUOUS
100
AcDbLine
 10
-525.0000152587927
 20
26.99999999999818
 30
0.0
 11
-525.0000152587927
 21
184.0000305175772
 31
0.0
  0
LINE
  5
97FA
330
3E7
100
AcDbEntity
  8
DETAIL
  6
CONTINUOUS
100
AcDbLine
 10
-526.0000152587963
 20
168.3358154296865
 30
0.0
 11
-526.0000152587963
 21
38.50787353515443
 31
0.0
  0
LINE
  5
97FB
330
3E7
100
AcDbEntity
  8
DETAIL
  6
CONTINUOUS
100
AcDbLine
 10
-525.707107543949
 20
37.45715332031068
 30
0.0
 11
-525.7557525634729
 21
37.50939941406159
 31
0.0
  0
LINE
  5
97FC
330
3E7
100
AcDbEntity
  8
DETAIL
  6
CONTINUOUS
100
AcDbLine
 10
-525.7557525634729
 20
37.50939941406159
 30
0.0
 11
-525.9898223876916
 21
38.02191162109465
 31
0.0
  0
LINE
  5
97FD
330
3E7
100
AcDbEntity
  8
DETAIL
  6
CONTINUOUS
100
AcDbLine
 10
-525.9898223876916
 20
38.02191162109465
 30
0.0
 11
-526.0000152587963
 21
38.50787353515443
 31
0.0
  0
LINE
  5
97FE
330
3E7
100
AcDbEntity
  8
DETAIL
  6
CONTINUOUS
100
AcDbLine
 10
-525.0000152587927
 20
36.3358154296884
 30
0.0
 11
-525.090377807628
 21
36.75122070312227
 31
0.0
  0
LINE
  5
97FF
330
3E7
100
AcDbEntity
  8
DETAIL
  6
CONTINUOUS
100
AcDbLine
 10
-525.090377807628
 20
36.75122070312227
 30
0.0
 11
-525.2928924560547
 21
37.04290771484465
 31
0.0
  0
LINE
  5
9800
330
3E7
100
AcDbEntity
  8
DETAIL
  6
CONTINUOUS
100
AcDbLine
 10
-525.2928924560547
 20
37.04290771484465
 30
0.0
 11
-525.707107543949
 21
37.45715332031068
 31
0.0
  0
LINE
  5
983A
330
3E7
100
AcDbEntity
  8
DETAIL
  6
CONTINUOUS
100
AcDbLine
 10
-524.0000152587908
 20
26.00000000000045
 30
0.0
 11
-281.0000000000036
 21
25.99999999999909
 31
0.0
  0
LINE
  5
984B
330
3E7
100
AcDbEntity
  8
DETAIL
  6
CONTINUOUS
100
AcDbLine
 10
-525.707107543949
 20
169.0429077148428
 30
0.0
 11
-525.7557525634729
 21
168.9906616210919
 31
0.0
  0
LINE
  5
984C
330
3E7
100
AcDbEntity
  8
DETAIL
  6
CONTINUOUS
100
AcDbLine
 10
-525.7557525634729
 20
168.9906616210919
 30
0.0
 11
-525.9898223876916
 21
168.4781494140634
 31
0.0
  0
LINE
  5
984D
330
3E7
100
AcDbEntity
  8
DETAIL
  6
CONTINUOUS
100
AcDbLine
 10
-525.9898223876916
 20
168.4781494140634
 30
0.0
 11
-526.0000152587963
 21
168.3358154296865
 31
0.0
  0
LINE
  5
984E
330
3E7
100
AcDbEntity
  8
DETAIL
  6
CONTINUOUS
100
AcDbLine
 10
-525.0000152587927
 20
170.0703124999972
 30
0.0
 11
-525.090377807628
 21
169.6581420898428
 31
0.0
  0
LINE
  5
984F
330
3E7
100
AcDbEntity
  8
DETAIL
  6
CONTINUOUS
100
AcDbLine
 10
-525.090377807628
 20
169.6581420898428
 30
0.0
 11
-525.1653289794922
 21
169.5510864257812
 31
0.0
  0
LINE
  5
9850
330
3E7
100
AcDbEntity
  8
DETAIL
  6
CONTINUOUS
100
AcDbLine
 10
-525.1653289794922
 20
169.5510864257812
 30
0.0
 11
-525.2928924560547
 21
169.4571533203134
 31
0.0
  0
LINE
  5
9851
330
3E7
100
AcDbEntity
  8
DETAIL
  6
CONTINUOUS
100
AcDbLine
 10
-525.2928924560547
 20
169.4571533203134
 30
0.0
 11
-525.707107543949
 21
169.0429077148428
 31
0.0
  0
LINE
  5
986C
330
3E7
100
AcDbEntity
  8
DETAIL
  6
CONTINUOUS
100
AcDbLine
 10
-524.1423187255896
 20
184.9898376464807
 30
0.0
 11
-281.0000000000036
 21
185.0000305175763
 31
0.0
  0
ARC
  5
986D
330
3E7
100
AcDbEntity
  8
DETAIL
  6
CONTINUOUS
100
AcDbCircle
 10
-520.200007089079
 20
185.2000223478626
 30
0.0
 40
0.1999918305411359
100
AcDbArc
 50
270.0029052527936
 51
359.9970947471542
  0
ARC
  5
986E
330
3E7
100
AcDbEntity
  8
DETAIL
  6
CONTINUOUS
100
AcDbCircle
 10
-524.0000145997692
 20
184.0000139984977
 30
0.0
 40
1.000000659167266
100
AcDbArc
 50
98.18119266306196
 51
179.9990535271921
  0
LINE
  5
986F
330
3E7
100
AcDbEntity
  8
DETAIL
  6
CONTINUOUS
100
AcDbLine
 10
-520.0000152587927
 20
185.2000122070285
 30
0.0
 11
-520.0000152587927
 21
204.0000305175772
 31
0.0
  0
ARC
  5
9872
330
3E7
100
AcDbEntity
  8
DETAIL
  6
CONTINUOUS
100
AcDbCircle
 10
-505.0000152587927
 20
190.5000305175781
 30
0.0
 40
0.5
100
AcDbArc
 50
180.0
 51
0.0
  0
LINE
  5
9873
330
3E7
100
AcDbEntity
  8
DETAIL
  6
CONTINUOUS
100
AcDbLine
 10
-504.5000152587999
 20
190.5000305175781
 30
0.0
 11
-504.5000152587999
 21
201.0000305175753
 31
0.0
  0
LINE
  5
9874
330
3E7
100
AcDbEntity
  8
DETAIL
  6
CONTINUOUS
100
AcDbLine
 10
-505.5000152587854
 20
201.0000305175753
 30
0.0
 11
-505.5000152587854
 21
190.5000305175781
 31
0.0
  0
LINE
  5
9875
330
3E7
100
AcDbEntity
  8
DETAIL
  6
CONTINUOUS
100
AcDbLine
 10
-505.5000152587854
 20
201.0000305175753
 30
0.0
 11
-508.5000152587963
 21
204.0000305175772
 31
0.0
  0
LINE
  5
9876
330
3E7
100
AcDbEntity
  8
DETAIL
  6
CONTINUOUS
100
AcDbLine
 10
-504.5000152587999
 20
201.0000305175753
 30
0.0
 11
-501.500015258789
 21
204.0000305175772
 31
0.0
  0
LINE
  5
9877
330
3E7
100
AcDbEntity
  8
DETAIL
  6
CONTINUOUS
100
AcDbLine
 10
-520.0000152587927
 20
204.0000305175772
 30
0.0
 11
-508.5000152587963
 21
204.0000305175772
 31
0.0
  0
LINE
  5
9878
330
3E7
100
AcDbEntity
  8
DETAIL
  6
CONTINUOUS
100
AcDbLine
 10
-460.0000152588018
 20
549.200027465818
 30
0.0
 11
-525.7275848388781
 21
549.2000274658221
 31
0.0
  0
LINE
  5
9879
330
3E7
100
AcDbEntity
  8
DETAIL
  6
CONTINUOUS
100
AcDbLine
 10
-460.0000152587872
 20
542.4000244140638
 30
0.0
 11
-525.2928924560547
 21
542.4000244140643
 31
0.0
  0
ARC
  5
987A
330
3E7
100
AcDbEntity
  8
DETAIL
  6
CONTINUOUS
100
AcDbCircle
 10
-526.000010243788
 20
547.2000193419399
 30
0.0
 40
2.000005015025089
100
AcDbArc
 50
105.8826634813604
 51
179.9997672685942
  0
ARC
  5
987B
330
3E7
100
AcDbEntity
  8
DETAIL
  6
CONTINUOUS
100
AcDbCircle
 10
-527.0000167275793
 20
545.3142526266447
 30
0.0
 40
0.9999985313051634
100
AcDbArc
 50
180.0007519904249
 51
225.0012094432046
  0
ARC
  5
987C
330
3E7
100
AcDbEntity
  8
DETAIL
  6
CONTINUOUS
100
AcDbCircle
 10
-525.292921890923
 20
542.9000288670704
 30
0.0
 40
0.5000044538749016
100
AcDbArc
 50
225.0015094725322
 51
270.003372956501
  0
LINE
  5
987D
330
3E7
100
AcDbEntity
  8
DETAIL
  6
CONTINUOUS
100
AcDbLine
 10
-525.6464691162181
 20
542.5464630126953
 30
0.0
 11
-527.7071075439562
 21
544.6071319580096
 31
0.0
  0
LINE
  5
987E
330
3E7
100
AcDbEntity
  8
DETAIL
  6
CONTINUOUS
100
AcDbLine
 10
-528.0000152587854
 20
547.2000274658194
 30
0.0
 11
-528.0000152587854
 21
545.314239501954
 31
0.0
  0
LINE
  5
9881
330
3E7
100
AcDbEntity
  8
DETAIL
  6
CONTINUOUS
100
AcDbLine
 10
-526.5473480224682
 20
549.1236724853524
 30
0.0
 11
-525.7275848388781
 21
549.2000274658221
 31
0.0
  0
LINE
  5
9887
330
3E7
100
AcDbEntity
  8
DETAIL
  6
CONTINUOUS
100
AcDbLine
 10
-280.0
 20
184.0000305175772
 30
0.0
 11
-280.0
 21
26.99999999999818
 31
0.0
  0
LINE
  5
98C6
330
3E7
100
AcDbEntity
  8
DETAIL
  6
CONTINUOUS
100
AcDbLine
 10
-280.0
 20
55.0
 30
0.0
 11
-256.4999999999963
 21
55.0
 31
0.0
  0
LINE
  5
98C7
330
3E7
100
AcDbEntity
  8
DETAIL
  6
CONTINUOUS
100
AcDbLine
 10
-253.4999999999981
 20
201.0000305175781
 30
0.0
 11
-253.5000000000036
 21
57.99999999999727
 31
0.0
  0
LINE
  5
98C8
330
3E7
100
AcDbEntity
  8
DETAIL
  6
CONTINUOUS
100
AcDbLine
 10
-281.0000000000036
 20
25.99999999999909
 30
0.0
 11
-281.0000000000036
 21
26.99999999999818
 31
0.0
  0
LINE
  5
98C9
330
3E7
100
AcDbEntity
  8
DETAIL
  6
CONTINUOUS
100
AcDbLine
 10
-280.0
 20
26.99999999999818
 30
0.0
 11
-281.0000000000036
 21
26.99999999999818
 31
0.0
  0
LINE
  5
98CC
330
3E7
100
AcDbEntity
  8
DETAIL
  6
CONTINUOUS
100
AcDbLine
 10
-273.9000091552771
 20
82.30004882812409
 30
0.0
 11
-273.9000091552771
 21
85.3000488281259
 31
0.0
  0
LINE
  5
98CF
330
3E7
100
AcDbEntity
  8
DETAIL
  6
CONTINUOUS
100
AcDbLine
 10
-271.0000000000036
 20
88.20001220703034
 30
0.0
 11
-253.5000000000036
 21
88.20001220703034
 31
0.0
  0
LINE
  5
98D0
330
3E7
100
AcDbEntity
  8
DETAIL
  6
CONTINUOUS
100
AcDbLine
 10
-271.0000000000036
 20
79.4000244140625
 30
0.0
 11
-253.5000000000036
 21
79.4000244140625
 31
0.0
  0
ARC
  5
98F3
330
3E7
100
AcDbEntity
  8
DETAIL
  6
CONTINUOUS
100
AcDbCircle
 10
-256.5000149693878
 20
58.00001496937511
 30
0.0
 40
3.000014969413826
100
AcDbArc
 50
270.0002858926505
 51
359.9997141074016
  0
ARC
  5
98F4
330
3E7
100
AcDbEntity
  8
DETAIL
  6
CONTINUOUS
100
AcDbCircle
 10
-271.0000109706561
 20
82.30002259878347
 30
0.0
 40
2.89999818474068
100
AcDbArc
 50
179.9994817822209
 51
270.0002167490747
  0
ARC
  5
98F5
330
3E7
100
AcDbEntity
  8
DETAIL
  6
CONTINUOUS
100
AcDbCircle
 10
-271.0000134436086
 20
85.30001649520272
 30
0.0
 40
2.899995711856558
100
AcDbArc
 50
89.99973439218591
 51
179.9993611922171
  0
LINE
  5
98F6
330
3E7
100
AcDbEntity
  8
DETAIL
  6
CONTINUOUS
100
AcDbLine
 10
-382.230178833015
 20
204.0000305175772
 30
0.0
 11
-281.0000000000036
 21
204.0000305175772
 31
0.0
  0
ARC
  5
9930
330
3E7
100
AcDbEntity
  8
DETAIL
  6
CONTINUOUS
100
AcDbCircle
 10
-264.2000002894747
 20
174.0000119175601
 30
0.0
 40
2.999988082461666
100
AcDbArc
 50
359.9997723904284
 51
90.00022760957159
  0
ARC
  5
9931
330
3E7
100
AcDbEntity
  8
DETAIL
  6
CONTINUOUS
100
AcDbCircle
 10
-270.2000002894419
 20
159.5000119175983
 30
0.0
 40
1.500011917648228
100
AcDbArc
 50
180.0004552151827
 51
269.9995447848172
  0
ARC
  5
9932
330
3E7
100
AcDbEntity
  8
DETAIL
  6
CONTINUOUS
100
AcDbCircle
 10
-264.2000210729201
 20
161.0000088658762
 30
0.0
 40
3.000008865892508
100
AcDbArc
 50
270.0001693253462
 51
359.9998306746797
  0
ARC
  5
9933
330
3E7
100
AcDbEntity
  8
DETAIL
  6
CONTINUOUS
100
AcDbCircle
 10
-270.1999932656035
 20
175.4999999999995
 30
0.0
 40
1.500000000116864
100
AcDbArc
 50
90.00072350931278
 51
269.9992764903398
  0
ARC
  5
9934
330
3E7
100
AcDbEntity
  8
DETAIL
  6
CONTINUOUS
100
AcDbCircle
 10
-270.2000078851597
 20
162.5000222359358
 30
0.0
 40
1.500004322047839
100
AcDbArc
 50
97.66228240267814
 51
180.0008493478481
  0
LINE
  5
9935
330
3E7
100
AcDbEntity
  8
DETAIL
  6
CONTINUOUS
100
AcDbLine
 10
-270.2000122070421
 20
157.9999999999972
 30
0.0
 11
-264.2000122070385
 21
157.9999999999972
 31
0.0
  0
LINE
  5
9936
330
3E7
100
AcDbEntity
  8
DETAIL
  6
CONTINUOUS
100
AcDbLine
 10
-270.2000122070421
 20
174.0000000000009
 30
0.0
 11
-269.4000091552879
 21
174.0000000000009
 31
0.0
  0
LINE
  5
9937
330
3E7
100
AcDbEntity
  8
DETAIL
  6
CONTINUOUS
100
AcDbLine
 10
-270.2000122070421
 20
164.0000000000009
 30
0.0
 11
-269.4000091552879
 21
164.0000000000009
 31
0.0
  0
LINE
  5
9938
330
3E7
100
AcDbEntity
  8
DETAIL
  6
CONTINUOUS
100
AcDbLine
 10
-269.4000091552879
 20
163.499999999999
 30
0.0
 11
-269.4000091552879
 21
162.9999999999972
 31
0.0
  0
LINE
  5
9939
330
3E7
100
AcDbEntity
  8
DETAIL
  6
CONTINUOUS
100
AcDbLine
 10
-270.2000122070421
 20
163.499999999999
 30
0.0
 11
-270.2000122070421
 21
162.9999999999972
 31
0.0
  0
LINE
  5
993A
330
3E7
100
AcDbEntity
  8
DETAIL
  6
CONTINUOUS
100
AcDbLine
 10
-269.4000091552879
 20
162.9999999999972
 30
0.0
 11
-270.2000122070421
 21
162.9999999999972
 31
0.0
  0
LINE
  5
993B
330
3E7
100
AcDbEntity
  8
DETAIL
  6
CONTINUOUS
100
AcDbLine
 10
-270.2000122070421
 20
164.0000000000009
 30
0.0
 11
-270.2000122070421
 21
163.499999999999
 31
0.0
  0
LINE
  5
993C
330
3E7
100
AcDbEntity
  8
DETAIL
  6
CONTINUOUS
100
AcDbLine
 10
-269.4000091552879
 20
164.0000000000009
 30
0.0
 11
-269.4000091552879
 21
163.499999999999
 31
0.0
  0
LINE
  5
993D
330
3E7
100
AcDbEntity
  8
DETAIL
  6
CONTINUOUS
100
AcDbLine
 10
-270.2000122070421
 20
164.0000000000009
 30
0.0
 11
-270.2998352050781
 21
163.9967041015597
 31
0.0
  0
LINE
  5
993E
330
3E7
100
AcDbEntity
  8
DETAIL
  6
CONTINUOUS
100
AcDbLine
 10
-270.2998352050781
 20
163.9967041015597
 30
0.0
 11
-270.4000091552734
 21
163.9866333007785
 31
0.0
  0
LINE
  5
9941
330
3E7
100
AcDbEntity
  8
DETAIL
  6
CONTINUOUS
100
AcDbLine
 10
-261.2000122070276
 20
160.999999999999
 30
0.0
 11
-261.2000122070276
 21
174.0000000000009
 31
0.0
  0
LINE
  5
9942
330
3E7
100
AcDbEntity
  8
DETAIL
  6
CONTINUOUS
100
AcDbLine
 10
-269.4000091552879
 20
164.0000000000009
 30
0.0
 11
-269.4000091552879
 21
174.0000000000009
 31
0.0
  0
LINE
  5
9943
330
3E7
100
AcDbEntity
  8
DETAIL
  6
CONTINUOUS
100
AcDbLine
 10
-264.2000122070385
 20
176.9999999999981
 30
0.0
 11
-270.2000122070421
 21
176.9999999999981
 31
0.0
  0
LINE
  5
9944
330
3E7
100
AcDbEntity
  8
DETAIL
  6
CONTINUOUS
100
AcDbLine
 10
-271.7000122070385
 20
162.5
 30
0.0
 11
-271.7000122070385
 21
159.4999999999981
 31
0.0
  0
ARC
  5
9945
330
3E7
100
AcDbEntity
  8
DETAIL
  6
CONTINUOUS
100
AcDbCircle
 10
-281.0000096956173
 20
184.0000208219635
 30
0.0
 40
1.000009695662064
100
AcDbArc
 50
0.0005555124294848
 51
89.99944448757053
  0
ARC
  5
9946
330
3E7
100
AcDbEntity
  8
DETAIL
  6
CONTINUOUS
100
AcDbCircle
 10
-256.5000095686627
 20
201.0000209489135
 30
0.0
 40
3.000009568679187
100
AcDbArc
 50
0.0001827474506624
 51
89.99981725252329
  0
LINE
  5
9948
330
3E7
100
AcDbEntity
  8
DETAIL
  6
CONTINUOUS
100
AcDbLine
 10
-256.4999999999963
 20
204.0000305175772
 30
0.0
 11
-281.2000122066947
 21
204.0000305175772
 31
0.0
  0
LINE
  5
9949
330
3E7
100
AcDbEntity
  8
DETAIL
  6
CONTINUOUS
100
AcDbLine
 10
-280.0
 20
204.0000305175772
 30
0.0
 11
-280.0
 21
184.0000305175772
 31
0.0
  0
LINE
  5
9976
330
3E7
100
AcDbEntity
  8
DETAIL
  6
CONTINUOUS
100
AcDbLine
 10
525.0000152587927
 20
542.4000244140597
 30
0.0
 11
525.0000152587927
 21
26.99999999999818
 31
0.0
  0
LINE
  5
997B
330
3E7
100
AcDbEntity
  8
DETAIL
  6
CONTINUOUS
100
AcDbLine
 10
490.7000274658094
 20
85.29998779296875
 30
0.0
 11
490.7000274658094
 21
97.29998779296693
 31
0.0
  0
ARC
  5
997C
330
3E7
100
AcDbEntity
  8
DETAIL
  6
CONTINUOUS
100
AcDbCircle
 10
488.2214314685988
 20
75.25989672412015
 30
0.0
 40
2.460002048960841
100
AcDbArc
 50
269.5014741963917
 51
27.637140566005
  0
ARC
  5
997D
330
3E7
100
AcDbEntity
  8
DETAIL
  6
CONTINUOUS
100
AcDbCircle
 10
523.9999926600285
 20
27.00002259874963
 30
0.0
 40
1.000022599007712
100
AcDbArc
 50
270.0012947838991
 51
359.9987052161269
  0
LINE
  5
997E
330
3E7
100
AcDbEntity
  8
DETAIL
  6
CONTINUOUS
100
AcDbLine
 10
486.0000152587781
 20
72.79998779296875
 30
0.0
 11
486.0000152587781
 21
73.84946594494931
 31
0.0
  0
LINE
  5
997F
330
3E7
100
AcDbEntity
  8
DETAIL
  6
CONTINUOUS
100
AcDbLine
 10
485.2000274658166
 20
72.79998779296875
 30
0.0
 11
485.2000274658166
 21
73.800048828125
 31
0.0
  0
LINE
  5
9980
330
3E7
100
AcDbEntity
  8
DETAIL
  6
CONTINUOUS
100
AcDbLine
 10
487.6372222900317
 20
77.79998779296875
 30
0.0
 11
485.2000274658166
 21
77.79998779296875
 31
0.0
  0
LINE
  5
9981
330
3E7
100
AcDbEntity
  8
DETAIL
  6
CONTINUOUS
100
AcDbLine
 10
485.2000274658166
 20
82.79998779296875
 30
0.0
 11
487.6373443603552
 21
82.79998779296875
 31
0.0
  0
LINE
  5
9982
330
3E7
100
AcDbEntity
  8
DETAIL
  6
CONTINUOUS
100
AcDbLine
 10
485.2000274658166
 20
72.79998779296875
 30
0.0
 11
488.2000274658094
 21
72.79998779296875
 31
0.0
  0
LINE
  5
9985
330
3E7
100
AcDbEntity
  8
DETAIL
  6
CONTINUOUS
100
AcDbLine
 10
485.2000274658166
 20
57.40002441405977
 30
0.0
 11
486.2000274658202
 21
57.40002441405977
 31
0.0
  0
LINE
  5
9988
330
3E7
100
AcDbEntity
  8
DETAIL
  6
CONTINUOUS
100
AcDbLine
 10
485.2000274658166
 20
57.40002441405977
 30
0.0
 11
485.2000274658166
 21
72.79998779296875
 31
0.0
  0
LINE
  5
998A
330
3E7
100
AcDbEntity
  8
DETAIL
  6
CONTINUOUS
100
AcDbLine
 10
486.2000274658202
 20
25.99999999999909
 30
0.0
 11
486.2000274658202
 21
57.40002441405977
 31
0.0
  0
LINE
  5
998C
330
3E7
100
AcDbEntity
  8
DETAIL
  6
CONTINUOUS
100
AcDbLine
 10
485.2000274658166
 20
77.79998779296875
 30
0.0
 11
485.2000274658166
 21
82.79998779296875
 31
0.0
  0
LINE
  5
998D
330
3E7
100
AcDbEntity
  8
DETAIL
  6
CONTINUOUS
100
AcDbLine
 10
490.4073912813728
 20
84.19021104879403
 30
0.0
 11
490.5097198486328
 21
84.34332275390261
 31
0.0
  0
LINE
  5
998E
330
3E7
100
AcDbEntity
  8
DETAIL
  6
CONTINUOUS
100
AcDbLine
 10
490.5097198486328
 20
84.34332275390261
 30
0.0
 11
490.7000274658094
 21
85.29998779296875
 31
0.0
  0
LINE
  5
998F
330
3E7
100
AcDbEntity
  8
DETAIL
  6
CONTINUOUS
100
AcDbLine
 10
485.2000274658166
 20
76.80004882812227
 30
0.0
 11
485.2000274658166
 21
77.79998779296875
 31
0.0
  0
LINE
  5
9990
330
3E7
100
AcDbEntity
  8
DETAIL
  6
CONTINUOUS
100
AcDbLine
 10
486.0000152587781
 20
76.95916748046784
 30
0.0
 11
486.0000152587781
 21
77.79998779296875
 31
0.0
  0
LINE
  5
9991
330
3E7
100
AcDbEntity
  8
DETAIL
  6
CONTINUOUS
100
AcDbLine
 10
524.000015258789
 20
25.99999999999909
 30
0.0
 11
486.2000274658202
 21
25.99999999999909
 31
0.0
  0
LINE
  5
99B2
330
3E7
100
AcDbEntity
  8
DETAIL
  6
CONTINUOUS
100
AcDbLine
 10
526.3000030517469
 20
39.60498046874818
 30
0.0
 11
526.3000030517469
 21
49.35565185546693
 31
0.0
  0
LINE
  5
99B3
330
3E7
100
AcDbEntity
  8
DETAIL
  6
CONTINUOUS
100
AcDbLine
 10
529.8000030517505
 20
40.99999999999909
 30
0.0
 11
529.8000030517505
 21
47.99999999999727
 31
0.0
  0
LINE
  5
99B4
330
3E7
100
AcDbEntity
  8
DETAIL
  6
CONTINUOUS
100
AcDbLine
 10
525.5000152587854
 20
38.49999999999909
 30
0.0
 11
525.5000152587854
 21
50.49999999999727
 31
0.0
  0
LINE
  5
99B9
330
3E7
100
AcDbEntity
  8
DETAIL
  6
CONTINUOUS
100
AcDbLine
 10
525.0000152587927
 20
38.49999999999909
 30
0.0
 11
525.0000152587927
 21
50.49999999999727
 31
0.0
  0
LINE
  5
99C2
330
3E7
100
AcDbEntity
  8
DETAIL
  6
CONTINUOUS
100
AcDbLine
 10
529.1540679931677
 20
39.88122558593659
 30
0.0
 11
526.3000030517469
 21
39.88122558593659
 31
0.0
  0
LINE
  5
99C7
330
3E7
100
AcDbEntity
  8
DETAIL
  6
CONTINUOUS
100
AcDbLine
 10
529.1540679931677
 20
42.19061279296965
 30
0.0
 11
526.3000030517469
 21
42.19061279296965
 31
0.0
  0
LINE
  5
99C8
330
3E7
100
AcDbEntity
  8
DETAIL
  6
CONTINUOUS
100
AcDbLine
 10
529.1540679931677
 20
49.11883544921693
 30
0.0
 11
526.3000030517469
 21
49.11883544921693
 31
0.0
  0
LINE
  5
99D5
330
3E7
100
AcDbEntity
  8
DETAIL
  6
CONTINUOUS
100
AcDbLine
 10
529.1540679931677
 20
46.8094482421884
 30
0.0
 11
526.3000030517469
 21
46.80944824218795
 31
0.0
  0
LINE
  5
99D6
330
3E7
100
AcDbEntity
  8
DETAIL
  6
CONTINUOUS
100
AcDbLine
 10
526.3000030517469
 20
49.35565185546693
 30
0.0
 11
526.2865753173719
 21
49.43505859374909
 31
0.0
  0
LINE
  5
99D7
330
3E7
100
AcDbEntity
  8
DETAIL
  6
CONTINUOUS
100
AcDbLine
 10
526.2865753173719
 20
49.43505859374909
 30
0.0
 11
526.2634429931677
 21
49.45361328124818
 31
0.0
  0
LINE
  5
99D8
330
3E7
100
AcDbEntity
  8
DETAIL
  6
CONTINUOUS
100
AcDbLine
 10
526.2634429931677
 20
49.45361328124818
 30
0.0
 11
526.2500152587927
 21
49.47155761718477
 31
0.0
  0
LINE
  5
99D9
330
3E7
100
AcDbEntity
  8
DETAIL
  6
CONTINUOUS
100
AcDbLine
 10
526.1999664306677
 20
39.49999999999818
 30
0.0
 11
526.2500152587927
 21
39.52850341796875
 31
0.0
  0
LINE
  5
99DA
330
3E7
100
AcDbEntity
  8
DETAIL
  6
CONTINUOUS
100
AcDbLine
 10
526.2500152587927
 20
39.52850341796875
 30
0.0
 11
526.2806549072229
 21
39.55554199218568
 31
0.0
  0
LINE
  5
99DB
330
3E7
100
AcDbEntity
  8
DETAIL
  6
CONTINUOUS
100
AcDbLine
 10
526.2806549072229
 20
39.55554199218568
 30
0.0
 11
526.2865753173719
 21
39.56500244140443
 31
0.0
  0
LINE
  5
99DC
330
3E7
100
AcDbEntity
  8
DETAIL
  6
CONTINUOUS
100
AcDbLine
 10
526.2865753173719
 20
39.56500244140443
 30
0.0
 11
526.3000030517469
 21
39.60498046874818
 31
0.0
  0
LINE
  5
99DD
330
3E7
100
AcDbEntity
  8
DETAIL
  6
CONTINUOUS
100
AcDbLine
 10
526.2500152587927
 20
49.47155761718477
 30
0.0
 11
526.1999664306677
 21
49.49999999999818
 31
0.0
  0
LINE
  5
99DE
330
3E7
100
AcDbEntity
  8
DETAIL
  6
CONTINUOUS
100
AcDbLine
 10
529.1540679931677
 20
49.11883544921693
 30
0.0
 11
529.8000030517505
 21
47.99999999999727
 31
0.0
  0
LINE
  5
99DF
330
3E7
100
AcDbEntity
  8
DETAIL
  6
CONTINUOUS
100
AcDbLine
 10
529.1540679931677
 20
39.88122558593659
 30
0.0
 11
529.8000030517505
 21
40.99999999999909
 31
0.0
  0
LINE
  5
99E0
330
3E7
100
AcDbEntity
  8
DETAIL
  6
CONTINUOUS
100
AcDbLine
 10
526.1999664306677
 20
39.49999999999818
 30
0.0
 11
525.5000152587854
 21
39.49999999999818
 31
0.0
  0
LINE
  5
99E1
330
3E7
100
AcDbEntity
  8
DETAIL
  6
CONTINUOUS
100
AcDbLine
 10
526.1999664306677
 20
49.49999999999818
 30
0.0
 11
525.5000152587854
 21
49.49999999999818
 31
0.0
  0
LINE
  5
99E2
330
3E7
100
AcDbEntity
  8
DETAIL
  6
CONTINUOUS
100
AcDbLine
 10
525.5000152587854
 20
38.49999999999909
 30
0.0
 11
525.0000152587927
 21
38.49999999999909
 31
0.0
  0
LINE
  5
99E3
330
3E7
100
AcDbEntity
  8
DETAIL
  6
CONTINUOUS
100
AcDbLine
 10
525.5000152587854
 20
50.49999999999727
 30
0.0
 11
525.0000152587927
 21
50.49999999999727
 31
0.0
  0
ARC
  5
99E4
330
3E7
100
AcDbEntity
  8
DETAIL
  6
CONTINUOUS
100
AcDbCircle
 10
488.2000256502578
 20
97.29998597740632
 30
0.0
 40
2.500001815561665
100
AcDbArc
 50
0.0000416095841274
 51
89.99995839041586
  0
LINE
  5
99E5
330
3E7
100
AcDbEntity
  8
DETAIL
  6
CONTINUOUS
100
AcDbLine
 10
488.2000274658094
 20
99.79998779296693
 30
0.0
 11
485.2000274658166
 21
99.79998779296693
 31
0.0
  0
ARC
  5
9A67
330
3E7
100
AcDbEntity
  8
DETAIL
  6
CONTINUOUS
100
AcDbCircle
 10
501.9999936069871
 20
554.4000180210105
 30
0.0
 40
5.199990555233747
100
AcDbArc
 50
179.9999295585152
 51
270.0002385690778
  0
ARC
  5
9A68
330
3E7
100
AcDbEntity
  8
DETAIL
  6
CONTINUOUS
100
AcDbCircle
 10
502.0000012363562
 20
554.4000103916369
 30
0.0
 40
11.99998597757992
100
AcDbArc
 50
179.9999330477626
 51
270.0000669522373
  0
ARC
  5
9A69
330
3E7
100
AcDbEntity
  8
DETAIL
  6
CONTINUOUS
100
AcDbCircle
 10
525.9999997104569
 20
547.2000119174845
 30
0.0
 40
2.000015548396233
100
AcDbArc
 50
0.0004454235444505
 51
89.99955457642951
  0
ARC
  5
9A6A
330
3E7
100
AcDbEntity
  8
DETAIL
  6
CONTINUOUS
100
AcDbCircle
 10
527.0000010983494
 20
545.3142591007872
 30
0.0
 40
1.000014160623244
100
AcDbArc
 50
314.9991614809717
 51
359.9988770853893
  0
ARC
  5
9A6B
330
3E7
100
AcDbEntity
  8
DETAIL
  6
CONTINUOUS
100
AcDbCircle
 10
525.2928931606947
 20
542.9000245514862
 30
0.0
 40
0.5000001383990286
100
AcDbArc
 50
269.9964221980628
 51
314.9986953727129
  0
LINE
  5
9A6F
330
3E7
100
AcDbEntity
  8
DETAIL
  6
CONTINUOUS
100
AcDbLine
 10
526.0000152587781
 20
549.2000274658221
 30
0.0
 11
502.0000152587926
 21
549.2000274658217
 31
0.0
  0
LINE
  5
9A70
330
3E7
100
AcDbEntity
  8
DETAIL
  6
CONTINUOUS
100
AcDbLine
 10
525.2928619384692
 20
542.4000244140643
 30
0.0
 11
502.0000152587853
 21
542.4000244140652
 31
0.0
  0
LINE
  5
9A73
330
3E7
100
AcDbEntity
  8
DETAIL
  6
CONTINUOUS
100
AcDbLine
 10
525.6464385986328
 20
542.5464630126953
 30
0.0
 11
527.707107543938
 21
544.6071319580096
 31
0.0
  0
LINE
  5
9A74
330
3E7
100
AcDbEntity
  8
DETAIL
  6
CONTINUOUS
100
AcDbLine
 10
528.0000152587854
 20
547.2000274658194
 30
0.0
 11
528.0000152587854
 21
545.314239501954
 31
0.0
  0
LINE
  5
9AAA
330
3E7
100
AcDbEntity
  8
DETAIL
  6
CONTINUOUS
100
AcDbLine
 10
-524.0000152521479
 20
1317.599975585934
 30
0.0
 11
486.2000274658202
 21
1317.600036621092
 31
0.0
  0
ARC
  5
9AAB
330
3E7
100
AcDbEntity
  8
DETAIL
  6
CONTINUOUS
100
AcDbCircle
 10
-460.0000140223165
 20
599.4000256505387
 30
0.0
 40
11.99999876352201
100
AcDbArc
 50
359.9999940962522
 51
90.00000590377389
  0
ARC
  5
9AAC
330
3E7
100
AcDbEntity
  8
DETAIL
  6
CONTINUOUS
100
AcDbCircle
 10
-460.000006392911
 20
599.4000180211514
 30
0.0
 40
5.200003341159865
100
AcDbArc
 50
0.0000704397129792
 51
90.00009768788014
  0
LINE
  5
9AAD
330
3E7
100
AcDbEntity
  8
DETAIL
  6
CONTINUOUS
100
AcDbLine
 10
-460.0000152587872
 20
604.6000213623037
 30
0.0
 11
-526.0000152587963
 21
604.6000213623028
 31
0.0
  0
LINE
  5
9AAE
330
3E7
100
AcDbEntity
  8
DETAIL
  6
CONTINUOUS
100
AcDbLine
 10
-460.0000152587999
 20
611.4000244140607
 30
0.0
 11
-525.2928924560547
 21
611.4000244140652
 31
0.0
  0
ARC
  5
9AAF
330
3E7
100
AcDbEntity
  8
DETAIL
  6
CONTINUOUS
100
AcDbCircle
 10
-526.0000124964608
 20
606.600024124632
 30
0.0
 40
2.000002762331039
100
AcDbArc
 50
180.0000791347701
 51
269.9999208652298
  0
ARC
  5
9AB0
330
3E7
100
AcDbEntity
  8
DETAIL
  6
CONTINUOUS
100
AcDbCircle
 10
-527.000014160385
 20
608.4857951380627
 30
0.0
 40
1.000001098514564
100
AcDbArc
 50
134.9988514841978
 51
179.9991870821897
  0
ARC
  5
9AB1
330
3E7
100
AcDbEntity
  8
DETAIL
  6
CONTINUOUS
100
AcDbCircle
 10
-525.292906300001
 20
610.9000191572886
 30
0.0
 40
0.5000052569682527
100
AcDbArc
 50
89.99841361800784
 51
135.0009250810578
  0
LINE
  5
9AB2
330
3E7
100
AcDbEntity
  8
DETAIL
  6
CONTINUOUS
100
AcDbLine
 10
-528.0000152587854
 20
608.485809326171
 30
0.0
 11
-528.0000152587854
 21
606.6000213623055
 31
0.0
  0
LINE
  5
9AB4
330
3E7
100
AcDbEntity
  8
DETAIL
  6
CONTINUOUS
100
AcDbLine
 10
-525.6464691162181
 20
611.2535705566415
 30
0.0
 11
-527.7071075439562
 21
609.1929168701153
 31
0.0
  0
LINE
  5
9AF7
330
3E7
100
AcDbEntity
  8
DETAIL
  6
CONTINUOUS
100
AcDbLine
 10
-525.0000152587944
 20
1333.000000000002
 30
0.0
 11
-525.0000152587927
 21
1319.100036621093
 31
0.0
  0
ARC
  5
9AF9
330
3E7
100
AcDbEntity
  8
DETAIL
  6
CONTINUOUS
100
AcDbCircle
 10
-523.5000027475689
 20
1319.100009684757
 30
0.0
 40
1.500012511455835
100
AcDbArc
 50
179.9989711163314
 51
239.9997240954749
  0
LINE
  5
9AFF
330
3E7
100
AcDbEntity
  8
DETAIL
  6
CONTINUOUS
100
AcDbLine
 10
-524.0000152521479
 20
1317.599975585934
 30
0.0
 11
-524.2500152587854
 21
1317.800964355469
 31
0.0
  0
ARC
  5
9B04
330
3E7
100
AcDbEntity
  8
DETAIL
  6
CONTINUOUS
100
AcDbCircle
 10
-520.0000042882074
 20
1332.999989029414
 30
0.0
 40
5.000010970599971
100
AcDbArc
 50
90.00012571337526
 51
179.9998742865986
  0
LINE
  5
9B0D
330
3E7
100
AcDbEntity
  8
DETAIL
  6
CONTINUOUS
100
AcDbLine
 10
-435.8000030517541
 20
1323.981201171877
 30
0.0
 11
-439.8000030517687
 21
1326.290649414063
 31
0.0
  0
LINE
  5
9B0E
330
3E7
100
AcDbEntity
  8
DETAIL
  6
CONTINUOUS
100
AcDbLine
 10
-431.8000030517578
 20
1326.290649414063
 30
0.0
 11
-435.8000030517541
 21
1323.981201171877
 31
0.0
  0
ARC
  5
9B10
330
3E7
100
AcDbEntity
  8
DETAIL
  6
CONTINUOUS
100
AcDbCircle
 10
-436.8000140223739
 20
1327.600025650476
 30
0.0
 40
0.5000109707383019
100
AcDbArc
 50
0.0012571125700148
 51
89.99874288740391
  0
ARC
  5
9B11
330
3E7
100
AcDbEntity
  8
DETAIL
  6
CONTINUOUS
100
AcDbCircle
 10
-434.7999981845714
 20
1327.600031753904
 30
0.0
 40
0.5000048672136898
100
AcDbArc
 50
90.00055773347074
 51
179.9994422665292
  0
ARC
  5
9B12
330
3E7
100
AcDbEntity
  8
DETAIL
  6
CONTINUOUS
100
AcDbCircle
 10
-436.7999981848152
 20
1329.600031754144
 30
0.0
 40
0.4999951330742486
100
AcDbArc
 50
269.9994422832045
 51
0.0005577167433892
  0
ARC
  5
9B13
330
3E7
100
AcDbEntity
  8
DETAIL
  6
CONTINUOUS
100
AcDbCircle
 10
-434.8000140223303
 20
1329.600025650525
 30
0.0
 40
0.499989029550382
100
AcDbArc
 50
179.9987428377168
 51
270.0012571623092
  0
LINE
  5
9B15
330
3E7
100
AcDbEntity
  8
DETAIL
  6
CONTINUOUS
100
AcDbLine
 10
-439.8000030517687
 20
1326.290649414063
 30
0.0
 11
-439.8000030517687
 21
1330.909423828125
 31
0.0
  0
LINE
  5
9B16
330
3E7
100
AcDbEntity
  8
DETAIL
  6
CONTINUOUS
100
AcDbLine
 10
-436.3000030517651
 20
1327.600036621097
 30
0.0
 11
-436.3000030517651
 21
1326.150024414064
 31
0.0
  0
LINE
  5
9B17
330
3E7
100
AcDbEntity
  8
DETAIL
  6
CONTINUOUS
100
AcDbLine
 10
-438.2500152588
 20
1328.100036621094
 30
0.0
 11
-436.8000030517578
 21
1328.100036621094
 31
0.0
  0
LINE
  5
9B18
330
3E7
100
AcDbEntity
  8
DETAIL
  6
CONTINUOUS
100
AcDbLine
 10
-436.5179595947302
 20
1329.187194824221
 30
0.0
 11
-436.5179595947302
 21
1328.012878417971
 31
0.0
  0
LINE
  5
9B19
330
3E7
100
AcDbEntity
  8
DETAIL
  6
CONTINUOUS
100
AcDbLine
 10
-435.2128753662145
 20
1327.882080078125
 30
0.0
 11
-436.3871612548791
 21
1327.882080078125
 31
0.0
  0
LINE
  5
9B1A
330
3E7
100
AcDbEntity
  8
DETAIL
  6
CONTINUOUS
100
AcDbLine
 10
-435.3000030517614
 20
1326.150024414064
 30
0.0
 11
-436.3000030517651
 21
1326.150024414064
 31
0.0
  0
LINE
  5
9B1B
330
3E7
100
AcDbEntity
  8
DETAIL
  6
CONTINUOUS
100
AcDbLine
 10
-438.2500152588
 20
1328.100036621094
 30
0.0
 11
-438.2500152588
 21
1329.100036621093
 31
0.0
  0
LINE
  5
9B1D
330
3E7
100
AcDbEntity
  8
DETAIL
  6
CONTINUOUS
100
AcDbLine
 10
-431.8000030517578
 20
1330.909423828125
 30
0.0
 11
-431.8000030517578
 21
1326.290649414063
 31
0.0
  0
LINE
  5
9B1E
330
3E7
100
AcDbEntity
  8
DETAIL
  6
CONTINUOUS
100
AcDbLine
 10
-434.8000030517687
 20
1328.100036621094
 30
0.0
 11
-433.3500213623119
 21
1328.100036621094
 31
0.0
  0
LINE
  5
9B1F
330
3E7
100
AcDbEntity
  8
DETAIL
  6
CONTINUOUS
100
AcDbLine
 10
-435.3000030517614
 20
1326.150024414064
 30
0.0
 11
-435.3000030517614
 21
1327.600036621097
 31
0.0
  0
LINE
  5
9B20
330
3E7
100
AcDbEntity
  8
DETAIL
  6
CONTINUOUS
100
AcDbLine
 10
-435.0820465087963
 20
1329.187194824221
 30
0.0
 11
-435.0820465087963
 21
1328.012878417971
 31
0.0
  0
LINE
  5
9B21
330
3E7
100
AcDbEntity
  8
DETAIL
  6
CONTINUOUS
100
AcDbLine
 10
-433.3500213623119
 20
1329.100036621093
 30
0.0
 11
-433.3500213623119
 21
1328.100036621094
 31
0.0
  0
LINE
  5
9B23
330
3E7
100
AcDbEntity
  8
DETAIL
  6
CONTINUOUS
100
AcDbLine
 10
-439.8000030517687
 20
1330.909423828125
 30
0.0
 11
-435.8000030517541
 21
1333.218811035158
 31
0.0
  0
LINE
  5
9B25
330
3E7
100
AcDbEntity
  8
DETAIL
  6
CONTINUOUS
100
AcDbLine
 10
-436.8000030517578
 20
1329.100036621093
 30
0.0
 11
-438.2500152588
 21
1329.100036621093
 31
0.0
  0
LINE
  5
9B26
330
3E7
100
AcDbEntity
  8
DETAIL
  6
CONTINUOUS
100
AcDbLine
 10
-436.3000030517651
 20
1331.050048828128
 30
0.0
 11
-436.3000030517651
 21
1329.600036621095
 31
0.0
  0
LINE
  5
9B27
330
3E7
100
AcDbEntity
  8
DETAIL
  6
CONTINUOUS
100
AcDbLine
 10
-435.2128753662145
 20
1329.317993164063
 30
0.0
 11
-436.3871612548791
 21
1329.317993164063
 31
0.0
  0
LINE
  5
9B28
330
3E7
100
AcDbEntity
  8
DETAIL
  6
CONTINUOUS
100
AcDbLine
 10
-436.3000030517651
 20
1331.050048828128
 30
0.0
 11
-435.3000030517614
 21
1331.050048828128
 31
0.0
  0
LINE
  5
9B29
330
3E7
100
AcDbEntity
  8
DETAIL
  6
CONTINUOUS
100
AcDbLine
 10
-435.8000030517541
 20
1333.218811035158
 30
0.0
 11
-431.8000030517578
 21
1330.909423828125
 31
0.0
  0
LINE
  5
9B2B
330
3E7
100
AcDbEntity
  8
DETAIL
  6
CONTINUOUS
100
AcDbLine
 10
-434.8000030517687
 20
1329.100036621093
 30
0.0
 11
-433.3500213623119
 21
1329.100036621093
 31
0.0
  0
LINE
  5
9B2C
330
3E7
100
AcDbEntity
  8
DETAIL
  6
CONTINUOUS
100
AcDbLine
 10
-435.3000030517614
 20
1329.600036621095
 30
0.0
 11
-435.3000030517614
 21
1331.050048828128
 31
0.0
  0
LINE
  5
9B2D
330
3E7
100
AcDbEntity
  8
DETAIL
  6
CONTINUOUS
100
AcDbLine
 10
-210.4667663574218
 20
1266.900024414062
 30
0.0
 11
-210.4667663574218
 21
1272.900024414061
 31
0.0
  0
LINE
  5
9B2E
330
3E7
100
AcDbEntity
  8
DETAIL
  6
CONTINUOUS
100
AcDbLine
 10
-213.3500061035192
 20
1298.400024414063
 30
0.0
 11
-215.4500122070385
 21
1298.400024414063
 31
0.0
  0
LINE
  5
9B2F
330
3E7
100
AcDbEntity
  8
DETAIL
  6
CONTINUOUS
100
AcDbLine
 10
-213.3500061035192
 20
1298.400024414063
 30
0.0
 11
-211.8500061035228
 21
1298.400024414063
 31
0.0
  0
LINE
  5
9B30
330
3E7
100
AcDbEntity
  8
DETAIL
  6
CONTINUOUS
100
AcDbLine
 10
-215.4500122070385
 20
1298.400024414063
 30
0.0
 11
-216.9500122070349
 21
1298.400024414063
 31
0.0
  0
LINE
  5
9B31
330
3E7
100
AcDbEntity
  8
DETAIL
  6
CONTINUOUS
100
AcDbLine
 10
-216.9500122070349
 20
1298.400024414063
 30
0.0
 11
-216.9500122070349
 21
1290.400024414061
 31
0.0
  0
LINE
  5
9B32
330
3E7
100
AcDbEntity
  8
DETAIL
  6
CONTINUOUS
100
AcDbLine
 10
-216.9500122070349
 20
1287.400024414064
 30
0.0
 11
-216.9500122070349
 21
1286.900024414062
 31
0.0
  0
LINE
  5
9B33
330
3E7
100
AcDbEntity
  8
DETAIL
  6
CONTINUOUS
100
AcDbLine
 10
-211.8500061035228
 20
1286.900024414062
 30
0.0
 11
-211.8500061035228
 21
1287.400024414064
 31
0.0
  0
LINE
  5
9B34
330
3E7
100
AcDbEntity
  8
DETAIL
  6
CONTINUOUS
100
AcDbLine
 10
-211.8500061035228
 20
1290.400024414061
 30
0.0
 11
-211.8500061035228
 21
1298.400024414063
 31
0.0
  0
LINE
  5
9B35
330
3E7
100
AcDbEntity
  8
DETAIL
  6
CONTINUOUS
100
AcDbLine
 10
-188.900009155277
 20
1266.900024414062
 30
0.0
 11
-190.9000091552843
 21
1266.900024414062
 31
0.0
  0
LINE
  5
9B36
330
3E7
100
AcDbEntity
  8
DETAIL
  6
CONTINUOUS
100
AcDbLine
 10
-193.900009155277
 20
1266.900024414062
 30
0.0
 11
-194.0869598388781
 21
1266.900024414062
 31
0.0
  0
LINE
  5
9B37
330
3E7
100
AcDbEntity
  8
DETAIL
  6
CONTINUOUS
100
AcDbLine
 10
-195.7130584716833
 20
1266.900024414062
 30
0.0
 11
-195.9000091552843
 21
1266.900024414062
 31
0.0
  0
LINE
  5
9B38
330
3E7
100
AcDbEntity
  8
DETAIL
  6
CONTINUOUS
100
AcDbLine
 10
-198.900009155277
 20
1266.900024414062
 30
0.0
 11
-200.9000091552843
 21
1266.900024414062
 31
0.0
  0
LINE
  5
9B39
330
3E7
100
AcDbEntity
  8
DETAIL
  6
CONTINUOUS
100
AcDbLine
 10
-203.900009155277
 20
1266.900024414062
 30
0.0
 11
-204.0869598388781
 21
1266.900024414062
 31
0.0
  0
LINE
  5
9B3A
330
3E7
100
AcDbEntity
  8
DETAIL
  6
CONTINUOUS
100
AcDbLine
 10
-205.7130584716833
 20
1266.900024414062
 30
0.0
 11
-205.9000091552843
 21
1266.900024414062
 31
0.0
  0
LINE
  5
9B3B
330
3E7
100
AcDbEntity
  8
DETAIL
  6
CONTINUOUS
100
AcDbLine
 10
-208.900009155277
 20
1266.900024414062
 30
0.0
 11
-210.4667663574218
 21
1266.900024414062
 31
0.0
  0
LINE
  5
9B3C
330
3E7
100
AcDbEntity
  8
DETAIL
  6
CONTINUOUS
100
AcDbLine
 10
-188.900009155277
 20
1272.900024414061
 30
0.0
 11
-190.9000091552843
 21
1272.900024414061
 31
0.0
  0
LINE
  5
9B3D
330
3E7
100
AcDbEntity
  8
DETAIL
  6
CONTINUOUS
100
AcDbLine
 10
-193.900009155277
 20
1272.900024414061
 30
0.0
 11
-194.0869445800854
 21
1272.900024414061
 31
0.0
  0
LINE
  5
9B3E
330
3E7
100
AcDbEntity
  8
DETAIL
  6
CONTINUOUS
100
AcDbLine
 10
-195.713073730476
 20
1272.900024414061
 30
0.0
 11
-195.9000091552843
 21
1272.900024414061
 31
0.0
  0
LINE
  5
9B3F
330
3E7
100
AcDbEntity
  8
DETAIL
  6
CONTINUOUS
100
AcDbLine
 10
-198.900009155277
 20
1272.900024414061
 30
0.0
 11
-200.9000091552843
 21
1272.900024414061
 31
0.0
  0
LINE
  5
9B40
330
3E7
100
AcDbEntity
  8
DETAIL
  6
CONTINUOUS
100
AcDbLine
 10
-203.900009155277
 20
1272.900024414061
 30
0.0
 11
-204.0869445800853
 21
1272.900024414061
 31
0.0
  0
LINE
  5
9B41
330
3E7
100
AcDbEntity
  8
DETAIL
  6
CONTINUOUS
100
AcDbLine
 10
-205.713073730476
 20
1272.900024414061
 30
0.0
 11
-205.9000091552843
 21
1272.900024414061
 31
0.0
  0
LINE
  5
9B42
330
3E7
100
AcDbEntity
  8
DETAIL
  6
CONTINUOUS
100
AcDbLine
 10
-208.900009155277
 20
1272.900024414061
 30
0.0
 11
-210.4667663574218
 21
1272.900024414061
 31
0.0
  0
LINE
  5
9B43
330
3E7
100
AcDbEntity
  8
DETAIL
  6
CONTINUOUS
100
AcDbLine
 10
-210.8949737548937
 20
1268.79638671875
 30
0.0
 11
-210.7376861572265
 21
1268.784423828124
 31
0.0
  0
LINE
  5
9B44
330
3E7
100
AcDbEntity
  8
DETAIL
  6
CONTINUOUS
100
AcDbLine
 10
-210.7376861572265
 20
1268.784423828124
 30
0.0
 11
-210.4667663574218
 21
1268.780273437501
 31
0.0
  0
LINE
  5
9B45
330
3E7
100
AcDbEntity
  8
DETAIL
  6
CONTINUOUS
100
AcDbLine
 10
-210.9000091552843
 20
1268.796813964845
 30
0.0
 11
-210.8949737548937
 21
1268.79638671875
 31
0.0
  0
LINE
  5
9B46
330
3E7
100
AcDbEntity
  8
DETAIL
  6
CONTINUOUS
100
AcDbLine
 10
-210.4667663574218
 20
1270.949096679687
 30
0.0
 11
-210.6284484863317
 21
1270.947265625
 31
0.0
  0
LINE
  5
9B47
330
3E7
100
AcDbEntity
  8
DETAIL
  6
CONTINUOUS
100
AcDbLine
 10
-210.6284484863317
 20
1270.947265625
 30
0.0
 11
-210.7699127197338
 21
1270.946716308594
 31
0.0
  0
LINE
  5
9B48
330
3E7
100
AcDbEntity
  8
DETAIL
  6
CONTINUOUS
100
AcDbLine
 10
-210.4667663574218
 20
1269.09356689453
 30
0.0
 11
-210.6108856201172
 21
1269.084594726564
 31
0.0
  0
LINE
  5
9B49
330
3E7
100
AcDbEntity
  8
DETAIL
  6
CONTINUOUS
100
AcDbLine
 10
-210.6108856201172
 20
1269.084594726564
 30
0.0
 11
-210.6905212402489
 21
1269.085510253908
 31
0.0
  0
LINE
  5
9B4A
330
3E7
100
AcDbEntity
  8
DETAIL
  6
CONTINUOUS
100
AcDbLine
 10
-210.6905212402489
 20
1269.085510253908
 30
0.0
 11
-210.7431335449291
 21
1269.083984375001
 31
0.0
  0
LINE
  5
9B4B
330
3E7
100
AcDbEntity
  8
DETAIL
  6
CONTINUOUS
100
AcDbLine
 10
-210.7431335449291
 20
1269.083984375001
 30
0.0
 11
-210.9000091552843
 21
1269.08068847656
 31
0.0
  0
LINE
  5
9B4C
330
3E7
100
AcDbEntity
  8
DETAIL
  6
CONTINUOUS
100
AcDbLine
 10
-210.7699127197338
 20
1270.946716308594
 30
0.0
 11
-210.9000091552843
 21
1270.946044921875
 31
0.0
  0
LINE
  5
9B51
330
3E7
100
AcDbEntity
  8
DETAIL
  6
CONTINUOUS
100
AcDbLine
 10
485.2000274658166
 20
678.4000358581534
 30
0.0
 11
485.2000274658166
 21
1276.40002441406
 31
0.0
  0
LINE
  5
9B52
330
3E7
100
AcDbEntity
  8
DETAIL
  6
CONTINUOUS
100
AcDbLine
 10
525.0000152587927
 20
1316.600036621093
 30
0.0
 11
525.0000152587927
 21
611.4000167846689
 31
0.0
  0
ARC
  5
9B59
330
3E7
100
AcDbEntity
  8
DETAIL
  6
CONTINUOUS
100
AcDbCircle
 10
502.0000048668771
 20
599.4000348059763
 30
0.0
 40
11.99998960809119
100
AcDbArc
 50
89.99995038222335
 51
180.0000496177766
  0
ARC
  5
9B5A
330
3E7
100
AcDbEntity
  8
DETAIL
  6
CONTINUOUS
100
AcDbCircle
 10
501.9999972374899
 20
599.4000271765935
 30
0.0
 40
5.199994185744198
100
AcDbArc
 50
89.99980143363591
 51
180.0000304387449
  0
ARC
  5
9B5B
330
3E7
100
AcDbEntity
  8
DETAIL
  6
CONTINUOUS
100
AcDbCircle
 10
526.0000033409233
 20
606.6000332801604
 30
0.0
 40
2.000011917889005
100
AcDbArc
 50
270.0003414193078
 51
359.9996585806921
  0
ARC
  5
9B5C
330
3E7
100
AcDbEntity
  8
DETAIL
  6
CONTINUOUS
100
AcDbCircle
 10
526.9999985312279
 20
608.4857886639475
 30
0.0
 40
1.000016727767742
100
AcDbArc
 50
0.0011838384004254
 51
45.00077759523676
  0
ARC
  5
9B5D
330
3E7
100
AcDbEntity
  8
DETAIL
  6
CONTINUOUS
100
AcDbCircle
 10
525.2928775700275
 20
610.9000234730274
 30
0.0
 40
0.5000009412789228
100
AcDbArc
 50
44.99887006065293
 51
90.00179124045549
  0
LINE
  5
9B60
330
3E7
100
AcDbEntity
  8
DETAIL
  6
CONTINUOUS
100
AcDbLine
 10
526.0000152587781
 20
604.6000213623028
 30
0.0
 11
502.0000152587818
 21
604.6000213623065
 31
0.0
  0
LINE
  5
9B61
330
3E7
100
AcDbEntity
  8
DETAIL
  6
CONTINUOUS
100
AcDbLine
 10
528.0000152587854
 20
608.485809326171
 30
0.0
 11
528.0000152587854
 21
606.6000213623055
 31
0.0
  0
LINE
  5
9B62
330
3E7
100
AcDbEntity
  8
DETAIL
  6
CONTINUOUS
100
AcDbLine
 10
528.0000152587854
 20
606.3546829223651
 30
0.0
 11
528.0000152587927
 21
547.2000274658203
 31
0.0
  0
LINE
  5
9B63
330
3E7
100
AcDbEntity
  8
DETAIL
  6
CONTINUOUS
100
AcDbLine
 10
525.2928619384692
 20
611.4000244140652
 30
0.0
 11
502.0000152587926
 21
611.4000244140629
 31
0.0
  0
LINE
  5
9B64
330
3E7
100
AcDbEntity
  8
DETAIL
  6
CONTINUOUS
100
AcDbLine
 10
525.6464385986328
 20
611.2535705566415
 30
0.0
 11
527.707107543938
 21
609.1929168701153
 31
0.0
  0
LINE
  5
9B65
330
3E7
100
AcDbEntity
  8
DETAIL
  6
CONTINUOUS
100
AcDbLine
 10
527.9914703369104
 20
606.4154815673828
 30
0.0
 11
528.0000152587854
 21
606.3546829223651
 31
0.0
  0
LINE
  5
9BB5
330
3E7
100
AcDbEntity
  8
DETAIL
  6
CONTINUOUS
100
AcDbLine
 10
162.9999847412
 20
1323.981201171877
 30
0.0
 11
158.9999847412036
 21
1326.290649414063
 31
0.0
  0
LINE
  5
9BB6
330
3E7
100
AcDbEntity
  8
DETAIL
  6
CONTINUOUS
100
AcDbLine
 10
166.9999847412145
 20
1326.290649414063
 30
0.0
 11
162.9999847412
 21
1323.981201171877
 31
0.0
  0
ARC
  5
9BB8
330
3E7
100
AcDbEntity
  8
DETAIL
  6
CONTINUOUS
100
AcDbCircle
 10
161.9999798739991
 20
1327.600031753882
 30
0.0
 40
0.5000048672364274
100
AcDbArc
 50
0.0005577360762763
 51
89.99944226392372
  0
ARC
  5
9BB9
330
3E7
100
AcDbEntity
  8
DETAIL
  6
CONTINUOUS
100
AcDbCircle
 10
163.9999957118198
 20
1327.600025650481
 30
0.0
 40
0.5000109707332996
100
AcDbArc
 50
90.00125711207498
 51
179.9987428879511
  0
ARC
  5
9BBA
330
3E7
100
AcDbEntity
  8
DETAIL
  6
CONTINUOUS
100
AcDbCircle
 10
161.9999957117761
 20
1329.600025650529
 30
0.0
 40
0.4999890295551567
100
AcDbArc
 50
269.9987428382119
 51
0.0012571617620511
  0
ARC
  5
9BBB
330
3E7
100
AcDbEntity
  8
DETAIL
  6
CONTINUOUS
100
AcDbCircle
 10
163.9999798742428
 20
1329.600031754125
 30
0.0
 40
0.4999951330515113
100
AcDbArc
 50
179.9994422806511
 51
270.0005577194009
  0
LINE
  5
9BBD
330
3E7
100
AcDbEntity
  8
DETAIL
  6
CONTINUOUS
100
AcDbLine
 10
158.9999847412036
 20
1326.290649414063
 30
0.0
 11
158.9999847412036
 21
1330.909423828125
 31
0.0
  0
LINE
  5
9BBE
330
3E7
100
AcDbEntity
  8
DETAIL
  6
CONTINUOUS
100
AcDbLine
 10
160.5499877929651
 20
1328.100036621094
 30
0.0
 11
161.9999847412145
 21
1328.100036621094
 31
0.0
  0
LINE
  5
9BBF
330
3E7
100
AcDbEntity
  8
DETAIL
  6
CONTINUOUS
100
AcDbLine
 10
162.2820434570348
 20
1329.187194824221
 30
0.0
 11
162.2820434570348
 21
1328.012878417971
 31
0.0
  0
LINE
  5
9BC0
330
3E7
100
AcDbEntity
  8
DETAIL
  6
CONTINUOUS
100
AcDbLine
 10
163.587142944325
 20
1327.882080078125
 30
0.0
 11
162.4128417968677
 21
1327.882080078125
 31
0.0
  0
LINE
  5
9BC1
330
3E7
100
AcDbEntity
  8
DETAIL
  6
CONTINUOUS
100
AcDbLine
 10
163.4999847412109
 20
1326.150024414064
 30
0.0
 11
162.4999847412072
 21
1326.150024414064
 31
0.0
  0
LINE
  5
9BC2
330
3E7
100
AcDbEntity
  8
DETAIL
  6
CONTINUOUS
100
AcDbLine
 10
160.5499877929651
 20
1328.100036621094
 30
0.0
 11
160.5499877929651
 21
1329.100036621093
 31
0.0
  0
LINE
  5
9BC3
330
3E7
100
AcDbEntity
  8
DETAIL
  6
CONTINUOUS
100
AcDbLine
 10
162.4999847412072
 20
1327.600036621097
 30
0.0
 11
162.4999847412072
 21
1326.150024414064
 31
0.0
  0
LINE
  5
9BC4
330
3E7
100
AcDbEntity
  8
DETAIL
  6
CONTINUOUS
100
AcDbLine
 10
166.9999847412145
 20
1330.909423828125
 30
0.0
 11
166.9999847412145
 21
1326.290649414063
 31
0.0
  0
LINE
  5
9BC5
330
3E7
100
AcDbEntity
  8
DETAIL
  6
CONTINUOUS
100
AcDbLine
 10
163.9999847412036
 20
1328.100036621094
 30
0.0
 11
165.4499969482458
 21
1328.100036621094
 31
0.0
  0
LINE
  5
9BC6
330
3E7
100
AcDbEntity
  8
DETAIL
  6
CONTINUOUS
100
AcDbLine
 10
163.4999847412109
 20
1326.150024414064
 30
0.0
 11
163.4999847412109
 21
1327.600036621097
 31
0.0
  0
LINE
  5
9BC7
330
3E7
100
AcDbEntity
  8
DETAIL
  6
CONTINUOUS
100
AcDbLine
 10
163.717941284176
 20
1329.187194824221
 30
0.0
 11
163.717941284176
 21
1328.012878417971
 31
0.0
  0
LINE
  5
9BC8
330
3E7
100
AcDbEntity
  8
DETAIL
  6
CONTINUOUS
100
AcDbLine
 10
165.4499969482458
 20
1329.100036621093
 30
0.0
 11
165.4499969482458
 21
1328.100036621094
 31
0.0
  0
LINE
  5
9BCA
330
3E7
100
AcDbEntity
  8
DETAIL
  6
CONTINUOUS
100
AcDbLine
 10
158.9999847412036
 20
1330.909423828125
 30
0.0
 11
162.9999847412
 21
1333.218811035158
 31
0.0
  0
LINE
  5
9BCD
330
3E7
100
AcDbEntity
  8
DETAIL
  6
CONTINUOUS
100
AcDbLine
 10
161.9999847412145
 20
1329.100036621093
 30
0.0
 11
160.5499877929651
 21
1329.100036621093
 31
0.0
  0
LINE
  5
9BCE
330
3E7
100
AcDbEntity
  8
DETAIL
  6
CONTINUOUS
100
AcDbLine
 10
162.4999847412072
 20
1331.050048828128
 30
0.0
 11
162.4999847412072
 21
1329.600036621095
 31
0.0
  0
LINE
  5
9BCF
330
3E7
100
AcDbEntity
  8
DETAIL
  6
CONTINUOUS
100
AcDbLine
 10
163.587142944325
 20
1329.317993164063
 30
0.0
 11
162.4128417968677
 21
1329.317993164063
 31
0.0
  0
LINE
  5
9BD0
330
3E7
100
AcDbEntity
  8
DETAIL
  6
CONTINUOUS
100
AcDbLine
 10
162.4999847412072
 20
1331.050048828128
 30
0.0
 11
163.4999847412109
 21
1331.050048828128
 31
0.0
  0
LINE
  5
9BD1
330
3E7
100
AcDbEntity
  8
DETAIL
  6
CONTINUOUS
100
AcDbLine
 10
162.9999847412
 20
1333.218811035158
 30
0.0
 11
166.9999847412145
 21
1330.909423828125
 31
0.0
  0
LINE
  5
9BD3
330
3E7
100
AcDbEntity
  8
DETAIL
  6
CONTINUOUS
100
AcDbLine
 10
163.9999847412036
 20
1329.100036621093
 30
0.0
 11
165.4499969482458
 21
1329.100036621093
 31
0.0
  0
LINE
  5
9BD4
330
3E7
100
AcDbEntity
  8
DETAIL
  6
CONTINUOUS
100
AcDbLine
 10
163.4999847412109
 20
1329.600036621095
 30
0.0
 11
163.4999847412109
 21
1331.050048828128
 31
0.0
  0
LINE
  5
9BD5
330
3E7
100
AcDbEntity
  8
DETAIL
  6
CONTINUOUS
100
AcDbLine
 10
525.0000152587927
 20
1319.100036621093
 30
0.0
 11
525.0000152587927
 21
1333.000000000003
 31
0.0
  0
LINE
  5
9BD6
330
3E7
100
AcDbEntity
  8
DETAIL
  6
CONTINUOUS
100
AcDbLine
 10
492.8000030517615
 20
1323.981201171877
 30
0.0
 11
488.8000030517469
 21
1326.290649414063
 31
0.0
  0
LINE
  5
9BD7
330
3E7
100
AcDbEntity
  8
DETAIL
  6
CONTINUOUS
100
AcDbLine
 10
496.8000030517578
 20
1326.290649414063
 30
0.0
 11
492.8000030517615
 21
1323.981201171877
 31
0.0
  0
ARC
  5
9BD8
330
3E7
100
AcDbEntity
  8
DETAIL
  6
CONTINUOUS
100
AcDbCircle
 10
488.2000073398922
 20
1300.900004288141
 30
0.0
 40
2.50002012600141
100
AcDbArc
 50
0.0004612483984413
 51
89.99953875160157
  0
ARC
  5
9BDA
330
3E7
100
AcDbEntity
  8
DETAIL
  6
CONTINUOUS
100
AcDbCircle
 10
523.9999951329082
 20
1316.600016495217
 30
0.0
 40
1.000020126079322
100
AcDbArc
 50
0.001153104555397
 51
89.99884689541856
  0
LINE
  5
9BDB
330
3E7
100
AcDbEntity
  8
DETAIL
  6
CONTINUOUS
100
AcDbLine
 10
488.2000274658094
 20
1303.400024414063
 30
0.0
 11
485.2000274658166
 21
1303.400024414063
 31
0.0
  0
LINE
  5
9BDD
330
3E7
100
AcDbEntity
  8
DETAIL
  6
CONTINUOUS
100
AcDbLine
 10
487.6372222900317
 20
1281.40002441406
 30
0.0
 11
485.2000274658166
 21
1281.40002441406
 31
0.0
  0
LINE
  5
9BDE
330
3E7
100
AcDbEntity
  8
DETAIL
  6
CONTINUOUS
100
AcDbLine
 10
485.2000274658166
 20
1276.40002441406
 30
0.0
 11
488.2000274658094
 21
1276.40002441406
 31
0.0
  0
LINE
  5
9BDF
330
3E7
100
AcDbEntity
  8
DETAIL
  6
CONTINUOUS
100
AcDbLine
 10
485.2000274658166
 20
1316.600036621093
 30
0.0
 11
486.2000274658202
 21
1316.600036621093
 31
0.0
  0
LINE
  5
9BE0
330
3E7
100
AcDbEntity
  8
DETAIL
  6
CONTINUOUS
100
AcDbLine
 10
485.2000274658166
 20
1303.400024414063
 30
0.0
 11
486.2000274658202
 21
1303.400024414063
 31
0.0
  0
LINE
  5
9BE1
330
3E7
100
AcDbEntity
  8
DETAIL
  6
CONTINUOUS
100
AcDbLine
 10
485.2000274658166
 20
1286.40002441406
 30
0.0
 11
487.6495172095637
 21
1286.40002441406
 31
0.0
  0
LINE
  5
9BE4
330
3E7
100
AcDbEntity
  8
DETAIL
  6
CONTINUOUS
100
AcDbLine
 10
486.2000274658202
 20
1317.600036621092
 30
0.0
 11
486.2000274658202
 21
1316.600036621093
 31
0.0
  0
LINE
  5
9BE5
330
3E7
100
AcDbEntity
  8
DETAIL
  6
CONTINUOUS
100
AcDbLine
 10
486.0000152587781
 20
1276.40002441406
 30
0.0
 11
486.0000152587781
 21
1277.449441530696
 31
0.0
  0
LINE
  5
9BE6
330
3E7
100
AcDbEntity
  8
DETAIL
  6
CONTINUOUS
100
AcDbLine
 10
485.2000274658166
 20
1276.40002441406
 30
0.0
 11
485.2000274658166
 21
1277.400024414059
 31
0.0
  0
LINE
  5
9BE7
330
3E7
100
AcDbEntity
  8
DETAIL
  6
CONTINUOUS
100
AcDbLine
 10
485.2000274658166
 20
1280.400024414061
 30
0.0
 11
485.2000274658166
 21
1281.40002441406
 31
0.0
  0
LINE
  5
9BE8
330
3E7
100
AcDbEntity
  8
DETAIL
  6
CONTINUOUS
100
AcDbLine
 10
486.0000152587781
 20
1280.49267654014
 30
0.0
 11
486.0000152587781
 21
1281.40002441406
 31
0.0
  0
LINE
  5
9BF2
330
3E7
100
AcDbEntity
  8
DETAIL
  6
CONTINUOUS
100
AcDbLine
 10
486.2000274658202
 20
1317.600036621092
 30
0.0
 11
524.0000152587854
 21
1317.600036621094
 31
0.0
  0
LINE
  5
9BF3
330
3E7
100
AcDbEntity
  8
DETAIL
  6
CONTINUOUS
100
AcDbLine
 10
485.2000274658166
 20
1303.400024414063
 30
0.0
 11
485.2000274658166
 21
1316.600036621093
 31
0.0
  0
LINE
  5
9BF4
330
3E7
100
AcDbEntity
  8
DETAIL
  6
CONTINUOUS
100
AcDbLine
 10
490.7000274658094
 20
1288.90002441406
 30
0.0
 11
490.7000274658094
 21
1300.900024414063
 31
0.0
  0
LINE
  5
9BF5
330
3E7
100
AcDbEntity
  8
DETAIL
  6
CONTINUOUS
100
AcDbLine
 10
485.2000274658166
 20
1281.40002441406
 30
0.0
 11
485.2000274658166
 21
1286.40002441406
 31
0.0
  0
ARC
  5
9BF8
330
3E7
100
AcDbEntity
  8
DETAIL
  6
CONTINUOUS
100
AcDbCircle
 10
523.4999890145082
 20
1319.100017613341
 30
0.0
 40
1.50002624440144
100
AcDbArc
 50
300.0005787581043
 51
0.0007260300572996
  0
LINE
  5
9BF9
330
3E7
100
AcDbEntity
  8
DETAIL
  6
CONTINUOUS
100
AcDbLine
 10
524.2500152587854
 20
1317.800964355469
 30
0.0
 11
524.0000152587854
 21
1317.600036621094
 31
0.0
  0
ARC
  5
9C08
330
3E7
100
AcDbEntity
  8
DETAIL
  6
CONTINUOUS
100
AcDbCircle
 10
519.9999951329191
 20
1332.999979874132
 30
0.0
 40
5.000020125910427
100
AcDbArc
 50
0.00023062456399
 51
89.99976937543602
  0
ARC
  5
9C10
330
3E7
100
AcDbEntity
  8
DETAIL
  6
CONTINUOUS
100
AcDbCircle
 10
491.799989029405
 20
1327.60002259874
 30
0.0
 40
0.5000140225522496
100
AcDbArc
 50
0.0016067984589614
 51
89.99839320143683
  0
ARC
  5
9C11
330
3E7
100
AcDbEntity
  8
DETAIL
  6
CONTINUOUS
100
AcDbCircle
 10
493.800004867262
 20
1327.600034805586
 30
0.0
 40
0.5000018155116087
100
AcDbArc
 50
90.00020804125053
 51
179.9997919588276
  0
ARC
  5
9C12
330
3E7
100
AcDbEntity
  8
DETAIL
  6
CONTINUOUS
100
AcDbCircle
 10
491.8000048668727
 20
1329.60003480598
 30
0.0
 40
0.4999981848883386
100
AcDbArc
 50
269.9997920023136
 51
0.0002079976082317
  0
ARC
  5
9C13
330
3E7
100
AcDbEntity
  8
DETAIL
  6
CONTINUOUS
100
AcDbCircle
 10
493.7999890294122
 20
1329.600022598747
 30
0.0
 40
0.4999859778478244
100
AcDbArc
 50
179.998393112172
 51
270.0016068878801
  0
LINE
  5
9C15
330
3E7
100
AcDbEntity
  8
DETAIL
  6
CONTINUOUS
100
AcDbLine
 10
488.8000030517469
 20
1326.290649414063
 30
0.0
 11
488.8000030517469
 21
1330.909423828125
 31
0.0
  0
LINE
  5
9C16
330
3E7
100
AcDbEntity
  8
DETAIL
  6
CONTINUOUS
100
AcDbLine
 10
490.3499908447156
 20
1328.100036621094
 30
0.0
 11
491.8000030517577
 21
1328.100036621094
 31
0.0
  0
LINE
  5
9C17
330
3E7
100
AcDbEntity
  8
DETAIL
  6
CONTINUOUS
100
AcDbLine
 10
492.0820465087854
 20
1329.187194824221
 30
0.0
 11
492.0820465087854
 21
1328.012878417971
 31
0.0
  0
LINE
  5
9C18
330
3E7
100
AcDbEntity
  8
DETAIL
  6
CONTINUOUS
100
AcDbLine
 10
493.3871612548864
 20
1327.882080078125
 30
0.0
 11
492.2128448486364
 21
1327.882080078125
 31
0.0
  0
LINE
  5
9C19
330
3E7
100
AcDbEntity
  8
DETAIL
  6
CONTINUOUS
100
AcDbLine
 10
493.3000030517542
 20
1326.150024414064
 30
0.0
 11
492.3000030517505
 21
1326.150024414064
 31
0.0
  0
LINE
  5
9C1A
330
3E7
100
AcDbEntity
  8
DETAIL
  6
CONTINUOUS
100
AcDbLine
 10
490.3499908447156
 20
1328.100036621094
 30
0.0
 11
490.3499908447156
 21
1329.100036621093
 31
0.0
  0
LINE
  5
9C1B
330
3E7
100
AcDbEntity
  8
DETAIL
  6
CONTINUOUS
100
AcDbLine
 10
492.3000030517505
 20
1327.600036621097
 30
0.0
 11
492.3000030517505
 21
1326.150024414064
 31
0.0
  0
LINE
  5
9C1C
330
3E7
100
AcDbEntity
  8
DETAIL
  6
CONTINUOUS
100
AcDbLine
 10
496.8000030517578
 20
1330.909423828125
 30
0.0
 11
496.8000030517578
 21
1326.290649414063
 31
0.0
  0
LINE
  5
9C1D
330
3E7
100
AcDbEntity
  8
DETAIL
  6
CONTINUOUS
100
AcDbLine
 10
493.8000030517469
 20
1328.100036621094
 30
0.0
 11
495.250015258789
 21
1328.100036621094
 31
0.0
  0
LINE
  5
9C1E
330
3E7
100
AcDbEntity
  8
DETAIL
  6
CONTINUOUS
100
AcDbLine
 10
493.3000030517542
 20
1326.150024414064
 30
0.0
 11
493.3000030517542
 21
1327.600036621097
 31
0.0
  0
LINE
  5
9C1F
330
3E7
100
AcDbEntity
  8
DETAIL
  6
CONTINUOUS
100
AcDbLine
 10
493.5179595947192
 20
1329.187194824221
 30
0.0
 11
493.5179595947192
 21
1328.012878417971
 31
0.0
  0
LINE
  5
9C20
330
3E7
100
AcDbEntity
  8
DETAIL
  6
CONTINUOUS
100
AcDbLine
 10
495.250015258789
 20
1329.100036621093
 30
0.0
 11
495.250015258789
 21
1328.100036621094
 31
0.0
  0
LINE
  5
9C22
330
3E7
100
AcDbEntity
  8
DETAIL
  6
CONTINUOUS
100
AcDbLine
 10
488.8000030517469
 20
1330.909423828125
 30
0.0
 11
492.8000030517615
 21
1333.218811035158
 31
0.0
  0
LINE
  5
9C25
330
3E7
100
AcDbEntity
  8
DETAIL
  6
CONTINUOUS
100
AcDbLine
 10
491.8000030517577
 20
1329.100036621093
 30
0.0
 11
490.3499908447156
 21
1329.100036621093
 31
0.0
  0
LINE
  5
9C26
330
3E7
100
AcDbEntity
  8
DETAIL
  6
CONTINUOUS
100
AcDbLine
 10
492.3000030517505
 20
1331.050048828128
 30
0.0
 11
492.3000030517505
 21
1329.600036621095
 31
0.0
  0
LINE
  5
9C27
330
3E7
100
AcDbEntity
  8
DETAIL
  6
CONTINUOUS
100
AcDbLine
 10
493.3871612548864
 20
1329.317993164063
 30
0.0
 11
492.2128448486364
 21
1329.317993164063
 31
0.0
  0
LINE
  5
9C28
330
3E7
100
AcDbEntity
  8
DETAIL
  6
CONTINUOUS
100
AcDbLine
 10
492.3000030517505
 20
1331.050048828128
 30
0.0
 11
493.3000030517542
 21
1331.050048828128
 31
0.0
  0
LINE
  5
9C29
330
3E7
100
AcDbEntity
  8
DETAIL
  6
CONTINUOUS
100
AcDbLine
 10
492.8000030517615
 20
1333.218811035158
 30
0.0
 11
496.8000030517578
 21
1330.909423828125
 31
0.0
  0
LINE
  5
9C2B
330
3E7
100
AcDbEntity
  8
DETAIL
  6
CONTINUOUS
100
AcDbLine
 10
493.8000030517469
 20
1329.100036621093
 30
0.0
 11
495.250015258789
 21
1329.100036621093
 31
0.0
  0
LINE
  5
9C2C
330
3E7
100
AcDbEntity
  8
DETAIL
  6
CONTINUOUS
100
AcDbLine
 10
493.3000030517542
 20
1329.600036621095
 30
0.0
 11
493.3000030517542
 21
1331.050048828128
 31
0.0
  0
LINE
  5
139BB
330
3E7
100
AcDbEntity
  8
DETAIL
100
AcDbLine
 10
520.0000152587927
 20
1338.000000000002
 30
0.0
 11
-520.0000152587927
 21
1338.000000000002
 31
0.0
  0
LINE
  5
139C9
330
3E7
100
AcDbEntity
  8
DETAIL
  6
CONTINUOUS
100
AcDbLine
 10
-527.0000152587872
 20
497.2570343021589
 30
0.0
 11
-526.9694671630859
 21
496.3157196048923
 31
0.0
  0
LINE
  5
139CA
330
3E7
100
AcDbEntity
  8
DETAIL
  6
CONTINUOUS
100
AcDbLine
 10
-270.2000122066801
 20
998.4000549327253
 30
0.0
 11
-269.4000091549223
 21
998.4000549327253
 31
0.0
  0
LINE
  5
139CD
330
3E7
100
AcDbEntity
  8
DETAIL
  6
CONTINUOUS
100
AcDbLine
 10
-256.5000152584198
 20
1316.599975587456
 30
0.0
 11
-265.5000152584307
 21
1316.599975587456
 31
0.0
  0
LINE
  5
139CE
330
3E7
100
AcDbEntity
  8
DETAIL
  6
CONTINUOUS
100
AcDbLine
 10
-253.5000152584143
 20
1313.599975587452
 30
0.0
 11
-253.5000152584143
 21
679.8000192648714
 31
0.0
  0
LINE
  5
139CF
330
3E7
100
AcDbEntity
  8
DETAIL
  6
CONTINUOUS
100
AcDbLine
 10
-271.000015258438
 20
1283.000000001473
 30
0.0
 11
-253.5000152584143
 21
1283.000000001473
 31
0.0
  0
LINE
  5
139D0
330
3E7
100
AcDbEntity
  8
DETAIL
  6
CONTINUOUS
100
AcDbLine
 10
-271.000015258438
 20
1291.799987794454
 30
0.0
 11
-253.5000152584143
 21
1291.799987794454
 31
0.0
  0
LINE
  5
139D1
330
3E7
100
AcDbEntity
  8
DETAIL
  6
CONTINUOUS
100
AcDbLine
 10
-273.9000091549278
 20
1285.90002441554
 30
0.0
 11
-273.9000091549278
 21
1288.900024415544
 31
0.0
  0
LINE
  5
139D3
330
3E7
100
AcDbEntity
  8
DETAIL
  6
CONTINUOUS
100
AcDbLine
 10
-253.5000152584143
 20
1285.90002441554
 30
0.0
 11
-253.5000152584143
 21
1283.000000001473
 31
0.0
  0
LINE
  5
139D4
330
3E7
100
AcDbEntity
  8
DETAIL
  6
CONTINUOUS
100
AcDbLine
 10
-253.5000152584143
 20
1291.799987794454
 30
0.0
 11
-253.5000152584143
 21
1288.900024415544
 31
0.0
  0
LINE
  5
139D7
330
3E7
100
AcDbEntity
  8
DETAIL
  6
CONTINUOUS
100
AcDbLine
 10
-253.5000152584143
 20
1292.000000001485
 30
0.0
 11
-253.5000152584143
 21
1291.799987794454
 31
0.0
  0
LINE
  5
139D8
330
3E7
100
AcDbEntity
  8
DETAIL
  6
CONTINUOUS
100
AcDbLine
 10
-253.5000152584143
 20
1283.000000001473
 30
0.0
 11
-253.5000152584143
 21
1282.799987794441
 31
0.0
  0
LINE
  5
139D9
330
3E7
100
AcDbEntity
  8
DETAIL
  6
CONTINUOUS
100
AcDbLine
 10
-280.0000152584507
 20
1316.599975587456
 30
0.0
 11
-279.8000183102085
 21
1316.599975587456
 31
0.0
  0
LINE
  5
139DA
330
3E7
100
AcDbEntity
  8
DETAIL
  6
CONTINUOUS
100
AcDbLine
 10
-265.5000152584307
 20
1317.599991204216
 30
0.0
 11
-265.5000152584307
 21
1316.599975587456
 31
0.0
  0
LINE
  5
139DB
330
3E7
100
AcDbEntity
  8
DETAIL
  6
CONTINUOUS
100
AcDbLine
 10
-279.8000183102085
 20
1317.599990340225
 30
0.0
 11
-279.8000183102085
 21
1316.599975587456
 31
0.0
  0
LINE
  5
139DC
330
3E7
100
AcDbEntity
  8
DETAIL
  6
CONTINUOUS
100
AcDbLine
 10
-264.200012206671
 20
1013.400054932745
 30
0.0
 11
-270.2000122066801
 21
1013.400054932745
 31
0.0
  0
LINE
  5
139DD
330
3E7
100
AcDbEntity
  8
DETAIL
  6
CONTINUOUS
100
AcDbLine
 10
-270.2000122066801
 20
994.4000549327199
 30
0.0
 11
-264.200012206671
 21
994.4000549327199
 31
0.0
  0
LINE
  5
139DE
330
3E7
100
AcDbEntity
  8
DETAIL
  6
CONTINUOUS
100
AcDbLine
 10
-269.4000091549223
 20
1000.400054932728
 30
0.0
 11
-269.4000091549223
 21
1010.400054932741
 31
0.0
  0
LINE
  5
139DF
330
3E7
100
AcDbEntity
  8
DETAIL
  6
CONTINUOUS
100
AcDbLine
 10
-261.2000122066674
 20
997.4000549327241
 30
0.0
 11
-261.2000122066674
 21
1010.400054932741
 31
0.0
  0
LINE
  5
139E0
330
3E7
100
AcDbEntity
  8
DETAIL
  6
CONTINUOUS
100
AcDbLine
 10
-270.2998657223051
 20
1000.396697999134
 30
0.0
 11
-270.2000122066801
 21
1000.400054932728
 31
0.0
  0
LINE
  5
139E1
330
3E7
100
AcDbEntity
  8
DETAIL
  6
CONTINUOUS
100
AcDbLine
 10
-270.4000091549223
 20
1000.386627198353
 30
0.0
 11
-270.2998657223051
 21
1000.396697999134
 31
0.0
  0
LINE
  5
139E2
330
3E7
100
AcDbEntity
  8
DETAIL
  6
CONTINUOUS
100
AcDbLine
 10
-270.2997589107817
 20
1010.403350831179
 30
0.0
 11
-270.4000091549223
 21
1010.41342163196
 31
0.0
  0
LINE
  5
139E3
330
3E7
100
AcDbEntity
  8
DETAIL
  6
CONTINUOUS
100
AcDbLine
 10
-270.2000122066801
 20
1010.400054932741
 30
0.0
 11
-270.2997589107817
 21
1010.403350831179
 31
0.0
  0
LINE
  5
139E4
330
3E7
100
AcDbEntity
  8
DETAIL
  6
CONTINUOUS
100
AcDbLine
 10
-270.2000122066801
 20
1000.400054932728
 30
0.0
 11
-269.4000091549223
 21
1000.400054932728
 31
0.0
  0
LINE
  5
139E5
330
3E7
100
AcDbEntity
  8
DETAIL
  6
CONTINUOUS
100
AcDbLine
 10
-270.2000122066801
 20
1010.400054932741
 30
0.0
 11
-269.4000091549223
 21
1010.400054932741
 31
0.0
  0
LINE
  5
139E6
330
3E7
100
AcDbEntity
  8
DETAIL
  6
CONTINUOUS
100
AcDbLine
 10
-269.4000091549223
 20
999.1434631358513
 30
0.0
 11
-269.4000091549223
 21
1000.400054932728
 31
0.0
  0
LINE
  5
139E7
330
3E7
100
AcDbEntity
  8
DETAIL
  6
CONTINUOUS
100
AcDbLine
 10
-270.2000122066801
 20
999.1434631358513
 30
0.0
 11
-270.2000122066801
 21
1000.400054932728
 31
0.0
  0
LINE
  5
139E8
330
3E7
100
AcDbEntity
  8
DETAIL
  6
CONTINUOUS
100
AcDbLine
 10
-271.700012206682
 20
998.9000549327261
 30
0.0
 11
-271.700012206682
 21
995.9000549327219
 31
0.0
  0
LINE
  5
139E9
330
3E7
100
AcDbEntity
  8
DETAIL
  6
CONTINUOUS
100
AcDbLine
 10
-269.4000091549223
 20
999.1434631358513
 30
0.0
 11
-269.4000091549223
 21
998.4000549327253
 31
0.0
  0
LINE
  5
139EA
330
3E7
100
AcDbEntity
  8
DETAIL
  6
CONTINUOUS
100
AcDbLine
 10
-270.2000122066801
 20
999.1434631358513
 30
0.0
 11
-270.2000122066801
 21
998.4000549327253
 31
0.0
  0
LINE
  5
139EB
330
3E7
100
AcDbEntity
  8
DETAIL
  6
CONTINUOUS
100
AcDbLine
 10
-253.5000152584143
 20
1282.799987794441
 30
0.0
 11
-253.5000152584143
 21
680.0000162131136
 31
0.0
  0
LINE
  5
139ED
330
3E7
100
AcDbEntity
  8
DETAIL
  6
CONTINUOUS
100
AcDbLine
 10
-527.0000152587872
 20
1303.357360841344
 30
0.0
 11
-527.0000152587872
 21
609.9000143912207
 31
0.0
  0
LINE
  5
139EE
330
3E7
100
AcDbEntity
  8
DETAIL
  6
CONTINUOUS
100
AcDbLine
 10
-525.8786773681604
 20
1305.721313478067
 30
0.0
 11
-526.1213226318341
 21
1305.478698731972
 31
0.0
  0
LINE
  5
139F0
330
3E7
100
AcDbEntity
  8
DETAIL
  6
CONTINUOUS
100
AcDbLine
 10
-525.0000152587836
 20
1316.599975587456
 30
0.0
 11
-525.0000152587836
 21
611.400016785225
 31
0.0
  0
LINE
  5
139F3
330
3E7
100
AcDbEntity
  8
DETAIL
  6
CONTINUOUS
100
AcDbLine
 10
-253.5000152584143
 20
673.900024414705
 30
0.0
 11
-253.5000152584143
 21
676.9000244147092
 31
0.0
  0
LINE
  5
139F4
330
3E7
100
AcDbEntity
  8
DETAIL
  6
CONTINUOUS
100
AcDbLine
 10
-253.5000152584143
 20
673.900024414705
 30
0.0
 11
-253.5000152584143
 21
671.0000152594275
 31
0.0
  0
LINE
  5
139F5
330
3E7
100
AcDbEntity
  8
DETAIL
  6
CONTINUOUS
100
AcDbLine
 10
-253.5000152584143
 20
679.8000192648714
 30
0.0
 11
-253.5000152584143
 21
676.9000244147092
 31
0.0
  0
LINE
  5
139F6
330
3E7
100
AcDbEntity
  8
DETAIL
  6
CONTINUOUS
100
AcDbLine
 10
-271.000015258438
 20
679.8000192648714
 30
0.0
 11
-253.5000152584143
 21
679.8000192648714
 31
0.0
  0
LINE
  5
139F7
330
3E7
100
AcDbEntity
  8
DETAIL
  6
CONTINUOUS
100
AcDbLine
 10
-271.000015258438
 20
671.0000152594275
 30
0.0
 11
-253.5000152584143
 21
671.0000152594275
 31
0.0
  0
LINE
  5
139F8
330
3E7
100
AcDbEntity
  8
DETAIL
  6
CONTINUOUS
100
AcDbLine
 10
-270.2000122066801
 20
566.0000305180733
 30
0.0
 11
-264.200012206671
 21
566.0000305180733
 31
0.0
  0
LINE
  5
139F9
330
3E7
100
AcDbEntity
  8
DETAIL
  6
CONTINUOUS
100
AcDbLine
 10
-264.200012206671
 20
585.0000228887052
 30
0.0
 11
-270.2000122066801
 21
585.0000228887052
 31
0.0
  0
LINE
  5
139FA
330
3E7
100
AcDbEntity
  8
DETAIL
  6
CONTINUOUS
100
AcDbLine
 10
-269.6000213619518
 20
582.000022888701
 30
0.0
 11
-265.6000213619481
 21
574.0000228886901
 31
0.0
  0
LINE
  5
139FB
330
3E7
100
AcDbEntity
  8
DETAIL
  6
CONTINUOUS
100
AcDbLine
 10
-261.2000122066674
 20
569.0000228886833
 30
0.0
 11
-261.2000122066674
 21
582.000022888701
 31
0.0
  0
LINE
  5
139FC
330
3E7
100
AcDbEntity
  8
DETAIL
  6
CONTINUOUS
100
AcDbLine
 10
-253.5000152584143
 20
680.0000162131136
 30
0.0
 11
-253.5000152584143
 21
679.8000192648714
 31
0.0
  0
LINE
  5
139FD
330
3E7
100
AcDbEntity
  8
DETAIL
  6
CONTINUOUS
100
AcDbLine
 10
-253.5000152584143
 20
671.0000152594275
 30
0.0
 11
-253.5000152584143
 21
670.8000183111849
 31
0.0
  0
LINE
  5
139FE
330
3E7
100
AcDbEntity
  8
DETAIL
  6
CONTINUOUS
100
AcDbLine
 10
-269.6000213619518
 20
582.000022888701
 30
0.0
 11
-270.2000122066801
 21
582.000022888701
 31
0.0
  0
LINE
  5
139FF
330
3E7
100
AcDbEntity
  8
DETAIL
  6
CONTINUOUS
100
AcDbLine
 10
-270.2000122066801
 20
572.0000228886874
 30
0.0
 11
-269.1000213619517
 21
572.0000228886874
 31
0.0
  0
LINE
  5
13A00
330
3E7
100
AcDbEntity
  8
DETAIL
  6
CONTINUOUS
100
AcDbLine
 10
-268.3745269771861
 20
570.7434463505992
 30
0.0
 11
-269.1000213619517
 21
572.0000228886874
 31
0.0
  0
LINE
  5
13A01
330
3E7
100
AcDbEntity
  8
DETAIL
  6
CONTINUOUS
100
AcDbLine
 10
-265.6000213619481
 20
574.0000228886901
 30
0.0
 11
-265.6000213619481
 21
571.4868774419087
 31
0.0
  0
LINE
  5
13A02
330
3E7
100
AcDbEntity
  8
DETAIL
  6
CONTINUOUS
100
AcDbLine
 10
-271.700012206682
 20
570.5000228886851
 30
0.0
 11
-271.700012206682
 21
567.500022888681
 31
0.0
  0
LINE
  5
13A03
330
3E7
100
AcDbEntity
  8
DETAIL
  6
CONTINUOUS
100
AcDbLine
 10
-273.9000091549278
 20
673.900024414705
 30
0.0
 11
-273.9000091549278
 21
676.9000244147092
 31
0.0
  0
LINE
  5
13A04
330
3E7
100
AcDbEntity
  8
DETAIL
  6
CONTINUOUS
100
AcDbLine
 10
-256.5000152584198
 20
207.2000427246143
 30
0.0
 11
-281.2000122066947
 21
207.2000427246143
 31
0.0
  0
LINE
  5
13A05
330
3E7
100
AcDbEntity
  8
DETAIL
  6
CONTINUOUS
100
AcDbLine
 10
-281.2000122066947
 20
207.2000427246143
 30
0.0
 11
-281.2000122066947
 21
204.0000305175794
 31
0.0
  0
LINE
  5
13A0C
330
3E7
100
AcDbEntity
  8
DETAIL
  6
CONTINUOUS
100
AcDbLine
 10
-253.5000152584143
 20
210.2000427246184
 30
0.0
 11
-253.5000152584143
 21
679.8000192648714
 31
0.0
  0
LINE
  5
13A0D
330
3E7
100
AcDbEntity
  8
DETAIL
  6
CONTINUOUS
100
AcDbLine
 10
-527.0000152587872
 20
543.9000292009682
 30
0.0
 11
-527.0000152587872
 21
497.2570343021589
 31
0.0
  0
LINE
  5
13A0E
330
3E7
100
AcDbEntity
  8
DETAIL
  6
CONTINUOUS
100
AcDbLine
 10
-525.8786773681604
 20
494.3787078861396
 30
0.0
 11
-526.1213226318341
 21
494.6213378910224
 31
0.0
  0
LINE
  5
13A56
330
3E7
100
AcDbEntity
  8
DETAIL
  6
CONTINUOUS
100
AcDbLine
 10
-519.1999969482294
 20
205.8000488281286
 30
0.0
 11
-519.1999969482294
 21
204.0000305175794
 31
0.0
  0
LINE
  5
13A57
330
3E7
100
AcDbEntity
  8
DETAIL
  6
CONTINUOUS
100
AcDbLine
 10
-505.5000152587581
 20
201.0000305175753
 30
0.0
 11
-504.5000152587562
 21
201.0000305175753
 31
0.0
  0
LINE
  5
13A6C
330
3E7
100
AcDbEntity
  8
DETAIL
  6
CONTINUOUS
100
AcDbLine
 10
-281.2000122066947
 20
206.0000305175821
 30
0.0
 11
-524.0000152587854
 21
206.0000305175821
 31
0.0
  0
LINE
  5
13A6D
330
3E7
100
AcDbEntity
  8
DETAIL
  6
CONTINUOUS
100
AcDbLine
 10
-525.0000152587836
 20
542.4000244145259
 30
0.0
 11
-525.0000152587836
 21
207.0000305175835
 31
0.0
  0
LINE
  5
13A78
330
3E7
100
AcDbEntity
  8
DETAIL
  6
CONTINUOUS
100
AcDbLine
 10
-280.0000152584507
 20
1316.599975587456
 30
0.0
 11
-280.0000152584507
 21
207.2000427246143
 31
0.0
  0
ARC
  5
13A79
330
3E7
100
AcDbEntity
  8
DETAIL
  6
CONTINUOUS
100
AcDbCircle
 10
-256.4999896079971
 20
1313.600001237873
 30
0.0
 40
2.999974349692657
100
AcDbArc
 50
359.999510108861
 51
90.00048989119109
  0
ARC
  5
13A7A
330
3E7
100
AcDbEntity
  8
DETAIL
  6
CONTINUOUS
100
AcDbCircle
 10
-271.0000256502389
 20
1288.900004289713
 30
0.0
 40
2.899983504758731
100
AcDbArc
 50
89.99979468630197
 51
179.9996023683686
  0
ARC
  5
13A7B
330
3E7
100
AcDbEntity
  8
DETAIL
  6
CONTINUOUS
100
AcDbCircle
 10
-270.9999987632545
 20
1285.900010393131
 30
0.0
 40
2.900010391705904
100
AcDbArc
 50
179.9997229579556
 51
269.9996741030724
  0
ARC
  5
13A7C
330
3E7
100
AcDbEntity
  8
DETAIL
  6
CONTINUOUS
100
AcDbCircle
 10
-280.9999896081444
 20
1316.600001237764
 30
0.0
 40
0.9999743500222527
100
AcDbArc
 50
359.9985303079013
 51
90.00146969212465
  0
ARC
  5
13A7D
330
3E7
100
AcDbEntity
  8
DETAIL
  6
CONTINUOUS
100
AcDbCircle
 10
-270.2000109094551
 20
998.9000187782234
 30
0.0
 40
1.500001297663015
100
AcDbArc
 50
97.66218137039949
 51
179.9986190009343
  0
ARC
  5
13A7E
330
3E7
100
AcDbEntity
  8
DETAIL
  6
CONTINUOUS
100
AcDbCircle
 10
-270.2000277548104
 20
995.9000393845917
 30
0.0
 40
1.499984451951696
100
AcDbArc
 50
179.9994060990225
 51
270.0005939009774
  0
ARC
  5
13A7F
330
3E7
100
AcDbEntity
  8
DETAIL
  6
CONTINUOUS
100
AcDbCircle
 10
-270.2000077553548
 20
1011.900041685251
 30
0.0
 40
1.500013247500656
100
AcDbArc
 50
90.0001700265412
 51
262.3377584747706
  0
ARC
  5
13A80
330
3E7
100
AcDbEntity
  8
DETAIL
  6
CONTINUOUS
100
AcDbCircle
 10
-264.2000277549759
 20
1010.400039384439
 30
0.0
 40
3.000015548348347
100
AcDbArc
 50
0.0002969491859622
 51
89.99970305081403
  0
ARC
  5
13A81
330
3E7
100
AcDbEntity
  8
DETAIL
  6
CONTINUOUS
100
AcDbCircle
 10
-264.1999936067459
 20
997.4000363328
 30
0.0
 40
2.999981400137491
100
AcDbArc
 50
269.9996447654422
 51
0.0003552345837759
  0
ARC
  5
13A82
330
3E7
100
AcDbEntity
  8
DETAIL
  6
CONTINUOUS
100
AcDbCircle
 10
-528.0000260287124
 20
1307.842620735631
 30
0.0
 40
3.000010770083371
100
AcDbArc
 50
315.000559134755
 51
0.0005850463066951
  0
ARC
  5
13A83
330
3E7
100
AcDbEntity
  8
DETAIL
  6
CONTINUOUS
100
AcDbCircle
 10
-524.000015239224
 20
1303.35736540987
 30
0.0
 40
3.000000019567115
100
AcDbArc
 50
134.9996498288041
 51
180.0000872524201
  0
ARC
  5
13A84
330
3E7
100
AcDbEntity
  8
DETAIL
  6
CONTINUOUS
100
AcDbCircle
 10
-524.0000348054472
 20
1316.59999513412
 30
0.0
 40
0.9999804535287243
100
AcDbArc
 50
89.99888003678124
 51
180.0011199632187
  0
ARC
  5
13A86
330
3E7
100
AcDbEntity
  8
DETAIL
  6
CONTINUOUS
100
AcDbCircle
 10
-271.0000099145454
 20
676.9000200244914
 30
0.0
 40
2.899999240384897
100
AcDbArc
 50
90.00010558017955
 51
179.9999132617251
  0
ARC
  5
13A87
330
3E7
100
AcDbEntity
  8
DETAIL
  6
CONTINUOUS
100
AcDbCircle
 10
-271.0000063926236
 20
673.9000180217244
 30
0.0
 40
2.900002762311121
100
AcDbArc
 50
179.9998736929331
 51
269.9998248367471
  0
ARC
  5
13A88
330
3E7
100
AcDbEntity
  8
DETAIL
  6
CONTINUOUS
100
AcDbCircle
 10
-267.0868761480378
 20
571.486879264266
 30
0.0
 40
1.486854786092224
100
AcDbArc
 50
210.0002456472395
 51
359.9999297756585
  0
ARC
  5
13A89
330
3E7
100
AcDbEntity
  8
DETAIL
  6
CONTINUOUS
100
AcDbCircle
 10
-270.2000122066801
 20
583.5000228887029
 30
0.0
 40
1.500000000002046
100
AcDbArc
 50
90.0
 51
270.0
  0
ARC
  5
13A8A
330
3E7
100
AcDbEntity
  8
DETAIL
  6
CONTINUOUS
100
AcDbCircle
 10
-264.2000117331899
 20
582.0000233621827
 30
0.0
 40
2.999999526522097
100
AcDbArc
 50
359.9999909571593
 51
90.00000904289281
  0
ARC
  5
13A8B
330
3E7
100
AcDbEntity
  8
DETAIL
  6
CONTINUOUS
100
AcDbCircle
 10
-264.20000581374
 20
569.0000241251381
 30
0.0
 40
2.999993607071695
100
AcDbArc
 50
269.9998779036984
 51
359.9999763853994
  0
ARC
  5
13A8C
330
3E7
100
AcDbEntity
  8
DETAIL
  6
CONTINUOUS
100
AcDbCircle
 10
-270.2000155478981
 20
567.500027176859
 30
0.0
 40
1.499996658790214
100
AcDbArc
 50
180.0001637966876
 51
270.000127625403
  0
ARC
  5
13A8D
330
3E7
100
AcDbEntity
  8
DETAIL
  6
CONTINUOUS
100
AcDbCircle
 10
-270.2000096284427
 20
570.5000203104487
 30
0.0
 40
1.50000257824075
100
AcDbArc
 50
90.00009848120594
 51
179.999901518794
  0
ARC
  5
13A8E
330
3E7
100
AcDbEntity
  8
DETAIL
  6
CONTINUOUS
100
AcDbCircle
 10
-256.5000012360815
 20
210.2000287022801
 30
0.0
 40
2.999985977698571
100
AcDbArc
 50
269.9997321917802
 51
0.0002678081936644
  0
ARC
  5
13A8F
330
3E7
100
AcDbEntity
  8
DETAIL
  6
CONTINUOUS
100
AcDbCircle
 10
-528.0000188854028
 20
492.2574035875336
 30
0.0
 40
3.000003626674099
100
AcDbArc
 50
359.9996498614558
 51
44.99949737242363
  0
ARC
  5
13A90
330
3E7
100
AcDbEntity
  8
DETAIL
  6
CONTINUOUS
100
AcDbCircle
 10
-524.0000062756389
 20
496.7426557181875
 30
0.0
 40
2.999995401147719
100
AcDbArc
 50
188.1816687025783
 51
225.000019865122
  0
ARC
  5
13A9B
330
3E7
100
AcDbEntity
  8
DETAIL
  6
CONTINUOUS
100
AcDbCircle
 10
-524.0000170740731
 20
207.0000287022944
 30
0.0
 40
0.9999981847141146
100
AcDbArc
 50
179.9998959914121
 51
270.0001040085357
  0
ARC
  5
13A9C
330
3E7
100
AcDbEntity
  8
DETAIL
  6
CONTINUOUS
100
AcDbCircle
 10
-519.4000079176639
 20
205.8000195460081
 30
0.0
 40
0.2000109715778226
100
AcDbArc
 50
0.0083882495023715
 51
90.00035452627576
  0
ARC
  5
13AAB
330
3E7
100
AcDbEntity
  8
DETAIL
100
AcDbCircle
 10
527.4665443267367
 20
47.96414184570267
 30
0.0
 40
2.044762441644811
100
AcDbArc
 50
325.6179868117804
 51
34.38201318821954
  0
ARC
  5
13AAC
330
3E7
100
AcDbEntity
  8
DETAIL
100
AcDbCircle
 10
521.8679179168829
 20
44.5000305175754
 30
0.0
 40
7.643388853176793
100
AcDbArc
 50
342.4134703781277
 51
17.58652962191866
  0
ARC
  5
13AAD
330
3E7
100
AcDbEntity
  8
DETAIL
100
AcDbCircle
 10
527.4665443267294
 20
41.03591918945312
 30
0.0
 40
2.044762441651843
100
AcDbArc
 50
325.6179868118429
 51
34.38201318814647
  0
LINE
  5
13AB0
330
3E7
100
AcDbEntity
  8
DETAIL
  6
CONTINUOUS
100
AcDbLine
 10
307.4999847412072
 20
14.58178710937772
 30
0.0
 11
292.4999847412072
 21
14.58178710937772
 31
0.0
  0
LINE
  5
13AB1
330
3E7
100
AcDbEntity
  8
DETAIL
  6
CONTINUOUS
100
AcDbLine
 10
274.9999847412073
 20
2.000000000002728
 30
0.0
 11
324.9999847412073
 21
2.000000000002728
 31
0.0
  0
LINE
  5
13AB2
330
3E7
100
AcDbEntity
  8
DETAIL
  6
CONTINUOUS
100
AcDbLine
 10
274.9999847412073
 20
8.000000000001818
 30
0.0
 11
324.9999847412073
 21
8.000000000001818
 31
0.0
  0
ARC
  5
13AB3
330
3E7
100
AcDbEntity
  8
DETAIL
100
AcDbCircle
 10
389.7398293062615
 20
23.261384618384
 30
0.0
 40
4.279006739753893
100
AcDbArc
 50
268.8258325946661
 51
309.0273124884163
  0
LINE
  5
13AB4
330
3E7
100
AcDbEntity
  8
DETAIL
  6
CONTINUOUS
100
AcDbLine
 10
389.6521453857349
 20
18.98327636718931
 30
0.0
 11
349.7061004638635
 21
18.98327636718931
 31
0.0
  0
ARC
  5
13AB5
330
3E7
100
AcDbEntity
  8
DETAIL
100
AcDbCircle
 10
350.0998294481723
 20
23.24750857237813
 30
0.0
 40
4.28237070007441
100
AcDbArc
 50
230.9776662762388
 51
264.7246711742008
  0
LINE
  5
13AB6
330
3E7
100
AcDbEntity
  8
DETAIL
  6
CONTINUOUS
100
AcDbLine
 10
345.3408050537109
 20
21.98327636719113
 30
0.0
 11
347.4035491943323
 21
19.92053222656522
 31
0.0
  0
ARC
  5
13AB7
330
3E7
100
AcDbEntity
  8
DETAIL
100
AcDbCircle
 10
460.2619693407578
 20
23.26423220518972
 30
0.0
 40
4.28237070007441
100
AcDbArc
 50
230.9776662762388
 51
264.7246711742008
  0
ARC
  5
13AB8
330
3E7
100
AcDbEntity
  8
DETAIL
100
AcDbCircle
 10
498.7164868905493
 20
26.19935525413848
 30
0.0
 40
7.282573540683195
100
AcDbArc
 50
278.6699981171263
 51
300.6975035839381
  0
LINE
  5
13AB9
330
3E7
100
AcDbEntity
  8
DETAIL
  6
CONTINUOUS
100
AcDbLine
 10
329.9999847412073
 20
22.00000000000272
 30
0.0
 11
329.9999847412073
 21
5.000000000000454
 31
0.0
  0
LINE
  5
13ABA
330
3E7
100
AcDbEntity
  8
DETAIL
  6
CONTINUOUS
100
AcDbLine
 10
310.4999847412182
 20
25.0
 30
0.0
 11
307.4999847412072
 21
25.0
 31
0.0
  0
LINE
  5
13ABB
330
3E7
100
AcDbEntity
  8
DETAIL
  6
CONTINUOUS
100
AcDbLine
 10
326.9999847412145
 20
25.0
 30
0.0
 11
310.4999847412182
 21
25.0
 31
0.0
  0
ARC
  5
13ABC
330
3E7
100
AcDbEntity
  8
DETAIL
  6
CONTINUOUS
100
AcDbCircle
 10
326.999998184674
 20
22.00001344346219
 30
0.0
 40
2.999986556570656
100
AcDbArc
 50
359.9997432476904
 51
90.00025675230956
  0
ARC
  5
13ABD
330
3E7
100
AcDbEntity
  8
DETAIL
100
AcDbCircle
 10
308.9999847412109
 20
14.79832477719264
 30
0.0
 40
1.515548930785328
100
AcDbArc
 50
188.2143825019728
 51
351.7856174980638
  0
LINE
  5
13ABE
330
3E7
100
AcDbEntity
  8
DETAIL
  6
CONTINUOUS
100
AcDbLine
 10
307.4999847412072
 20
42.0
 30
0.0
 11
307.4999847412072
 21
14.58178710937772
 31
0.0
  0
LINE
  5
13ABF
330
3E7
100
AcDbEntity
  8
DETAIL
  6
CONTINUOUS
100
AcDbLine
 10
310.4999847412182
 20
14.58178710937772
 30
0.0
 11
310.4999847412182
 21
25.0
 31
0.0
  0
LINE
  5
13AC0
330
3E7
100
AcDbEntity
  8
DETAIL
  6
CONTINUOUS
100
AcDbLine
 10
324.9999847412073
 20
8.000000000001818
 30
0.0
 11
326.8477478027307
 21
8.000000000001818
 31
0.0
  0
LINE
  5
13AC1
330
3E7
100
AcDbEntity
  8
DETAIL
  6
CONTINUOUS
100
AcDbLine
 10
324.9999847412073
 20
2.000000000002728
 30
0.0
 11
329.9999847412073
 21
2.000000000002728
 31
0.0
  0
ARC
  5
13AC2
330
3E7
100
AcDbEntity
  8
DETAIL
  6
CONTINUOUS
100
AcDbCircle
 10
326.9999846069367
 20
5.000028865865715
 30
0.0
 40
3.000000134410163
100
AcDbArc
 50
359.9994487026088
 51
75.32013544760109
  0
ARC
  5
13AC3
330
3E7
100
AcDbEntity
  8
DETAIL
  6
CONTINUOUS
100
AcDbCircle
 10
330.4000027623624
 20
2.00000886586622
 30
0.0
 40
2.000008865886779
100
AcDbArc
 50
180.0002539872637
 51
269.9997460127622
  0
ARC
  5
13AC4
330
3E7
100
AcDbEntity
  8
DETAIL
  6
CONTINUOUS
100
AcDbCircle
 10
330.3999798731456
 20
2.000031754046176
 30
0.0
 40
0.3999951331973375
100
AcDbArc
 50
180.0045484872865
 51
270.00200871949
  0
LINE
  5
13AC5
330
3E7
100
AcDbEntity
  8
DETAIL
  6
CONTINUOUS
100
AcDbLine
 10
329.9999847412073
 20
5.0
 30
0.0
 11
329.9999847412073
 21
2.000000000002728
 31
0.0
  0
LINE
  5
13AC6
330
3E7
100
AcDbEntity
  8
DETAIL
  6
CONTINUOUS
100
AcDbLine
 10
334.9999847412072
 20
0.0
 30
0.0
 11
334.9999847412072
 21
1.60003662109375
 31
0.0
  0
LINE
  5
13AC7
330
3E7
100
AcDbEntity
  8
DETAIL
  6
CONTINUOUS
100
AcDbLine
 10
330.3999938964807
 20
1.60003662109375
 30
0.0
 11
331.9999847412145
 21
1.60003662109375
 31
0.0
  0
LINE
  5
13AC8
330
3E7
100
AcDbEntity
  8
DETAIL
  6
CONTINUOUS
100
AcDbLine
 10
331.9999847412145
 20
0.0
 30
0.0
 11
330.3999938964807
 21
0.0
 31
0.0
  0
LINE
  5
13AC9
330
3E7
100
AcDbEntity
  8
DETAIL
  6
CONTINUOUS
100
AcDbLine
 10
334.9999847412072
 20
1.60003662109375
 30
0.0
 11
331.9999847412145
 21
1.60003662109375
 31
0.0
  0
LINE
  5
13ACA
330
3E7
100
AcDbEntity
  8
DETAIL
  6
CONTINUOUS
100
AcDbLine
 10
334.9999847412072
 20
0.0
 30
0.0
 11
331.9999847412145
 21
0.0
 31
0.0
  0
LINE
  5
13ACB
330
3E7
100
AcDbEntity
  8
DETAIL
  6
CONTINUOUS
100
AcDbLine
 10
326.8477478027307
 20
8.000000000001818
 30
0.0
 11
327.7602386474609
 21
7.902099609377728
 31
0.0
  0
LINE
  5
13ACD
330
3E7
100
AcDbEntity
  8
DETAIL
  6
CONTINUOUS
100
AcDbLine
 10
394.4892425537182
 20
22.00000000000272
 30
0.0
 11
392.4342803955187
 21
19.93725585937681
 31
0.0
  0
LINE
  5
13ACE
330
3E7
100
AcDbEntity
  8
DETAIL
  6
CONTINUOUS
100
AcDbLine
 10
455.5029449462927
 20
22.00000000000272
 30
0.0
 11
457.565689086914
 21
19.93725585937681
 31
0.0
  0
LINE
  5
13AD8
330
3E7
100
AcDbEntity
  8
DETAIL
  6
CONTINUOUS
100
AcDbLine
 10
502.4342803955187
 20
19.93725585937681
 30
0.0
 11
508.4969635009838
 21
25.99999999999909
 31
0.0
  0
LINE
  5
13AD9
330
3E7
100
AcDbEntity
  8
DETAIL
  6
CONTINUOUS
100
AcDbLine
 10
499.1524200439562
 20
23.60003662109647
 30
0.0
 11
500.5380401611364
 21
25.99999999999909
 31
0.0
  0
ARC
  5
13ADA
330
3E7
100
AcDbEntity
  8
DETAIL
  6
CONTINUOUS
100
AcDbCircle
 10
496.3811263800017
 20
25.19998480749109
 30
0.0
 40
3.199984807935843
100
AcDbArc
 50
270.0009566574351
 51
330.0009141910805
  0
LINE
  5
13ADB
330
3E7
100
AcDbEntity
  8
DETAIL
  6
CONTINUOUS
100
AcDbLine
 10
496.3811798095775
 20
22.00000000000272
 30
0.0
 11
329.9999847412073
 21
22.00000000000272
 31
0.0
  0
LINE
  5
13ADC
330
3E7
100
AcDbEntity
  8
DETAIL
  6
CONTINUOUS
100
AcDbLine
 10
499.8142852783167
 20
19.0000000000009
 30
0.0
 11
459.8682403564453
 21
19.0000000000009
 31
0.0
  0
LINE
  5
13ADD
330
3E7
100
AcDbEntity
  8
BASIS
  6
PHANTOM
100
AcDbLine
 10
299.9999847412073
 20
26.67033965264636
 30
0.0
 11
299.9999847412073
 21
-10.67033965264272
 31
0.0
  0
LINE
  5
13ADE
330
3E7
100
AcDbEntity
  8
DETAIL
  6
CONTINUOUS
100
AcDbLine
 10
234.5025785530215
 20
22.00000000000272
 30
0.0
 11
232.4343166351354
 21
19.93725585937681
 31
0.0
  0
LINE
  5
13ADF
330
3E7
100
AcDbEntity
  8
DETAIL
  6
CONTINUOUS
100
AcDbLine
 10
269.9999847412072
 20
22.00000000000272
 30
0.0
 11
269.9999847412182
 21
4.999999999999545
 31
0.0
  0
ARC
  5
13AE0
330
3E7
100
AcDbEntity
  8
DETAIL
  6
CONTINUOUS
100
AcDbCircle
 10
272.9999774012867
 20
22.00000733993419
 30
0.0
 40
2.999992660077961
100
AcDbArc
 50
89.99985981728753
 51
180.0001401827125
  0
LINE
  5
13AE1
330
3E7
100
AcDbEntity
  8
DETAIL
  6
CONTINUOUS
100
AcDbLine
 10
289.4999847412145
 20
25.0
 30
0.0
 11
272.9999847412182
 21
25.0
 31
0.0
  0
LINE
  5
13AE2
330
3E7
100
AcDbEntity
  8
DETAIL
  6
CONTINUOUS
100
AcDbLine
 10
292.4999847412072
 20
25.0
 30
0.0
 11
289.4999847412145
 21
25.0
 31
0.0
  0
ARC
  5
13AE3
330
3E7
100
AcDbEntity
  8
DETAIL
100
AcDbCircle
 10
290.9999847412164
 20
14.79832477717491
 30
0.0
 40
1.515548930765032
100
AcDbArc
 50
188.2143824983924
 51
351.7856174990474
  0
LINE
  5
13AE4
330
3E7
100
AcDbEntity
  8
DETAIL
  6
CONTINUOUS
100
AcDbLine
 10
292.4999847412072
 20
14.58178710937772
 30
0.0
 11
292.4999847412072
 21
42.0
 31
0.0
  0
LINE
  5
13AE5
330
3E7
100
AcDbEntity
  8
DETAIL
  6
CONTINUOUS
100
AcDbLine
 10
289.4999847412145
 20
14.58178710937772
 30
0.0
 11
289.4999847412145
 21
25.0
 31
0.0
  0
LINE
  5
13AE6
330
3E7
100
AcDbEntity
  8
DETAIL
  6
CONTINUOUS
100
AcDbLine
 10
267.9999847412182
 20
0.0
 30
0.0
 11
264.9999847412073
 21
0.0
 31
0.0
  0
LINE
  5
13AE7
330
3E7
100
AcDbEntity
  8
DETAIL
  6
CONTINUOUS
100
AcDbLine
 10
267.9999847412182
 20
1.60003662109375
 30
0.0
 11
264.9999847412073
 21
1.60003662109375
 31
0.0
  0
ARC
  5
13AE8
330
3E7
100
AcDbEntity
  8
DETAIL
  6
CONTINUOUS
100
AcDbCircle
 10
272.9999774012867
 20
5.000007339931471
 30
0.0
 40
2.999992660077961
100
AcDbArc
 50
89.99985981728753
 51
180.0001401827125
  0
ARC
  5
13AE9
330
3E7
100
AcDbEntity
  8
DETAIL
  6
CONTINUOUS
100
AcDbCircle
 10
269.5999804529856
 20
2.000010391748219
 30
0.0
 40
2.000010391774079
100
AcDbArc
 50
270.000297700094
 51
359.9997022999319
  0
ARC
  5
13AEA
330
3E7
100
AcDbEntity
  8
DETAIL
  6
CONTINUOUS
100
AcDbCircle
 10
269.5999957123603
 20
2.000025650750103
 30
0.0
 40
0.3999890296843836
100
AcDbArc
 50
269.9993027454079
 51
359.996325700119
  0
LINE
  5
13AEB
330
3E7
100
AcDbEntity
  8
DETAIL
  6
CONTINUOUS
100
AcDbLine
 10
269.9999847412072
 20
5.0
 30
0.0
 11
269.9999847412072
 21
2.000000000002728
 31
0.0
  0
LINE
  5
13AEC
330
3E7
100
AcDbEntity
  8
DETAIL
  6
CONTINUOUS
100
AcDbLine
 10
272.9999847412182
 20
8.000000000001818
 30
0.0
 11
274.9999847412073
 21
8.000000000001818
 31
0.0
  0
LINE
  5
13AED
330
3E7
100
AcDbEntity
  8
DETAIL
  6
CONTINUOUS
100
AcDbLine
 10
269.5999908447265
 20
0.0
 30
0.0
 11
267.9999847412182
 21
0.0
 31
0.0
  0
LINE
  5
13AEE
330
3E7
100
AcDbEntity
  8
DETAIL
  6
CONTINUOUS
100
AcDbLine
 10
267.9999847412182
 20
1.60003662109375
 30
0.0
 11
269.5999908447265
 21
1.60003662109375
 31
0.0
  0
LINE
  5
13AEF
330
3E7
100
AcDbEntity
  8
DETAIL
  6
CONTINUOUS
100
AcDbLine
 10
269.9999847412072
 20
2.000000000002728
 30
0.0
 11
274.9999847412073
 21
2.000000000002728
 31
0.0
  0
LINE
  5
13AF0
330
3E7
100
AcDbEntity
  8
DETAIL
  6
CONTINUOUS
100
AcDbLine
 10
264.9999847412073
 20
0.0
 30
0.0
 11
264.9999847412073
 21
1.60003662109375
 31
0.0
  0
LINE
  5
13AF1
330
3E7
100
AcDbEntity
  8
DETAIL
  6
CONTINUOUS
100
AcDbLine
 10
-166.1149597167968
 20
25.0
 30
0.0
 11
-289.5000152587817
 21
25.0
 31
0.0
  0
LINE
  5
13AF2
330
3E7
100
AcDbEntity
  8
DETAIL
  6
CONTINUOUS
100
AcDbLine
 10
269.9999847412182
 20
22.00000000000272
 30
0.0
 11
-270.0000152587926
 21
22.00000000000272
 31
0.0
  0
LINE
  5
13AF3
330
3E7
100
AcDbEntity
  8
DETAIL
  6
CONTINUOUS
100
AcDbLine
 10
69.81429862976256
 20
19.0000000000009
 30
0.0
 11
29.86825752258482
 21
19.0000000000009
 31
0.0
  0
ARC
  5
13AF4
330
3E7
100
AcDbEntity
  8
DETAIL
100
AcDbCircle
 10
190.2621058887125
 20
23.26454423293762
 30
0.0
 40
4.282693084950641
100
AcDbArc
 50
230.9789744855301
 51
264.723362964954
  0
LINE
  5
13AF5
330
3E7
100
AcDbEntity
  8
DETAIL
  6
CONTINUOUS
100
AcDbLine
 10
185.5029949575709
 20
22.00000000000272
 30
0.0
 11
187.5656986236572
 21
19.93725585937681
 31
0.0
  0
LINE
  5
13AF6
330
3E7
100
AcDbEntity
  8
DETAIL
  6
CONTINUOUS
100
AcDbLine
 10
229.8142910003662
 20
19.0000000000009
 30
0.0
 11
189.8682498931884
 21
19.0000000000009
 31
0.0
  0
ARC
  5
13AF7
330
3E7
100
AcDbEntity
  8
DETAIL
100
AcDbCircle
 10
229.8022648495425
 20
23.16428472629786
 30
0.0
 40
4.164302091584343
100
AcDbArc
 50
270.1654655758913
 51
309.2016128168366
  0
ARC
  5
13AF8
330
3E7
100
AcDbEntity
  8
DETAIL
100
AcDbCircle
 10
69.8022724789389
 20
23.16428472629786
 30
0.0
 40
4.164302091584343
100
AcDbArc
 50
270.1654655758913
 51
309.2016128168366
  0
LINE
  5
13AF9
330
3E7
100
AcDbEntity
  8
DETAIL
  6
CONTINUOUS
100
AcDbLine
 10
74.50258618241787
 20
22.00000000000272
 30
0.0
 11
72.43432426453182
 21
19.93725585937681
 31
0.0
  0
ARC
  5
13AFA
330
3E7
100
AcDbEntity
  8
DETAIL
100
AcDbCircle
 10
30.26211351810889
 20
23.26454423293762
 30
0.0
 40
4.282693084950641
100
AcDbArc
 50
230.9789744855301
 51
264.723362964954
  0
LINE
  5
13AFB
330
3E7
100
AcDbEntity
  8
DETAIL
  6
CONTINUOUS
100
AcDbLine
 10
25.50300258696734
 20
22.00000000000272
 30
0.0
 11
27.56570625305357
 21
19.93725585937681
 31
0.0
  0
ARC
  5
13AFC
330
3E7
100
AcDbEntity
  8
DETAIL
100
AcDbCircle
 10
-90.19775994599331
 20
23.16428472629786
 30
0.0
 40
4.164302091584343
100
AcDbArc
 50
270.1654655758913
 51
309.2016128168366
  0
ARC
  5
13AFD
330
3E7
100
AcDbEntity
  8
DETAIL
100
AcDbCircle
 10
-129.7379189068233
 20
23.26454423293762
 30
0.0
 40
4.282693084950641
100
AcDbArc
 50
230.9789744855301
 51
264.723362964954
  0
LINE
  5
13AFE
330
3E7
100
AcDbEntity
  8
DETAIL
  6
CONTINUOUS
100
AcDbLine
 10
-165.0000076293872
 20
26.99999999999818
 30
0.0
 11
-166.0000076293908
 21
26.99999999999818
 31
0.0
  0
LINE
  5
13AFF
330
3E7
100
AcDbEntity
  8
DETAIL
  6
CONTINUOUS
100
AcDbLine
 10
-166.0000076293908
 20
25.99999999999909
 30
0.0
 11
-166.0000076293908
 21
26.99999999999818
 31
0.0
  0
LINE
  5
13B00
330
3E7
100
AcDbEntity
  8
DETAIL
  6
CONTINUOUS
100
AcDbLine
 10
-165.0000076293872
 20
26.99999999999818
 30
0.0
 11
-164.0000076293836
 21
26.99999999999818
 31
0.0
  0
LINE
  5
13B01
330
3E7
100
AcDbEntity
  8
DETAIL
  6
CONTINUOUS
100
AcDbLine
 10
-164.0000076293836
 20
25.99999999999909
 30
0.0
 11
-164.0000076293836
 21
26.99999999999818
 31
0.0
  0
LINE
  5
13B02
330
3E7
100
AcDbEntity
  8
DETAIL
  6
CONTINUOUS
100
AcDbLine
 10
-163.9786071777234
 20
25.45916748047147
 30
0.0
 11
-163.0724487304723
 21
25.99999999999909
 31
0.0
  0
ARC
  5
13B03
330
3E7
100
AcDbEntity
  8
DETAIL
  6
CONTINUOUS
100
AcDbCircle
 10
-166.1150771039501
 20
30.19999641751837
 30
0.0
 40
5.199996418843369
100
AcDbArc
 50
270.0012934217383
 51
294.2588628313385
  0
LINE
  5
13B04
330
3E7
100
AcDbEntity
  8
DETAIL
  6
CONTINUOUS
100
AcDbLine
 10
-134.4970298379648
 20
22.00000000000272
 30
0.0
 11
-132.4343261718786
 21
19.93725585937681
 31
0.0
  0
LINE
  5
13B05
330
3E7
100
AcDbEntity
  8
DETAIL
  6
CONTINUOUS
100
AcDbLine
 10
-85.49744624251434
 20
22.00000000000272
 30
0.0
 11
-87.56570816040039
 21
19.93725585937681
 31
0.0
  0
LINE
  5
13B06
330
3E7
100
AcDbEntity
  8
DETAIL
  6
CONTINUOUS
100
AcDbLine
 10
-90.18573379516965
 20
19.0000000000009
 30
0.0
 11
-130.1317749023473
 21
19.0000000000009
 31
0.0
  0
LINE
  5
13B07
330
3E7
100
AcDbEntity
  8
BASIS
  6
PHANTOM
100
AcDbLine
 10
-300.0000152587927
 20
26.67033965264636
 30
0.0
 11
-300.0000152587927
 21
-10.67033965264272
 31
0.0
  0
ARC
  5
13B08
330
3E7
100
AcDbEntity
  8
DETAIL
100
AcDbCircle
 10
-291.000015258789
 20
14.79832477719264
 30
0.0
 40
1.515548930785328
100
AcDbArc
 50
188.2143825019728
 51
351.7856174980638
  0
ARC
  5
13B09
330
3E7
100
AcDbEntity
  8
DETAIL
100
AcDbCircle
 10
-309.0000152587836
 20
14.79832477717491
 30
0.0
 40
1.515548930765032
100
AcDbArc
 50
188.2143824983924
 51
351.7856174990474
  0
LINE
  5
13B0A
330
3E7
100
AcDbEntity
  8
DETAIL
  6
CONTINUOUS
100
AcDbLine
 10
-335.0000152587927
 20
0.0
 30
0.0
 11
-335.0000152587927
 21
1.60003662109375
 31
0.0
  0
LINE
  5
13B0B
330
3E7
100
AcDbEntity
  8
DETAIL
  6
CONTINUOUS
100
AcDbLine
 10
-307.5000152587926
 20
25.0
 30
0.0
 11
-310.5000152587854
 21
25.0
 31
0.0
  0
LINE
  5
13B0C
330
3E7
100
AcDbEntity
  8
DETAIL
  6
CONTINUOUS
100
AcDbLine
 10
-289.5000152587817
 20
25.0
 30
0.0
 11
-292.5000152587927
 21
25.0
 31
0.0
  0
LINE
  5
13B0D
330
3E7
100
AcDbEntity
  8
DETAIL
  6
CONTINUOUS
100
AcDbLine
 10
-278.3578643798864
 20
25.0
 30
0.0
 11
-279.852157592777
 21
25.0
 31
0.0
  0
LINE
  5
13B0E
330
3E7
100
AcDbEntity
  8
DETAIL
  6
CONTINUOUS
100
AcDbLine
 10
-310.5000152587854
 20
25.0
 30
0.0
 11
-327.0000152587817
 21
25.0
 31
0.0
  0
LINE
  5
13B0F
330
3E7
100
AcDbEntity
  8
DETAIL
  6
CONTINUOUS
100
AcDbLine
 10
-307.5000152587926
 20
14.58178710937772
 30
0.0
 11
-307.5000152587926
 21
25.99999999999909
 31
0.0
  0
LINE
  5
13B10
330
3E7
100
AcDbEntity
  8
DETAIL
  6
CONTINUOUS
100
AcDbLine
 10
-292.5000152587927
 20
25.99999999999909
 30
0.0
 11
-292.5000152587927
 21
14.58178710937772
 31
0.0
  0
LINE
  5
13B11
330
3E7
100
AcDbEntity
  8
DETAIL
  6
CONTINUOUS
100
AcDbLine
 10
-310.5000152587854
 20
14.58178710937772
 30
0.0
 11
-310.5000152587854
 21
25.0
 31
0.0
  0
LINE
  5
13B12
330
3E7
100
AcDbEntity
  8
DETAIL
  6
CONTINUOUS
100
AcDbLine
 10
-292.5000152587927
 20
14.58178710937772
 30
0.0
 11
-307.5000152587926
 21
14.58178710937772
 31
0.0
  0
LINE
  5
13B13
330
3E7
100
AcDbEntity
  8
DETAIL
  6
CONTINUOUS
100
AcDbLine
 10
-289.5000152587817
 20
14.58178710937772
 30
0.0
 11
-289.5000152587817
 21
25.0
 31
0.0
  0
LINE
  5
13B14
330
3E7
100
AcDbEntity
  8
DETAIL
  6
CONTINUOUS
100
AcDbLine
 10
-292.5000152587927
 20
25.0
 30
0.0
 11
-289.5000152587817
 21
25.0
 31
0.0
  0
LINE
  5
13B15
330
3E7
100
AcDbEntity
  8
DETAIL
  6
CONTINUOUS
100
AcDbLine
 10
-310.5000152587854
 20
25.0
 30
0.0
 11
-307.5000152587926
 21
25.0
 31
0.0
  0
ARC
  5
13B16
330
3E7
100
AcDbEntity
  8
DETAIL
  6
CONTINUOUS
100
AcDbCircle
 10
-327.0000225987132
 20
22.00000733993419
 30
0.0
 40
2.999992660077961
100
AcDbArc
 50
89.99985981728753
 51
180.0001401827125
  0
ARC
  5
13B17
330
3E7
100
AcDbEntity
  8
DETAIL
  6
CONTINUOUS
100
AcDbCircle
 10
-273.0000018153259
 20
22.00001344346219
 30
0.0
 40
2.999986556570656
100
AcDbArc
 50
359.9997432476904
 51
90.00025675230956
  0
LINE
  5
13B18
330
3E7
100
AcDbEntity
  8
DETAIL
  6
CONTINUOUS
100
AcDbLine
 10
-330.0000152587927
 20
2.000000000002728
 30
0.0
 11
-325.0000152587927
 21
2.000000000002728
 31
0.0
  0
LINE
  5
13B19
330
3E7
100
AcDbEntity
  8
DETAIL
  6
CONTINUOUS
100
AcDbLine
 10
-332.0000152587817
 20
1.60003662109375
 30
0.0
 11
-330.4000091552734
 21
1.60003662109375
 31
0.0
  0
LINE
  5
13B1A
330
3E7
100
AcDbEntity
  8
DETAIL
  6
CONTINUOUS
100
AcDbLine
 10
-330.4000091552734
 20
0.0
 30
0.0
 11
-332.0000152587817
 21
0.0
 31
0.0
  0
LINE
  5
13B1B
330
3E7
100
AcDbEntity
  8
DETAIL
  6
CONTINUOUS
100
AcDbLine
 10
-327.0000152587817
 20
8.000000000001818
 30
0.0
 11
-325.0000152587927
 21
8.000000000001818
 31
0.0
  0
LINE
  5
13B1C
330
3E7
100
AcDbEntity
  8
DETAIL
  6
CONTINUOUS
100
AcDbLine
 10
-330.0000152587927
 20
5.0
 30
0.0
 11
-330.0000152587927
 21
2.000000000002728
 31
0.0
  0
LINE
  5
13B1D
330
3E7
100
AcDbEntity
  8
DETAIL
  6
CONTINUOUS
100
AcDbLine
 10
-325.0000152587927
 20
8.000000000001818
 30
0.0
 11
-275.0000152587927
 21
8.000000000001818
 31
0.0
  0
LINE
  5
13B1E
330
3E7
100
AcDbEntity
  8
DETAIL
  6
CONTINUOUS
100
AcDbLine
 10
-325.0000152587927
 20
2.000000000002728
 30
0.0
 11
-275.0000152587927
 21
2.000000000002728
 31
0.0
  0
ARC
  5
13B1F
330
3E7
100
AcDbEntity
  8
DETAIL
  6
CONTINUOUS
100
AcDbCircle
 10
-330.4000042876396
 20
2.000025650750103
 30
0.0
 40
0.3999890296843836
100
AcDbArc
 50
269.9993027454079
 51
359.996325700119
  0
ARC
  5
13B20
330
3E7
100
AcDbEntity
  8
DETAIL
  6
CONTINUOUS
100
AcDbCircle
 10
-330.4000195470143
 20
2.000010391748219
 30
0.0
 40
2.000010391774079
100
AcDbArc
 50
270.000297700094
 51
359.9997022999319
  0
ARC
  5
13B21
330
3E7
100
AcDbEntity
  8
DETAIL
  6
CONTINUOUS
100
AcDbCircle
 10
-327.0000225987132
 20
5.000007339931471
 30
0.0
 40
2.999992660077961
100
AcDbArc
 50
89.99985981728753
 51
180.0001401827125
  0
LINE
  5
13B22
330
3E7
100
AcDbEntity
  8
DETAIL
  6
CONTINUOUS
100
AcDbLine
 10
-273.1522521972692
 20
8.000000000001818
 30
0.0
 11
-272.239761352539
 21
7.902099609377728
 31
0.0
  0
LINE
  5
13B23
330
3E7
100
AcDbEntity
  8
DETAIL
  6
CONTINUOUS
100
AcDbLine
 10
-265.0000152587927
 20
0.0
 30
0.0
 11
-268.0000152587854
 21
0.0
 31
0.0
  0
LINE
  5
13B24
330
3E7
100
AcDbEntity
  8
DETAIL
  6
CONTINUOUS
100
AcDbLine
 10
-265.0000152587927
 20
1.60003662109375
 30
0.0
 11
-268.0000152587854
 21
1.60003662109375
 31
0.0
  0
LINE
  5
13B25
330
3E7
100
AcDbEntity
  8
DETAIL
  6
CONTINUOUS
100
AcDbLine
 10
-268.0000152587854
 20
0.0
 30
0.0
 11
-269.6000061035192
 21
0.0
 31
0.0
  0
LINE
  5
13B26
330
3E7
100
AcDbEntity
  8
DETAIL
  6
CONTINUOUS
100
AcDbLine
 10
-269.6000061035192
 20
1.60003662109375
 30
0.0
 11
-268.0000152587854
 21
1.60003662109375
 31
0.0
  0
LINE
  5
13B27
330
3E7
100
AcDbEntity
  8
DETAIL
  6
CONTINUOUS
100
AcDbLine
 10
-265.0000152587927
 20
0.0
 30
0.0
 11
-265.0000152587927
 21
1.60003662109375
 31
0.0
  0
LINE
  5
13B28
330
3E7
100
AcDbEntity
  8
DETAIL
  6
CONTINUOUS
100
AcDbLine
 10
-270.0000152587926
 20
5.0
 30
0.0
 11
-270.0000152587926
 21
2.000000000002728
 31
0.0
  0
ARC
  5
13B29
330
3E7
100
AcDbEntity
  8
DETAIL
  6
CONTINUOUS
100
AcDbCircle
 10
-269.6000201268543
 20
2.000031754046176
 30
0.0
 40
0.3999951331973375
100
AcDbArc
 50
180.0045484872865
 51
270.00200871949
  0
ARC
  5
13B2A
330
3E7
100
AcDbEntity
  8
DETAIL
  6
CONTINUOUS
100
AcDbCircle
 10
-269.5999972376375
 20
2.00000886586622
 30
0.0
 40
2.000008865886779
100
AcDbArc
 50
180.0002539872637
 51
269.9997460127622
  0
ARC
  5
13B2B
330
3E7
100
AcDbEntity
  8
DETAIL
  6
CONTINUOUS
100
AcDbCircle
 10
-273.0000153930632
 20
5.000028865865715
 30
0.0
 40
3.000000134410163
100
AcDbArc
 50
359.9994487026088
 51
75.32013544760109
  0
LINE
  5
13B2C
330
3E7
100
AcDbEntity
  8
DETAIL
  6
CONTINUOUS
100
AcDbLine
 10
-275.0000152587927
 20
2.000000000002728
 30
0.0
 11
-270.0000152587926
 21
2.000000000002728
 31
0.0
  0
LINE
  5
13B2D
330
3E7
100
AcDbEntity
  8
DETAIL
  6
CONTINUOUS
100
AcDbLine
 10
-275.0000152587927
 20
8.000000000001818
 30
0.0
 11
-273.1522521972692
 21
8.000000000001818
 31
0.0
  0
LINE
  5
13B2E
330
3E7
100
AcDbEntity
  8
DETAIL
  6
CONTINUOUS
100
AcDbLine
 10
-330.0000152587927
 20
22.00000000000272
 30
0.0
 11
-330.0000152587817
 21
4.999999999999545
 31
0.0
  0
LINE
  5
13B2F
330
3E7
100
AcDbEntity
  8
DETAIL
  6
CONTINUOUS
100
AcDbLine
 10
-270.0000152587926
 20
22.00000000000272
 30
0.0
 11
-270.0000152587926
 21
5.000000000000454
 31
0.0
  0
LINE
  5
13B30
330
3E7
100
AcDbEntity
  8
DETAIL
  6
CONTINUOUS
100
AcDbLine
 10
-332.0000152587817
 20
1.60003662109375
 30
0.0
 11
-335.0000152587927
 21
1.60003662109375
 31
0.0
  0
LINE
  5
13B31
330
3E7
100
AcDbEntity
  8
DETAIL
  6
CONTINUOUS
100
AcDbLine
 10
-332.0000152587817
 20
0.0
 30
0.0
 11
-335.0000152587927
 21
0.0
 31
0.0
  0
LINE
  5
13B32
330
3E7
100
AcDbEntity
  8
DETAIL
  6
CONTINUOUS
100
AcDbLine
 10
-515.1133880615271
 20
25.0
 30
0.0
 11
-327.0000225987132
 21
25.0
 31
0.0
  0
LINE
  5
13B33
330
3E7
100
AcDbEntity
  8
DETAIL
  6
CONTINUOUS
100
AcDbLine
 10
-501.3812103271447
 20
22.00000000000272
 30
0.0
 11
-330.0000152587927
 21
22.00000000000272
 31
0.0
  0
ARC
  5
13B34
330
3E7
100
AcDbEntity
  8
DETAIL
100
AcDbCircle
 10
-514.971453131262
 20
28.50295155918411
 30
0.0
 40
3.505825887065663
100
AcDbArc
 50
225.5564474797704
 51
267.6797205752582
  0
ARC
  5
13B35
330
3E7
100
AcDbEntity
  8
DETAIL
  6
CONTINUOUS
100
AcDbCircle
 10
-523.9986178920007
 20
27.00046399449183
 30
0.0
 40
1.00139747427947
100
AcDbArc
 50
180.0265478270413
 51
272.474119008391
  0
LINE
  5
13B36
330
3E7
100
AcDbEntity
  8
DETAIL
  6
CONTINUOUS
100
AcDbLine
 10
-504.1524810790906
 20
23.60003662109647
 30
0.0
 11
-504.4411773681531
 21
24.10003662109375
 31
0.0
  0
ARC
  5
13B37
330
3E7
100
AcDbEntity
  8
DETAIL
  6
CONTINUOUS
100
AcDbCircle
 10
-505.999994752874
 20
23.20001246841457
 30
0.0
 40
1.799987531703598
100
AcDbArc
 50
30.00111688976694
 51
90.0006527279827
  0
ARC
  5
13B38
330
3E7
100
AcDbEntity
  8
DETAIL
  6
CONTINUOUS
100
AcDbCircle
 10
-501.3811767339757
 20
25.20000330804123
 30
0.0
 40
3.200003308216651
100
AcDbArc
 50
209.9992770631294
 51
269.9993985174041
  0
ARC
  5
13B3E
330
3E7
100
AcDbEntity
  8
DETAIL
  6
CONTINUOUS
100
AcDbCircle
 10
-526.2000112680107
 20
446.9046534976241
 30
0.0
 40
2.80000399078749
100
AcDbArc
 50
135.0000956303789
 51
179.9998037902158
  0
LINE
  5
13B3F
330
3E7
100
AcDbEntity
  8
DETAIL
  6
CONTINUOUS
100
AcDbLine
 10
-528.1799163818322
 20
448.8845520022705
 30
0.0
 11
-525.0000152587836
 21
452.0648815340577
 31
0.0
  0
LINE
  5
13B40
330
3E7
100
AcDbEntity
  8
DETAIL
  6
CONTINUOUS
100
AcDbLine
 10
-529.000015258789
 20
436.3499755862558
 30
0.0
 11
-529.000015258789
 21
446.9046630862585
 31
0.0
  0
LINE
  5
13B41
330
3E7
100
AcDbEntity
  8
DETAIL
100
AcDbLine
 10
-529.000015258789
 20
436.3499755862558
 30
0.0
 11
-525.0000152587836
 21
436.0000305178959
 31
0.0
  0
LINE
  5
13B42
330
3E7
100
AcDbEntity
  8
DETAIL
  6
CONTINUOUS
100
AcDbLine
 10
-529.000015258789
 20
416.3499755862285
 30
0.0
 11
-529.000015258789
 21
426.9046630862312
 31
0.0
  0
LINE
  5
13B43
330
3E7
100
AcDbEntity
  8
DETAIL
100
AcDbLine
 10
-529.000015258789
 20
416.3499755862285
 30
0.0
 11
-525.0000152587836
 21
416.0000305178686
 31
0.0
  0
LINE
  5
13B44
330
3E7
100
AcDbEntity
  8
DETAIL
  6
CONTINUOUS
100
AcDbLine
 10
-528.1799163818322
 20
428.8845520022432
 30
0.0
 11
-525.0000152587836
 21
432.0648815340304
 31
0.0
  0
ARC
  5
13B45
330
3E7
100
AcDbEntity
  8
DETAIL
  6
CONTINUOUS
100
AcDbCircle
 10
-526.2000112680107
 20
426.9046534975968
 30
0.0
 40
2.80000399078749
100
AcDbArc
 50
135.0000956303789
 51
179.9998037902158
  0
LINE
  5
13B46
330
3E7
100
AcDbEntity
  8
DETAIL
  6
CONTINUOUS
100
AcDbLine
 10
-529.000015258789
 20
396.3499755862012
 30
0.0
 11
-529.000015258789
 21
406.904663086204
 31
0.0
  0
LINE
  5
13B47
330
3E7
100
AcDbEntity
  8
DETAIL
100
AcDbLine
 10
-529.000015258789
 20
396.3499755862012
 30
0.0
 11
-525.0000152587836
 21
396.0000305178414
 31
0.0
  0
LINE
  5
13B48
330
3E7
100
AcDbEntity
  8
DETAIL
  6
CONTINUOUS
100
AcDbLine
 10
-528.1799163818322
 20
408.8845520022159
 30
0.0
 11
-525.0000152587836
 21
412.0648815340032
 31
0.0
  0
ARC
  5
13B49
330
3E7
100
AcDbEntity
  8
DETAIL
  6
CONTINUOUS
100
AcDbCircle
 10
-526.2000112680107
 20
406.9046534975695
 30
0.0
 40
2.80000399078749
100
AcDbArc
 50
135.0000956303789
 51
179.9998037902158
  0
LINE
  5
13B4A
330
3E7
100
AcDbEntity
  8
DETAIL
  6
CONTINUOUS
100
AcDbLine
 10
-529.000015258789
 20
376.3499755861739
 30
0.0
 11
-529.000015258789
 21
386.9046630861767
 31
0.0
  0
LINE
  5
13B4B
330
3E7
100
AcDbEntity
  8
DETAIL
100
AcDbLine
 10
-529.000015258789
 20
376.3499755861739
 30
0.0
 11
-525.0000152587836
 21
376.0000305178141
 31
0.0
  0
LINE
  5
13B4C
330
3E7
100
AcDbEntity
  8
DETAIL
  6
CONTINUOUS
100
AcDbLine
 10
-528.1799163818322
 20
388.8845520021886
 30
0.0
 11
-525.0000152587836
 21
392.0648815339759
 31
0.0
  0
ARC
  5
13B4D
330
3E7
100
AcDbEntity
  8
DETAIL
  6
CONTINUOUS
100
AcDbCircle
 10
-526.2000112680107
 20
386.9046534975423
 30
0.0
 40
2.80000399078749
100
AcDbArc
 50
135.0000956303789
 51
179.9998037902158
  0
LINE
  5
13B4E
330
3E7
100
AcDbEntity
  8
DETAIL
  6
CONTINUOUS
100
AcDbLine
 10
-529.000015258789
 20
356.3499755861466
 30
0.0
 11
-529.000015258789
 21
366.9046630861494
 31
0.0
  0
LINE
  5
13B4F
330
3E7
100
AcDbEntity
  8
DETAIL
100
AcDbLine
 10
-529.000015258789
 20
356.3499755861466
 30
0.0
 11
-525.0000152587836
 21
356.0000305177868
 31
0.0
  0
LINE
  5
13B50
330
3E7
100
AcDbEntity
  8
DETAIL
  6
CONTINUOUS
100
AcDbLine
 10
-528.1799163818322
 20
368.8845520021613
 30
0.0
 11
-525.0000152587836
 21
372.0648815339486
 31
0.0
  0
ARC
  5
13B51
330
3E7
100
AcDbEntity
  8
DETAIL
  6
CONTINUOUS
100
AcDbCircle
 10
-526.2000112680107
 20
366.904653497515
 30
0.0
 40
2.80000399078749
100
AcDbArc
 50
135.0000956303789
 51
179.9998037902158
  0
LINE
  5
13B52
330
3E7
100
AcDbEntity
  8
DETAIL
  6
CONTINUOUS
100
AcDbLine
 10
-529.000015258789
 20
336.3499755861194
 30
0.0
 11
-529.000015258789
 21
346.9046630861221
 31
0.0
  0
LINE
  5
13B53
330
3E7
100
AcDbEntity
  8
DETAIL
100
AcDbLine
 10
-529.000015258789
 20
336.3499755861194
 30
0.0
 11
-525.0000152587836
 21
336.0000305177595
 31
0.0
  0
LINE
  5
13B54
330
3E7
100
AcDbEntity
  8
DETAIL
  6
CONTINUOUS
100
AcDbLine
 10
-528.1799163818322
 20
348.8845520021341
 30
0.0
 11
-525.0000152587836
 21
352.0648815339213
 31
0.0
  0
ARC
  5
13B55
330
3E7
100
AcDbEntity
  8
DETAIL
  6
CONTINUOUS
100
AcDbCircle
 10
-526.2000112680107
 20
346.9046534974877
 30
0.0
 40
2.80000399078749
100
AcDbArc
 50
135.0000956303789
 51
179.9998037902158
  0
LINE
  5
13B56
330
3E7
100
AcDbEntity
  8
DETAIL
  6
CONTINUOUS
100
AcDbLine
 10
-529.000015258789
 20
316.3499755860921
 30
0.0
 11
-529.000015258789
 21
326.9046630860948
 31
0.0
  0
LINE
  5
13B57
330
3E7
100
AcDbEntity
  8
DETAIL
100
AcDbLine
 10
-529.000015258789
 20
316.3499755860921
 30
0.0
 11
-525.0000152587836
 21
316.0000305177323
 31
0.0
  0
LINE
  5
13B58
330
3E7
100
AcDbEntity
  8
DETAIL
  6
CONTINUOUS
100
AcDbLine
 10
-528.1799163818322
 20
328.8845520021068
 30
0.0
 11
-525.0000152587836
 21
332.0648815338941
 31
0.0
  0
ARC
  5
13B59
330
3E7
100
AcDbEntity
  8
DETAIL
  6
CONTINUOUS
100
AcDbCircle
 10
-526.2000112680107
 20
326.9046534974604
 30
0.0
 40
2.80000399078749
100
AcDbArc
 50
135.0000956303789
 51
179.9998037902158
  0
LINE
  5
13B5A
330
3E7
100
AcDbEntity
  8
DETAIL
  6
CONTINUOUS
100
AcDbLine
 10
-529.000015258789
 20
296.3499755860648
 30
0.0
 11
-529.000015258789
 21
306.9046630860675
 31
0.0
  0
LINE
  5
13B5B
330
3E7
100
AcDbEntity
  8
DETAIL
100
AcDbLine
 10
-529.000015258789
 20
296.3499755860648
 30
0.0
 11
-525.0000152587836
 21
296.000030517705
 31
0.0
  0
LINE
  5
13B5C
330
3E7
100
AcDbEntity
  8
DETAIL
  6
CONTINUOUS
100
AcDbLine
 10
-528.1799163818322
 20
308.8845520020795
 30
0.0
 11
-525.0000152587836
 21
312.0648815338668
 31
0.0
  0
ARC
  5
13B5D
330
3E7
100
AcDbEntity
  8
DETAIL
  6
CONTINUOUS
100
AcDbCircle
 10
-526.2000112680107
 20
306.9046534974331
 30
0.0
 40
2.80000399078749
100
AcDbArc
 50
135.0000956303789
 51
179.9998037902158
  0
LINE
  5
13B5E
330
3E7
100
AcDbEntity
  8
DETAIL
  6
CONTINUOUS
100
AcDbLine
 10
-529.000015258789
 20
276.3499755860375
 30
0.0
 11
-529.000015258789
 21
286.9046630860402
 31
0.0
  0
LINE
  5
13B5F
330
3E7
100
AcDbEntity
  8
DETAIL
100
AcDbLine
 10
-529.000015258789
 20
276.3499755860375
 30
0.0
 11
-525.0000152587836
 21
276.0000305176777
 31
0.0
  0
LINE
  5
13B60
330
3E7
100
AcDbEntity
  8
DETAIL
  6
CONTINUOUS
100
AcDbLine
 10
-528.1799163818322
 20
288.8845520020522
 30
0.0
 11
-525.0000152587836
 21
292.0648815338395
 31
0.0
  0
ARC
  5
13B61
330
3E7
100
AcDbEntity
  8
DETAIL
  6
CONTINUOUS
100
AcDbCircle
 10
-526.2000112680107
 20
286.9046534974058
 30
0.0
 40
2.80000399078749
100
AcDbArc
 50
135.0000956303789
 51
179.9998037902158
  0
LINE
  5
13B62
330
3E7
100
AcDbEntity
  8
DETAIL
  6
CONTINUOUS
100
AcDbLine
 10
-529.000015258789
 20
256.3499755860102
 30
0.0
 11
-529.000015258789
 21
266.9046630860129
 31
0.0
  0
LINE
  5
13B63
330
3E7
100
AcDbEntity
  8
DETAIL
100
AcDbLine
 10
-529.000015258789
 20
256.3499755860102
 30
0.0
 11
-525.0000152587836
 21
256.0000305176504
 31
0.0
  0
LINE
  5
13B64
330
3E7
100
AcDbEntity
  8
DETAIL
  6
CONTINUOUS
100
AcDbLine
 10
-528.1799163818322
 20
268.8845520020249
 30
0.0
 11
-525.0000152587836
 21
272.0648815338122
 31
0.0
  0
ARC
  5
13B65
330
3E7
100
AcDbEntity
  8
DETAIL
  6
CONTINUOUS
100
AcDbCircle
 10
-526.2000112680107
 20
266.9046534973785
 30
0.0
 40
2.80000399078749
100
AcDbArc
 50
135.0000956303789
 51
179.9998037902158
  0
LINE
  5
13B67
330
3E7
100
AcDbEntity
  8
DETAIL
100
AcDbLine
 10
295.4999847412072
 20
45.0
 30
0.0
 11
304.4999847412073
 21
45.0
 31
0.0
  0
ARC
  5
13B68
330
3E7
100
AcDbEntity
  8
DETAIL
100
AcDbCircle
 10
295.4999774012758
 20
42.00000733993056
 30
0.0
 40
2.999992660077507
100
AcDbArc
 50
89.99985981729192
 51
180.0001401826907
  0
ARC
  5
13B69
330
3E7
100
AcDbEntity
  8
DETAIL
100
AcDbCircle
 10
304.4999981846667
 20
42.00001344345856
 30
0.0
 40
2.999986556571565
100
AcDbArc
 50
359.9997432477036
 51
90.00025675231373
  0
CIRCLE
  5
13B6D
330
3E7
100
AcDbEntity
  8
DETAIL
100
AcDbCircle
 10
-410.0000091552828
 20
159.0000305175772
 30
0.0
 40
20.0500084095543
  0
CIRCLE
  5
13B70
330
3E7
100
AcDbEntity
  8
DETAIL
100
AcDbCircle
 10
-470.0000091552829
 20
161.9999999999981
 30
0.0
 40
13.5499822573054
  0
LINE
  5
13B71
330
3E7
100
AcDbEntity
  8
DETAIL
  6
CONTINUOUS
100
AcDbLine
 10
-403.9500177145692
 20
99.0000116958472
 30
0.0
 11
-403.9500177145692
 21
26.00001169584539
 31
0.0
  0
LINE
  5
13B72
330
3E7
100
AcDbEntity
  8
DETAIL
  6
CONTINUOUS
100
AcDbLine
 10
-496.0500238180884
 20
26.00001169584539
 30
0.0
 11
-496.0500238180884
 21
99.0000116958472
 31
0.0
  0
ARC
  5
13B73
330
3E7
100
AcDbEntity
  8
DETAIL
  6
CONTINUOUS
100
AcDbCircle
 10
-450.0000207663288
 20
99.00003736572671
 30
0.0
 40
46.05000305176679
100
AcDbArc
 50
359.999968061332
 51
180.0000319386679
  0
LINE
  5
13C16
330
3E7
100
AcDbEntity
  8
DETAIL
  6
CONTINUOUS
100
AcDbLine
 10
-280.0
 20
54.00000000004411
 30
0.0
 11
486.2000274671918
 21
54.00000000004411
 31
0.0
  0
LINE
  5
13C69
330
3E7
100
AcDbEntity
  8
DETAIL
  6
CONTINUOUS
100
AcDbLine
 10
486.2000274671918
 20
28.00000000000864
 30
0.0
 11
320.57106018181
 21
28.00000000000864
 31
0.0
  0
LINE
  5
13C87
330
3E7
100
AcDbEntity
  8
DETAIL
  6
CONTINUOUS
100
AcDbLine
 10
279.4289093028473
 20
28.00000000000864
 30
0.0
 11
-280.0
 21
28.00000000000864
 31
0.0
  0
LINE
  5
13CDD
330
3E7
100
AcDbEntity
  8
DETAIL
  6
CONTINUOUS
100
AcDbLine
 10
-384.5000152587999
 20
199.7000427246075
 30
0.0
 11
-384.5000152587999
 21
201.1500549316406
 31
0.0
  0
LINE
  5
13CDE
330
3E7
100
AcDbEntity
  8
DETAIL
  6
CONTINUOUS
100
AcDbLine
 10
-384.0000152588072
 20
199.2000427246057
 30
0.0
 11
-382.550003051765
 21
199.2000427246057
 31
0.0
  0
LINE
  5
13CDF
330
3E7
100
AcDbEntity
  8
DETAIL
  6
CONTINUOUS
100
AcDbLine
 10
-385.0000152587927
 20
203.31881713867
 30
0.0
 11
-381.0000152587963
 21
201.0094299316369
 31
0.0
  0
LINE
  5
13CE0
330
3E7
100
AcDbEntity
  8
DETAIL
  6
CONTINUOUS
100
AcDbLine
 10
-385.5000152588036
 20
201.1500549316406
 30
0.0
 11
-384.5000152587999
 21
201.1500549316406
 31
0.0
  0
LINE
  5
13CE1
330
3E7
100
AcDbEntity
  8
DETAIL
  6
CONTINUOUS
100
AcDbLine
 10
-384.4128570556677
 20
199.4179992675753
 30
0.0
 11
-385.5871734619177
 21
199.4179992675753
 31
0.0
  0
LINE
  5
13CE2
330
3E7
100
AcDbEntity
  8
DETAIL
  6
CONTINUOUS
100
AcDbLine
 10
-385.5000152588036
 20
201.1500549316406
 30
0.0
 11
-385.5000152588036
 21
199.7000427246075
 31
0.0
  0
LINE
  5
13CE3
330
3E7
100
AcDbEntity
  8
DETAIL
  6
CONTINUOUS
100
AcDbLine
 10
-386.0000152587963
 20
199.2000427246057
 30
0.0
 11
-387.4500274658385
 21
199.2000427246057
 31
0.0
  0
LINE
  5
13CE4
330
3E7
100
AcDbEntity
  8
DETAIL
  6
CONTINUOUS
100
AcDbLine
 10
-389.0000152588072
 20
201.0094299316369
 30
0.0
 11
-385.0000152587927
 21
203.31881713867
 31
0.0
  0
LINE
  5
13CE5
330
3E7
100
AcDbEntity
  8
DETAIL
  6
CONTINUOUS
100
AcDbLine
 10
-382.550003051765
 20
199.2000427246057
 30
0.0
 11
-382.550003051765
 21
198.2000427246066
 31
0.0
  0
LINE
  5
13CE6
330
3E7
100
AcDbEntity
  8
DETAIL
  6
CONTINUOUS
100
AcDbLine
 10
-384.2820587158348
 20
199.2872009277334
 30
0.0
 11
-384.2820587158348
 21
198.1128845214834
 31
0.0
  0
LINE
  5
13CE7
330
3E7
100
AcDbEntity
  8
DETAIL
  6
CONTINUOUS
100
AcDbLine
 10
-384.5000152587999
 20
196.2500305175763
 30
0.0
 11
-384.5000152587999
 21
197.7000427246093
 31
0.0
  0
LINE
  5
13CE8
330
3E7
100
AcDbEntity
  8
DETAIL
  6
CONTINUOUS
100
AcDbLine
 10
-384.0000152588072
 20
198.2000427246066
 30
0.0
 11
-382.550003051765
 21
198.2000427246066
 31
0.0
  0
LINE
  5
13CE9
330
3E7
100
AcDbEntity
  8
DETAIL
  6
CONTINUOUS
100
AcDbLine
 10
-381.0000152587963
 20
201.0094299316369
 30
0.0
 11
-381.0000152587963
 21
196.3906555175753
 31
0.0
  0
LINE
  5
13CEA
330
3E7
100
AcDbEntity
  8
DETAIL
  6
CONTINUOUS
100
AcDbLine
 10
-385.5000152588036
 20
197.7000427246093
 30
0.0
 11
-385.5000152588036
 21
196.2500305175763
 31
0.0
  0
LINE
  5
13CEB
330
3E7
100
AcDbEntity
  8
DETAIL
  6
CONTINUOUS
100
AcDbLine
 10
-387.4500274658385
 20
198.2000427246066
 30
0.0
 11
-387.4500274658385
 21
199.2000427246057
 31
0.0
  0
LINE
  5
13CEC
330
3E7
100
AcDbEntity
  8
DETAIL
  6
CONTINUOUS
100
AcDbLine
 10
-384.5000152587999
 20
196.2500305175763
 30
0.0
 11
-385.5000152588036
 21
196.2500305175763
 31
0.0
  0
LINE
  5
13CED
330
3E7
100
AcDbEntity
  8
DETAIL
  6
CONTINUOUS
100
AcDbLine
 10
-384.4128570556677
 20
197.9820861816369
 30
0.0
 11
-385.5871734619177
 21
197.9820861816369
 31
0.0
  0
LINE
  5
13CEE
330
3E7
100
AcDbEntity
  8
DETAIL
  6
CONTINUOUS
100
AcDbLine
 10
-385.7179718017687
 20
199.2872009277334
 30
0.0
 11
-385.7179718017687
 21
198.1128845214834
 31
0.0
  0
LINE
  5
13CEF
330
3E7
100
AcDbEntity
  8
DETAIL
  6
CONTINUOUS
100
AcDbLine
 10
-387.4500274658385
 20
198.2000427246066
 30
0.0
 11
-386.0000152587963
 21
198.2000427246066
 31
0.0
  0
LINE
  5
13CF0
330
3E7
100
AcDbEntity
  8
DETAIL
  6
CONTINUOUS
100
AcDbLine
 10
-389.0000152588072
 20
196.3906555175753
 30
0.0
 11
-389.0000152588072
 21
201.0094299316369
 31
0.0
  0
ARC
  5
13CF1
330
3E7
100
AcDbEntity
  8
DETAIL
  6
CONTINUOUS
100
AcDbCircle
 10
-384.0000292811419
 20
199.7000287022592
 30
0.0
 40
0.4999859778478244
100
AcDbArc
 50
179.998393112172
 51
270.0016068878801
  0
ARC
  5
13CF2
330
3E7
100
AcDbEntity
  8
DETAIL
  6
CONTINUOUS
100
AcDbCircle
 10
-386.0000134436814
 20
199.7000409094925
 30
0.0
 40
0.4999981848883386
100
AcDbArc
 50
269.9997920023136
 51
0.0002079976082317
  0
ARC
  5
13CF3
330
3E7
100
AcDbEntity
  8
DETAIL
  6
CONTINUOUS
100
AcDbCircle
 10
-384.0000134432921
 20
197.7000409090987
 30
0.0
 40
0.5000018155116087
100
AcDbArc
 50
90.00020804125053
 51
179.9997919588276
  0
ARC
  5
13CF4
330
3E7
100
AcDbEntity
  8
DETAIL
  6
CONTINUOUS
100
AcDbCircle
 10
-386.0000292811491
 20
197.7000287022519
 30
0.0
 40
0.5000140225522496
100
AcDbArc
 50
0.0016067984589614
 51
89.99839320143683
  0
LINE
  5
13CF5
330
3E7
100
AcDbEntity
  8
DETAIL
  6
CONTINUOUS
100
AcDbLine
 10
-381.0000152587963
 20
196.3906555175753
 30
0.0
 11
-385.0000152587927
 21
194.0812072753897
 31
0.0
  0
LINE
  5
13CF6
330
3E7
100
AcDbEntity
  8
DETAIL
  6
CONTINUOUS
100
AcDbLine
 10
-385.0000152587927
 20
194.0812072753897
 30
0.0
 11
-389.0000152588072
 21
196.3906555175753
 31
0.0
  0
LINE
  5
13CF7
330
3E7
100
AcDbEntity
  8
DETAIL
  6
CONTINUOUS
100
AcDbLine
 10
492.8000030517615
 20
39.88122558593659
 30
0.0
 11
488.8000030517469
 21
42.19067382812227
 31
0.0
  0
LINE
  5
13CF8
330
3E7
100
AcDbEntity
  8
DETAIL
  6
CONTINUOUS
100
AcDbLine
 10
496.8000030517578
 20
42.19067382812227
 30
0.0
 11
492.8000030517615
 21
39.88122558593659
 31
0.0
  0
ARC
  5
13CF9
330
3E7
100
AcDbEntity
  8
DETAIL
  6
CONTINUOUS
100
AcDbCircle
 10
491.799989029405
 20
43.50004701279885
 30
0.0
 40
0.5000140225522496
100
AcDbArc
 50
0.0016067984589614
 51
89.99839320143683
  0
ARC
  5
13CFA
330
3E7
100
AcDbEntity
  8
DETAIL
  6
CONTINUOUS
100
AcDbCircle
 10
493.800004867262
 20
43.50005921964566
 30
0.0
 40
0.5000018155116087
100
AcDbArc
 50
90.00020804125053
 51
179.9997919588276
  0
ARC
  5
13CFB
330
3E7
100
AcDbEntity
  8
DETAIL
  6
CONTINUOUS
100
AcDbCircle
 10
491.8000048668727
 20
45.50005922003947
 30
0.0
 40
0.4999981848883386
100
AcDbArc
 50
269.9997920023136
 51
0.0002079976082317
  0
ARC
  5
13CFC
330
3E7
100
AcDbEntity
  8
DETAIL
  6
CONTINUOUS
100
AcDbCircle
 10
493.7999890294122
 20
45.50004701280613
 30
0.0
 40
0.4999859778478244
100
AcDbArc
 50
179.998393112172
 51
270.0016068878801
  0
LINE
  5
13CFD
330
3E7
100
AcDbEntity
  8
DETAIL
  6
CONTINUOUS
100
AcDbLine
 10
488.8000030517469
 20
42.19067382812227
 30
0.0
 11
488.8000030517469
 21
46.80944824218386
 31
0.0
  0
LINE
  5
13CFE
330
3E7
100
AcDbEntity
  8
DETAIL
  6
CONTINUOUS
100
AcDbLine
 10
490.3499908447156
 20
44.00006103515352
 30
0.0
 11
491.8000030517577
 21
44.00006103515352
 31
0.0
  0
LINE
  5
13CFF
330
3E7
100
AcDbEntity
  8
DETAIL
  6
CONTINUOUS
100
AcDbLine
 10
492.0820465087854
 20
45.08721923828034
 30
0.0
 11
492.0820465087854
 21
43.91290283203034
 31
0.0
  0
LINE
  5
13D00
330
3E7
100
AcDbEntity
  8
DETAIL
  6
CONTINUOUS
100
AcDbLine
 10
493.3871612548864
 20
43.78210449218386
 30
0.0
 11
492.2128448486364
 21
43.78210449218386
 31
0.0
  0
LINE
  5
13D01
330
3E7
100
AcDbEntity
  8
DETAIL
  6
CONTINUOUS
100
AcDbLine
 10
493.3000030517542
 20
42.05004882812318
 30
0.0
 11
492.3000030517505
 21
42.05004882812318
 31
0.0
  0
LINE
  5
13D02
330
3E7
100
AcDbEntity
  8
DETAIL
  6
CONTINUOUS
100
AcDbLine
 10
490.3499908447156
 20
44.00006103515352
 30
0.0
 11
490.3499908447156
 21
45.00006103515261
 31
0.0
  0
LINE
  5
13D03
330
3E7
100
AcDbEntity
  8
DETAIL
  6
CONTINUOUS
100
AcDbLine
 10
492.3000030517505
 20
43.50006103515625
 30
0.0
 11
492.3000030517505
 21
42.05004882812318
 31
0.0
  0
LINE
  5
13D04
330
3E7
100
AcDbEntity
  8
DETAIL
  6
CONTINUOUS
100
AcDbLine
 10
496.8000030517578
 20
46.80944824218386
 30
0.0
 11
496.8000030517578
 21
42.19067382812227
 31
0.0
  0
LINE
  5
13D05
330
3E7
100
AcDbEntity
  8
DETAIL
  6
CONTINUOUS
100
AcDbLine
 10
493.8000030517469
 20
44.00006103515352
 30
0.0
 11
495.250015258789
 21
44.00006103515352
 31
0.0
  0
LINE
  5
13D06
330
3E7
100
AcDbEntity
  8
DETAIL
  6
CONTINUOUS
100
AcDbLine
 10
493.3000030517542
 20
42.05004882812318
 30
0.0
 11
493.3000030517542
 21
43.50006103515625
 31
0.0
  0
LINE
  5
13D07
330
3E7
100
AcDbEntity
  8
DETAIL
  6
CONTINUOUS
100
AcDbLine
 10
493.5179595947192
 20
45.08721923828034
 30
0.0
 11
493.5179595947192
 21
43.91290283203034
 31
0.0
  0
LINE
  5
13D08
330
3E7
100
AcDbEntity
  8
DETAIL
  6
CONTINUOUS
100
AcDbLine
 10
495.250015258789
 20
45.00006103515261
 30
0.0
 11
495.250015258789
 21
44.00006103515352
 31
0.0
  0
LINE
  5
13D09
330
3E7
100
AcDbEntity
  8
DETAIL
  6
CONTINUOUS
100
AcDbLine
 10
488.8000030517469
 20
46.80944824218386
 30
0.0
 11
492.8000030517615
 21
49.11883544921693
 31
0.0
  0
LINE
  5
13D0A
330
3E7
100
AcDbEntity
  8
DETAIL
  6
CONTINUOUS
100
AcDbLine
 10
491.8000030517577
 20
45.00006103515261
 30
0.0
 11
490.3499908447156
 21
45.00006103515261
 31
0.0
  0
LINE
  5
13D0B
330
3E7
100
AcDbEntity
  8
DETAIL
  6
CONTINUOUS
100
AcDbLine
 10
492.3000030517505
 20
46.9500732421875
 30
0.0
 11
492.3000030517505
 21
45.50006103515443
 31
0.0
  0
LINE
  5
13D0C
330
3E7
100
AcDbEntity
  8
DETAIL
  6
CONTINUOUS
100
AcDbLine
 10
493.3871612548864
 20
45.21801757812227
 30
0.0
 11
492.2128448486364
 21
45.21801757812227
 31
0.0
  0
LINE
  5
13D0D
330
3E7
100
AcDbEntity
  8
DETAIL
  6
CONTINUOUS
100
AcDbLine
 10
492.3000030517505
 20
46.9500732421875
 30
0.0
 11
493.3000030517542
 21
46.9500732421875
 31
0.0
  0
LINE
  5
13D0E
330
3E7
100
AcDbEntity
  8
DETAIL
  6
CONTINUOUS
100
AcDbLine
 10
492.8000030517615
 20
49.11883544921693
 30
0.0
 11
496.8000030517578
 21
46.80944824218386
 31
0.0
  0
LINE
  5
13D0F
330
3E7
100
AcDbEntity
  8
DETAIL
  6
CONTINUOUS
100
AcDbLine
 10
493.8000030517469
 20
45.00006103515261
 30
0.0
 11
495.250015258789
 21
45.00006103515261
 31
0.0
  0
LINE
  5
13D10
330
3E7
100
AcDbEntity
  8
DETAIL
  6
CONTINUOUS
100
AcDbLine
 10
493.3000030517542
 20
45.50006103515443
 30
0.0
 11
493.3000030517542
 21
46.9500732421875
 31
0.0
  0
LINE
  5
13D11
330
3E7
100
AcDbEntity
  8
DETAIL
  6
CONTINUOUS
100
AcDbLine
 10
-270.5000152588036
 20
45.50006103515443
 30
0.0
 11
-270.5000152588036
 21
46.9500732421875
 31
0.0
  0
LINE
  5
13D12
330
3E7
100
AcDbEntity
  8
DETAIL
  6
CONTINUOUS
100
AcDbLine
 10
-270.0000152588108
 20
45.00006103515261
 30
0.0
 11
-268.5500030517687
 21
45.00006103515261
 31
0.0
  0
LINE
  5
13D13
330
3E7
100
AcDbEntity
  8
DETAIL
  6
CONTINUOUS
100
AcDbLine
 10
-271.0000152587963
 20
49.11883544921693
 30
0.0
 11
-267.0000152587999
 21
46.80944824218386
 31
0.0
  0
LINE
  5
13D14
330
3E7
100
AcDbEntity
  8
DETAIL
  6
CONTINUOUS
100
AcDbLine
 10
-271.5000152588072
 20
46.9500732421875
 30
0.0
 11
-270.5000152588036
 21
46.9500732421875
 31
0.0
  0
LINE
  5
13D15
330
3E7
100
AcDbEntity
  8
DETAIL
  6
CONTINUOUS
100
AcDbLine
 10
-270.4128570556713
 20
45.21801757812227
 30
0.0
 11
-271.5871734619213
 21
45.21801757812227
 31
0.0
  0
LINE
  5
13D16
330
3E7
100
AcDbEntity
  8
DETAIL
  6
CONTINUOUS
100
AcDbLine
 10
-271.5000152588072
 20
46.9500732421875
 30
0.0
 11
-271.5000152588072
 21
45.50006103515443
 31
0.0
  0
LINE
  5
13D17
330
3E7
100
AcDbEntity
  8
DETAIL
  6
CONTINUOUS
100
AcDbLine
 10
-272.0000152587999
 20
45.00006103515261
 30
0.0
 11
-273.4500274658421
 21
45.00006103515261
 31
0.0
  0
LINE
  5
13D18
330
3E7
100
AcDbEntity
  8
DETAIL
  6
CONTINUOUS
100
AcDbLine
 10
-275.0000152588108
 20
46.80944824218386
 30
0.0
 11
-271.0000152587963
 21
49.11883544921693
 31
0.0
  0
LINE
  5
13D19
330
3E7
100
AcDbEntity
  8
DETAIL
  6
CONTINUOUS
100
AcDbLine
 10
-268.5500030517687
 20
45.00006103515261
 30
0.0
 11
-268.5500030517687
 21
44.00006103515352
 31
0.0
  0
LINE
  5
13D1A
330
3E7
100
AcDbEntity
  8
DETAIL
  6
CONTINUOUS
100
AcDbLine
 10
-270.2820587158385
 20
45.08721923828034
 30
0.0
 11
-270.2820587158385
 21
43.91290283203034
 31
0.0
  0
LINE
  5
13D1B
330
3E7
100
AcDbEntity
  8
DETAIL
  6
CONTINUOUS
100
AcDbLine
 10
-270.5000152588036
 20
42.05004882812318
 30
0.0
 11
-270.5000152588036
 21
43.50006103515625
 31
0.0
  0
LINE
  5
13D1C
330
3E7
100
AcDbEntity
  8
DETAIL
  6
CONTINUOUS
100
AcDbLine
 10
-270.0000152588108
 20
44.00006103515352
 30
0.0
 11
-268.5500030517687
 21
44.00006103515352
 31
0.0
  0
LINE
  5
13D1D
330
3E7
100
AcDbEntity
  8
DETAIL
  6
CONTINUOUS
100
AcDbLine
 10
-267.0000152587999
 20
46.80944824218386
 30
0.0
 11
-267.0000152587999
 21
42.19067382812227
 31
0.0
  0
LINE
  5
13D1E
330
3E7
100
AcDbEntity
  8
DETAIL
  6
CONTINUOUS
100
AcDbLine
 10
-271.5000152588072
 20
43.50006103515625
 30
0.0
 11
-271.5000152588072
 21
42.05004882812318
 31
0.0
  0
LINE
  5
13D1F
330
3E7
100
AcDbEntity
  8
DETAIL
  6
CONTINUOUS
100
AcDbLine
 10
-273.4500274658421
 20
44.00006103515352
 30
0.0
 11
-273.4500274658421
 21
45.00006103515261
 31
0.0
  0
LINE
  5
13D20
330
3E7
100
AcDbEntity
  8
DETAIL
  6
CONTINUOUS
100
AcDbLine
 10
-270.5000152588036
 20
42.05004882812318
 30
0.0
 11
-271.5000152588072
 21
42.05004882812318
 31
0.0
  0
LINE
  5
13D21
330
3E7
100
AcDbEntity
  8
DETAIL
  6
CONTINUOUS
100
AcDbLine
 10
-270.4128570556713
 20
43.78210449218386
 30
0.0
 11
-271.5871734619213
 21
43.78210449218386
 31
0.0
  0
LINE
  5
13D22
330
3E7
100
AcDbEntity
  8
DETAIL
  6
CONTINUOUS
100
AcDbLine
 10
-271.7179718017723
 20
45.08721923828034
 30
0.0
 11
-271.7179718017723
 21
43.91290283203034
 31
0.0
  0
LINE
  5
13D23
330
3E7
100
AcDbEntity
  8
DETAIL
  6
CONTINUOUS
100
AcDbLine
 10
-273.4500274658421
 20
44.00006103515352
 30
0.0
 11
-272.0000152587999
 21
44.00006103515352
 31
0.0
  0
LINE
  5
13D24
330
3E7
100
AcDbEntity
  8
DETAIL
  6
CONTINUOUS
100
AcDbLine
 10
-275.0000152588108
 20
42.19067382812227
 30
0.0
 11
-275.0000152588108
 21
46.80944824218386
 31
0.0
  0
ARC
  5
13D25
330
3E7
100
AcDbEntity
  8
DETAIL
  6
CONTINUOUS
100
AcDbCircle
 10
-270.0000292811455
 20
45.50004701280613
 30
0.0
 40
0.4999859778478244
100
AcDbArc
 50
179.998393112172
 51
270.0016068878801
  0
ARC
  5
13D26
330
3E7
100
AcDbEntity
  8
DETAIL
  6
CONTINUOUS
100
AcDbCircle
 10
-272.000013443685
 20
45.50005922003947
 30
0.0
 40
0.4999981848883386
100
AcDbArc
 50
269.9997920023136
 51
0.0002079976082317
  0
ARC
  5
13D27
330
3E7
100
AcDbEntity
  8
DETAIL
  6
CONTINUOUS
100
AcDbCircle
 10
-270.0000134432957
 20
43.50005921964566
 30
0.0
 40
0.5000018155116087
100
AcDbArc
 50
90.00020804125053
 51
179.9997919588276
  0
ARC
  5
13D28
330
3E7
100
AcDbEntity
  8
DETAIL
  6
CONTINUOUS
100
AcDbCircle
 10
-272.0000292811528
 20
43.50004701279885
 30
0.0
 40
0.5000140225522496
100
AcDbArc
 50
0.0016067984589614
 51
89.99839320143683
  0
LINE
  5
13D29
330
3E7
100
AcDbEntity
  8
DETAIL
  6
CONTINUOUS
100
AcDbLine
 10
-267.0000152587999
 20
42.19067382812227
 30
0.0
 11
-271.0000152587963
 21
39.88122558593659
 31
0.0
  0
LINE
  5
13D2A
330
3E7
100
AcDbEntity
  8
DETAIL
  6
CONTINUOUS
100
AcDbLine
 10
-271.0000152587963
 20
39.88122558593659
 30
0.0
 11
-275.0000152588108
 21
42.19067382812227
 31
0.0
  0
LINE
  5
13D2B
330
3E7
100
AcDbEntity
  8
DETAIL
  6
CONTINUOUS
100
AcDbLine
 10
-384.5000152587999
 20
45.50006103515443
 30
0.0
 11
-384.5000152587999
 21
46.9500732421875
 31
0.0
  0
LINE
  5
13D2C
330
3E7
100
AcDbEntity
  8
DETAIL
  6
CONTINUOUS
100
AcDbLine
 10
-384.0000152588072
 20
45.00006103515261
 30
0.0
 11
-382.550003051765
 21
45.00006103515261
 31
0.0
  0
LINE
  5
13D2D
330
3E7
100
AcDbEntity
  8
DETAIL
  6
CONTINUOUS
100
AcDbLine
 10
-385.0000152587927
 20
49.11883544921693
 30
0.0
 11
-381.0000152587963
 21
46.80944824218386
 31
0.0
  0
LINE
  5
13D2E
330
3E7
100
AcDbEntity
  8
DETAIL
  6
CONTINUOUS
100
AcDbLine
 10
-385.5000152588036
 20
46.9500732421875
 30
0.0
 11
-384.5000152587999
 21
46.9500732421875
 31
0.0
  0
LINE
  5
13D2F
330
3E7
100
AcDbEntity
  8
DETAIL
  6
CONTINUOUS
100
AcDbLine
 10
-384.4128570556677
 20
45.21801757812227
 30
0.0
 11
-385.5871734619177
 21
45.21801757812227
 31
0.0
  0
LINE
  5
13D30
330
3E7
100
AcDbEntity
  8
DETAIL
  6
CONTINUOUS
100
AcDbLine
 10
-385.5000152588036
 20
46.9500732421875
 30
0.0
 11
-385.5000152588036
 21
45.50006103515443
 31
0.0
  0
LINE
  5
13D31
330
3E7
100
AcDbEntity
  8
DETAIL
  6
CONTINUOUS
100
AcDbLine
 10
-386.0000152587963
 20
45.00006103515261
 30
0.0
 11
-387.4500274658385
 21
45.00006103515261
 31
0.0
  0
LINE
  5
13D32
330
3E7
100
AcDbEntity
  8
DETAIL
  6
CONTINUOUS
100
AcDbLine
 10
-389.0000152588072
 20
46.80944824218386
 30
0.0
 11
-385.0000152587927
 21
49.11883544921693
 31
0.0
  0
LINE
  5
13D33
330
3E7
100
AcDbEntity
  8
DETAIL
  6
CONTINUOUS
100
AcDbLine
 10
-382.550003051765
 20
45.00006103515261
 30
0.0
 11
-382.550003051765
 21
44.00006103515352
 31
0.0
  0
LINE
  5
13D34
330
3E7
100
AcDbEntity
  8
DETAIL
  6
CONTINUOUS
100
AcDbLine
 10
-384.2820587158348
 20
45.08721923828034
 30
0.0
 11
-384.2820587158348
 21
43.91290283203034
 31
0.0
  0
LINE
  5
13D35
330
3E7
100
AcDbEntity
  8
DETAIL
  6
CONTINUOUS
100
AcDbLine
 10
-384.5000152587999
 20
42.05004882812318
 30
0.0
 11
-384.5000152587999
 21
43.50006103515625
 31
0.0
  0
LINE
  5
13D36
330
3E7
100
AcDbEntity
  8
DETAIL
  6
CONTINUOUS
100
AcDbLine
 10
-384.0000152588072
 20
44.00006103515352
 30
0.0
 11
-382.550003051765
 21
44.00006103515352
 31
0.0
  0
LINE
  5
13D37
330
3E7
100
AcDbEntity
  8
DETAIL
  6
CONTINUOUS
100
AcDbLine
 10
-381.0000152587963
 20
46.80944824218386
 30
0.0
 11
-381.0000152587963
 21
42.19067382812227
 31
0.0
  0
LINE
  5
13D38
330
3E7
100
AcDbEntity
  8
DETAIL
  6
CONTINUOUS
100
AcDbLine
 10
-385.5000152588036
 20
43.50006103515625
 30
0.0
 11
-385.5000152588036
 21
42.05004882812318
 31
0.0
  0
LINE
  5
13D39
330
3E7
100
AcDbEntity
  8
DETAIL
  6
CONTINUOUS
100
AcDbLine
 10
-387.4500274658385
 20
44.00006103515352
 30
0.0
 11
-387.4500274658385
 21
45.00006103515261
 31
0.0
  0
LINE
  5
13D3A
330
3E7
100
AcDbEntity
  8
DETAIL
  6
CONTINUOUS
100
AcDbLine
 10
-384.5000152587999
 20
42.05004882812318
 30
0.0
 11
-385.5000152588036
 21
42.05004882812318
 31
0.0
  0
LINE
  5
13D3B
330
3E7
100
AcDbEntity
  8
DETAIL
  6
CONTINUOUS
100
AcDbLine
 10
-384.4128570556677
 20
43.78210449218386
 30
0.0
 11
-385.5871734619177
 21
43.78210449218386
 31
0.0
  0
LINE
  5
13D3C
330
3E7
100
AcDbEntity
  8
DETAIL
  6
CONTINUOUS
100
AcDbLine
 10
-385.7179718017687
 20
45.08721923828034
 30
0.0
 11
-385.7179718017687
 21
43.91290283203034
 31
0.0
  0
LINE
  5
13D3D
330
3E7
100
AcDbEntity
  8
DETAIL
  6
CONTINUOUS
100
AcDbLine
 10
-387.4500274658385
 20
44.00006103515352
 30
0.0
 11
-386.0000152587963
 21
44.00006103515352
 31
0.0
  0
LINE
  5
13D3E
330
3E7
100
AcDbEntity
  8
DETAIL
  6
CONTINUOUS
100
AcDbLine
 10
-389.0000152588072
 20
42.19067382812227
 30
0.0
 11
-389.0000152588072
 21
46.80944824218386
 31
0.0
  0
ARC
  5
13D3F
330
3E7
100
AcDbEntity
  8
DETAIL
  6
CONTINUOUS
100
AcDbCircle
 10
-384.0000292811419
 20
45.50004701280613
 30
0.0
 40
0.4999859778478244
100
AcDbArc
 50
179.998393112172
 51
270.0016068878801
  0
ARC
  5
13D40
330
3E7
100
AcDbEntity
  8
DETAIL
  6
CONTINUOUS
100
AcDbCircle
 10
-386.0000134436814
 20
45.50005922003947
 30
0.0
 40
0.4999981848883386
100
AcDbArc
 50
269.9997920023136
 51
0.0002079976082317
  0
ARC
  5
13D41
330
3E7
100
AcDbEntity
  8
DETAIL
  6
CONTINUOUS
100
AcDbCircle
 10
-384.0000134432921
 20
43.50005921964566
 30
0.0
 40
0.5000018155116087
100
AcDbArc
 50
90.00020804125053
 51
179.9997919588276
  0
ARC
  5
13D42
330
3E7
100
AcDbEntity
  8
DETAIL
  6
CONTINUOUS
100
AcDbCircle
 10
-386.0000292811491
 20
43.50004701279885
 30
0.0
 40
0.5000140225522496
100
AcDbArc
 50
0.0016067984589614
 51
89.99839320143683
  0
LINE
  5
13D43
330
3E7
100
AcDbEntity
  8
DETAIL
  6
CONTINUOUS
100
AcDbLine
 10
-381.0000152587963
 20
42.19067382812227
 30
0.0
 11
-385.0000152587927
 21
39.88122558593659
 31
0.0
  0
LINE
  5
13D44
330
3E7
100
AcDbEntity
  8
DETAIL
  6
CONTINUOUS
100
AcDbLine
 10
-385.0000152587927
 20
39.88122558593659
 30
0.0
 11
-389.0000152588072
 21
42.19067382812227
 31
0.0
  0
ARC
  5
13D45
330
3E7
100
AcDbEntity
  8
DETAIL
100
AcDbCircle
 10
-527.4665443268331
 20
44.78591918945085
 30
0.0
 40
2.044762441566532
100
AcDbArc
 50
145.6179868102023
 51
214.3820131897976
  0
ARC
  5
13D46
330
3E7
100
AcDbEntity
  8
DETAIL
100
AcDbCircle
 10
-521.8679179798455
 20
48.25003051757267
 30
0.0
 40
7.643388793156777
100
AcDbArc
 50
162.4134702354827
 51
197.5865297644742
  0
ARC
  5
13D47
330
3E7
100
AcDbEntity
  8
DETAIL
100
AcDbCircle
 10
-527.4665443581215
 20
51.71414184570039
 30
0.0
 40
2.044762415743188
100
AcDbArc
 50
145.6179863151611
 51
214.3820136848389
  0
LINE
  5
13D4A
330
3E7
100
AcDbEntity
  8
DETAIL
  6
CONTINUOUS
100
AcDbLine
 10
-526.1999664306677
 20
53.2499999999959
 30
0.0
 11
-526.0000152587982
 21
53.2499999999959
 31
0.0
  0
LINE
  5
13D4B
330
3E7
100
AcDbEntity
  8
DETAIL
  6
CONTINUOUS
100
AcDbLine
 10
-526.1999664306677
 20
43.2499999999959
 30
0.0
 11
-525.5000152587854
 21
43.2499999999959
 31
0.0
  0
LINE
  5
13D4C
330
3E7
100
AcDbEntity
  8
DETAIL
  6
CONTINUOUS
100
AcDbLine
 10
-529.1540679931677
 20
43.63122558593431
 30
0.0
 11
-529.8000030517687
 21
44.74999999999681
 31
0.0
  0
LINE
  5
13D4D
330
3E7
100
AcDbEntity
  8
DETAIL
  6
CONTINUOUS
100
AcDbLine
 10
-529.1540679931677
 20
52.86883544921465
 30
0.0
 11
-529.8000030517687
 21
51.74999999999954
 31
0.0
  0
LINE
  5
13D4E
330
3E7
100
AcDbEntity
  8
DETAIL
  6
CONTINUOUS
100
AcDbLine
 10
-526.2500152587927
 20
53.22155761718704
 30
0.0
 11
-526.1999664306677
 21
53.2499999999959
 31
0.0
  0
LINE
  5
13D4F
330
3E7
100
AcDbEntity
  8
DETAIL
  6
CONTINUOUS
100
AcDbLine
 10
-526.2500152587927
 20
43.27850341796647
 30
0.0
 11
-526.1999664306677
 21
43.2499999999959
 31
0.0
  0
LINE
  5
13D50
330
3E7
100
AcDbEntity
  8
DETAIL
  6
CONTINUOUS
100
AcDbLine
 10
-526.28657531739
 20
43.31500244140215
 30
0.0
 11
-526.2500152587927
 21
43.27850341796647
 31
0.0
  0
LINE
  5
13D51
330
3E7
100
AcDbEntity
  8
DETAIL
  6
CONTINUOUS
100
AcDbLine
 10
-526.3000030517651
 20
43.3549804687459
 30
0.0
 11
-526.28657531739
 21
43.31500244140215
 31
0.0
  0
LINE
  5
13D52
330
3E7
100
AcDbEntity
  8
DETAIL
  6
CONTINUOUS
100
AcDbLine
 10
-526.2634429931677
 20
53.2036132812459
 30
0.0
 11
-526.2500152587927
 21
53.22155761718704
 31
0.0
  0
LINE
  5
13D53
330
3E7
100
AcDbEntity
  8
DETAIL
  6
CONTINUOUS
100
AcDbLine
 10
-526.28657531739
 20
53.18505859374681
 30
0.0
 11
-526.2634429931677
 21
53.2036132812459
 31
0.0
  0
LINE
  5
13D54
330
3E7
100
AcDbEntity
  8
DETAIL
  6
CONTINUOUS
100
AcDbLine
 10
-526.3000030517651
 20
53.10565185546465
 30
0.0
 11
-526.28657531739
 21
53.18505859374681
 31
0.0
  0
LINE
  5
13D55
330
3E7
100
AcDbEntity
  8
DETAIL
  6
CONTINUOUS
100
AcDbLine
 10
-529.1540679931677
 20
50.55944824218613
 30
0.0
 11
-526.3000030517651
 21
50.55944824218568
 31
0.0
  0
LINE
  5
13D56
330
3E7
100
AcDbEntity
  8
DETAIL
  6
CONTINUOUS
100
AcDbLine
 10
-529.1540679931677
 20
52.86883544921465
 30
0.0
 11
-526.3000030517651
 21
52.86883544921465
 31
0.0
  0
LINE
  5
13D57
330
3E7
100
AcDbEntity
  8
DETAIL
  6
CONTINUOUS
100
AcDbLine
 10
-529.1540679931677
 20
45.94061279296738
 30
0.0
 11
-526.3000030517651
 21
45.94061279296738
 31
0.0
  0
LINE
  5
13D58
330
3E7
100
AcDbEntity
  8
DETAIL
  6
CONTINUOUS
100
AcDbLine
 10
-529.8000030517687
 20
51.74999999999954
 30
0.0
 11
-529.8000030517687
 21
44.74999999999681
 31
0.0
  0
LINE
  5
13D59
330
3E7
100
AcDbEntity
  8
DETAIL
  6
CONTINUOUS
100
AcDbLine
 10
-529.1540679931677
 20
43.63122558593431
 30
0.0
 11
-526.3000030517651
 21
43.63122558593431
 31
0.0
  0
LINE
  5
13D5A
330
3E7
100
AcDbEntity
  8
DETAIL
  6
CONTINUOUS
100
AcDbLine
 10
-526.3000030517651
 20
53.10565185546465
 30
0.0
 11
-526.3000030517651
 21
43.3549804687459
 31
0.0
  0
LINE
  5
13D60
330
3E7
100
AcDbEntity
  8
DETAIL
  6
CONTINUOUS
100
AcDbLine
 10
-270.5000152588036
 20
1228.700073242184
 30
0.0
 11
-270.5000152588036
 21
1230.150085449218
 31
0.0
  0
LINE
  5
13D61
330
3E7
100
AcDbEntity
  8
DETAIL
  6
CONTINUOUS
100
AcDbLine
 10
-270.0000152588108
 20
1228.200073242183
 30
0.0
 11
-268.5500335693541
 21
1228.200073242183
 31
0.0
  0
LINE
  5
13D62
330
3E7
100
AcDbEntity
  8
DETAIL
  6
CONTINUOUS
100
AcDbLine
 10
-271.0000152587963
 20
1232.318847656247
 30
0.0
 11
-267.0000152587999
 21
1230.009460449214
 31
0.0
  0
LINE
  5
13D63
330
3E7
100
AcDbEntity
  8
DETAIL
  6
CONTINUOUS
100
AcDbLine
 10
-271.5000152588072
 20
1230.150085449218
 30
0.0
 11
-270.5000152588036
 21
1230.150085449218
 31
0.0
  0
LINE
  5
13D64
330
3E7
100
AcDbEntity
  8
DETAIL
  6
CONTINUOUS
100
AcDbLine
 10
-270.4128875732567
 20
1228.418029785152
 30
0.0
 11
-271.5871734619213
 21
1228.418029785152
 31
0.0
  0
LINE
  5
13D65
330
3E7
100
AcDbEntity
  8
DETAIL
  6
CONTINUOUS
100
AcDbLine
 10
-271.5000152588072
 20
1230.150085449218
 30
0.0
 11
-271.5000152588072
 21
1228.700073242184
 31
0.0
  0
LINE
  5
13D66
330
3E7
100
AcDbEntity
  8
DETAIL
  6
CONTINUOUS
100
AcDbLine
 10
-272.0000152587999
 20
1228.200073242183
 30
0.0
 11
-273.4500274658421
 21
1228.200073242183
 31
0.0
  0
LINE
  5
13D67
330
3E7
100
AcDbEntity
  8
DETAIL
  6
CONTINUOUS
100
AcDbLine
 10
-275.0000152588108
 20
1230.009460449214
 30
0.0
 11
-271.0000152587963
 21
1232.318847656247
 31
0.0
  0
LINE
  5
13D68
330
3E7
100
AcDbEntity
  8
DETAIL
  6
CONTINUOUS
100
AcDbLine
 10
-268.5500335693541
 20
1228.200073242183
 30
0.0
 11
-268.5500335693541
 21
1227.200073242183
 31
0.0
  0
LINE
  5
13D69
330
3E7
100
AcDbEntity
  8
DETAIL
  6
CONTINUOUS
100
AcDbLine
 10
-270.2820587158385
 20
1228.28723144531
 30
0.0
 11
-270.2820587158385
 21
1227.11291503906
 31
0.0
  0
LINE
  5
13D6A
330
3E7
100
AcDbEntity
  8
DETAIL
  6
CONTINUOUS
100
AcDbLine
 10
-270.5000152588036
 20
1225.250061035153
 30
0.0
 11
-270.5000152588036
 21
1226.700073242186
 31
0.0
  0
LINE
  5
13D6B
330
3E7
100
AcDbEntity
  8
DETAIL
  6
CONTINUOUS
100
AcDbLine
 10
-270.0000152588108
 20
1227.200073242183
 30
0.0
 11
-268.5500335693541
 21
1227.200073242183
 31
0.0
  0
LINE
  5
13D6C
330
3E7
100
AcDbEntity
  8
DETAIL
  6
CONTINUOUS
100
AcDbLine
 10
-267.0000152587999
 20
1230.009460449214
 30
0.0
 11
-267.0000152587999
 21
1225.390686035152
 31
0.0
  0
LINE
  5
13D6D
330
3E7
100
AcDbEntity
  8
DETAIL
  6
CONTINUOUS
100
AcDbLine
 10
-273.4500274658421
 20
1227.200073242183
 30
0.0
 11
-273.4500274658421
 21
1228.200073242183
 31
0.0
  0
LINE
  5
13D6E
330
3E7
100
AcDbEntity
  8
DETAIL
  6
CONTINUOUS
100
AcDbLine
 10
-270.5000152588036
 20
1225.250061035153
 30
0.0
 11
-271.5000152588072
 21
1225.250061035153
 31
0.0
  0
LINE
  5
13D6F
330
3E7
100
AcDbEntity
  8
DETAIL
  6
CONTINUOUS
100
AcDbLine
 10
-270.4128875732567
 20
1226.982116699214
 30
0.0
 11
-271.5871734619213
 21
1226.982116699214
 31
0.0
  0
LINE
  5
13D70
330
3E7
100
AcDbEntity
  8
DETAIL
  6
CONTINUOUS
100
AcDbLine
 10
-271.7179718017723
 20
1228.28723144531
 30
0.0
 11
-271.7179718017723
 21
1227.11291503906
 31
0.0
  0
LINE
  5
13D71
330
3E7
100
AcDbEntity
  8
DETAIL
  6
CONTINUOUS
100
AcDbLine
 10
-273.4500274658421
 20
1227.200073242183
 30
0.0
 11
-272.0000152587999
 21
1227.200073242183
 31
0.0
  0
LINE
  5
13D72
330
3E7
100
AcDbEntity
  8
DETAIL
  6
CONTINUOUS
100
AcDbLine
 10
-271.5000152588072
 20
1226.700073242186
 30
0.0
 11
-271.5000152588072
 21
1225.250061035153
 31
0.0
  0
LINE
  5
13D73
330
3E7
100
AcDbEntity
  8
DETAIL
  6
CONTINUOUS
100
AcDbLine
 10
-275.0000152588108
 20
1225.390686035152
 30
0.0
 11
-275.0000152588108
 21
1230.009460449214
 31
0.0
  0
ARC
  5
13D74
330
3E7
100
AcDbEntity
  8
DETAIL
  6
CONTINUOUS
100
AcDbCircle
 10
-270.0000262293724
 20
1228.700062271614
 30
0.0
 40
0.499989029550382
100
AcDbArc
 50
179.9987428377168
 51
270.0012571623092
  0
ARC
  5
13D75
330
3E7
100
AcDbEntity
  8
DETAIL
  6
CONTINUOUS
100
AcDbCircle
 10
-272.0000103918573
 20
1228.700068375233
 30
0.0
 40
0.4999951330742486
100
AcDbArc
 50
269.9994422832045
 51
0.0005577167433892
  0
ARC
  5
13D76
330
3E7
100
AcDbEntity
  8
DETAIL
  6
CONTINUOUS
100
AcDbCircle
 10
-270.0000103916136
 20
1226.700068374994
 30
0.0
 40
0.5000048672136898
100
AcDbArc
 50
90.00055773347074
 51
179.9994422665292
  0
ARC
  5
13D77
330
3E7
100
AcDbEntity
  8
DETAIL
  6
CONTINUOUS
100
AcDbCircle
 10
-272.0000262294161
 20
1226.700062271566
 30
0.0
 40
0.5000109707383019
100
AcDbArc
 50
0.0012571125700148
 51
89.99874288740391
  0
LINE
  5
13D78
330
3E7
100
AcDbEntity
  8
DETAIL
  6
CONTINUOUS
100
AcDbLine
 10
-267.0000152587999
 20
1225.390686035152
 30
0.0
 11
-271.0000152587963
 21
1223.081237792967
 31
0.0
  0
LINE
  5
13D79
330
3E7
100
AcDbEntity
  8
DETAIL
  6
CONTINUOUS
100
AcDbLine
 10
-271.0000152587963
 20
1223.081237792967
 30
0.0
 11
-275.0000152588108
 21
1225.390686035152
 31
0.0
  0
LINE
  5
13D7C
330
3E7
100
AcDbEntity
  8
DETAIL
  6
CONTINUOUS
100
AcDbLine
 10
-270.5000152588036
 20
820.7000503540029
 30
0.0
 11
-270.5000152588036
 21
822.150062561036
 31
0.0
  0
LINE
  5
13D7D
330
3E7
100
AcDbEntity
  8
DETAIL
  6
CONTINUOUS
100
AcDbLine
 10
-270.0000152588108
 20
820.2000503540011
 30
0.0
 11
-268.5500335693541
 21
820.2000503540011
 31
0.0
  0
LINE
  5
13D7E
330
3E7
100
AcDbEntity
  8
DETAIL
  6
CONTINUOUS
100
AcDbLine
 10
-271.0000152587963
 20
824.3188247680654
 30
0.0
 11
-267.0000152587999
 21
822.0094375610324
 31
0.0
  0
LINE
  5
13D7F
330
3E7
100
AcDbEntity
  8
DETAIL
  6
CONTINUOUS
100
AcDbLine
 10
-271.5000152588072
 20
822.150062561036
 30
0.0
 11
-270.5000152588036
 21
822.150062561036
 31
0.0
  0
LINE
  5
13D80
330
3E7
100
AcDbEntity
  8
DETAIL
  6
CONTINUOUS
100
AcDbLine
 10
-270.4128875732567
 20
820.4180068969709
 30
0.0
 11
-271.5871734619213
 21
820.4180068969709
 31
0.0
  0
LINE
  5
13D81
330
3E7
100
AcDbEntity
  8
DETAIL
  6
CONTINUOUS
100
AcDbLine
 10
-271.5000152588072
 20
822.150062561036
 30
0.0
 11
-271.5000152588072
 21
820.7000503540029
 31
0.0
  0
LINE
  5
13D82
330
3E7
100
AcDbEntity
  8
DETAIL
  6
CONTINUOUS
100
AcDbLine
 10
-272.0000152587999
 20
820.2000503540011
 30
0.0
 11
-273.4500274658421
 21
820.2000503540011
 31
0.0
  0
LINE
  5
13D83
330
3E7
100
AcDbEntity
  8
DETAIL
  6
CONTINUOUS
100
AcDbLine
 10
-275.0000152588108
 20
822.0094375610324
 30
0.0
 11
-271.0000152587963
 21
824.3188247680654
 31
0.0
  0
LINE
  5
13D84
330
3E7
100
AcDbEntity
  8
DETAIL
  6
CONTINUOUS
100
AcDbLine
 10
-268.5500335693541
 20
820.2000503540011
 30
0.0
 11
-268.5500335693541
 21
819.200050354002
 31
0.0
  0
LINE
  5
13D85
330
3E7
100
AcDbEntity
  8
DETAIL
  6
CONTINUOUS
100
AcDbLine
 10
-270.2820587158385
 20
820.2872085571289
 30
0.0
 11
-270.2820587158385
 21
819.1128921508788
 31
0.0
  0
LINE
  5
13D86
330
3E7
100
AcDbEntity
  8
DETAIL
  6
CONTINUOUS
100
AcDbLine
 10
-270.5000152588036
 20
817.2500381469717
 30
0.0
 11
-270.5000152588036
 21
818.7000503540048
 31
0.0
  0
LINE
  5
13D87
330
3E7
100
AcDbEntity
  8
DETAIL
  6
CONTINUOUS
100
AcDbLine
 10
-270.0000152588108
 20
819.200050354002
 30
0.0
 11
-268.5500335693541
 21
819.200050354002
 31
0.0
  0
LINE
  5
13D88
330
3E7
100
AcDbEntity
  8
DETAIL
  6
CONTINUOUS
100
AcDbLine
 10
-267.0000152587999
 20
822.0094375610324
 30
0.0
 11
-267.0000152587999
 21
817.3906631469709
 31
0.0
  0
LINE
  5
13D89
330
3E7
100
AcDbEntity
  8
DETAIL
  6
CONTINUOUS
100
AcDbLine
 10
-273.4500274658421
 20
819.200050354002
 30
0.0
 11
-273.4500274658421
 21
820.2000503540011
 31
0.0
  0
LINE
  5
13D8A
330
3E7
100
AcDbEntity
  8
DETAIL
  6
CONTINUOUS
100
AcDbLine
 10
-270.5000152588036
 20
817.2500381469717
 30
0.0
 11
-271.5000152588072
 21
817.2500381469717
 31
0.0
  0
LINE
  5
13D8B
330
3E7
100
AcDbEntity
  8
DETAIL
  6
CONTINUOUS
100
AcDbLine
 10
-270.4128875732567
 20
818.9820938110324
 30
0.0
 11
-271.5871734619213
 21
818.9820938110324
 31
0.0
  0
LINE
  5
13D8C
330
3E7
100
AcDbEntity
  8
DETAIL
  6
CONTINUOUS
100
AcDbLine
 10
-271.7179718017723
 20
820.2872085571289
 30
0.0
 11
-271.7179718017723
 21
819.1128921508788
 31
0.0
  0
LINE
  5
13D8D
330
3E7
100
AcDbEntity
  8
DETAIL
  6
CONTINUOUS
100
AcDbLine
 10
-273.4500274658421
 20
819.200050354002
 30
0.0
 11
-272.0000152587999
 21
819.200050354002
 31
0.0
  0
LINE
  5
13D8E
330
3E7
100
AcDbEntity
  8
DETAIL
  6
CONTINUOUS
100
AcDbLine
 10
-271.5000152588072
 20
818.7000503540048
 30
0.0
 11
-271.5000152588072
 21
817.2500381469717
 31
0.0
  0
LINE
  5
13D8F
330
3E7
100
AcDbEntity
  8
DETAIL
  6
CONTINUOUS
100
AcDbLine
 10
-275.0000152588108
 20
817.3906631469709
 30
0.0
 11
-275.0000152588108
 21
822.0094375610324
 31
0.0
  0
ARC
  5
13D90
330
3E7
100
AcDbEntity
  8
DETAIL
  6
CONTINUOUS
100
AcDbCircle
 10
-270.0000262293724
 20
820.7000393834324
 30
0.0
 40
0.499989029550382
100
AcDbArc
 50
179.9987428377168
 51
270.0012571623092
  0
ARC
  5
13D91
330
3E7
100
AcDbEntity
  8
DETAIL
  6
CONTINUOUS
100
AcDbCircle
 10
-272.0000103918573
 20
820.7000454870513
 30
0.0
 40
0.4999951330742486
100
AcDbArc
 50
269.9994422832045
 51
0.0005577167433892
  0
ARC
  5
13D92
330
3E7
100
AcDbEntity
  8
DETAIL
  6
CONTINUOUS
100
AcDbCircle
 10
-270.0000103916136
 20
818.7000454868121
 30
0.0
 40
0.5000048672136898
100
AcDbArc
 50
90.00055773347074
 51
179.9994422665292
  0
ARC
  5
13D93
330
3E7
100
AcDbEntity
  8
DETAIL
  6
CONTINUOUS
100
AcDbCircle
 10
-272.0000262294161
 20
818.7000393833841
 30
0.0
 40
0.5000109707383019
100
AcDbArc
 50
0.0012571125700148
 51
89.99874288740391
  0
LINE
  5
13D94
330
3E7
100
AcDbEntity
  8
DETAIL
  6
CONTINUOUS
100
AcDbLine
 10
-267.0000152587999
 20
817.3906631469709
 30
0.0
 11
-271.0000152587963
 21
815.0812149047851
 31
0.0
  0
LINE
  5
13D95
330
3E7
100
AcDbEntity
  8
DETAIL
  6
CONTINUOUS
100
AcDbLine
 10
-271.0000152587963
 20
815.0812149047851
 30
0.0
 11
-275.0000152588108
 21
817.3906631469709
 31
0.0
  0
LINE
  5
13DB0
330
3E7
100
AcDbEntity
  8
DETAIL
  6
CONTINUOUS
100
AcDbLine
 10
-270.5000152588036
 20
412.7000427246093
 30
0.0
 11
-270.5000152588036
 21
414.1500549316424
 31
0.0
  0
LINE
  5
13DB1
330
3E7
100
AcDbEntity
  8
DETAIL
  6
CONTINUOUS
100
AcDbLine
 10
-270.0000152588108
 20
412.2000427246075
 30
0.0
 11
-268.5500335693541
 21
412.2000427246075
 31
0.0
  0
LINE
  5
13DB2
330
3E7
100
AcDbEntity
  8
DETAIL
  6
CONTINUOUS
100
AcDbLine
 10
-271.0000152587963
 20
416.3188171386718
 30
0.0
 11
-267.0000152587999
 21
414.0094299316388
 31
0.0
  0
LINE
  5
13DB3
330
3E7
100
AcDbEntity
  8
DETAIL
  6
CONTINUOUS
100
AcDbLine
 10
-271.5000152588072
 20
414.1500549316424
 30
0.0
 11
-270.5000152588036
 21
414.1500549316424
 31
0.0
  0
LINE
  5
13DB4
330
3E7
100
AcDbEntity
  8
DETAIL
  6
CONTINUOUS
100
AcDbLine
 10
-270.4128875732567
 20
412.4179992675772
 30
0.0
 11
-271.5871734619213
 21
412.4179992675772
 31
0.0
  0
LINE
  5
13DB5
330
3E7
100
AcDbEntity
  8
DETAIL
  6
CONTINUOUS
100
AcDbLine
 10
-271.5000152588072
 20
414.1500549316424
 30
0.0
 11
-271.5000152588072
 21
412.7000427246093
 31
0.0
  0
LINE
  5
13DB6
330
3E7
100
AcDbEntity
  8
DETAIL
  6
CONTINUOUS
100
AcDbLine
 10
-272.0000152587999
 20
412.2000427246075
 30
0.0
 11
-273.4500274658421
 21
412.2000427246075
 31
0.0
  0
LINE
  5
13DB7
330
3E7
100
AcDbEntity
  8
DETAIL
  6
CONTINUOUS
100
AcDbLine
 10
-275.0000152588108
 20
414.0094299316388
 30
0.0
 11
-271.0000152587963
 21
416.3188171386718
 31
0.0
  0
LINE
  5
13DB8
330
3E7
100
AcDbEntity
  8
DETAIL
  6
CONTINUOUS
100
AcDbLine
 10
-268.5500335693541
 20
412.2000427246075
 30
0.0
 11
-268.5500335693541
 21
411.2000427246084
 31
0.0
  0
LINE
  5
13DB9
330
3E7
100
AcDbEntity
  8
DETAIL
  6
CONTINUOUS
100
AcDbLine
 10
-270.2820587158385
 20
412.2872009277353
 30
0.0
 11
-270.2820587158385
 21
411.1128845214852
 31
0.0
  0
LINE
  5
13DBA
330
3E7
100
AcDbEntity
  8
DETAIL
  6
CONTINUOUS
100
AcDbLine
 10
-270.5000152588036
 20
409.250030517578
 30
0.0
 11
-270.5000152588036
 21
410.7000427246111
 31
0.0
  0
LINE
  5
13DBB
330
3E7
100
AcDbEntity
  8
DETAIL
  6
CONTINUOUS
100
AcDbLine
 10
-270.0000152588108
 20
411.2000427246084
 30
0.0
 11
-268.5500335693541
 21
411.2000427246084
 31
0.0
  0
LINE
  5
13DBC
330
3E7
100
AcDbEntity
  8
DETAIL
  6
CONTINUOUS
100
AcDbLine
 10
-267.0000152587999
 20
414.0094299316388
 30
0.0
 11
-267.0000152587999
 21
409.3906555175772
 31
0.0
  0
LINE
  5
13DBD
330
3E7
100
AcDbEntity
  8
DETAIL
  6
CONTINUOUS
100
AcDbLine
 10
-273.4500274658421
 20
411.2000427246084
 30
0.0
 11
-273.4500274658421
 21
412.2000427246075
 31
0.0
  0
LINE
  5
13DBE
330
3E7
100
AcDbEntity
  8
DETAIL
  6
CONTINUOUS
100
AcDbLine
 10
-270.5000152588036
 20
409.250030517578
 30
0.0
 11
-271.5000152588072
 21
409.250030517578
 31
0.0
  0
LINE
  5
13DBF
330
3E7
100
AcDbEntity
  8
DETAIL
  6
CONTINUOUS
100
AcDbLine
 10
-270.4128875732567
 20
410.9820861816388
 30
0.0
 11
-271.5871734619213
 21
410.9820861816388
 31
0.0
  0
LINE
  5
13DC0
330
3E7
100
AcDbEntity
  8
DETAIL
  6
CONTINUOUS
100
AcDbLine
 10
-271.7179718017723
 20
412.2872009277353
 30
0.0
 11
-271.7179718017723
 21
411.1128845214852
 31
0.0
  0
LINE
  5
13DC1
330
3E7
100
AcDbEntity
  8
DETAIL
  6
CONTINUOUS
100
AcDbLine
 10
-273.4500274658421
 20
411.2000427246084
 30
0.0
 11
-272.0000152587999
 21
411.2000427246084
 31
0.0
  0
LINE
  5
13DC2
330
3E7
100
AcDbEntity
  8
DETAIL
  6
CONTINUOUS
100
AcDbLine
 10
-271.5000152588072
 20
410.7000427246111
 30
0.0
 11
-271.5000152588072
 21
409.250030517578
 31
0.0
  0
LINE
  5
13DC3
330
3E7
100
AcDbEntity
  8
DETAIL
  6
CONTINUOUS
100
AcDbLine
 10
-275.0000152588108
 20
409.3906555175772
 30
0.0
 11
-275.0000152588108
 21
414.0094299316388
 31
0.0
  0
ARC
  5
13DC4
330
3E7
100
AcDbEntity
  8
DETAIL
  6
CONTINUOUS
100
AcDbCircle
 10
-270.0000262293724
 20
412.7000317540387
 30
0.0
 40
0.499989029550382
100
AcDbArc
 50
179.9987428377168
 51
270.0012571623092
  0
ARC
  5
13DC5
330
3E7
100
AcDbEntity
  8
DETAIL
  6
CONTINUOUS
100
AcDbCircle
 10
-272.0000103918573
 20
412.7000378576576
 30
0.0
 40
0.4999951330742486
100
AcDbArc
 50
269.9994422832045
 51
0.0005577167433892
  0
ARC
  5
13DC6
330
3E7
100
AcDbEntity
  8
DETAIL
  6
CONTINUOUS
100
AcDbCircle
 10
-270.0000103916136
 20
410.7000378574184
 30
0.0
 40
0.5000048672136898
100
AcDbArc
 50
90.00055773347074
 51
179.9994422665292
  0
ARC
  5
13DC7
330
3E7
100
AcDbEntity
  8
DETAIL
  6
CONTINUOUS
100
AcDbCircle
 10
-272.0000262294161
 20
410.7000317539904
 30
0.0
 40
0.5000109707383019
100
AcDbArc
 50
0.0012571125700148
 51
89.99874288740391
  0
LINE
  5
13DC8
330
3E7
100
AcDbEntity
  8
DETAIL
  6
CONTINUOUS
100
AcDbLine
 10
-267.0000152587999
 20
409.3906555175772
 30
0.0
 11
-271.0000152587963
 21
407.0812072753914
 31
0.0
  0
LINE
  5
13DC9
330
3E7
100
AcDbEntity
  8
DETAIL
  6
CONTINUOUS
100
AcDbLine
 10
-271.0000152587963
 20
407.0812072753914
 30
0.0
 11
-275.0000152588108
 21
409.3906555175772
 31
0.0
  0
LINE
  5
13DD0
330
3E7
100
AcDbEntity
  8
DETAIL
  6
CONTINUOUS
100
AcDbLine
 10
442.3499908447229
 20
83.80010986329308
 30
0.0
 11
442.3499908447229
 21
75.3000488281259
 31
0.0
  0
LINE
  5
13DD1
330
3E7
100
AcDbEntity
  8
DETAIL
  6
CONTINUOUS
100
AcDbLine
 10
442.3499908447229
 20
267.3999938967467
 30
0.0
 11
442.3499908447229
 21
86.80004882814136
 31
0.0
  0
LINE
  5
13DD2
330
3E7
100
AcDbEntity
  8
DETAIL
  6
CONTINUOUS
100
AcDbLine
 10
442.3499908447229
 20
471.4000091558141
 30
0.0
 11
442.3499908447229
 21
270.3999938967508
 31
0.0
  0
LINE
  5
13DD3
330
3E7
100
AcDbEntity
  8
DETAIL
  6
CONTINUOUS
100
AcDbLine
 10
442.3499908447229
 20
675.4000282295792
 30
0.0
 11
442.3499908447229
 21
474.4000091558182
 31
0.0
  0
LINE
  5
13DD4
330
3E7
100
AcDbEntity
  8
DETAIL
  6
CONTINUOUS
100
AcDbLine
 10
442.3499908447229
 20
879.4000396739498
 30
0.0
 11
442.3499908447229
 21
678.4000225075374
 31
0.0
  0
LINE
  5
13DD5
330
3E7
100
AcDbEntity
  8
DETAIL
  6
CONTINUOUS
100
AcDbLine
 10
442.3499908447229
 20
1083.400024415438
 30
0.0
 11
442.3499908447229
 21
882.4000396739538
 31
0.0
  0
LINE
  5
13DD6
330
3E7
100
AcDbEntity
  8
DETAIL
  6
CONTINUOUS
100
AcDbLine
 10
442.3499908447229
 20
1287.400024415717
 30
0.0
 11
442.3499908447229
 21
1086.400024415443
 31
0.0
  0
LINE
  5
13DD7
330
3E7
100
AcDbEntity
  8
DETAIL
  6
CONTINUOUS
100
AcDbLine
 10
442.3499908447229
 20
1298.900024415732
 30
0.0
 11
442.3499908447229
 21
1290.400024415721
 31
0.0
  0
LINE
  5
13DD8
330
3E7
100
AcDbEntity
  8
DETAIL
  6
CONTINUOUS
100
AcDbLine
 10
439.8499908447229
 20
1290.399963380564
 30
0.0
 11
439.8499908447229
 21
1298.900024415732
 31
0.0
  0
LINE
  5
13DD9
330
3E7
100
AcDbEntity
  8
DETAIL
  6
CONTINUOUS
100
AcDbLine
 10
439.8499908447229
 20
1086.40005493302
 30
0.0
 11
439.8499908447229
 21
1287.400024415717
 31
0.0
  0
LINE
  5
13DDA
330
3E7
100
AcDbEntity
  8
DETAIL
  6
CONTINUOUS
100
AcDbLine
 10
439.8499908447229
 20
882.4000396739538
 30
0.0
 11
439.8499908447229
 21
1083.400054933016
 31
0.0
  0
LINE
  5
13DDB
330
3E7
100
AcDbEntity
  8
DETAIL
  6
CONTINUOUS
100
AcDbLine
 10
439.8499908447229
 20
678.4000225075374
 30
0.0
 11
439.8499908447229
 21
879.4000396739498
 31
0.0
  0
LINE
  5
13DDC
330
3E7
100
AcDbEntity
  8
DETAIL
  6
CONTINUOUS
100
AcDbLine
 10
439.8499908447229
 20
474.4000091558182
 30
0.0
 11
439.8499908447229
 21
675.4000282295792
 31
0.0
  0
LINE
  5
13DDD
330
3E7
100
AcDbEntity
  8
DETAIL
  6
CONTINUOUS
100
AcDbLine
 10
439.8499908447229
 20
270.4000244143299
 30
0.0
 11
439.8499908447229
 21
471.4000091558141
 31
0.0
  0
LINE
  5
13DDE
330
3E7
100
AcDbEntity
  8
DETAIL
  6
CONTINUOUS
100
AcDbLine
 10
439.8499908447229
 20
86.80004882814136
 30
0.0
 11
439.8499908447229
 21
267.4000244143257
 31
0.0
  0
LINE
  5
13DDF
330
3E7
100
AcDbEntity
  8
DETAIL
  6
CONTINUOUS
100
AcDbLine
 10
439.8499908447229
 20
75.3000488281259
 30
0.0
 11
439.8499908447229
 21
83.80004882813727
 31
0.0
  0
LINE
  5
13DE0
330
3E7
100
AcDbEntity
  8
DETAIL
  6
CONTINUOUS
100
AcDbLine
 10
439.8499908447229
 20
75.3000488281259
 30
0.0
 11
442.3499908447229
 21
75.3000488281259
 31
0.0
  0
LINE
  5
13DE1
330
3E7
100
AcDbEntity
  8
DETAIL
  6
CONTINUOUS
100
AcDbLine
 10
439.8499908447229
 20
1298.900024415732
 30
0.0
 11
442.3499908447229
 21
1298.900024415732
 31
0.0
  0
LINE
  5
13DE2
330
3E7
100
AcDbEntity
  8
DETAIL
  6
CONTINUOUS
100
AcDbLine
 10
-245.6488647460864
 20
86.80004882814273
 30
0.0
 11
-253.5000000000036
 21
86.80004882814273
 31
0.0
  0
LINE
  5
13DE3
330
3E7
100
AcDbEntity
  8
DETAIL
  6
CONTINUOUS
100
AcDbLine
 10
-245.6488647460864
 20
83.80004882813864
 30
0.0
 11
-253.5000000000036
 21
83.80004882813864
 31
0.0
  0
LINE
  5
13DE4
330
3E7
100
AcDbEntity
  8
DETAIL
  6
CONTINUOUS
100
AcDbLine
 10
-233.5533752441187
 20
86.80004882814273
 30
0.0
 11
-243.4837951660192
 21
86.80002078344887
 31
0.0
  0
LINE
  5
13DE5
330
3E7
100
AcDbEntity
  8
DETAIL
  6
CONTINUOUS
100
AcDbLine
 10
-233.5533752441915
 20
83.8000207834516
 30
0.0
 11
-243.4837951660047
 21
83.80004882813864
 31
0.0
  0
LINE
  5
13DE6
330
3E7
100
AcDbEntity
  8
DETAIL
  6
CONTINUOUS
100
AcDbLine
 10
-245.2437744140552
 20
83.87341308595159
 30
0.0
 11
-245.6488647460864
 21
83.80004882813864
 31
0.0
  0
LINE
  5
13DE7
330
3E7
100
AcDbEntity
  8
DETAIL
  6
CONTINUOUS
100
AcDbLine
 10
-243.8852185607338
 20
86.72660637755871
 30
0.0
 11
-244.1239624023346
 21
86.72662353517353
 31
0.0
  0
LINE
  5
13DE8
330
3E7
100
AcDbEntity
  8
DETAIL
  6
CONTINUOUS
100
AcDbLine
 10
-243.8810882568268
 20
86.72662353517353
 30
0.0
 11
-243.8852185607338
 21
86.72660637755871
 31
0.0
  0
LINE
  5
13DE9
330
3E7
100
AcDbEntity
  8
DETAIL
  6
CONTINUOUS
100
AcDbLine
 10
-245.0593719482349
 20
86.72662353517353
 30
0.0
 11
-245.6488647460864
 21
86.80004882814273
 31
0.0
  0
LINE
  5
13DEA
330
3E7
100
AcDbEntity
  8
DETAIL
  6
CONTINUOUS
100
AcDbLine
 10
-244.1239624023346
 20
86.72662353517353
 30
0.0
 11
-245.0593719482349
 21
86.72662353517353
 31
0.0
  0
LINE
  5
13DEB
330
3E7
100
AcDbEntity
  8
DETAIL
  6
CONTINUOUS
100
AcDbLine
 10
-243.7477416992096
 20
86.72662353517353
 30
0.0
 11
-243.8810882568268
 21
86.72662353517353
 31
0.0
  0
LINE
  5
13DEC
330
3E7
100
AcDbEntity
  8
DETAIL
  6
CONTINUOUS
100
AcDbLine
 10
-243.4837951660192
 20
86.80002078344887
 30
0.0
 11
-243.7477416992096
 21
86.72662353517353
 31
0.0
  0
LINE
  5
13DED
330
3E7
100
AcDbEntity
  8
DETAIL
  6
CONTINUOUS
100
AcDbLine
 10
-243.5489807128797
 20
83.87341308595159
 30
0.0
 11
-245.2437744140552
 21
83.87341308595159
 31
0.0
  0
LINE
  5
13DEE
330
3E7
100
AcDbEntity
  8
DETAIL
  6
CONTINUOUS
100
AcDbLine
 10
-243.4837951660047
 20
83.80004882813864
 30
0.0
 11
-243.5489807128797
 21
83.87341308595159
 31
0.0
  0
LINE
  5
13DEF
330
3E7
100
AcDbEntity
  8
DETAIL
  6
CONTINUOUS
100
AcDbLine
 10
-231.4863891601289
 20
86.78350830079853
 30
0.0
 11
-231.388305664037
 21
86.80004882814273
 31
0.0
  0
LINE
  5
13DF0
330
3E7
100
AcDbEntity
  8
DETAIL
  6
CONTINUOUS
100
AcDbLine
 10
-231.6992034911854
 20
83.84844970704444
 30
0.0
 11
-231.388305664037
 21
83.80004882813864
 31
0.0
  0
LINE
  5
13DF1
330
3E7
100
AcDbEntity
  8
DETAIL
  6
CONTINUOUS
100
AcDbLine
 10
-231.778457641576
 20
83.87341308595159
 30
0.0
 11
-231.6992034911854
 21
83.84844970704444
 31
0.0
  0
LINE
  5
13DF2
330
3E7
100
AcDbEntity
  8
DETAIL
  6
CONTINUOUS
100
AcDbLine
 10
-233.1675872802516
 20
83.87341308595159
 30
0.0
 11
-231.778457641576
 21
83.87341308595159
 31
0.0
  0
LINE
  5
13DF3
330
3E7
100
AcDbEntity
  8
DETAIL
  6
CONTINUOUS
100
AcDbLine
 10
-233.5533752441915
 20
83.8000207834516
 30
0.0
 11
-233.1675872802516
 21
83.87341308595159
 31
0.0
  0
LINE
  5
13DF4
330
3E7
100
AcDbEntity
  8
DETAIL
  6
CONTINUOUS
100
AcDbLine
 10
-231.6564178466542
 20
86.72662353517353
 30
0.0
 11
-231.4863891601289
 21
86.78350830079853
 31
0.0
  0
LINE
  5
13DF5
330
3E7
100
AcDbEntity
  8
DETAIL
  6
CONTINUOUS
100
AcDbLine
 10
-233.4418792724373
 20
86.72662353517353
 30
0.0
 11
-231.6564178466542
 21
86.72662353517353
 31
0.0
  0
LINE
  5
13DF6
330
3E7
100
AcDbEntity
  8
DETAIL
  6
CONTINUOUS
100
AcDbLine
 10
-233.5533752441187
 20
86.80004882814273
 30
0.0
 11
-233.4418792724373
 21
86.72662353517353
 31
0.0
  0
LINE
  5
13DF7
330
3E7
100
AcDbEntity
  8
DETAIL
  6
CONTINUOUS
100
AcDbLine
 10
461.3665313730416
 20
83.80004882813864
 30
0.0
 11
-231.388305664037
 21
83.80004882813864
 31
0.0
  0
LINE
  5
13DF8
330
3E7
100
AcDbEntity
  8
DETAIL
  6
CONTINUOUS
100
AcDbLine
 10
-231.388305664037
 20
86.80004882814273
 30
0.0
 11
461.3665313730416
 21
86.80004882814273
 31
0.0
  0
LINE
  5
13DF9
330
3E7
100
AcDbEntity
  8
DETAIL
  6
CONTINUOUS
100
AcDbLine
 10
480.2000274668171
 20
73.800048828125
 30
0.0
 11
485.2000274668207
 21
73.800048828125
 31
0.0
  0
LINE
  5
13DFA
330
3E7
100
AcDbEntity
  8
DETAIL
  6
CONTINUOUS
100
AcDbLine
 10
480.2000274668171
 20
76.80004882812909
 30
0.0
 11
485.2000274668207
 21
76.80004882812909
 31
0.0
  0
LINE
  5
13E0B
330
3E7
100
AcDbEntity
  8
DETAIL
  6
CONTINUOUS
100
AcDbLine
 10
485.2000274668207
 20
86.80004882814273
 30
0.0
 11
471.6433868418062
 21
86.80004882814273
 31
0.0
  0
LINE
  5
13E0C
330
3E7
100
AcDbEntity
  8
DETAIL
  6
CONTINUOUS
100
AcDbLine
 10
471.6433868418062
 20
83.80004882813864
 30
0.0
 11
485.2000274668207
 21
83.80004882813864
 31
0.0
  0
LINE
  5
13E0D
330
3E7
100
AcDbEntity
  8
DETAIL
  6
CONTINUOUS
100
AcDbLine
 10
469.4783477784621
 20
86.80002078255757
 30
0.0
 11
463.5316314706979
 21
86.80004882814273
 31
0.0
  0
LINE
  5
13E0E
330
3E7
100
AcDbEntity
  8
DETAIL
  6
CONTINUOUS
100
AcDbLine
 10
469.4783477793025
 20
83.80004882813864
 30
0.0
 11
463.5316314713746
 21
83.80002078402275
 31
0.0
  0
LINE
  5
13E0F
330
3E7
100
AcDbEntity
  8
DETAIL
  6
CONTINUOUS
100
AcDbLine
 10
463.4664459238229
 20
86.72662353517353
 30
0.0
 11
463.5316314706979
 21
86.80004882814273
 31
0.0
  0
LINE
  5
13E10
330
3E7
100
AcDbEntity
  8
DETAIL
  6
CONTINUOUS
100
AcDbLine
 10
463.2676544199166
 20
83.87341308595159
 30
0.0
 11
463.5316314713746
 21
83.80002078402275
 31
0.0
  0
LINE
  5
13E11
330
3E7
100
AcDbEntity
  8
DETAIL
  6
CONTINUOUS
100
AcDbLine
 10
461.7716217050729
 20
86.72662353517353
 30
0.0
 11
463.4664459238229
 21
86.72662353517353
 31
0.0
  0
LINE
  5
13E12
330
3E7
100
AcDbEntity
  8
DETAIL
  6
CONTINUOUS
100
AcDbLine
 10
461.5168609628853
 20
86.78302001954852
 30
0.0
 11
461.7716217050729
 21
86.72662353517353
 31
0.0
  0
LINE
  5
13E13
330
3E7
100
AcDbEntity
  8
DETAIL
  6
CONTINUOUS
100
AcDbLine
 10
461.3665313730416
 20
86.80004882814273
 30
0.0
 11
461.5168609628853
 21
86.78302001954852
 31
0.0
  0
LINE
  5
13E14
330
3E7
100
AcDbEntity
  8
DETAIL
  6
CONTINUOUS
100
AcDbLine
 10
461.9560089121041
 20
83.87341308595159
 30
0.0
 11
463.2676544199166
 21
83.87341308595159
 31
0.0
  0
LINE
  5
13E15
330
3E7
100
AcDbEntity
  8
DETAIL
  6
CONTINUOUS
100
AcDbLine
 10
461.8384552011666
 20
83.84887695313864
 30
0.0
 11
461.9560089121041
 21
83.87341308595159
 31
0.0
  0
LINE
  5
13E16
330
3E7
100
AcDbEntity
  8
DETAIL
  6
CONTINUOUS
100
AcDbLine
 10
461.3665313730416
 20
83.80004882813864
 30
0.0
 11
461.8384552011666
 21
83.84887695313864
 31
0.0
  0
LINE
  5
13E17
330
3E7
100
AcDbEntity
  8
DETAIL
  6
CONTINUOUS
100
AcDbLine
 10
469.8797668289044
 20
86.72659093944639
 30
0.0
 11
470.1214752207087
 21
86.72662353517353
 31
0.0
  0
LINE
  5
13E18
330
3E7
100
AcDbEntity
  8
DETAIL
  6
CONTINUOUS
100
AcDbLine
 10
469.8641510019588
 20
86.72662353517353
 30
0.0
 11
469.8797668289044
 21
86.72659093944639
 31
0.0
  0
LINE
  5
13E19
330
3E7
100
AcDbEntity
  8
DETAIL
  6
CONTINUOUS
100
AcDbLine
 10
471.2532501230562
 20
86.72662353517353
 30
0.0
 11
471.6433868418062
 21
86.80004882814273
 31
0.0
  0
LINE
  5
13E1A
330
3E7
100
AcDbEntity
  8
DETAIL
  6
CONTINUOUS
100
AcDbLine
 10
470.1214752207087
 20
86.72662353517353
 30
0.0
 11
471.2532501230562
 21
86.72662353517353
 31
0.0
  0
LINE
  5
13E1B
330
3E7
100
AcDbEntity
  8
DETAIL
  6
CONTINUOUS
100
AcDbLine
 10
469.4783477784621
 20
86.80002078255757
 30
0.0
 11
469.8641510019588
 21
86.72662353517353
 31
0.0
  0
LINE
  5
13E1C
330
3E7
100
AcDbEntity
  8
DETAIL
  6
CONTINUOUS
100
AcDbLine
 10
471.3752594003999
 20
83.87341308595159
 30
0.0
 11
471.6433868418062
 21
83.80004882813864
 31
0.0
  0
LINE
  5
13E1D
330
3E7
100
AcDbEntity
  8
DETAIL
  6
CONTINUOUS
100
AcDbLine
 10
469.589797974615
 20
83.87341308595159
 30
0.0
 11
471.3752594003999
 21
83.87341308595159
 31
0.0
  0
LINE
  5
13E1E
330
3E7
100
AcDbEntity
  8
DETAIL
  6
CONTINUOUS
100
AcDbLine
 10
469.4783477793025
 20
83.80004882813864
 30
0.0
 11
469.589797974615
 21
83.87341308595159
 31
0.0
  0
LINE
  5
13E1F
330
3E7
100
AcDbEntity
  8
DETAIL
  6
CONTINUOUS
100
AcDbLine
 10
469.8797760019588
 20
83.87341308595159
 30
0.0
 11
469.4783477793025
 21
83.80004882813864
 31
0.0
  0
LINE
  5
13E20
330
3E7
100
AcDbEntity
  8
DETAIL
  6
CONTINUOUS
100
AcDbLine
 10
463.9330596933578
 20
83.87341308595159
 30
0.0
 11
463.5316314713746
 21
83.80002078402275
 31
0.0
  0
LINE
  5
13E21
330
3E7
100
AcDbEntity
  8
DETAIL
  6
CONTINUOUS
100
AcDbLine
 10
-243.8852233886627
 20
83.87341308595159
 30
0.0
 11
-243.4837951660047
 21
83.80004882813864
 31
0.0
  0
LINE
  5
13E22
330
3E7
100
AcDbEntity
  8
DETAIL
  6
CONTINUOUS
100
AcDbLine
 10
-233.954803466775
 20
83.87341308595159
 30
0.0
 11
-233.5533752441915
 21
83.8000207834516
 31
0.0
  0
LINE
  5
13E23
330
3E7
100
AcDbEntity
  8
DETAIL
  6
CONTINUOUS
100
AcDbLine
 10
480.2000274668171
 20
73.800048828125
 30
0.0
 11
480.2000274668171
 21
76.80004882812909
 31
0.0
  0
SPLINE
  5
13E24
330
3E7
100
AcDbEntity
  8
DETAIL
  6
CONTINUOUS
100
AcDbSpline
210
0.0
220
0.0
230
1.0
 70
     8
 71
     3
 72
     9
 73
     5
 74
     3
 42
0.0000000001
 43
0.0000000001
 44
0.00000001
 40
0.0
 40
0.0
 40
0.0
 40
0.0
 40
0.2056844188109693
 40
0.4097344422769769
 40
0.4097344422769769
 40
0.4097344422769769
 40
0.4097344422769769
 10
469.8797668289044
 20
86.72659093944639
 30
0.0
 10
469.8142526879261
 20
86.74794882709818
 30
0.0
 10
469.6837449854836
 20
86.79049487047064
 30
0.0
 10
469.5466312033415
 20
86.79685394032231
 30
0.0
 10
469.4783477784621
 20
86.80002078255757
 30
0.0
 11
469.8797668289044
 21
86.72659093944639
 31
0.0
 11
469.6815596815686
 21
86.78154553212015
 31
0.0
 11
469.4783477784621
 21
86.80002078255757
 31
0.0
  0
SPLINE
  5
13E25
330
3E7
100
AcDbEntity
  8
DETAIL
  6
CONTINUOUS
100
AcDbSpline
210
0.0
220
0.0
230
1.0
 70
     8
 71
     3
 72
     9
 73
     5
 74
     3
 42
0.0000000001
 43
0.0000000001
 44
0.00000001
 40
0.0
 40
0.0
 40
0.0
 40
0.0
 40
0.2056848152272304
 40
0.4097358246246101
 40
0.4097358246246101
 40
0.4097358246246101
 40
0.4097358246246101
 10
463.1302059622976
 20
83.87342273281365
 30
0.0
 10
463.1957216965749
 20
83.85206927838952
 30
0.0
 10
463.3262327617327
 20
83.80953200471742
 30
0.0
 10
463.4633474804937
 20
83.80318274524496
 30
0.0
 10
463.5316314713746
 20
83.80002078402275
 30
0.0
 11
463.1302059622976
 21
83.87342273281365
 31
0.0
 11
463.3284172733437
 21
83.81848167569115
 31
0.0
 11
463.5316314713746
 21
83.80002078402275
 31
0.0
  0
SPLINE
  5
13E26
330
3E7
100
AcDbEntity
  8
DETAIL
  6
CONTINUOUS
100
AcDbSpline
210
0.0
220
0.0
230
1.0
 70
     8
 71
     3
 72
     9
 73
     5
 74
     3
 42
0.0000000001
 43
0.0000000001
 44
0.00000001
 40
0.0
 40
0.0
 40
0.0
 40
0.0
 40
0.2040509507703002
 40
0.4097359738986581
 40
0.4097359738986581
 40
0.4097359738986581
 40
0.4097359738986581
 10
-243.4837951660192
 20
86.80002078344887
 30
0.0
 10
-243.5520790350923
 20
86.79685667724248
 30
0.0
 10
-243.6891935986103
 20
86.79050310648689
 30
0.0
 10
-243.819703412322
 20
86.74796184676178
 30
0.0
 10
-243.8852185607338
 20
86.72660637755871
 30
0.0
 11
-243.4837951660192
 21
86.80002078344887
 31
0.0
 11
-243.6870087288916
 21
86.781553549185
 31
0.0
 11
-243.8852185607338
 21
86.72660637755871
 31
0.0
  0
SPLINE
  5
13E27
330
3E7
100
AcDbEntity
  8
DETAIL
  6
CONTINUOUS
100
AcDbSpline
210
0.0
220
0.0
230
1.0
 70
     8
 71
     3
 72
     9
 73
     5
 74
     3
 42
0.0000000001
 43
0.0000000001
 44
0.00000001
 40
0.0
 40
0.0
 40
0.0
 40
0.0
 40
0.2040503553529133
 40
0.4097347443550398
 40
0.4097347443550398
 40
0.4097347443550398
 40
0.4097347443550398
 10
-233.5533752441915
 20
83.8000207834516
 30
0.0
 10
-233.4850915664558
 20
83.80318467307642
 30
0.0
 10
-233.3479773985028
 20
83.80953780840817
 30
0.0
 10
-233.2174678217235
 20
83.85207845435671
 30
0.0
 10
-233.1519527976343
 20
83.87343361369266
 30
0.0
 11
-233.5533752441915
 21
83.8000207834516
 31
0.0
 11
-233.3501622162602
 21
83.8184873252244
 31
0.0
 11
-233.1519527976343
 21
83.87343361369266
 31
0.0
  0
LINE
  5
13E28
330
3E7
100
AcDbEntity
  8
DETAIL
  6
CONTINUOUS
100
AcDbLine
 10
-223.1500091552498
 20
83.80004882813864
 30
0.0
 11
-223.1500091552498
 21
54.0000000000009
 31
0.0
  0
LINE
  5
13E29
330
3E7
100
AcDbEntity
  8
DETAIL
  6
CONTINUOUS
100
AcDbLine
 10
-220.6500091552461
 20
83.80004882813864
 30
0.0
 11
-220.6500091552461
 21
54.0000000000009
 31
0.0
  0
LINE
  5
13E49
330
3E7
100
AcDbEntity
  8
DETAIL
  6
CONTINUOUS
100
AcDbLine
 10
-220.6500091552461
 20
267.3999938967758
 30
0.0
 11
-220.6500091552461
 21
86.80004882817048
 31
0.0
  0
LINE
  5
13E4A
330
3E7
100
AcDbEntity
  8
DETAIL
  6
CONTINUOUS
100
AcDbLine
 10
-220.6500091552461
 20
471.4000091558432
 30
0.0
 11
-220.6500091552461
 21
270.3999938967799
 31
0.0
  0
LINE
  5
13E4B
330
3E7
100
AcDbEntity
  8
DETAIL
  6
CONTINUOUS
100
AcDbLine
 10
-220.6500091552461
 20
675.4000282296082
 30
0.0
 11
-220.6500091552461
 21
474.4000091558473
 31
0.0
  0
LINE
  5
13E4C
330
3E7
100
AcDbEntity
  8
DETAIL
  6
CONTINUOUS
100
AcDbLine
 10
-220.6500091552461
 20
879.4000396739788
 30
0.0
 11
-220.6500091552461
 21
678.4000225075665
 31
0.0
  0
LINE
  5
13E4D
330
3E7
100
AcDbEntity
  8
DETAIL
  6
CONTINUOUS
100
AcDbLine
 10
-220.6500091552461
 20
1083.400024415467
 30
0.0
 11
-220.6500091552461
 21
882.400039673983
 31
0.0
  0
LINE
  5
13E4E
330
3E7
100
AcDbEntity
  8
DETAIL
  6
CONTINUOUS
100
AcDbLine
 10
-220.6500091552461
 20
1261.900024415711
 30
0.0
 11
-220.6500091552461
 21
1086.400024415472
 31
0.0
  0
LINE
  5
13E4F
330
3E7
100
AcDbEntity
  8
DETAIL
  6
CONTINUOUS
100
AcDbLine
 10
-220.6500091552461
 20
1287.400024415746
 30
0.0
 11
-220.6500091552461
 21
1277.900024415733
 31
0.0
  0
LINE
  5
13E50
330
3E7
100
AcDbEntity
  8
DETAIL
  6
CONTINUOUS
100
AcDbLine
 10
-220.6500091552461
 20
1298.900024415762
 30
0.0
 11
-220.6500091552461
 21
1290.40002441575
 31
0.0
  0
LINE
  5
13E51
330
3E7
100
AcDbEntity
  8
DETAIL
  6
CONTINUOUS
100
AcDbLine
 10
-223.1500091552498
 20
1290.399963380593
 30
0.0
 11
-223.1500091552498
 21
1298.900024415762
 31
0.0
  0
LINE
  5
13E52
330
3E7
100
AcDbEntity
  8
DETAIL
  6
CONTINUOUS
100
AcDbLine
 10
-223.1500091552498
 20
1277.900085450889
 30
0.0
 11
-223.1500091552498
 21
1287.400024415746
 31
0.0
  0
LINE
  5
13E53
330
3E7
100
AcDbEntity
  8
DETAIL
  6
CONTINUOUS
100
AcDbLine
 10
-223.1500091552498
 20
1086.400054933049
 30
0.0
 11
-223.1500091552498
 21
1261.900024415711
 31
0.0
  0
LINE
  5
13E54
330
3E7
100
AcDbEntity
  8
DETAIL
  6
CONTINUOUS
100
AcDbLine
 10
-223.1500091552498
 20
882.400039673983
 30
0.0
 11
-223.1500091552498
 21
1083.400054933045
 31
0.0
  0
LINE
  5
13E55
330
3E7
100
AcDbEntity
  8
DETAIL
  6
CONTINUOUS
100
AcDbLine
 10
-223.1500091552498
 20
678.4000225075665
 30
0.0
 11
-223.1500091552498
 21
879.4000396739788
 31
0.0
  0
LINE
  5
13E56
330
3E7
100
AcDbEntity
  8
DETAIL
  6
CONTINUOUS
100
AcDbLine
 10
-223.1500091552498
 20
474.4000091558473
 30
0.0
 11
-223.1500091552498
 21
675.4000282296082
 31
0.0
  0
LINE
  5
13E57
330
3E7
100
AcDbEntity
  8
DETAIL
  6
CONTINUOUS
100
AcDbLine
 10
-223.1500091552498
 20
270.4000244143589
 30
0.0
 11
-223.1500091552498
 21
471.4000091558432
 31
0.0
  0
LINE
  5
13E58
330
3E7
100
AcDbEntity
  8
DETAIL
  6
CONTINUOUS
100
AcDbLine
 10
-223.1500091552498
 20
86.80004882817048
 30
0.0
 11
-223.1500091552498
 21
267.4000244143548
 31
0.0
  0
LINE
  5
13E5A
330
3E7
100
AcDbEntity
  8
DETAIL
  6
CONTINUOUS
100
AcDbLine
 10
-246.1500091552807
 20
59.20001220703852
 30
0.0
 11
-246.1500091552807
 21
54.0000000000009
 31
0.0
  0
LINE
  5
13E5B
330
3E7
100
AcDbEntity
  8
DETAIL
  6
CONTINUOUS
100
AcDbLine
 10
-243.650009155277
 20
59.20001220703852
 30
0.0
 11
-243.650009155277
 21
54.0000000000009
 31
0.0
  0
LINE
  5
13E5E
330
3E7
100
AcDbEntity
  8
DETAIL
  6
CONTINUOUS
100
AcDbLine
 10
-246.1500091552807
 20
59.20001220703852
 30
0.0
 11
-243.650009155277
 21
59.20001220703852
 31
0.0
  0
LINE
  5
13E5F
330
3E7
100
AcDbEntity
  8
DETAIL
  6
CONTINUOUS
100
AcDbLine
 10
-223.1500091552498
 20
1298.900024415762
 30
0.0
 11
-220.6500091552461
 21
1298.900024415762
 31
0.0
  0
LINE
  5
13E61
330
3E7
100
AcDbEntity
  8
DETAIL
  6
CONTINUOUS
100
AcDbLine
 10
0.3499794006384036
 20
83.80010986329308
 30
0.0
 11
0.3499794006384036
 21
75.3000488281259
 31
0.0
  0
LINE
  5
13E62
330
3E7
100
AcDbEntity
  8
DETAIL
  6
CONTINUOUS
100
AcDbLine
 10
0.3499794006384036
 20
267.3999938967467
 30
0.0
 11
0.3499794006384036
 21
86.80004882814136
 31
0.0
  0
LINE
  5
13E63
330
3E7
100
AcDbEntity
  8
DETAIL
  6
CONTINUOUS
100
AcDbLine
 10
0.3499794006384036
 20
471.4000091558141
 30
0.0
 11
0.3499794006384036
 21
270.3999938967508
 31
0.0
  0
LINE
  5
13E64
330
3E7
100
AcDbEntity
  8
DETAIL
  6
CONTINUOUS
100
AcDbLine
 10
0.3499794006384036
 20
675.4000282295792
 30
0.0
 11
0.3499794006384036
 21
474.4000091558182
 31
0.0
  0
LINE
  5
13E65
330
3E7
100
AcDbEntity
  8
DETAIL
  6
CONTINUOUS
100
AcDbLine
 10
0.3499794006384036
 20
879.4000396739498
 30
0.0
 11
0.3499794006384036
 21
678.4000225075374
 31
0.0
  0
LINE
  5
13E66
330
3E7
100
AcDbEntity
  8
DETAIL
  6
CONTINUOUS
100
AcDbLine
 10
0.3499794006384036
 20
1083.400024415438
 30
0.0
 11
0.3499794006384036
 21
882.4000396739538
 31
0.0
  0
LINE
  5
13E67
330
3E7
100
AcDbEntity
  8
DETAIL
  6
CONTINUOUS
100
AcDbLine
 10
0.3499794006384036
 20
1287.400024415717
 30
0.0
 11
0.3499794006384036
 21
1086.400024415443
 31
0.0
  0
LINE
  5
13E68
330
3E7
100
AcDbEntity
  8
DETAIL
  6
CONTINUOUS
100
AcDbLine
 10
0.3499794006384036
 20
1298.900024415732
 30
0.0
 11
0.3499794006384036
 21
1290.400024415721
 31
0.0
  0
LINE
  5
13E69
330
3E7
100
AcDbEntity
  8
DETAIL
  6
CONTINUOUS
100
AcDbLine
 10
-2.150020599365234
 20
1290.399963380564
 30
0.0
 11
-2.150020599365234
 21
1298.900024415732
 31
0.0
  0
LINE
  5
13E6A
330
3E7
100
AcDbEntity
  8
DETAIL
  6
CONTINUOUS
100
AcDbLine
 10
-2.150020599365234
 20
1086.40005493302
 30
0.0
 11
-2.150020599365234
 21
1287.400024415717
 31
0.0
  0
LINE
  5
13E6B
330
3E7
100
AcDbEntity
  8
DETAIL
  6
CONTINUOUS
100
AcDbLine
 10
-2.150020599365234
 20
882.4000396739538
 30
0.0
 11
-2.150020599365234
 21
1083.400054933016
 31
0.0
  0
LINE
  5
13E6C
330
3E7
100
AcDbEntity
  8
DETAIL
  6
CONTINUOUS
100
AcDbLine
 10
-2.150020599365234
 20
678.4000225075374
 30
0.0
 11
-2.150020599365234
 21
879.4000396739498
 31
0.0
  0
LINE
  5
13E6D
330
3E7
100
AcDbEntity
  8
DETAIL
  6
CONTINUOUS
100
AcDbLine
 10
-2.150020599365234
 20
474.4000091558182
 30
0.0
 11
-2.150020599365234
 21
675.4000282295792
 31
0.0
  0
LINE
  5
13E6E
330
3E7
100
AcDbEntity
  8
DETAIL
  6
CONTINUOUS
100
AcDbLine
 10
-2.150020599365234
 20
270.4000244143299
 30
0.0
 11
-2.150020599365234
 21
471.4000091558141
 31
0.0
  0
LINE
  5
13E6F
330
3E7
100
AcDbEntity
  8
DETAIL
  6
CONTINUOUS
100
AcDbLine
 10
-2.150020599365234
 20
86.80004882814136
 30
0.0
 11
-2.150020599365234
 21
267.4000244143257
 31
0.0
  0
LINE
  5
13E70
330
3E7
100
AcDbEntity
  8
DETAIL
  6
CONTINUOUS
100
AcDbLine
 10
-2.150020599365234
 20
75.3000488281259
 30
0.0
 11
-2.150020599365234
 21
83.80004882813727
 31
0.0
  0
LINE
  5
13E71
330
3E7
100
AcDbEntity
  8
DETAIL
  6
CONTINUOUS
100
AcDbLine
 10
-2.150020599365234
 20
75.3000488281259
 30
0.0
 11
0.3499794006384036
 21
75.3000488281259
 31
0.0
  0
LINE
  5
13E72
330
3E7
100
AcDbEntity
  8
DETAIL
  6
CONTINUOUS
100
AcDbLine
 10
-2.150020599365234
 20
1298.900024415732
 30
0.0
 11
0.3499794006384036
 21
1298.900024415732
 31
0.0
  0
LINE
  5
13E73
330
3E7
100
AcDbEntity
  8
DETAIL
  6
CONTINUOUS
100
AcDbLine
 10
451.0999603280834
 20
270.4000244140643
 30
0.0
 11
-231.9000091552698
 21
270.4000244140643
 31
0.0
  0
LINE
  5
13E74
330
3E7
100
AcDbEntity
  8
DETAIL
  6
CONTINUOUS
100
AcDbLine
 10
451.0999603280834
 20
267.4000244140602
 30
0.0
 11
-231.9000091552698
 21
267.4000244140602
 31
0.0
  0
LINE
  5
13E75
330
3E7
100
AcDbEntity
  8
DETAIL
  6
CONTINUOUS
100
AcDbLine
 10
-231.9000091552698
 20
270.4000244140643
 30
0.0
 11
-231.9000091552698
 21
267.4000244140602
 31
0.0
  0
LINE
  5
13E76
330
3E7
100
AcDbEntity
  8
DETAIL
  6
CONTINUOUS
100
AcDbLine
 10
451.0999603280834
 20
270.4000244140643
 30
0.0
 11
451.0999603280834
 21
267.4000244140602
 31
0.0
  0
LINE
  5
13E77
330
3E7
100
AcDbEntity
  8
DETAIL
  6
CONTINUOUS
100
AcDbLine
 10
451.0999603280834
 20
474.4000244140647
 30
0.0
 11
-231.9000091552698
 21
474.4000244140647
 31
0.0
  0
LINE
  5
13E78
330
3E7
100
AcDbEntity
  8
DETAIL
  6
CONTINUOUS
100
AcDbLine
 10
451.0999603280834
 20
471.4000244140606
 30
0.0
 11
-231.9000091552698
 21
471.4000244140606
 31
0.0
  0
LINE
  5
13E79
330
3E7
100
AcDbEntity
  8
DETAIL
  6
CONTINUOUS
100
AcDbLine
 10
-231.9000091552698
 20
474.4000244140647
 30
0.0
 11
-231.9000091552698
 21
471.4000244140606
 31
0.0
  0
LINE
  5
13E7A
330
3E7
100
AcDbEntity
  8
DETAIL
  6
CONTINUOUS
100
AcDbLine
 10
451.0999603280834
 20
474.4000244140647
 30
0.0
 11
451.0999603280834
 21
471.4000244140606
 31
0.0
  0
LINE
  5
13E7B
330
3E7
100
AcDbEntity
  8
DETAIL
  6
CONTINUOUS
100
AcDbLine
 10
221.349990844721
 20
83.80010986329308
 30
0.0
 11
221.349990844721
 21
75.3000488281259
 31
0.0
  0
LINE
  5
13E7C
330
3E7
100
AcDbEntity
  8
DETAIL
  6
CONTINUOUS
100
AcDbLine
 10
221.349990844721
 20
267.3999938967467
 30
0.0
 11
221.349990844721
 21
86.80004882814136
 31
0.0
  0
LINE
  5
13E7D
330
3E7
100
AcDbEntity
  8
DETAIL
  6
CONTINUOUS
100
AcDbLine
 10
221.349990844721
 20
471.4000091558141
 30
0.0
 11
221.349990844721
 21
270.3999938967508
 31
0.0
  0
LINE
  5
13E7E
330
3E7
100
AcDbEntity
  8
DETAIL
  6
CONTINUOUS
100
AcDbLine
 10
221.349990844721
 20
675.4000282295792
 30
0.0
 11
221.349990844721
 21
474.4000091558182
 31
0.0
  0
LINE
  5
13E7F
330
3E7
100
AcDbEntity
  8
DETAIL
  6
CONTINUOUS
100
AcDbLine
 10
221.349990844721
 20
879.4000396739498
 30
0.0
 11
221.349990844721
 21
678.4000225075374
 31
0.0
  0
LINE
  5
13E80
330
3E7
100
AcDbEntity
  8
DETAIL
  6
CONTINUOUS
100
AcDbLine
 10
221.349990844721
 20
1083.400024415438
 30
0.0
 11
221.349990844721
 21
882.4000396739538
 31
0.0
  0
LINE
  5
13E81
330
3E7
100
AcDbEntity
  8
DETAIL
  6
CONTINUOUS
100
AcDbLine
 10
221.349990844721
 20
1287.400024415717
 30
0.0
 11
221.349990844721
 21
1086.400024415443
 31
0.0
  0
LINE
  5
13E82
330
3E7
100
AcDbEntity
  8
DETAIL
  6
CONTINUOUS
100
AcDbLine
 10
221.349990844721
 20
1298.900024415732
 30
0.0
 11
221.349990844721
 21
1290.400024415721
 31
0.0
  0
LINE
  5
13E83
330
3E7
100
AcDbEntity
  8
DETAIL
  6
CONTINUOUS
100
AcDbLine
 10
218.8499908447174
 20
1290.399963380564
 30
0.0
 11
218.8499908447174
 21
1298.900024415732
 31
0.0
  0
LINE
  5
13E84
330
3E7
100
AcDbEntity
  8
DETAIL
  6
CONTINUOUS
100
AcDbLine
 10
218.8499908447174
 20
1086.40005493302
 30
0.0
 11
218.8499908447174
 21
1287.400024415717
 31
0.0
  0
LINE
  5
13E85
330
3E7
100
AcDbEntity
  8
DETAIL
  6
CONTINUOUS
100
AcDbLine
 10
218.8499908447174
 20
882.4000396739538
 30
0.0
 11
218.8499908447174
 21
1083.400054933016
 31
0.0
  0
LINE
  5
13E86
330
3E7
100
AcDbEntity
  8
DETAIL
  6
CONTINUOUS
100
AcDbLine
 10
218.8499908447174
 20
678.4000225075374
 30
0.0
 11
218.8499908447174
 21
879.4000396739498
 31
0.0
  0
LINE
  5
13E87
330
3E7
100
AcDbEntity
  8
DETAIL
  6
CONTINUOUS
100
AcDbLine
 10
218.8499908447174
 20
474.4000091558182
 30
0.0
 11
218.8499908447174
 21
675.4000282295792
 31
0.0
  0
LINE
  5
13E88
330
3E7
100
AcDbEntity
  8
DETAIL
  6
CONTINUOUS
100
AcDbLine
 10
218.8499908447174
 20
270.4000244143299
 30
0.0
 11
218.8499908447174
 21
471.4000091558141
 31
0.0
  0
LINE
  5
13E89
330
3E7
100
AcDbEntity
  8
DETAIL
  6
CONTINUOUS
100
AcDbLine
 10
218.8499908447174
 20
86.80004882814136
 30
0.0
 11
218.8499908447174
 21
267.4000244143257
 31
0.0
  0
LINE
  5
13E8A
330
3E7
100
AcDbEntity
  8
DETAIL
  6
CONTINUOUS
100
AcDbLine
 10
218.8499908447174
 20
75.3000488281259
 30
0.0
 11
218.8499908447174
 21
83.80004882813727
 31
0.0
  0
LINE
  5
13E8B
330
3E7
100
AcDbEntity
  8
DETAIL
  6
CONTINUOUS
100
AcDbLine
 10
218.8499908447174
 20
75.3000488281259
 30
0.0
 11
221.349990844721
 21
75.3000488281259
 31
0.0
  0
LINE
  5
13E8C
330
3E7
100
AcDbEntity
  8
DETAIL
  6
CONTINUOUS
100
AcDbLine
 10
218.8499908447174
 20
1298.900024415732
 30
0.0
 11
221.349990844721
 21
1298.900024415732
 31
0.0
  0
LINE
  5
13EB7
330
3E7
100
AcDbEntity
  8
DETAIL
  6
CONTINUOUS
100
AcDbLine
 10
-253.5000152584143
 20
678.3500218397903
 30
0.0
 11
492.8000030527655
 21
678.4000205993812
 31
0.0
  0
LINE
  5
13EB8
330
3E7
100
AcDbEntity
  8
DETAIL
  6
CONTINUOUS
100
AcDbLine
 10
-253.5000152584143
 20
675.4000244147073
 30
0.0
 11
492.8000030527655
 21
675.400020599377
 31
0.0
  0
LINE
  5
13ED2
330
3E7
100
AcDbEntity
  8
DETAIL
  6
CONTINUOUS
100
AcDbLine
 10
486.6920318613519
 20
674.1231517791848
 30
0.0
 11
489.511062623078
 21
673.0970916748133
 31
0.0
  0
LINE
  5
13EDE
330
3E7
100
AcDbEntity
  8
DETAIL
  6
CONTINUOUS
100
AcDbLine
 10
451.0999603280834
 20
882.4000244140668
 30
0.0
 11
-231.9000091552698
 21
882.4000244140668
 31
0.0
  0
LINE
  5
13EDF
330
3E7
100
AcDbEntity
  8
DETAIL
  6
CONTINUOUS
100
AcDbLine
 10
451.0999603280834
 20
879.4000244140628
 30
0.0
 11
-231.9000091552698
 21
879.4000244140628
 31
0.0
  0
LINE
  5
13EE0
330
3E7
100
AcDbEntity
  8
DETAIL
  6
CONTINUOUS
100
AcDbLine
 10
-231.9000091552698
 20
882.4000244140668
 30
0.0
 11
-231.9000091552698
 21
879.4000244140628
 31
0.0
  0
LINE
  5
13EE1
330
3E7
100
AcDbEntity
  8
DETAIL
  6
CONTINUOUS
100
AcDbLine
 10
451.0999603280834
 20
882.4000244140668
 30
0.0
 11
451.0999603280834
 21
879.4000244140628
 31
0.0
  0
LINE
  5
13EE2
330
3E7
100
AcDbEntity
  8
DETAIL
  6
CONTINUOUS
100
AcDbLine
 10
451.0999603280834
 20
1086.400024414068
 30
0.0
 11
-231.9000091552698
 21
1086.400024414068
 31
0.0
  0
LINE
  5
13EE3
330
3E7
100
AcDbEntity
  8
DETAIL
  6
CONTINUOUS
100
AcDbLine
 10
451.0999603280834
 20
1083.400024414063
 30
0.0
 11
-231.9000091552698
 21
1083.400024414063
 31
0.0
  0
LINE
  5
13EE4
330
3E7
100
AcDbEntity
  8
DETAIL
  6
CONTINUOUS
100
AcDbLine
 10
-231.9000091552698
 20
1086.400024414068
 30
0.0
 11
-231.9000091552698
 21
1083.400024414063
 31
0.0
  0
LINE
  5
13EE5
330
3E7
100
AcDbEntity
  8
DETAIL
  6
CONTINUOUS
100
AcDbLine
 10
451.0999603280834
 20
1086.400024414068
 30
0.0
 11
451.0999603280834
 21
1083.400024414063
 31
0.0
  0
LINE
  5
13EFB
330
3E7
100
AcDbEntity
  8
DETAIL
  6
CONTINUOUS
100
AcDbLine
 10
-207.9000244140079
 20
1287.400024414073
 30
0.0
 11
-253.5000152584143
 21
1287.400024414073
 31
0.0
  0
LINE
  5
13EFC
330
3E7
100
AcDbEntity
  8
DETAIL
  6
CONTINUOUS
100
AcDbLine
 10
485.2000274668207
 20
1287.400024414073
 30
0.0
 11
-191.900009155197
 21
1287.400024414073
 31
0.0
  0
LINE
  5
13EFD
330
3E7
100
AcDbEntity
  8
DETAIL
  6
CONTINUOUS
100
AcDbLine
 10
-191.900009155197
 20
1290.400024414078
 30
0.0
 11
485.2000274668207
 21
1290.400024414078
 31
0.0
  0
LINE
  5
13EFE
330
3E7
100
AcDbEntity
  8
DETAIL
  6
CONTINUOUS
100
AcDbLine
 10
-253.5000152584143
 20
1290.350006104999
 30
0.0
 11
-207.9000091552188
 21
1290.400024414078
 31
0.0
  0
LINE
  5
13EFF
330
3E7
100
AcDbEntity
  8
DETAIL
  6
CONTINUOUS
100
AcDbLine
 10
480.2000274668134
 20
1277.40002441406
 30
0.0
 11
485.2000274668207
 21
1277.40002441406
 31
0.0
  0
LINE
  5
13F00
330
3E7
100
AcDbEntity
  8
DETAIL
  6
CONTINUOUS
100
AcDbLine
 10
480.2000274668134
 20
1280.400024414064
 30
0.0
 11
485.2000274668207
 21
1280.400024414064
 31
0.0
  0
LINE
  5
13F29
330
3E7
100
AcDbEntity
  8
DETAIL
  6
CONTINUOUS
100
AcDbLine
 10
480.2000274668134
 20
1277.40002441406
 30
0.0
 11
480.2000274668134
 21
1280.400024414064
 31
0.0
  0
LINE
  5
13F2E
330
3E7
100
AcDbEntity
  8
DETAIL
  6
CONTINUOUS
100
AcDbLine
 10
-188.9000091552334
 20
1276.900024414088
 30
0.0
 11
-190.900009155237
 21
1276.900024414088
 31
0.0
  0
LINE
  5
13F3E
330
3E7
100
AcDbEntity
  8
DETAIL
  6
CONTINUOUS
100
AcDbLine
 10
-191.900009155237
 20
1281.952758789095
 30
0.0
 11
-183.893157958937
 21
1281.952758789095
 31
0.0
  0
LINE
  5
13F3F
330
3E7
100
AcDbEntity
  8
DETAIL
  6
CONTINUOUS
100
AcDbLine
 10
-194.9000091552425
 20
1282.684020996127
 30
0.0
 11
-194.9000091552425
 21
1284.400024414098
 31
0.0
  0
LINE
  5
13F40
330
3E7
100
AcDbEntity
  8
DETAIL
  6
CONTINUOUS
100
AcDbLine
 10
-198.9000091552479
 20
1276.900024414088
 30
0.0
 11
-200.9000091552497
 21
1276.900024414088
 31
0.0
  0
LINE
  5
13F41
330
3E7
100
AcDbEntity
  8
DETAIL
  6
CONTINUOUS
100
AcDbLine
 10
-193.9000091552406
 20
1276.900024414088
 30
0.0
 11
-195.9000091552443
 21
1276.900024414088
 31
0.0
  0
LINE
  5
13F42
330
3E7
100
AcDbEntity
  8
DETAIL
  6
CONTINUOUS
100
AcDbLine
 10
-194.9000091552425
 20
1282.684020996127
 30
0.0
 11
-204.9000091552552
 21
1282.684020996127
 31
0.0
  0
LINE
  5
13F43
330
3E7
100
AcDbEntity
  8
DETAIL
  6
CONTINUOUS
100
AcDbLine
 10
-194.9000091552425
 20
1282.788818359408
 30
0.0
 11
-204.9000091552552
 21
1282.788818359408
 31
0.0
  0
LINE
  5
13F44
330
3E7
100
AcDbEntity
  8
DETAIL
  6
CONTINUOUS
100
AcDbLine
 10
-193.9000091552406
 20
1281.847961425813
 30
0.0
 11
-205.900009155257
 21
1281.847961425813
 31
0.0
  0
LINE
  5
13F45
330
3E7
100
AcDbEntity
  8
DETAIL
  6
CONTINUOUS
100
AcDbLine
 10
-191.900009155237
 20
1278.791442871122
 30
0.0
 11
-191.900009155237
 21
1288.900024414104
 31
0.0
  0
LINE
  5
13F46
330
3E7
100
AcDbEntity
  8
DETAIL
  6
CONTINUOUS
100
AcDbLine
 10
-193.9000091552406
 20
1288.900024414104
 30
0.0
 11
-193.9000091552406
 21
1278.791442871122
 31
0.0
  0
LINE
  5
13F47
330
3E7
100
AcDbEntity
  8
DETAIL
  6
CONTINUOUS
100
AcDbLine
 10
-191.900009155237
 20
1292.90002441411
 30
0.0
 11
-207.9000091552588
 21
1292.90002441411
 31
0.0
  0
LINE
  5
13F48
330
3E7
100
AcDbEntity
  8
DETAIL
  6
CONTINUOUS
100
AcDbLine
 10
-193.9000091552406
 20
1284.900024414099
 30
0.0
 11
-205.900009155257
 21
1284.900024414099
 31
0.0
  0
LINE
  5
13F49
330
3E7
100
AcDbEntity
  8
DETAIL
  6
CONTINUOUS
100
AcDbLine
 10
-194.9000091552425
 20
1284.400024414098
 30
0.0
 11
-204.9000091552552
 21
1284.400024414098
 31
0.0
  0
LINE
  5
13F4A
330
3E7
100
AcDbEntity
  8
DETAIL
  6
CONTINUOUS
100
AcDbLine
 10
-191.900009155237
 20
1288.900024414104
 30
0.0
 11
-191.900009155237
 21
1292.90002441411
 31
0.0
  0
LINE
  5
13F4B
330
3E7
100
AcDbEntity
  8
DETAIL
  6
CONTINUOUS
100
AcDbLine
 10
-204.9000091552552
 20
1282.684020996127
 30
0.0
 11
-204.9000091552552
 21
1284.400024414098
 31
0.0
  0
LINE
  5
13F4C
330
3E7
100
AcDbEntity
  8
DETAIL
  6
CONTINUOUS
100
AcDbLine
 10
-203.9000091552552
 20
1276.900024414088
 30
0.0
 11
-205.900009155257
 21
1276.900024414088
 31
0.0
  0
LINE
  5
13F4D
330
3E7
100
AcDbEntity
  8
DETAIL
  6
CONTINUOUS
100
AcDbLine
 10
-208.9000091552607
 20
1276.900024414088
 30
0.0
 11
-210.9000091552643
 21
1276.900024414088
 31
0.0
  0
LINE
  5
13F4E
330
3E7
100
AcDbEntity
  8
DETAIL
  6
CONTINUOUS
100
AcDbLine
 10
-218.7897796630859
 20
1279.686645507842
 30
0.0
 11
-218.7731018066406
 21
1278.827209472684
 31
0.0
  0
LINE
  5
13F4F
330
3E7
100
AcDbEntity
  8
DETAIL
  6
CONTINUOUS
100
AcDbLine
 10
-218.7979431152362
 20
1280.586791992218
 30
0.0
 11
-218.7897796630859
 21
1279.686645507842
 31
0.0
  0
LINE
  5
13F50
330
3E7
100
AcDbEntity
  8
DETAIL
  6
CONTINUOUS
100
AcDbLine
 10
-225.9000091552843
 20
1275.900024414087
 30
0.0
 11
-225.9000091552843
 21
1277.900024414089
 31
0.0
  0
LINE
  5
13F51
330
3E7
100
AcDbEntity
  8
DETAIL
  6
CONTINUOUS
100
AcDbLine
 10
-225.9000091552843
 20
1277.900024414089
 30
0.0
 11
-221.9000091552789
 21
1277.900024414089
 31
0.0
  0
LINE
  5
13F52
330
3E7
100
AcDbEntity
  8
DETAIL
  6
CONTINUOUS
100
AcDbLine
 10
-218.7979431152362
 20
1280.586791992218
 30
0.0
 11
-218.7979431152362
 21
1286.900024414102
 31
0.0
  0
LINE
  5
13F53
330
3E7
100
AcDbEntity
  8
DETAIL
  6
CONTINUOUS
100
AcDbLine
 10
-218.9027557373047
 20
1277.900024414089
 30
0.0
 11
-218.9027557373047
 21
1286.900024414102
 31
0.0
  0
LINE
  5
13F54
330
3E7
100
AcDbEntity
  8
DETAIL
  6
CONTINUOUS
100
AcDbLine
 10
-225.9000091552843
 20
1275.900024414087
 30
0.0
 11
-221.9000091552789
 21
1275.900024414087
 31
0.0
  0
LINE
  5
13F55
330
3E7
100
AcDbEntity
  8
DETAIL
  6
CONTINUOUS
100
AcDbLine
 10
-221.9000091552789
 20
1275.900024414087
 30
0.0
 11
-215.7414093017541
 21
1275.900024414087
 31
0.0
  0
LINE
  5
13F56
330
3E7
100
AcDbEntity
  8
DETAIL
  6
CONTINUOUS
100
AcDbLine
 10
-221.9000091552789
 20
1277.900024414089
 30
0.0
 11
-215.7414093017541
 21
1277.900024414089
 31
0.0
  0
LINE
  5
13F57
330
3E7
100
AcDbEntity
  8
DETAIL
  6
CONTINUOUS
100
AcDbLine
 10
-207.9000091552588
 20
1278.791442871122
 30
0.0
 11
-207.9000091552588
 21
1288.900024414104
 31
0.0
  0
LINE
  5
13F58
330
3E7
100
AcDbEntity
  8
DETAIL
  6
CONTINUOUS
100
AcDbLine
 10
-205.900009155257
 20
1278.791442871122
 30
0.0
 11
-205.900009155257
 21
1288.900024414104
 31
0.0
  0
LINE
  5
13F59
330
3E7
100
AcDbEntity
  8
DETAIL
  6
CONTINUOUS
100
AcDbLine
 10
-218.9027557373047
 20
1286.900024414102
 30
0.0
 11
-218.7979431152362
 21
1286.900024414102
 31
0.0
  0
LINE
  5
13F5A
330
3E7
100
AcDbEntity
  8
DETAIL
  6
CONTINUOUS
100
AcDbLine
 10
-218.7979431152362
 20
1286.900024414102
 30
0.0
 11
-207.9000091552588
 21
1286.900024414102
 31
0.0
  0
LINE
  5
13F5B
330
3E7
100
AcDbEntity
  8
DETAIL
  6
CONTINUOUS
100
AcDbLine
 10
-207.9000091552588
 20
1288.900024414104
 30
0.0
 11
-207.9000091552588
 21
1292.90002441411
 31
0.0
  0
LINE
  5
13F5E
330
3E7
100
AcDbEntity
  8
DETAIL
  6
CONTINUOUS
100
AcDbLine
 10
-184.8917846679232
 20
1257.847290039062
 30
0.0
 11
-183.893157958937
 21
1257.847290039062
 31
0.0
  0
LINE
  5
13F5F
330
3E7
100
AcDbEntity
  8
DETAIL
  6
CONTINUOUS
100
AcDbLine
 10
-184.8917846679232
 20
1257.847290039062
 30
0.0
 11
-184.8917846679232
 21
1256.40002441406
 31
0.0
  0
LINE
  5
13F60
330
3E7
100
AcDbEntity
  8
DETAIL
  6
CONTINUOUS
100
AcDbLine
 10
-190.900009155237
 20
1262.900024414069
 30
0.0
 11
-188.9000091552334
 21
1262.900024414069
 31
0.0
  0
LINE
  5
13F72
330
3E7
100
AcDbEntity
  8
DETAIL
  6
CONTINUOUS
100
AcDbLine
 10
-184.8917846679232
 20
1256.40002441406
 30
0.0
 11
-214.9082336425726
 21
1256.40002441406
 31
0.0
  0
LINE
  5
13F90
330
3E7
100
AcDbEntity
  8
DETAIL
  6
CONTINUOUS
100
AcDbLine
 10
-200.9000091552497
 20
1262.900024414069
 30
0.0
 11
-198.9000091552479
 21
1262.900024414069
 31
0.0
  0
LINE
  5
13F91
330
3E7
100
AcDbEntity
  8
DETAIL
  6
CONTINUOUS
100
AcDbLine
 10
-195.9000091552443
 20
1262.900024414069
 30
0.0
 11
-193.9000091552406
 21
1262.900024414069
 31
0.0
  0
LINE
  5
13F98
330
3E7
100
AcDbEntity
  8
DETAIL
  6
CONTINUOUS
100
AcDbLine
 10
-180.8972625731912
 20
1260.843139648441
 30
0.0
 11
-180.8972625731912
 21
1278.956848144559
 31
0.0
  0
LINE
  5
13F99
330
3E7
100
AcDbEntity
  8
DETAIL
  6
CONTINUOUS
100
AcDbLine
 10
-193.9000091552406
 20
1262.900024414069
 30
0.0
 11
-193.9000091552406
 21
1276.900024414088
 31
0.0
  0
LINE
  5
13F9A
330
3E7
100
AcDbEntity
  8
DETAIL
  6
CONTINUOUS
100
AcDbLine
 10
-195.9000091552443
 20
1276.900024414088
 30
0.0
 11
-195.9000091552443
 21
1262.900024414069
 31
0.0
  0
LINE
  5
13F9B
330
3E7
100
AcDbEntity
  8
DETAIL
  6
CONTINUOUS
100
AcDbLine
 10
-200.9000091552497
 20
1276.900024414088
 30
0.0
 11
-200.9000091552497
 21
1262.900024414069
 31
0.0
  0
LINE
  5
13F9C
330
3E7
100
AcDbEntity
  8
DETAIL
  6
CONTINUOUS
100
AcDbLine
 10
-198.9000091552479
 20
1262.900024414069
 30
0.0
 11
-198.9000091552479
 21
1276.900024414088
 31
0.0
  0
LINE
  5
13F9D
330
3E7
100
AcDbEntity
  8
DETAIL
  6
CONTINUOUS
100
AcDbLine
 10
-190.900009155237
 20
1276.900024414088
 30
0.0
 11
-190.900009155237
 21
1262.900024414069
 31
0.0
  0
LINE
  5
13F9E
330
3E7
100
AcDbEntity
  8
DETAIL
  6
CONTINUOUS
100
AcDbLine
 10
-188.9000091552334
 20
1262.900024414069
 30
0.0
 11
-188.9000091552334
 21
1276.900024414088
 31
0.0
  0
LINE
  5
13F9F
330
3E7
100
AcDbEntity
  8
DETAIL
  6
CONTINUOUS
100
AcDbLine
 10
-205.900009155257
 20
1262.900024414069
 30
0.0
 11
-203.9000091552552
 21
1262.900024414069
 31
0.0
  0
LINE
  5
13FA0
330
3E7
100
AcDbEntity
  8
DETAIL
  6
CONTINUOUS
100
AcDbLine
 10
-210.9000091552643
 20
1262.900024414069
 30
0.0
 11
-208.9000091552607
 21
1262.900024414069
 31
0.0
  0
LINE
  5
13FA4
330
3E7
100
AcDbEntity
  8
DETAIL
  6
CONTINUOUS
100
AcDbLine
 10
-215.9068603515588
 20
1257.847290039062
 30
0.0
 11
-214.9082336425726
 21
1257.847290039062
 31
0.0
  0
LINE
  5
13FA5
330
3E7
100
AcDbEntity
  8
DETAIL
  6
CONTINUOUS
100
AcDbLine
 10
-218.9027557373047
 20
1260.843139648441
 30
0.0
 11
-218.9027557373047
 21
1261.900024414068
 31
0.0
  0
LINE
  5
13FA6
330
3E7
100
AcDbEntity
  8
DETAIL
  6
CONTINUOUS
100
AcDbLine
 10
-214.9082336425726
 20
1256.40002441406
 30
0.0
 11
-214.9082336425726
 21
1257.847290039062
 31
0.0
  0
LINE
  5
13FA7
330
3E7
100
AcDbEntity
  8
DETAIL
  6
CONTINUOUS
100
AcDbLine
 10
-225.9000091552843
 20
1261.900024414068
 30
0.0
 11
-225.9000091552843
 21
1263.900024414071
 31
0.0
  0
LINE
  5
13FB8
330
3E7
100
AcDbEntity
  8
DETAIL
  6
CONTINUOUS
100
AcDbLine
 10
-225.9000091552843
 20
1263.900024414071
 30
0.0
 11
-221.9000091552789
 21
1263.900024414071
 31
0.0
  0
LINE
  5
13FB9
330
3E7
100
AcDbEntity
  8
DETAIL
  6
CONTINUOUS
100
AcDbLine
 10
-225.9000091552843
 20
1261.900024414068
 30
0.0
 11
-221.9000091552789
 21
1261.900024414068
 31
0.0
  0
LINE
  5
13FBA
330
3E7
100
AcDbEntity
  8
DETAIL
  6
CONTINUOUS
100
AcDbLine
 10
-215.7414093017541
 20
1263.900024414071
 30
0.0
 11
-221.9000091552789
 21
1263.900024414071
 31
0.0
  0
LINE
  5
13FBB
330
3E7
100
AcDbEntity
  8
DETAIL
  6
CONTINUOUS
100
AcDbLine
 10
-215.7414093017541
 20
1261.900024414068
 30
0.0
 11
-221.9000091552789
 21
1261.900024414068
 31
0.0
  0
LINE
  5
13FBC
330
3E7
100
AcDbEntity
  8
DETAIL
  6
CONTINUOUS
100
AcDbLine
 10
-218.7966918945312
 20
1263.900024414071
 30
0.0
 11
-218.7966918945312
 21
1275.900024414087
 31
0.0
  0
LINE
  5
13FBD
330
3E7
100
AcDbEntity
  8
DETAIL
  6
CONTINUOUS
100
AcDbLine
 10
-225.0225067138762
 20
1263.900024414071
 30
0.0
 11
-225.0225067138762
 21
1275.900024414087
 31
0.0
  0
LINE
  5
13FBE
330
3E7
100
AcDbEntity
  8
DETAIL
  6
CONTINUOUS
100
AcDbLine
 10
-225.9000091552843
 20
1275.900024414087
 30
0.0
 11
-225.9000091552843
 21
1263.900024414071
 31
0.0
  0
LINE
  5
13FBF
330
3E7
100
AcDbEntity
  8
DETAIL
  6
CONTINUOUS
100
AcDbLine
 10
-210.9000091552643
 20
1276.900024414088
 30
0.0
 11
-210.9000091552643
 21
1262.900024414069
 31
0.0
  0
LINE
  5
13FC0
330
3E7
100
AcDbEntity
  8
DETAIL
  6
CONTINUOUS
100
AcDbLine
 10
-208.9000091552607
 20
1262.900024414069
 30
0.0
 11
-208.9000091552607
 21
1276.900024414088
 31
0.0
  0
LINE
  5
13FC1
330
3E7
100
AcDbEntity
  8
DETAIL
  6
CONTINUOUS
100
AcDbLine
 10
-205.900009155257
 20
1276.900024414088
 30
0.0
 11
-205.900009155257
 21
1262.900024414069
 31
0.0
  0
LINE
  5
13FC2
330
3E7
100
AcDbEntity
  8
DETAIL
  6
CONTINUOUS
100
AcDbLine
 10
-203.9000091552552
 20
1262.900024414069
 30
0.0
 11
-203.9000091552552
 21
1276.900024414088
 31
0.0
  0
ARC
  5
13FC3
330
3E7
100
AcDbEntity
  8
DETAIL
100
AcDbCircle
 10
-183.9333825956455
 20
1278.916638971515
 30
0.0
 40
3.036386267929006
100
AcDbArc
 50
0.7587583004142307
 51
89.24094989684054
  0
ARC
  5
13FC4
330
3E7
100
AcDbEntity
  8
DETAIL
100
AcDbCircle
 10
-183.9216964675852
 20
1260.871724369871
 30
0.0
 40
3.024568972242326
100
AcDbArc
 50
270.5406259132336
 51
359.4584986180841
  0
ARC
  5
13FC8
330
3E7
100
AcDbEntity
  8
DETAIL
100
AcDbCircle
 10
-215.9086131960339
 20
1260.841432553901
 30
0.0
 40
2.994143027916199
100
AcDbArc
 50
179.9673331177608
 51
270.0335423509709
  0
ARC
  5
13FCA
330
3E7
100
AcDbEntity
  8
DETAIL
100
AcDbCircle
 10
488.2166758217172
 20
1278.877573754117
 30
0.0
 40
2.477605275294739
100
AcDbArc
 50
269.6149960942508
 51
30.49666746777314
  0
ARC
  5
13FCB
330
3E7
100
AcDbEntity
  8
DETAIL
100
AcDbCircle
 10
485.2000274667188
 20
1283.90002441397
 30
0.0
 40
3.500000000105728
100
AcDbArc
 50
269.9999999852007
 51
89.99999999839202
  0
ARC
  5
13FCC
330
3E7
100
AcDbEntity
  8
DETAIL
100
AcDbCircle
 10
485.2000274667188
 20
1283.900024413969
 30
0.0
 40
6.500000000108911
100
AcDbArc
 50
269.9999999920311
 51
89.99999999913418
  0
ARC
  5
13FCD
330
3E7
100
AcDbEntity
  8
DETAIL
100
AcDbCircle
 10
488.5976885947129
 20
1288.860858788615
 30
0.0
 40
2.102703658430696
100
AcDbArc
 50
329.390220405578
 51
1.067271086056837
  0
ARC
  5
13FD2
330
3E7
100
AcDbEntity
  8
DETAIL
100
AcDbCircle
 10
492.7999992082805
 20
671.9000025742557
 30
0.0
 40
3.500018025122297
100
AcDbArc
 50
159.9997833910488
 51
89.99993706524783
  0
ARC
  5
13FD3
330
3E7
100
AcDbEntity
  8
DETAIL
100
AcDbCircle
 10
492.8000280380984
 20
671.9000288370485
 30
0.0
 40
6.499991762381211
100
AcDbArc
 50
160.0000485161766
 51
90.00022023937486
  0
ARC
  5
13FDA
330
3E7
100
AcDbEntity
  8
DETAIL
100
AcDbCircle
 10
485.2000274667225
 20
80.30004882803451
 30
0.0
 40
3.500000000104137
100
AcDbArc
 50
269.9999999851709
 51
89.99999999836227
  0
ARC
  5
13FDB
330
3E7
100
AcDbEntity
  8
DETAIL
100
AcDbCircle
 10
485.2000274668207
 20
80.30004882813409
 30
0.0
 40
6.50000000000864
100
AcDbArc
 50
270.0
 51
90.0
  0
LINE
  5
15285
330
3E7
100
AcDbEntity
  8
NOTE
  6
CONTINOUS
100
AcDbLine
 10
-324.9999847412073
 20
1031.0
 30
0.0
 11
-324.9999847412073
 21
1071.0
 31
0.0
  0
LINE
  5
15286
330
3E7
100
AcDbEntity
  8
NOTE
  6
CONTINOUS
100
AcDbLine
 10
-344.9999847412072
 20
1051.0
 30
0.0
 11
-304.9999847412073
 21
1051.0
 31
0.0
  0
LINE
  5
15287
330
3E7
100
AcDbEntity
  8
NOTE
  6
CONTINOUS
100
AcDbLine
 10
-502.9999969482305
 20
442.000030517579
 30
0.0
 11
-462.9999969482305
 21
442.000030517579
 31
0.0
  0
LINE
  5
15288
330
3E7
100
AcDbEntity
  8
NOTE
  6
CONTINOUS
100
AcDbLine
 10
-482.9999969482305
 20
422.000030517579
 30
0.0
 11
-482.9999969482305
 21
462.000030517579
 31
0.0
  0
LINE
  5
15289
330
3E7
100
AcDbEntity
  8
NOTE
  6
CONTINOUS
100
AcDbLine
 10
-442.9999969482305
 20
450.0000152587881
 30
0.0
 11
-402.9999969482305
 21
450.0000152587881
 31
0.0
  0
LINE
  5
1528A
330
3E7
100
AcDbEntity
  8
NOTE
  6
CONTINOUS
100
AcDbLine
 10
-422.9999969482305
 20
430.0000152587881
 30
0.0
 11
-422.9999969482305
 21
470.0000152587882
 31
0.0
  0
LINE
  5
16765
330
3E7
100
AcDbEntity
  8
SIZE
  6
CONTINUOUS
100
AcDbLine
 10
299.9999847412073
 20
-40.0
 30
0.0
 11
299.9999847412073
 21
-384.0388718316903
 31
0.0
  0
LINE
  5
16766
330
3E7
100
AcDbEntity
  8
SIZE
  6
CONTINUOUS
100
AcDbLine
 10
525.0000152587927
 20
7.000000496539996
 30
0.0
 11
525.0000152587927
 21
-384.0388718316903
 31
0.0
  0
LINE
  5
16767
330
3E7
100
AcDbEntity
  8
SIZE
  6
CONTINUOUS
100
AcDbLine
 10
309.9999847412072
 20
-354.0388718316903
 30
0.0
 11
515.0000152587927
 21
-354.0388718316903
 31
0.0
  0
LINE
  5
1676B
330
3E7
100
AcDbEntity
  8
SIZE
  6
CONTINUOUS
100
AcDbLine
 10
-300.0000152587927
 20
-40.0
 30
0.0
 11
-300.0000152587927
 21
-384.0388718316903
 31
0.0
  0
LINE
  5
1676C
330
3E7
100
AcDbEntity
  8
SIZE
  6
CONTINUOUS
100
AcDbLine
 10
-525.0000152587944
 20
7.000000020941115
 30
0.0
 11
-525.0000152587944
 21
-384.0388718316903
 31
0.0
  0
LINE
  5
1676D
330
3E7
100
AcDbEntity
  8
SIZE
  6
CONTINUOUS
100
AcDbLine
 10
-310.0000152587927
 20
-354.0388718316903
 30
0.0
 11
-515.0000152587945
 21
-354.0388718316903
 31
0.0
  0
LINE
  5
16771
330
3E7
100
AcDbEntity
  8
SIZE
  6
CONTINUOUS
100
AcDbLine
 10
299.9999847412073
 20
-40.0
 30
0.0
 11
299.9999847412073
 21
-384.0388718316903
 31
0.0
  0
LINE
  5
16772
330
3E7
100
AcDbEntity
  8
SIZE
  6
CONTINUOUS
100
AcDbLine
 10
-300.0000152587927
 20
-40.0
 30
0.0
 11
-300.0000152587927
 21
-384.0388718316903
 31
0.0
  0
LINE
  5
16773
330
3E7
100
AcDbEntity
  8
SIZE
  6
CONTINUOUS
100
AcDbLine
 10
289.9999847412073
 20
-354.0388718316903
 30
0.0
 11
-290.0000152587927
 21
-354.0388718316903
 31
0.0
  0
LINE
  5
16777
330
3E7
100
AcDbEntity
  8
SIZE
  6
CONTINUOUS
100
AcDbLine
 10
-525.0000152587944
 20
7.000000020941115
 30
0.0
 11
-525.0000152587944
 21
-523.6037283420314
 31
0.0
  0
LINE
  5
16778
330
3E7
100
AcDbEntity
  8
SIZE
  6
CONTINUOUS
100
AcDbLine
 10
525.0000152587927
 20
6.999999999998181
 30
0.0
 11
525.0000152587927
 21
-523.6037283420314
 31
0.0
  0
LINE
  5
16779
330
3E7
100
AcDbEntity
  8
SIZE
  6
CONTINUOUS
100
AcDbLine
 10
-515.0000152587945
 20
-493.6037283420314
 30
0.0
 11
515.0000152587927
 21
-493.6037283420314
 31
0.0
  0
LINE
  5
1677D
330
3E7
100
AcDbEntity
  8
SIZE
  6
CONTINUOUS
100
AcDbLine
 10
525.0000152587927
 20
1353.000000000003
 30
0.0
 11
525.0000152587927
 21
1530.715143985935
 31
0.0
  0
LINE
  5
1677E
330
3E7
100
AcDbEntity
  8
SIZE
  6
CONTINUOUS
100
AcDbLine
 10
-525.0000152587944
 20
1353.000000000002
 30
0.0
 11
-525.0000152587944
 21
1530.715143985935
 31
0.0
  0
LINE
  5
1677F
330
3E7
100
AcDbEntity
  8
SIZE
  6
CONTINUOUS
100
AcDbLine
 10
515.0000152587927
 20
1500.715143985935
 30
0.0
 11
-515.0000152587945
 21
1500.715143985935
 31
0.0
  0
LINE
  5
16783
330
3E7
100
AcDbEntity
  8
SIZE
  6
CONTINUOUS
100
AcDbLine
 10
354.9999847412073
 20
-0.0000000000000057
 30
0.0
 11
857.9035425385409
 21
-0.0000000000001481
 31
0.0
  0
LINE
  5
16784
330
3E7
100
AcDbEntity
  8
SIZE
  6
CONTINUOUS
100
AcDbLine
 10
540.0000152587891
 20
1338.000000000002
 30
0.0
 11
857.9035425385413
 21
1338.000000000002
 31
0.0
  0
LINE
  5
16785
330
3E7
100
AcDbEntity
  8
SIZE
  6
CONTINUOUS
100
AcDbLine
 10
827.9035425385409
 20
9.999999999999861
 30
0.0
 11
827.9035425385412
 21
1328.000000000002
 31
0.0
  0
LINE
  5
16789
330
3E7
100
AcDbEntity
  8
SIZE
  6
CONTINUOUS
100
AcDbLine
 10
544.0000152587818
 20
25.99999999999726
 30
0.0
 11
723.187726039152
 21
25.99999999999722
 31
0.0
  0
LINE
  5
1678A
330
3E7
100
AcDbEntity
  8
SIZE
  6
CONTINUOUS
100
AcDbLine
 10
354.9999847412073
 20
-0.0000000000000057
 30
0.0
 11
723.187726039152
 21
-0.00000000000011
 31
0.0
  0
LINE
  5
1678B
330
3E7
100
AcDbEntity
  8
SIZE
  6
CONTINUOUS
100
AcDbLine
 10
693.187726039152
 20
-10.0000000000001
 30
0.0
 11
693.187726039152
 21
-20.0000000000001
 31
0.0
  0
LINE
  5
1678C
330
3E7
100
AcDbEntity
  8
SIZE
  6
CONTINUOUS
100
AcDbLine
 10
693.187726039152
 20
35.99999999999722
 30
0.0
 11
693.187726039152
 21
178.0105703582685
 31
0.0
  0
LINE
  5
1678D
330
3E7
100
AcDbEntity
  8
SIZE
  6
CONTINUOUS
100
AcDbLine
 10
693.187726039152
 20
-0.0000000000001015
 30
0.0
 11
693.187726039152
 21
25.99999999999722
 31
0.0
  0
CIRCLE
  5
16791
330
3E7
100
AcDbEntity
  8
SIZE
  6
BYBLOCK
100
AcDbCircle
 10
-525.0000152587944
 20
-493.6037283420314
 30
0.0
 40
5.0
  0
LINE
  5
16792
330
3E7
100
AcDbEntity
  8
SIZE
  6
BYBLOCK
100
AcDbLine
 10
-525.0000152587944
 20
-493.6037283420314
 30
0.0
 11
-515.0000152587945
 21
-493.6037283420314
 31
0.0
  0
CIRCLE
  5
16793
330
3E7
100
AcDbEntity
  8
SIZE
  6
BYBLOCK
100
AcDbCircle
 10
-525.0000152587944
 20
-354.0388718316903
 30
0.0
 40
5.0
  0
LINE
  5
16794
330
3E7
100
AcDbEntity
  8
SIZE
  6
BYBLOCK
100
AcDbLine
 10
-525.0000152587944
 20
-354.0388718316903
 30
0.0
 11
-515.0000152587945
 21
-354.0388718316903
 31
0.0
  0
TEXT
  5
16795
330
3E7
100
AcDbEntity
  8
SIZE
100
AcDbText
 10
-486.5571581159355
 20
-334.0388718316903
 30
0.0
 40
64.0
  1
225
 41
0.9
100
AcDbText
  0
TEXT
  5
16796
330
3E7
100
AcDbEntity
  8
SIZE
100
AcDbText
 10
338.4428571428571
 20
-334.0388718316903
 30
0.0
 40
64.0
  1
225
 41
0.9
100
AcDbText
  0
TEXT
  5
16797
330
3E7
100
AcDbEntity
  8
SIZE
100
AcDbText
 10
-35.96592136061008
 20
-473.6037283420314
 30
0.0
 40
64.0
  1
1050
 41
0.9
100
AcDbText
  0
TEXT
  5
16798
330
3E7
100
AcDbEntity
  8
SIZE
100
AcDbText
 10
-17.34687328174996
 20
-334.0388718316903
 30
0.0
 40
64.0
  1
600
 41
0.9
100
AcDbText
  0
CIRCLE
  5
16799
330
3E7
100
AcDbEntity
  8
SIZE
  6
BYBLOCK
100
AcDbCircle
 10
-300.0000152587927
 20
-354.0388718316903
 30
0.0
 40
5.0
  0
LINE
  5
1679A
330
3E7
100
AcDbEntity
  8
SIZE
  6
BYBLOCK
100
AcDbLine
 10
-300.0000152587927
 20
-354.0388718316903
 30
0.0
 11
-290.0000152587927
 21
-354.0388718316903
 31
0.0
  0
CIRCLE
  5
1679B
330
3E7
100
AcDbEntity
  8
SIZE
  6
BYBLOCK
100
AcDbCircle
 10
-300.0000152587927
 20
-354.0388718316903
 30
0.0
 40
5.0
  0
LINE
  5
1679C
330
3E7
100
AcDbEntity
  8
SIZE
  6
BYBLOCK
100
AcDbLine
 10
-300.0000152587927
 20
-354.0388718316903
 30
0.0
 11
-310.0000152587927
 21
-354.0388718316903
 31
0.0
  0
CIRCLE
  5
1679D
330
3E7
100
AcDbEntity
  8
SIZE
  6
BYBLOCK
100
AcDbCircle
 10
299.9999847412073
 20
-354.0388718316903
 30
0.0
 40
5.0
  0
LINE
  5
1679E
330
3E7
100
AcDbEntity
  8
SIZE
  6
BYBLOCK
100
AcDbLine
 10
299.9999847412073
 20
-354.0388718316903
 30
0.0
 11
289.9999847412073
 21
-354.0388718316903
 31
0.0
  0
CIRCLE
  5
1679F
330
3E7
100
AcDbEntity
  8
SIZE
  6
BYBLOCK
100
AcDbCircle
 10
299.9999847412073
 20
-354.0388718316903
 30
0.0
 40
5.0
  0
LINE
  5
167A0
330
3E7
100
AcDbEntity
  8
SIZE
  6
BYBLOCK
100
AcDbLine
 10
299.9999847412073
 20
-354.0388718316903
 30
0.0
 11
309.9999847412072
 21
-354.0388718316903
 31
0.0
  0
CIRCLE
  5
167A1
330
3E7
100
AcDbEntity
  8
SIZE
  6
BYBLOCK
100
AcDbCircle
 10
525.0000152587927
 20
-493.6037283420314
 30
0.0
 40
5.0
  0
LINE
  5
167A2
330
3E7
100
AcDbEntity
  8
SIZE
  6
BYBLOCK
100
AcDbLine
 10
525.0000152587927
 20
-493.6037283420314
 30
0.0
 11
515.0000152587927
 21
-493.6037283420314
 31
0.0
  0
CIRCLE
  5
167A3
330
3E7
100
AcDbEntity
  8
SIZE
  6
BYBLOCK
100
AcDbCircle
 10
525.0000152587927
 20
-354.0388718316903
 30
0.0
 40
5.0
  0
LINE
  5
167A4
330
3E7
100
AcDbEntity
  8
SIZE
  6
BYBLOCK
100
AcDbLine
 10
525.0000152587927
 20
-354.0388718316903
 30
0.0
 11
515.0000152587927
 21
-354.0388718316903
 31
0.0
  0
CIRCLE
  5
167A5
330
3E7
100
AcDbEntity
  8
SIZE
  6
BYBLOCK
100
AcDbCircle
 10
-525.0000152587944
 20
1500.715143985935
 30
0.0
 40
5.0
  0
LINE
  5
167A6
330
3E7
100
AcDbEntity
  8
SIZE
  6
BYBLOCK
100
AcDbLine
 10
-525.0000152587944
 20
1500.715143985935
 30
0.0
 11
-515.0000152587945
 21
1500.715143985935
 31
0.0
  0
CIRCLE
  5
167A7
330
3E7
100
AcDbEntity
  8
SIZE
  6
BYBLOCK
100
AcDbCircle
 10
693.187726039152
 20
25.99999999999722
 30
0.0
 40
5.0
  0
LINE
  5
167A8
330
3E7
100
AcDbEntity
  8
SIZE
  6
BYBLOCK
100
AcDbLine
 10
693.187726039152
 20
25.99999999999722
 30
0.0
 11
693.187726039152
 21
35.99999999999722
 31
0.0
  0
CIRCLE
  5
167A9
330
3E7
100
AcDbEntity
  8
SIZE
  6
BYBLOCK
100
AcDbCircle
 10
693.187726039152
 20
-0.0000000000001015
 30
0.0
 40
5.0
  0
LINE
  5
167AA
330
3E7
100
AcDbEntity
  8
SIZE
  6
BYBLOCK
100
AcDbLine
 10
693.187726039152
 20
-0.0000000000001015
 30
0.0
 11
693.187726039152
 21
-10.0000000000001
 31
0.0
  0
TEXT
  5
167AB
330
3E7
100
AcDbEntity
  8
SIZE
100
AcDbText
 10
673.187726039152
 20
67.49628464398291
 30
0.0
 40
64.0
  1
26
 50
90.0
 41
0.9
100
AcDbText
  0
CIRCLE
  5
167AC
330
3E7
100
AcDbEntity
  8
SIZE
  6
BYBLOCK
100
AcDbCircle
 10
827.9035425385409
 20
-0.0000000000001396
 30
0.0
 40
5.0
  0
LINE
  5
167AD
330
3E7
100
AcDbEntity
  8
SIZE
  6
BYBLOCK
100
AcDbLine
 10
827.9035425385409
 20
-0.0000000000001396
 30
0.0
 11
827.9035425385409
 21
9.999999999999859
 31
0.0
  0
TEXT
  5
167AE
330
3E7
100
AcDbEntity
  8
SIZE
100
AcDbText
 10
807.9035425385409
 20
573.0000000000013
 30
0.0
 40
64.0
  1
1338
 50
90.0
 41
0.9
100
AcDbText
  0
TEXT
  5
167AF
330
3E7
100
AcDbEntity
  8
SIZE
100
AcDbText
 10
-72.52786269964781
 20
1520.715143985935
 30
0.0
 40
64.0
  1
1050
 41
0.9
100
AcDbText
  0
CIRCLE
  5
167B0
330
3E7
100
AcDbEntity
  8
SIZE
  6
BYBLOCK
100
AcDbCircle
 10
827.9035425385412
 20
1338.000000000002
 30
0.0
 40
5.0
  0
LINE
  5
167B1
330
3E7
100
AcDbEntity
  8
SIZE
  6
BYBLOCK
100
AcDbLine
 10
827.9035425385412
 20
1338.000000000002
 30
0.0
 11
827.9035425385412
 21
1328.000000000002
 31
0.0
  0
CIRCLE
  5
167B2
330
3E7
100
AcDbEntity
  8
SIZE
  6
BYBLOCK
100
AcDbCircle
 10
525.0000152587927
 20
1500.715143985935
 30
0.0
 40
5.0
  0
LINE
  5
167B3
330
3E7
100
AcDbEntity
  8
SIZE
  6
BYBLOCK
100
AcDbLine
 10
525.0000152587927
 20
1500.715143985935
 30
0.0
 11
515.0000152587927
 21
1500.715143985935
 31
0.0
  0
LINE
  5
167B4
330
3E7
100
AcDbEntity
  8
OUTLINE
  6
CONTINUOUS
100
AcDbLine
 10
-524.0000152521479
 20
1317.599975585934
 30
0.0
 11
486.2000274658202
 21
1317.600036621092
 31
0.0
  0
LINE
  5
167B5
330
3E7
100
AcDbEntity
  8
OUTLINE
100
AcDbLine
 10
520.0000152587927
 20
1338.000000000002
 30
0.0
 11
-520.0000152587927
 21
1338.000000000002
 31
0.0
  0
ARC
  5
167B9
330
3E7
100
AcDbEntity
  8
OUTLINE
  6
CONTINUOUS
100
AcDbCircle
 10
-327.0000225987132
 20
22.00000733993419
 30
0.0
 40
2.999992660077961
100
AcDbArc
 50
89.99985981728753
 51
180.0001401827125
  0
LINE
  5
167BA
330
3E7
100
AcDbEntity
  8
OUTLINE
  6
CONTINUOUS
100
AcDbLine
 10
-330.0000152587927
 20
2.000000000002728
 30
0.0
 11
-325.0000152587927
 21
2.000000000002728
 31
0.0
  0
ARC
  5
167BB
330
3E7
100
AcDbEntity
  8
OUTLINE
  6
CONTINUOUS
100
AcDbCircle
 10
-330.4000195470143
 20
2.000010391748219
 30
0.0
 40
2.000010391774079
100
AcDbArc
 50
270.000297700094
 51
359.9997022999319
  0
ARC
  5
167BC
330
3E7
100
AcDbEntity
  8
OUTLINE
  6
CONTINUOUS
100
AcDbCircle
 10
-327.0000225987132
 20
5.000007339931471
 30
0.0
 40
2.999992660077961
100
AcDbArc
 50
89.99985981728753
 51
180.0001401827125
  0
LINE
  5
167BD
330
3E7
100
AcDbEntity
  8
OUTLINE
  6
CONTINUOUS
100
AcDbLine
 10
-524.0000152587908
 20
26.00000000000045
 30
0.0
 11
-281.0000000000036
 21
25.99999999999909
 31
0.0
  0
LINE
  5
167BE
330
3E7
100
AcDbEntity
  8
OUTLINE
  6
CONTINUOUS
100
AcDbLine
 10
-515.1133880615271
 20
25.0
 30
0.0
 11
-327.0000225987132
 21
25.0
 31
0.0
  0
LINE
  5
167BF
330
3E7
100
AcDbEntity
  8
OUTLINE
  6
CONTINUOUS
100
AcDbLine
 10
-527.0000152587872
 20
1303.357360841344
 30
0.0
 11
-527.0000152587872
 21
609.9000143912207
 31
0.0
  0
LINE
  5
167C0
330
3E7
100
AcDbEntity
  8
OUTLINE
  6
CONTINUOUS
100
AcDbLine
 10
-525.0000152587836
 20
1316.599975587456
 30
0.0
 11
-525.0000152587836
 21
611.400016785225
 31
0.0
  0
LINE
  5
167C1
330
3E7
100
AcDbEntity
  8
OUTLINE
  6
CONTINUOUS
100
AcDbLine
 10
-525.0000152587836
 20
542.4000244145259
 30
0.0
 11
-525.0000152587836
 21
207.0000305175835
 31
0.0
  0
ARC
  5
167C2
330
3E7
100
AcDbEntity
  8
OUTLINE
  6
CONTINUOUS
100
AcDbCircle
 10
-526.2000112680107
 20
326.9046534974604
 30
0.0
 40
2.80000399078749
100
AcDbArc
 50
135.0000956303789
 51
179.9998037902158
  0
LINE
  5
167C3
330
3E7
100
AcDbEntity
  8
OUTLINE
  6
CONTINUOUS
100
AcDbLine
 10
-525.0000152587927
 20
26.99999999999818
 30
0.0
 11
-525.0000152587927
 21
184.0000305175772
 31
0.0
  0
LINE
  5
167C4
330
3E7
100
AcDbEntity
  8
OUTLINE
  6
CONTINUOUS
100
AcDbLine
 10
-526.0000152587963
 20
168.3358154296865
 30
0.0
 11
-526.0000152587963
 21
38.50787353515443
 31
0.0
  0
LINE
  5
167C8
330
3E7
100
AcDbEntity
  8
OUTLINE
  6
CONTINUOUS
100
AcDbLine
 10
-525.707107543949
 20
37.45715332031068
 30
0.0
 11
-525.7557525634729
 21
37.50939941406159
 31
0.0
  0
LINE
  5
167C9
330
3E7
100
AcDbEntity
  8
OUTLINE
  6
CONTINUOUS
100
AcDbLine
 10
-525.7557525634729
 20
37.50939941406159
 30
0.0
 11
-525.9898223876916
 21
38.02191162109465
 31
0.0
  0
LINE
  5
167CA
330
3E7
100
AcDbEntity
  8
OUTLINE
  6
CONTINUOUS
100
AcDbLine
 10
-525.9898223876916
 20
38.02191162109465
 30
0.0
 11
-526.0000152587963
 21
38.50787353515443
 31
0.0
  0
LINE
  5
167CB
330
3E7
100
AcDbEntity
  8
OUTLINE
  6
CONTINUOUS
100
AcDbLine
 10
-525.0000152587927
 20
36.3358154296884
 30
0.0
 11
-525.090377807628
 21
36.75122070312227
 31
0.0
  0
LINE
  5
167CC
330
3E7
100
AcDbEntity
  8
OUTLINE
  6
CONTINUOUS
100
AcDbLine
 10
-525.090377807628
 20
36.75122070312227
 30
0.0
 11
-525.2928924560547
 21
37.04290771484465
 31
0.0
  0
LINE
  5
167CD
330
3E7
100
AcDbEntity
  8
OUTLINE
  6
CONTINUOUS
100
AcDbLine
 10
-525.2928924560547
 20
37.04290771484465
 30
0.0
 11
-525.707107543949
 21
37.45715332031068
 31
0.0
  0
ARC
  5
167CE
330
3E7
100
AcDbEntity
  8
OUTLINE
100
AcDbCircle
 10
-514.971453131262
 20
28.50295155918411
 30
0.0
 40
3.505825887065663
100
AcDbArc
 50
225.5564474797704
 51
267.6797205752582
  0
ARC
  5
167CF
330
3E7
100
AcDbEntity
  8
OUTLINE
  6
CONTINUOUS
100
AcDbCircle
 10
-523.9986178920007
 20
27.00046399449183
 30
0.0
 40
1.00139747427947
100
AcDbArc
 50
180.0265478270413
 51
272.474119008391
  0
LINE
  5
167D0
330
3E7
100
AcDbEntity
  8
OUTLINE
  6
CONTINUOUS
100
AcDbLine
 10
-526.1999664306677
 20
53.2499999999959
 30
0.0
 11
-526.0000152587982
 21
53.2499999999959
 31
0.0
  0
LINE
  5
167D1
330
3E7
100
AcDbEntity
  8
OUTLINE
  6
CONTINUOUS
100
AcDbLine
 10
-526.1999664306677
 20
43.2499999999959
 30
0.0
 11
-525.5000152587854
 21
43.2499999999959
 31
0.0
  0
LINE
  5
167D2
330
3E7
100
AcDbEntity
  8
OUTLINE
  6
CONTINUOUS
100
AcDbLine
 10
-526.2500152587927
 20
53.22155761718704
 30
0.0
 11
-526.1999664306677
 21
53.2499999999959
 31
0.0
  0
LINE
  5
167D3
330
3E7
100
AcDbEntity
  8
OUTLINE
  6
CONTINUOUS
100
AcDbLine
 10
-526.2500152587927
 20
43.27850341796647
 30
0.0
 11
-526.1999664306677
 21
43.2499999999959
 31
0.0
  0
LINE
  5
167D4
330
3E7
100
AcDbEntity
  8
OUTLINE
  6
CONTINUOUS
100
AcDbLine
 10
-526.28657531739
 20
43.31500244140215
 30
0.0
 11
-526.2500152587927
 21
43.27850341796647
 31
0.0
  0
LINE
  5
167D5
330
3E7
100
AcDbEntity
  8
OUTLINE
  6
CONTINUOUS
100
AcDbLine
 10
-526.3000030517651
 20
43.3549804687459
 30
0.0
 11
-526.28657531739
 21
43.31500244140215
 31
0.0
  0
LINE
  5
167D6
330
3E7
100
AcDbEntity
  8
OUTLINE
  6
CONTINUOUS
100
AcDbLine
 10
-526.2634429931677
 20
53.2036132812459
 30
0.0
 11
-526.2500152587927
 21
53.22155761718704
 31
0.0
  0
LINE
  5
167D7
330
3E7
100
AcDbEntity
  8
OUTLINE
  6
CONTINUOUS
100
AcDbLine
 10
-526.28657531739
 20
53.18505859374681
 30
0.0
 11
-526.2634429931677
 21
53.2036132812459
 31
0.0
  0
LINE
  5
167D8
330
3E7
100
AcDbEntity
  8
OUTLINE
  6
CONTINUOUS
100
AcDbLine
 10
-526.3000030517651
 20
53.10565185546465
 30
0.0
 11
-526.28657531739
 21
53.18505859374681
 31
0.0
  0
LINE
  5
167D9
330
3E7
100
AcDbEntity
  8
OUTLINE
  6
CONTINUOUS
100
AcDbLine
 10
-526.3000030517651
 20
53.10565185546465
 30
0.0
 11
-526.3000030517651
 21
43.3549804687459
 31
0.0
  0
ARC
  5
167DA
330
3E7
100
AcDbEntity
  8
OUTLINE
100
AcDbCircle
 10
-527.4665443268331
 20
44.78591918945085
 30
0.0
 40
2.044762441566532
100
AcDbArc
 50
145.6179868102023
 51
214.3820131897976
  0
ARC
  5
167DB
330
3E7
100
AcDbEntity
  8
OUTLINE
100
AcDbCircle
 10
-521.8679179798455
 20
48.25003051757267
 30
0.0
 40
7.643388793156777
100
AcDbArc
 50
162.4134702354827
 51
197.5865297644742
  0
ARC
  5
167DC
330
3E7
100
AcDbEntity
  8
OUTLINE
100
AcDbCircle
 10
-527.4665443581215
 20
51.71414184570039
 30
0.0
 40
2.044762415743188
100
AcDbArc
 50
145.6179863151611
 51
214.3820136848389
  0
LINE
  5
167DD
330
3E7
100
AcDbEntity
  8
OUTLINE
  6
CONTINUOUS
100
AcDbLine
 10
-529.1540679931677
 20
43.63122558593431
 30
0.0
 11
-529.8000030517687
 21
44.74999999999681
 31
0.0
  0
LINE
  5
167DE
330
3E7
100
AcDbEntity
  8
OUTLINE
  6
CONTINUOUS
100
AcDbLine
 10
-529.1540679931677
 20
52.86883544921465
 30
0.0
 11
-529.8000030517687
 21
51.74999999999954
 31
0.0
  0
LINE
  5
167DF
330
3E7
100
AcDbEntity
  8
OUTLINE
  6
CONTINUOUS
100
AcDbLine
 10
-529.8000030517687
 20
51.74999999999954
 30
0.0
 11
-529.8000030517687
 21
44.74999999999681
 31
0.0
  0
LINE
  5
167E0
330
3E7
100
AcDbEntity
  8
OUTLINE
  6
CONTINUOUS
100
AcDbLine
 10
-529.1540679931677
 20
50.55944824218613
 30
0.0
 11
-526.3000030517651
 21
50.55944824218568
 31
0.0
  0
LINE
  5
167E1
330
3E7
100
AcDbEntity
  8
OUTLINE
  6
CONTINUOUS
100
AcDbLine
 10
-529.1540679931677
 20
52.86883544921465
 30
0.0
 11
-526.3000030517651
 21
52.86883544921465
 31
0.0
  0
LINE
  5
167E2
330
3E7
100
AcDbEntity
  8
OUTLINE
  6
CONTINUOUS
100
AcDbLine
 10
-529.1540679931677
 20
45.94061279296738
 30
0.0
 11
-526.3000030517651
 21
45.94061279296738
 31
0.0
  0
LINE
  5
167E3
330
3E7
100
AcDbEntity
  8
OUTLINE
  6
CONTINUOUS
100
AcDbLine
 10
-529.1540679931677
 20
43.63122558593431
 30
0.0
 11
-526.3000030517651
 21
43.63122558593431
 31
0.0
  0
LINE
  5
167E4
330
3E7
100
AcDbEntity
  8
OUTLINE
  6
CONTINUOUS
100
AcDbLine
 10
-501.3812103271447
 20
22.00000000000272
 30
0.0
 11
-330.0000152587927
 21
22.00000000000272
 31
0.0
  0
LINE
  5
167E5
330
3E7
100
AcDbEntity
  8
OUTLINE
  6
CONTINUOUS
100
AcDbLine
 10
-504.1524810790906
 20
23.60003662109647
 30
0.0
 11
-504.4411773681531
 21
24.10003662109375
 31
0.0
  0
ARC
  5
167E6
330
3E7
100
AcDbEntity
  8
OUTLINE
  6
CONTINUOUS
100
AcDbCircle
 10
-505.999994752874
 20
23.20001246841457
 30
0.0
 40
1.799987531703598
100
AcDbArc
 50
30.00111688976694
 51
90.0006527279827
  0
ARC
  5
167E7
330
3E7
100
AcDbEntity
  8
OUTLINE
  6
CONTINUOUS
100
AcDbCircle
 10
-501.3811767339757
 20
25.20000330804123
 30
0.0
 40
3.200003308216651
100
AcDbArc
 50
209.9992770631294
 51
269.9993985174041
  0
LINE
  5
167E8
330
3E7
100
AcDbEntity
  8
OUTLINE
  6
CONTINUOUS
100
AcDbLine
 10
-335.0000152587927
 20
0.0
 30
0.0
 11
-335.0000152587927
 21
1.60003662109375
 31
0.0
  0
LINE
  5
167E9
330
3E7
100
AcDbEntity
  8
OUTLINE
  6
CONTINUOUS
100
AcDbLine
 10
-332.0000152587817
 20
1.60003662109375
 30
0.0
 11
-330.4000091552734
 21
1.60003662109375
 31
0.0
  0
LINE
  5
167EA
330
3E7
100
AcDbEntity
  8
OUTLINE
  6
CONTINUOUS
100
AcDbLine
 10
-330.4000091552734
 20
0.0
 30
0.0
 11
-332.0000152587817
 21
0.0
 31
0.0
  0
LINE
  5
167EB
330
3E7
100
AcDbEntity
  8
OUTLINE
  6
CONTINUOUS
100
AcDbLine
 10
-330.0000152587927
 20
5.0
 30
0.0
 11
-330.0000152587927
 21
2.000000000002728
 31
0.0
  0
ARC
  5
167EC
330
3E7
100
AcDbEntity
  8
OUTLINE
  6
CONTINUOUS
100
AcDbCircle
 10
-330.4000042876396
 20
2.000025650750103
 30
0.0
 40
0.3999890296843836
100
AcDbArc
 50
269.9993027454079
 51
359.996325700119
  0
LINE
  5
167ED
330
3E7
100
AcDbEntity
  8
OUTLINE
  6
CONTINUOUS
100
AcDbLine
 10
-330.0000152587927
 20
22.00000000000272
 30
0.0
 11
-330.0000152587817
 21
4.999999999999545
 31
0.0
  0
LINE
  5
167EE
330
3E7
100
AcDbEntity
  8
OUTLINE
  6
CONTINUOUS
100
AcDbLine
 10
-332.0000152587817
 20
1.60003662109375
 30
0.0
 11
-335.0000152587927
 21
1.60003662109375
 31
0.0
  0
LINE
  5
167EF
330
3E7
100
AcDbEntity
  8
OUTLINE
  6
CONTINUOUS
100
AcDbLine
 10
-332.0000152587817
 20
0.0
 30
0.0
 11
-335.0000152587927
 21
0.0
 31
0.0
  0
LINE
  5
1680A
330
3E7
100
AcDbEntity
  8
OUTLINE
  6
CONTINUOUS
100
AcDbLine
 10
-520.0000152587927
 20
204.0000305175772
 30
0.0
 11
-519.1999969482297
 21
204.0000305175771
 31
0.0
  0
LINE
  5
1680B
330
3E7
100
AcDbEntity
  8
OUTLINE
  6
CONTINUOUS
100
AcDbLine
 10
-520.0000152587927
 20
185.2000122070285
 30
0.0
 11
-520.0000152587927
 21
204.0000305175772
 31
0.0
  0
LINE
  5
1680C
330
3E7
100
AcDbEntity
  8
OUTLINE
  6
CONTINUOUS
100
AcDbLine
 10
-525.707107543949
 20
169.0429077148428
 30
0.0
 11
-525.7557525634729
 21
168.9906616210919
 31
0.0
  0
LINE
  5
1680D
330
3E7
100
AcDbEntity
  8
OUTLINE
  6
CONTINUOUS
100
AcDbLine
 10
-525.7557525634729
 20
168.9906616210919
 30
0.0
 11
-525.9898223876916
 21
168.4781494140634
 31
0.0
  0
LINE
  5
1680E
330
3E7
100
AcDbEntity
  8
OUTLINE
  6
CONTINUOUS
100
AcDbLine
 10
-525.9898223876916
 20
168.4781494140634
 30
0.0
 11
-526.0000152587963
 21
168.3358154296865
 31
0.0
  0
LINE
  5
1680F
330
3E7
100
AcDbEntity
  8
OUTLINE
  6
CONTINUOUS
100
AcDbLine
 10
-525.0000152587927
 20
170.0703124999972
 30
0.0
 11
-525.090377807628
 21
169.6581420898428
 31
0.0
  0
LINE
  5
16810
330
3E7
100
AcDbEntity
  8
OUTLINE
  6
CONTINUOUS
100
AcDbLine
 10
-525.090377807628
 20
169.6581420898428
 30
0.0
 11
-525.1653289794922
 21
169.5510864257812
 31
0.0
  0
LINE
  5
16811
330
3E7
100
AcDbEntity
  8
OUTLINE
  6
CONTINUOUS
100
AcDbLine
 10
-525.1653289794922
 20
169.5510864257812
 30
0.0
 11
-525.2928924560547
 21
169.4571533203134
 31
0.0
  0
LINE
  5
16812
330
3E7
100
AcDbEntity
  8
OUTLINE
  6
CONTINUOUS
100
AcDbLine
 10
-525.2928924560547
 20
169.4571533203134
 30
0.0
 11
-525.707107543949
 21
169.0429077148428
 31
0.0
  0
ARC
  5
16813
330
3E7
100
AcDbEntity
  8
OUTLINE
  6
CONTINUOUS
100
AcDbCircle
 10
-520.200007089079
 20
185.2000223478626
 30
0.0
 40
0.1999918305411359
100
AcDbArc
 50
270.0029052527936
 51
359.9970947471542
  0
ARC
  5
16814
330
3E7
100
AcDbEntity
  8
OUTLINE
  6
CONTINUOUS
100
AcDbCircle
 10
-524.0000145997692
 20
184.0000139984977
 30
0.0
 40
1.000000659167266
100
AcDbArc
 50
98.18119266306196
 51
179.9990535271921
  0
LINE
  5
16815
330
3E7
100
AcDbEntity
  8
OUTLINE
  6
CONTINUOUS
100
AcDbLine
 10
-519.1999969482294
 20
205.8000488281286
 30
0.0
 11
-519.1999969482297
 21
204.0000305175771
 31
0.0
  0
ARC
  5
16816
330
3E7
100
AcDbEntity
  8
OUTLINE
  6
CONTINUOUS
100
AcDbCircle
 10
-524.0000170740731
 20
207.0000287022944
 30
0.0
 40
0.9999981847141146
100
AcDbArc
 50
179.9998959914121
 51
270.0001040085357
  0
ARC
  5
16817
330
3E7
100
AcDbEntity
  8
OUTLINE
  6
CONTINUOUS
100
AcDbCircle
 10
-519.4000079176639
 20
205.8000195460081
 30
0.0
 40
0.2000109715778226
100
AcDbArc
 50
0.0083882495023715
 51
90.00035452627576
  0
LINE
  5
16818
330
3E7
100
AcDbEntity
  8
OUTLINE
  6
CONTINUOUS
100
AcDbLine
 10
-529.000015258789
 20
316.3499755860921
 30
0.0
 11
-529.000015258789
 21
326.9046630860948
 31
0.0
  0
LINE
  5
16819
330
3E7
100
AcDbEntity
  8
OUTLINE
  6
CONTINUOUS
100
AcDbLine
 10
-529.000015258789
 20
296.3499755860648
 30
0.0
 11
-529.000015258789
 21
306.9046630860675
 31
0.0
  0
ARC
  5
1681A
330
3E7
100
AcDbEntity
  8
OUTLINE
  6
CONTINUOUS
100
AcDbCircle
 10
-526.2000112680107
 20
306.9046534974331
 30
0.0
 40
2.80000399078749
100
AcDbArc
 50
135.0000956303789
 51
179.9998037902158
  0
LINE
  5
1681B
330
3E7
100
AcDbEntity
  8
OUTLINE
  6
CONTINUOUS
100
AcDbLine
 10
-529.000015258789
 20
276.3499755860375
 30
0.0
 11
-529.000015258789
 21
286.9046630860402
 31
0.0
  0
ARC
  5
1681C
330
3E7
100
AcDbEntity
  8
OUTLINE
  6
CONTINUOUS
100
AcDbCircle
 10
-526.2000112680107
 20
286.9046534974058
 30
0.0
 40
2.80000399078749
100
AcDbArc
 50
135.0000956303789
 51
179.9998037902158
  0
LINE
  5
1681D
330
3E7
100
AcDbEntity
  8
OUTLINE
  6
CONTINUOUS
100
AcDbLine
 10
-529.000015258789
 20
256.3499755860102
 30
0.0
 11
-529.000015258789
 21
266.9046630860129
 31
0.0
  0
ARC
  5
1681E
330
3E7
100
AcDbEntity
  8
OUTLINE
  6
CONTINUOUS
100
AcDbCircle
 10
-526.2000112680107
 20
266.9046534973785
 30
0.0
 40
2.80000399078749
100
AcDbArc
 50
135.0000956303789
 51
179.9998037902158
  0
LINE
  5
1681F
330
3E7
100
AcDbEntity
  8
OUTLINE
100
AcDbLine
 10
-529.000015258789
 20
316.3499755860921
 30
0.0
 11
-525.0000152587836
 21
316.0000305177323
 31
0.0
  0
LINE
  5
16820
330
3E7
100
AcDbEntity
  8
OUTLINE
100
AcDbLine
 10
-529.000015258789
 20
296.3499755860648
 30
0.0
 11
-525.0000152587836
 21
296.000030517705
 31
0.0
  0
LINE
  5
16821
330
3E7
100
AcDbEntity
  8
OUTLINE
  6
CONTINUOUS
100
AcDbLine
 10
-528.1799163818322
 20
308.8845520020795
 30
0.0
 11
-525.0000152587836
 21
312.0648815338668
 31
0.0
  0
LINE
  5
16822
330
3E7
100
AcDbEntity
  8
OUTLINE
100
AcDbLine
 10
-529.000015258789
 20
276.3499755860375
 30
0.0
 11
-525.0000152587836
 21
276.0000305176777
 31
0.0
  0
LINE
  5
16823
330
3E7
100
AcDbEntity
  8
OUTLINE
  6
CONTINUOUS
100
AcDbLine
 10
-528.1799163818322
 20
288.8845520020522
 30
0.0
 11
-525.0000152587836
 21
292.0648815338395
 31
0.0
  0
LINE
  5
16824
330
3E7
100
AcDbEntity
  8
OUTLINE
100
AcDbLine
 10
-529.000015258789
 20
256.3499755860102
 30
0.0
 11
-525.0000152587836
 21
256.0000305176504
 31
0.0
  0
LINE
  5
16825
330
3E7
100
AcDbEntity
  8
OUTLINE
  6
CONTINUOUS
100
AcDbLine
 10
-528.1799163818322
 20
268.8845520020249
 30
0.0
 11
-525.0000152587836
 21
272.0648815338122
 31
0.0
  0
LINE
  5
16849
330
3E7
100
AcDbEntity
  8
OUTLINE
  6
CONTINUOUS
100
AcDbLine
 10
-528.0000152587891
 20
606.6000213623038
 30
0.0
 11
-528.0000152587963
 21
547.2000274658189
 31
0.0
  0
ARC
  5
1684E
330
3E7
100
AcDbEntity
  8
OUTLINE
  6
CONTINUOUS
100
AcDbCircle
 10
-526.2000112680107
 20
446.9046534976241
 30
0.0
 40
2.80000399078749
100
AcDbArc
 50
135.0000956303789
 51
179.9998037902158
  0
LINE
  5
1684F
330
3E7
100
AcDbEntity
  8
OUTLINE
  6
CONTINUOUS
100
AcDbLine
 10
-529.000015258789
 20
436.3499755862558
 30
0.0
 11
-529.000015258789
 21
446.9046630862585
 31
0.0
  0
LINE
  5
16850
330
3E7
100
AcDbEntity
  8
OUTLINE
  6
CONTINUOUS
100
AcDbLine
 10
-529.000015258789
 20
416.3499755862285
 30
0.0
 11
-529.000015258789
 21
426.9046630862312
 31
0.0
  0
ARC
  5
16851
330
3E7
100
AcDbEntity
  8
OUTLINE
  6
CONTINUOUS
100
AcDbCircle
 10
-526.2000112680107
 20
426.9046534975968
 30
0.0
 40
2.80000399078749
100
AcDbArc
 50
135.0000956303789
 51
179.9998037902158
  0
LINE
  5
16852
330
3E7
100
AcDbEntity
  8
OUTLINE
  6
CONTINUOUS
100
AcDbLine
 10
-529.000015258789
 20
396.3499755862012
 30
0.0
 11
-529.000015258789
 21
406.904663086204
 31
0.0
  0
ARC
  5
16853
330
3E7
100
AcDbEntity
  8
OUTLINE
  6
CONTINUOUS
100
AcDbCircle
 10
-526.2000112680107
 20
406.9046534975695
 30
0.0
 40
2.80000399078749
100
AcDbArc
 50
135.0000956303789
 51
179.9998037902158
  0
LINE
  5
16854
330
3E7
100
AcDbEntity
  8
OUTLINE
  6
CONTINUOUS
100
AcDbLine
 10
-529.000015258789
 20
376.3499755861739
 30
0.0
 11
-529.000015258789
 21
386.9046630861767
 31
0.0
  0
ARC
  5
16855
330
3E7
100
AcDbEntity
  8
OUTLINE
  6
CONTINUOUS
100
AcDbCircle
 10
-526.2000112680107
 20
386.9046534975423
 30
0.0
 40
2.80000399078749
100
AcDbArc
 50
135.0000956303789
 51
179.9998037902158
  0
LINE
  5
16856
330
3E7
100
AcDbEntity
  8
OUTLINE
  6
CONTINUOUS
100
AcDbLine
 10
-529.000015258789
 20
356.3499755861466
 30
0.0
 11
-529.000015258789
 21
366.9046630861494
 31
0.0
  0
ARC
  5
16857
330
3E7
100
AcDbEntity
  8
OUTLINE
  6
CONTINUOUS
100
AcDbCircle
 10
-526.2000112680107
 20
366.904653497515
 30
0.0
 40
2.80000399078749
100
AcDbArc
 50
135.0000956303789
 51
179.9998037902158
  0
LINE
  5
16858
330
3E7
100
AcDbEntity
  8
OUTLINE
  6
CONTINUOUS
100
AcDbLine
 10
-529.000015258789
 20
336.3499755861194
 30
0.0
 11
-529.000015258789
 21
346.9046630861221
 31
0.0
  0
ARC
  5
16859
330
3E7
100
AcDbEntity
  8
OUTLINE
  6
CONTINUOUS
100
AcDbCircle
 10
-526.2000112680107
 20
346.9046534974877
 30
0.0
 40
2.80000399078749
100
AcDbArc
 50
135.0000956303789
 51
179.9998037902158
  0
LINE
  5
1685A
330
3E7
100
AcDbEntity
  8
OUTLINE
  6
CONTINUOUS
100
AcDbLine
 10
-528.1799163818322
 20
448.8845520022705
 30
0.0
 11
-525.0000152587836
 21
452.0648815340577
 31
0.0
  0
LINE
  5
1685B
330
3E7
100
AcDbEntity
  8
OUTLINE
100
AcDbLine
 10
-529.000015258789
 20
436.3499755862558
 30
0.0
 11
-525.0000152587836
 21
436.0000305178959
 31
0.0
  0
LINE
  5
1685C
330
3E7
100
AcDbEntity
  8
OUTLINE
100
AcDbLine
 10
-529.000015258789
 20
416.3499755862285
 30
0.0
 11
-525.0000152587836
 21
416.0000305178686
 31
0.0
  0
LINE
  5
1685D
330
3E7
100
AcDbEntity
  8
OUTLINE
  6
CONTINUOUS
100
AcDbLine
 10
-528.1799163818322
 20
428.8845520022432
 30
0.0
 11
-525.0000152587836
 21
432.0648815340304
 31
0.0
  0
LINE
  5
1685E
330
3E7
100
AcDbEntity
  8
OUTLINE
100
AcDbLine
 10
-529.000015258789
 20
396.3499755862012
 30
0.0
 11
-525.0000152587836
 21
396.0000305178414
 31
0.0
  0
LINE
  5
1685F
330
3E7
100
AcDbEntity
  8
OUTLINE
  6
CONTINUOUS
100
AcDbLine
 10
-528.1799163818322
 20
408.8845520022159
 30
0.0
 11
-525.0000152587836
 21
412.0648815340032
 31
0.0
  0
LINE
  5
16860
330
3E7
100
AcDbEntity
  8
OUTLINE
100
AcDbLine
 10
-529.000015258789
 20
376.3499755861739
 30
0.0
 11
-525.0000152587836
 21
376.0000305178141
 31
0.0
  0
LINE
  5
16861
330
3E7
100
AcDbEntity
  8
OUTLINE
  6
CONTINUOUS
100
AcDbLine
 10
-528.1799163818322
 20
388.8845520021886
 30
0.0
 11
-525.0000152587836
 21
392.0648815339759
 31
0.0
  0
LINE
  5
16862
330
3E7
100
AcDbEntity
  8
OUTLINE
100
AcDbLine
 10
-529.000015258789
 20
356.3499755861466
 30
0.0
 11
-525.0000152587836
 21
356.0000305177868
 31
0.0
  0
LINE
  5
16863
330
3E7
100
AcDbEntity
  8
OUTLINE
  6
CONTINUOUS
100
AcDbLine
 10
-528.1799163818322
 20
368.8845520021613
 30
0.0
 11
-525.0000152587836
 21
372.0648815339486
 31
0.0
  0
LINE
  5
16864
330
3E7
100
AcDbEntity
  8
OUTLINE
100
AcDbLine
 10
-529.000015258789
 20
336.3499755861194
 30
0.0
 11
-525.0000152587836
 21
336.0000305177595
 31
0.0
  0
LINE
  5
16865
330
3E7
100
AcDbEntity
  8
OUTLINE
  6
CONTINUOUS
100
AcDbLine
 10
-528.1799163818322
 20
348.8845520021341
 30
0.0
 11
-525.0000152587836
 21
352.0648815339213
 31
0.0
  0
LINE
  5
16866
330
3E7
100
AcDbEntity
  8
OUTLINE
  6
CONTINUOUS
100
AcDbLine
 10
-528.1799163818322
 20
328.8845520021068
 30
0.0
 11
-525.0000152587836
 21
332.0648815338941
 31
0.0
  0
ARC
  5
16867
330
3E7
100
AcDbEntity
  8
OUTLINE
  6
CONTINUOUS
100
AcDbCircle
 10
-525.292921890923
 20
542.9000288670704
 30
0.0
 40
0.5000044538749016
100
AcDbArc
 50
225.0015094725322
 51
270.003372956501
  0
LINE
  5
16869
330
3E7
100
AcDbEntity
  8
OUTLINE
  6
CONTINUOUS
100
AcDbLine
 10
-527.0000152587872
 20
497.2570343021589
 30
0.0
 11
-526.9694671630859
 21
496.3157196048923
 31
0.0
  0
LINE
  5
1686A
330
3E7
100
AcDbEntity
  8
OUTLINE
  6
CONTINUOUS
100
AcDbLine
 10
-527.0000152587872
 20
543.9000292009682
 30
0.0
 11
-527.0000152587872
 21
497.2570343021589
 31
0.0
  0
LINE
  5
1686B
330
3E7
100
AcDbEntity
  8
OUTLINE
  6
CONTINUOUS
100
AcDbLine
 10
-525.8786773681604
 20
494.3787078861396
 30
0.0
 11
-526.1213226318341
 21
494.6213378910224
 31
0.0
  0
ARC
  5
1686C
330
3E7
100
AcDbEntity
  8
OUTLINE
  6
CONTINUOUS
100
AcDbCircle
 10
-528.0000188854028
 20
492.2574035875336
 30
0.0
 40
3.000003626674099
100
AcDbArc
 50
359.9996498614558
 51
44.99949737242363
  0
ARC
  5
1686D
330
3E7
100
AcDbEntity
  8
OUTLINE
  6
CONTINUOUS
100
AcDbCircle
 10
-524.0000062756389
 20
496.7426557181875
 30
0.0
 40
2.999995401147719
100
AcDbArc
 50
188.1816687025783
 51
225.000019865122
  0
ARC
  5
1686E
330
3E7
100
AcDbEntity
  8
OUTLINE
  6
CONTINUOUS
100
AcDbCircle
 10
-527.0000167275793
 20
545.3142526266447
 30
0.0
 40
0.9999985313051634
100
AcDbArc
 50
180.0007519904249
 51
225.0012094432046
  0
LINE
  5
1686F
330
3E7
100
AcDbEntity
  8
OUTLINE
  6
CONTINUOUS
100
AcDbLine
 10
-528.0000152587854
 20
547.2000274658194
 30
0.0
 11
-528.0000152587854
 21
545.314239501954
 31
0.0
  0
LINE
  5
16871
330
3E7
100
AcDbEntity
  8
OUTLINE
  6
CONTINUOUS
100
AcDbLine
 10
-525.6464691162181
 20
542.5464630126953
 30
0.0
 11
-527.7071075439562
 21
544.6071319580096
 31
0.0
  0
ARC
  5
16876
330
3E7
100
AcDbEntity
  8
OUTLINE
  6
CONTINUOUS
100
AcDbCircle
 10
-525.292906300001
 20
610.9000191572886
 30
0.0
 40
0.5000052569682527
100
AcDbArc
 50
89.99841361800784
 51
135.0009250810578
  0
ARC
  5
16877
330
3E7
100
AcDbEntity
  8
OUTLINE
  6
CONTINUOUS
100
AcDbCircle
 10
-527.000014160385
 20
608.4857951380627
 30
0.0
 40
1.000001098514564
100
AcDbArc
 50
134.9988514841978
 51
179.9991870821897
  0
LINE
  5
16878
330
3E7
100
AcDbEntity
  8
OUTLINE
  6
CONTINUOUS
100
AcDbLine
 10
-528.0000152587854
 20
608.485809326171
 30
0.0
 11
-528.0000152587854
 21
606.6000213623055
 31
0.0
  0
LINE
  5
1687A
330
3E7
100
AcDbEntity
  8
OUTLINE
  6
CONTINUOUS
100
AcDbLine
 10
-525.6464691162181
 20
611.2535705566415
 30
0.0
 11
-527.7071075439562
 21
609.1929168701153
 31
0.0
  0
LINE
  5
1687D
330
3E7
100
AcDbEntity
  8
OUTLINE
  6
CONTINUOUS
100
AcDbLine
 10
-525.0000152587944
 20
1333.000000000002
 30
0.0
 11
-525.0000152587927
 21
1319.100036621093
 31
0.0
  0
ARC
  5
1687E
330
3E7
100
AcDbEntity
  8
OUTLINE
  6
CONTINUOUS
100
AcDbCircle
 10
-523.5000027475689
 20
1319.100009684757
 30
0.0
 40
1.500012511455835
100
AcDbArc
 50
179.9989711163314
 51
239.9997240954749
  0
LINE
  5
1687F
330
3E7
100
AcDbEntity
  8
OUTLINE
  6
CONTINUOUS
100
AcDbLine
 10
-524.0000152521479
 20
1317.599975585934
 30
0.0
 11
-524.2500152587854
 21
1317.800964355469
 31
0.0
  0
ARC
  5
16880
330
3E7
100
AcDbEntity
  8
OUTLINE
  6
CONTINUOUS
100
AcDbCircle
 10
-520.0000042882074
 20
1332.999989029414
 30
0.0
 40
5.000010970599971
100
AcDbArc
 50
90.00012571337526
 51
179.9998742865986
  0
LINE
  5
16881
330
3E7
100
AcDbEntity
  8
OUTLINE
  6
CONTINUOUS
100
AcDbLine
 10
-525.8786773681604
 20
1305.721313478067
 30
0.0
 11
-526.1213226318341
 21
1305.478698731972
 31
0.0
  0
ARC
  5
16882
330
3E7
100
AcDbEntity
  8
OUTLINE
  6
CONTINUOUS
100
AcDbCircle
 10
-528.0000260287124
 20
1307.842620735631
 30
0.0
 40
3.000010770083371
100
AcDbArc
 50
315.000559134755
 51
0.0005850463066951
  0
ARC
  5
16883
330
3E7
100
AcDbEntity
  8
OUTLINE
  6
CONTINUOUS
100
AcDbCircle
 10
-524.000015239224
 20
1303.35736540987
 30
0.0
 40
3.000000019567115
100
AcDbArc
 50
134.9996498288041
 51
180.0000872524201
  0
ARC
  5
16884
330
3E7
100
AcDbEntity
  8
OUTLINE
  6
CONTINUOUS
100
AcDbCircle
 10
-524.0000348054472
 20
1316.59999513412
 30
0.0
 40
0.9999804535287243
100
AcDbArc
 50
89.99888003678124
 51
180.0011199632187
  0
LINE
  5
16885
330
3E7
100
AcDbEntity
  8
OUTLINE
  6
CONTINUOUS
100
AcDbLine
 10
-431.8000030517578
 20
1326.290649414063
 30
0.0
 11
-435.8000030517541
 21
1323.981201171877
 31
0.0
  0
ARC
  5
16886
330
3E7
100
AcDbEntity
  8
OUTLINE
  6
CONTINUOUS
100
AcDbCircle
 10
-436.8000140223739
 20
1327.600025650476
 30
0.0
 40
0.5000109707383019
100
AcDbArc
 50
0.0012571125700148
 51
89.99874288740391
  0
ARC
  5
16887
330
3E7
100
AcDbEntity
  8
OUTLINE
  6
CONTINUOUS
100
AcDbCircle
 10
-434.7999981845714
 20
1327.600031753904
 30
0.0
 40
0.5000048672136898
100
AcDbArc
 50
90.00055773347074
 51
179.9994422665292
  0
ARC
  5
16888
330
3E7
100
AcDbEntity
  8
OUTLINE
  6
CONTINUOUS
100
AcDbCircle
 10
-436.7999981848152
 20
1329.600031754144
 30
0.0
 40
0.4999951330742486
100
AcDbArc
 50
269.9994422832045
 51
0.0005577167433892
  0
ARC
  5
16889
330
3E7
100
AcDbEntity
  8
OUTLINE
  6
CONTINUOUS
100
AcDbCircle
 10
-434.8000140223303
 20
1329.600025650525
 30
0.0
 40
0.499989029550382
100
AcDbArc
 50
179.9987428377168
 51
270.0012571623092
  0
LINE
  5
1688A
330
3E7
100
AcDbEntity
  8
OUTLINE
  6
CONTINUOUS
100
AcDbLine
 10
-436.3000030517651
 20
1327.600036621097
 30
0.0
 11
-436.3000030517651
 21
1326.150024414064
 31
0.0
  0
LINE
  5
1688B
330
3E7
100
AcDbEntity
  8
OUTLINE
  6
CONTINUOUS
100
AcDbLine
 10
-436.5179595947302
 20
1329.187194824221
 30
0.0
 11
-436.5179595947302
 21
1328.012878417971
 31
0.0
  0
LINE
  5
1688C
330
3E7
100
AcDbEntity
  8
OUTLINE
  6
CONTINUOUS
100
AcDbLine
 10
-435.2128753662145
 20
1327.882080078125
 30
0.0
 11
-436.3871612548791
 21
1327.882080078125
 31
0.0
  0
LINE
  5
1688D
330
3E7
100
AcDbEntity
  8
OUTLINE
  6
CONTINUOUS
100
AcDbLine
 10
-435.3000030517614
 20
1326.150024414064
 30
0.0
 11
-436.3000030517651
 21
1326.150024414064
 31
0.0
  0
LINE
  5
1688E
330
3E7
100
AcDbEntity
  8
OUTLINE
  6
CONTINUOUS
100
AcDbLine
 10
-431.8000030517578
 20
1330.909423828125
 30
0.0
 11
-431.8000030517578
 21
1326.290649414063
 31
0.0
  0
LINE
  5
1688F
330
3E7
100
AcDbEntity
  8
OUTLINE
  6
CONTINUOUS
100
AcDbLine
 10
-434.8000030517687
 20
1328.100036621094
 30
0.0
 11
-433.3500213623119
 21
1328.100036621094
 31
0.0
  0
LINE
  5
16890
330
3E7
100
AcDbEntity
  8
OUTLINE
  6
CONTINUOUS
100
AcDbLine
 10
-435.3000030517614
 20
1326.150024414064
 30
0.0
 11
-435.3000030517614
 21
1327.600036621097
 31
0.0
  0
LINE
  5
16891
330
3E7
100
AcDbEntity
  8
OUTLINE
  6
CONTINUOUS
100
AcDbLine
 10
-435.0820465087963
 20
1329.187194824221
 30
0.0
 11
-435.0820465087963
 21
1328.012878417971
 31
0.0
  0
LINE
  5
16892
330
3E7
100
AcDbEntity
  8
OUTLINE
  6
CONTINUOUS
100
AcDbLine
 10
-433.3500213623119
 20
1329.100036621093
 30
0.0
 11
-433.3500213623119
 21
1328.100036621094
 31
0.0
  0
LINE
  5
16893
330
3E7
100
AcDbEntity
  8
OUTLINE
  6
CONTINUOUS
100
AcDbLine
 10
-436.3000030517651
 20
1331.050048828128
 30
0.0
 11
-436.3000030517651
 21
1329.600036621095
 31
0.0
  0
LINE
  5
16894
330
3E7
100
AcDbEntity
  8
OUTLINE
  6
CONTINUOUS
100
AcDbLine
 10
-435.2128753662145
 20
1329.317993164063
 30
0.0
 11
-436.3871612548791
 21
1329.317993164063
 31
0.0
  0
LINE
  5
16895
330
3E7
100
AcDbEntity
  8
OUTLINE
  6
CONTINUOUS
100
AcDbLine
 10
-436.3000030517651
 20
1331.050048828128
 30
0.0
 11
-435.3000030517614
 21
1331.050048828128
 31
0.0
  0
LINE
  5
16896
330
3E7
100
AcDbEntity
  8
OUTLINE
  6
CONTINUOUS
100
AcDbLine
 10
-435.8000030517541
 20
1333.218811035158
 30
0.0
 11
-431.8000030517578
 21
1330.909423828125
 31
0.0
  0
LINE
  5
16897
330
3E7
100
AcDbEntity
  8
OUTLINE
  6
CONTINUOUS
100
AcDbLine
 10
-434.8000030517687
 20
1329.100036621093
 30
0.0
 11
-433.3500213623119
 21
1329.100036621093
 31
0.0
  0
LINE
  5
16898
330
3E7
100
AcDbEntity
  8
OUTLINE
  6
CONTINUOUS
100
AcDbLine
 10
-435.3000030517614
 20
1329.600036621095
 30
0.0
 11
-435.3000030517614
 21
1331.050048828128
 31
0.0
  0
LINE
  5
16899
330
3E7
100
AcDbEntity
  8
OUTLINE
  6
CONTINUOUS
100
AcDbLine
 10
-439.8000030517687
 20
1326.290649414063
 30
0.0
 11
-439.8000030517687
 21
1330.909423828125
 31
0.0
  0
LINE
  5
1689A
330
3E7
100
AcDbEntity
  8
OUTLINE
  6
CONTINUOUS
100
AcDbLine
 10
-438.2500152588
 20
1328.100036621094
 30
0.0
 11
-438.2500152588
 21
1329.100036621093
 31
0.0
  0
LINE
  5
1689B
330
3E7
100
AcDbEntity
  8
OUTLINE
  6
CONTINUOUS
100
AcDbLine
 10
-435.8000030517541
 20
1323.981201171877
 30
0.0
 11
-439.8000030517687
 21
1326.290649414063
 31
0.0
  0
LINE
  5
1689C
330
3E7
100
AcDbEntity
  8
OUTLINE
  6
CONTINUOUS
100
AcDbLine
 10
-438.2500152588
 20
1328.100036621094
 30
0.0
 11
-436.8000030517578
 21
1328.100036621094
 31
0.0
  0
LINE
  5
1689D
330
3E7
100
AcDbEntity
  8
OUTLINE
  6
CONTINUOUS
100
AcDbLine
 10
-439.8000030517687
 20
1330.909423828125
 30
0.0
 11
-435.8000030517541
 21
1333.218811035158
 31
0.0
  0
LINE
  5
1689E
330
3E7
100
AcDbEntity
  8
OUTLINE
  6
CONTINUOUS
100
AcDbLine
 10
-436.8000030517578
 20
1329.100036621093
 30
0.0
 11
-438.2500152588
 21
1329.100036621093
 31
0.0
  0
LINE
  5
168A0
330
3E7
100
AcDbEntity
  8
OUTLINE
  6
CONTINUOUS
100
AcDbLine
 10
525.0000152587927
 20
1316.600036621093
 30
0.0
 11
525.0000152587927
 21
611.4000167846689
 31
0.0
  0
LINE
  5
168B4
330
3E7
100
AcDbEntity
  8
OUTLINE
  6
CONTINUOUS
100
AcDbLine
 10
496.3811798095775
 20
22.00000000000272
 30
0.0
 11
329.9999847412073
 21
22.00000000000272
 31
0.0
  0
LINE
  5
168B5
330
3E7
100
AcDbEntity
  8
OUTLINE
  6
CONTINUOUS
100
AcDbLine
 10
486.2000274671918
 20
28.00000000000864
 30
0.0
 11
320.57106018181
 21
28.00000000000864
 31
0.0
  0
LINE
  5
168BE
330
3E7
100
AcDbEntity
  8
OUTLINE
  6
CONTINUOUS
100
AcDbLine
 10
69.81429862976256
 20
19.0000000000009
 30
0.0
 11
29.86825752258482
 21
19.0000000000009
 31
0.0
  0
LINE
  5
168BF
330
3E7
100
AcDbEntity
  8
OUTLINE
  6
CONTINUOUS
100
AcDbLine
 10
269.9999847412182
 20
22.00000000000272
 30
0.0
 11
-270.0000152587926
 21
22.00000000000272
 31
0.0
  0
LINE
  5
168C0
330
3E7
100
AcDbEntity
  8
OUTLINE
  6
CONTINUOUS
100
AcDbLine
 10
279.4289093028473
 20
28.00000000000864
 30
0.0
 11
-280.0
 21
28.00000000000864
 31
0.0
  0
LINE
  5
168C5
330
3E7
100
AcDbEntity
  8
OUTLINE
  6
CONTINUOUS
100
AcDbLine
 10
-166.1149597167968
 20
25.0
 30
0.0
 11
-289.5000152587817
 21
25.0
 31
0.0
  0
LINE
  5
168CA
330
3E7
100
AcDbEntity
  8
OUTLINE
  6
CONTINUOUS
100
AcDbLine
 10
-281.0000000000036
 20
25.99999999999909
 30
0.0
 11
-281.0000000000036
 21
26.99999999999818
 31
0.0
  0
LINE
  5
168CB
330
3E7
100
AcDbEntity
  8
OUTLINE
  6
CONTINUOUS
100
AcDbLine
 10
-280.0
 20
26.99999999999818
 30
0.0
 11
-281.0000000000036
 21
26.99999999999818
 31
0.0
  0
ARC
  5
168CC
330
3E7
100
AcDbEntity
  8
OUTLINE
100
AcDbCircle
 10
-291.000015258789
 20
14.79832477719264
 30
0.0
 40
1.515548930785328
100
AcDbArc
 50
188.2143825019728
 51
351.7856174980638
  0
ARC
  5
168CD
330
3E7
100
AcDbEntity
  8
OUTLINE
100
AcDbCircle
 10
-309.0000152587836
 20
14.79832477717491
 30
0.0
 40
1.515548930765032
100
AcDbArc
 50
188.2143824983924
 51
351.7856174990474
  0
LINE
  5
168CE
330
3E7
100
AcDbEntity
  8
OUTLINE
  6
CONTINUOUS
100
AcDbLine
 10
-307.5000152587926
 20
25.0
 30
0.0
 11
-310.5000152587854
 21
25.0
 31
0.0
  0
LINE
  5
168CF
330
3E7
100
AcDbEntity
  8
OUTLINE
  6
CONTINUOUS
100
AcDbLine
 10
-289.5000152587817
 20
25.0
 30
0.0
 11
-292.5000152587927
 21
25.0
 31
0.0
  0
LINE
  5
168D0
330
3E7
100
AcDbEntity
  8
OUTLINE
  6
CONTINUOUS
100
AcDbLine
 10
-278.3578643798864
 20
25.0
 30
0.0
 11
-279.852157592777
 21
25.0
 31
0.0
  0
LINE
  5
168D1
330
3E7
100
AcDbEntity
  8
OUTLINE
  6
CONTINUOUS
100
AcDbLine
 10
-310.5000152587854
 20
25.0
 30
0.0
 11
-327.0000152587817
 21
25.0
 31
0.0
  0
LINE
  5
168D2
330
3E7
100
AcDbEntity
  8
OUTLINE
  6
CONTINUOUS
100
AcDbLine
 10
-307.5000152587926
 20
14.58178710937772
 30
0.0
 11
-307.5000152587926
 21
25.99999999999909
 31
0.0
  0
LINE
  5
168D3
330
3E7
100
AcDbEntity
  8
OUTLINE
  6
CONTINUOUS
100
AcDbLine
 10
-292.5000152587927
 20
25.99999999999909
 30
0.0
 11
-292.5000152587927
 21
14.58178710937772
 31
0.0
  0
LINE
  5
168D4
330
3E7
100
AcDbEntity
  8
OUTLINE
  6
CONTINUOUS
100
AcDbLine
 10
-310.5000152587854
 20
14.58178710937772
 30
0.0
 11
-310.5000152587854
 21
25.0
 31
0.0
  0
LINE
  5
168D5
330
3E7
100
AcDbEntity
  8
OUTLINE
  6
CONTINUOUS
100
AcDbLine
 10
-292.5000152587927
 20
14.58178710937772
 30
0.0
 11
-307.5000152587926
 21
14.58178710937772
 31
0.0
  0
LINE
  5
168D6
330
3E7
100
AcDbEntity
  8
OUTLINE
  6
CONTINUOUS
100
AcDbLine
 10
-289.5000152587817
 20
14.58178710937772
 30
0.0
 11
-289.5000152587817
 21
25.0
 31
0.0
  0
LINE
  5
168D7
330
3E7
100
AcDbEntity
  8
OUTLINE
  6
CONTINUOUS
100
AcDbLine
 10
-292.5000152587927
 20
25.0
 30
0.0
 11
-289.5000152587817
 21
25.0
 31
0.0
  0
LINE
  5
168D8
330
3E7
100
AcDbEntity
  8
OUTLINE
  6
CONTINUOUS
100
AcDbLine
 10
-310.5000152587854
 20
25.0
 30
0.0
 11
-307.5000152587926
 21
25.0
 31
0.0
  0
ARC
  5
168D9
330
3E7
100
AcDbEntity
  8
OUTLINE
  6
CONTINUOUS
100
AcDbCircle
 10
-273.0000018153259
 20
22.00001344346219
 30
0.0
 40
2.999986556570656
100
AcDbArc
 50
359.9997432476904
 51
90.00025675230956
  0
LINE
  5
168DA
330
3E7
100
AcDbEntity
  8
OUTLINE
  6
CONTINUOUS
100
AcDbLine
 10
-327.0000152587817
 20
8.000000000001818
 30
0.0
 11
-325.0000152587927
 21
8.000000000001818
 31
0.0
  0
LINE
  5
168DB
330
3E7
100
AcDbEntity
  8
OUTLINE
  6
CONTINUOUS
100
AcDbLine
 10
-325.0000152587927
 20
8.000000000001818
 30
0.0
 11
-275.0000152587927
 21
8.000000000001818
 31
0.0
  0
LINE
  5
168DC
330
3E7
100
AcDbEntity
  8
OUTLINE
  6
CONTINUOUS
100
AcDbLine
 10
-325.0000152587927
 20
2.000000000002728
 30
0.0
 11
-275.0000152587927
 21
2.000000000002728
 31
0.0
  0
LINE
  5
168DD
330
3E7
100
AcDbEntity
  8
OUTLINE
  6
CONTINUOUS
100
AcDbLine
 10
-273.1522521972692
 20
8.000000000001818
 30
0.0
 11
-272.239761352539
 21
7.902099609377728
 31
0.0
  0
LINE
  5
168DE
330
3E7
100
AcDbEntity
  8
OUTLINE
  6
CONTINUOUS
100
AcDbLine
 10
-265.0000152587927
 20
0.0
 30
0.0
 11
-268.0000152587854
 21
0.0
 31
0.0
  0
LINE
  5
168DF
330
3E7
100
AcDbEntity
  8
OUTLINE
  6
CONTINUOUS
100
AcDbLine
 10
-265.0000152587927
 20
1.60003662109375
 30
0.0
 11
-268.0000152587854
 21
1.60003662109375
 31
0.0
  0
LINE
  5
168E0
330
3E7
100
AcDbEntity
  8
OUTLINE
  6
CONTINUOUS
100
AcDbLine
 10
-268.0000152587854
 20
0.0
 30
0.0
 11
-269.6000061035192
 21
0.0
 31
0.0
  0
LINE
  5
168E1
330
3E7
100
AcDbEntity
  8
OUTLINE
  6
CONTINUOUS
100
AcDbLine
 10
-269.6000061035192
 20
1.60003662109375
 30
0.0
 11
-268.0000152587854
 21
1.60003662109375
 31
0.0
  0
LINE
  5
168E2
330
3E7
100
AcDbEntity
  8
OUTLINE
  6
CONTINUOUS
100
AcDbLine
 10
-265.0000152587927
 20
0.0
 30
0.0
 11
-265.0000152587927
 21
1.60003662109375
 31
0.0
  0
LINE
  5
168E3
330
3E7
100
AcDbEntity
  8
OUTLINE
  6
CONTINUOUS
100
AcDbLine
 10
-270.0000152587926
 20
5.0
 30
0.0
 11
-270.0000152587926
 21
2.000000000002728
 31
0.0
  0
ARC
  5
168E4
330
3E7
100
AcDbEntity
  8
OUTLINE
  6
CONTINUOUS
100
AcDbCircle
 10
-269.6000201268543
 20
2.000031754046176
 30
0.0
 40
0.3999951331973375
100
AcDbArc
 50
180.0045484872865
 51
270.00200871949
  0
ARC
  5
168E5
330
3E7
100
AcDbEntity
  8
OUTLINE
  6
CONTINUOUS
100
AcDbCircle
 10
-269.5999972376375
 20
2.00000886586622
 30
0.0
 40
2.000008865886779
100
AcDbArc
 50
180.0002539872637
 51
269.9997460127622
  0
ARC
  5
168E6
330
3E7
100
AcDbEntity
  8
OUTLINE
  6
CONTINUOUS
100
AcDbCircle
 10
-273.0000153930632
 20
5.000028865865715
 30
0.0
 40
3.000000134410163
100
AcDbArc
 50
359.9994487026088
 51
75.32013544760109
  0
LINE
  5
168E7
330
3E7
100
AcDbEntity
  8
OUTLINE
  6
CONTINUOUS
100
AcDbLine
 10
-275.0000152587927
 20
2.000000000002728
 30
0.0
 11
-270.0000152587926
 21
2.000000000002728
 31
0.0
  0
LINE
  5
168E8
330
3E7
100
AcDbEntity
  8
OUTLINE
  6
CONTINUOUS
100
AcDbLine
 10
-275.0000152587927
 20
8.000000000001818
 30
0.0
 11
-273.1522521972692
 21
8.000000000001818
 31
0.0
  0
LINE
  5
168E9
330
3E7
100
AcDbEntity
  8
OUTLINE
  6
CONTINUOUS
100
AcDbLine
 10
-270.0000152587926
 20
22.00000000000272
 30
0.0
 11
-270.0000152587926
 21
5.000000000000454
 31
0.0
  0
LINE
  5
16905
330
3E7
100
AcDbEntity
  8
OUTLINE
  6
CONTINUOUS
100
AcDbLine
 10
-165.0000076293872
 20
26.99999999999818
 30
0.0
 11
-164.0000076293836
 21
26.99999999999818
 31
0.0
  0
LINE
  5
16906
330
3E7
100
AcDbEntity
  8
OUTLINE
  6
CONTINUOUS
100
AcDbLine
 10
-164.0000076293836
 20
25.99999999999909
 30
0.0
 11
-164.0000076293836
 21
26.99999999999818
 31
0.0
  0
LINE
  5
16907
330
3E7
100
AcDbEntity
  8
OUTLINE
  6
CONTINUOUS
100
AcDbLine
 10
-163.9786071777234
 20
25.45916748047147
 30
0.0
 11
-163.0724487304723
 21
25.99999999999909
 31
0.0
  0
LINE
  5
16908
330
3E7
100
AcDbEntity
  8
OUTLINE
  6
CONTINUOUS
100
AcDbLine
 10
-166.0000076293908
 20
25.99999999999909
 30
0.0
 11
-166.0000076293908
 21
26.99999999999818
 31
0.0
  0
LINE
  5
16909
330
3E7
100
AcDbEntity
  8
OUTLINE
  6
CONTINUOUS
100
AcDbLine
 10
-165.0000076293872
 20
26.99999999999818
 30
0.0
 11
-166.0000076293908
 21
26.99999999999818
 31
0.0
  0
ARC
  5
1690A
330
3E7
100
AcDbEntity
  8
OUTLINE
  6
CONTINUOUS
100
AcDbCircle
 10
-166.1150771039501
 20
30.19999641751837
 30
0.0
 40
5.199996418843369
100
AcDbArc
 50
270.0012934217383
 51
294.2588628313385
  0
ARC
  5
1690B
330
3E7
100
AcDbEntity
  8
OUTLINE
100
AcDbCircle
 10
-90.19775994599331
 20
23.16428472629786
 30
0.0
 40
4.164302091584343
100
AcDbArc
 50
270.1654655758913
 51
309.2016128168366
  0
ARC
  5
1690C
330
3E7
100
AcDbEntity
  8
OUTLINE
100
AcDbCircle
 10
-129.7379189068233
 20
23.26454423293762
 30
0.0
 40
4.282693084950641
100
AcDbArc
 50
230.9789744855301
 51
264.723362964954
  0
LINE
  5
1690D
330
3E7
100
AcDbEntity
  8
OUTLINE
  6
CONTINUOUS
100
AcDbLine
 10
-134.4970298379648
 20
22.00000000000272
 30
0.0
 11
-132.4343261718786
 21
19.93725585937681
 31
0.0
  0
LINE
  5
1690E
330
3E7
100
AcDbEntity
  8
OUTLINE
  6
CONTINUOUS
100
AcDbLine
 10
-85.49744624251434
 20
22.00000000000272
 30
0.0
 11
-87.56570816040039
 21
19.93725585937681
 31
0.0
  0
LINE
  5
1690F
330
3E7
100
AcDbEntity
  8
OUTLINE
  6
CONTINUOUS
100
AcDbLine
 10
-90.18573379516965
 20
19.0000000000009
 30
0.0
 11
-130.1317749023473
 21
19.0000000000009
 31
0.0
  0
ARC
  5
16910
330
3E7
100
AcDbEntity
  8
OUTLINE
100
AcDbCircle
 10
30.26211351810889
 20
23.26454423293762
 30
0.0
 40
4.282693084950641
100
AcDbArc
 50
230.9789744855301
 51
264.723362964954
  0
LINE
  5
16911
330
3E7
100
AcDbEntity
  8
OUTLINE
  6
CONTINUOUS
100
AcDbLine
 10
25.50300258696734
 20
22.00000000000272
 30
0.0
 11
27.56570625305357
 21
19.93725585937681
 31
0.0
  0
LINE
  5
16952
330
3E7
100
AcDbEntity
  8
OUTLINE
  6
CONTINUOUS
100
AcDbLine
 10
229.8142910003662
 20
19.0000000000009
 30
0.0
 11
189.8682498931884
 21
19.0000000000009
 31
0.0
  0
ARC
  5
16953
330
3E7
100
AcDbEntity
  8
OUTLINE
100
AcDbCircle
 10
69.8022724789389
 20
23.16428472629786
 30
0.0
 40
4.164302091584343
100
AcDbArc
 50
270.1654655758913
 51
309.2016128168366
  0
LINE
  5
16954
330
3E7
100
AcDbEntity
  8
OUTLINE
  6
CONTINUOUS
100
AcDbLine
 10
74.50258618241787
 20
22.00000000000272
 30
0.0
 11
72.43432426453182
 21
19.93725585937681
 31
0.0
  0
ARC
  5
16955
330
3E7
100
AcDbEntity
  8
OUTLINE
100
AcDbCircle
 10
190.2621058887125
 20
23.26454423293762
 30
0.0
 40
4.282693084950641
100
AcDbArc
 50
230.9789744855301
 51
264.723362964954
  0
LINE
  5
16956
330
3E7
100
AcDbEntity
  8
OUTLINE
  6
CONTINUOUS
100
AcDbLine
 10
185.5029949575709
 20
22.00000000000272
 30
0.0
 11
187.5656986236572
 21
19.93725585937681
 31
0.0
  0
LINE
  5
16957
330
3E7
100
AcDbEntity
  8
OUTLINE
  6
CONTINUOUS
100
AcDbLine
 10
307.4999847412072
 20
14.58178710937772
 30
0.0
 11
292.4999847412072
 21
14.58178710937772
 31
0.0
  0
ARC
  5
16958
330
3E7
100
AcDbEntity
  8
OUTLINE
100
AcDbCircle
 10
304.4999981846667
 20
42.00001344345856
 30
0.0
 40
2.999986556571565
100
AcDbArc
 50
359.9997432477036
 51
90.00025675231373
  0
LINE
  5
16959
330
3E7
100
AcDbEntity
  8
OUTLINE
  6
CONTINUOUS
100
AcDbLine
 10
274.9999847412073
 20
2.000000000002728
 30
0.0
 11
324.9999847412073
 21
2.000000000002728
 31
0.0
  0
LINE
  5
1695A
330
3E7
100
AcDbEntity
  8
OUTLINE
  6
CONTINUOUS
100
AcDbLine
 10
274.9999847412073
 20
8.000000000001818
 30
0.0
 11
324.9999847412073
 21
8.000000000001818
 31
0.0
  0
LINE
  5
1695B
330
3E7
100
AcDbEntity
  8
OUTLINE
  6
CONTINUOUS
100
AcDbLine
 10
292.4999847412072
 20
25.0
 30
0.0
 11
289.4999847412145
 21
25.0
 31
0.0
  0
ARC
  5
1695C
330
3E7
100
AcDbEntity
  8
OUTLINE
100
AcDbCircle
 10
290.9999847412164
 20
14.79832477717491
 30
0.0
 40
1.515548930765032
100
AcDbArc
 50
188.2143824983924
 51
351.7856174990474
  0
LINE
  5
1695D
330
3E7
100
AcDbEntity
  8
OUTLINE
  6
CONTINUOUS
100
AcDbLine
 10
292.4999847412072
 20
14.58178710937772
 30
0.0
 11
292.4999847412072
 21
42.0
 31
0.0
  0
LINE
  5
1695E
330
3E7
100
AcDbEntity
  8
OUTLINE
  6
CONTINUOUS
100
AcDbLine
 10
289.4999847412145
 20
14.58178710937772
 30
0.0
 11
289.4999847412145
 21
25.0
 31
0.0
  0
LINE
  5
1695F
330
3E7
100
AcDbEntity
  8
OUTLINE
100
AcDbLine
 10
295.4999847412072
 20
45.0
 30
0.0
 11
304.4999847412073
 21
45.0
 31
0.0
  0
ARC
  5
16960
330
3E7
100
AcDbEntity
  8
OUTLINE
100
AcDbCircle
 10
295.4999774012758
 20
42.00000733993056
 30
0.0
 40
2.999992660077507
100
AcDbArc
 50
89.99985981729192
 51
180.0001401826907
  0
LINE
  5
16961
330
3E7
100
AcDbEntity
  8
OUTLINE
  6
CONTINUOUS
100
AcDbLine
 10
234.5025785530215
 20
22.00000000000272
 30
0.0
 11
232.4343166351354
 21
19.93725585937681
 31
0.0
  0
LINE
  5
16962
330
3E7
100
AcDbEntity
  8
OUTLINE
  6
CONTINUOUS
100
AcDbLine
 10
269.9999847412072
 20
22.00000000000272
 30
0.0
 11
269.9999847412182
 21
4.999999999999545
 31
0.0
  0
ARC
  5
16963
330
3E7
100
AcDbEntity
  8
OUTLINE
  6
CONTINUOUS
100
AcDbCircle
 10
272.9999774012867
 20
22.00000733993419
 30
0.0
 40
2.999992660077961
100
AcDbArc
 50
89.99985981728753
 51
180.0001401827125
  0
LINE
  5
16964
330
3E7
100
AcDbEntity
  8
OUTLINE
  6
CONTINUOUS
100
AcDbLine
 10
267.9999847412182
 20
0.0
 30
0.0
 11
264.9999847412073
 21
0.0
 31
0.0
  0
LINE
  5
16965
330
3E7
100
AcDbEntity
  8
OUTLINE
  6
CONTINUOUS
100
AcDbLine
 10
267.9999847412182
 20
1.60003662109375
 30
0.0
 11
264.9999847412073
 21
1.60003662109375
 31
0.0
  0
ARC
  5
16966
330
3E7
100
AcDbEntity
  8
OUTLINE
  6
CONTINUOUS
100
AcDbCircle
 10
272.9999774012867
 20
5.000007339931471
 30
0.0
 40
2.999992660077961
100
AcDbArc
 50
89.99985981728753
 51
180.0001401827125
  0
ARC
  5
16967
330
3E7
100
AcDbEntity
  8
OUTLINE
  6
CONTINUOUS
100
AcDbCircle
 10
269.5999804529856
 20
2.000010391748219
 30
0.0
 40
2.000010391774079
100
AcDbArc
 50
270.000297700094
 51
359.9997022999319
  0
ARC
  5
16968
330
3E7
100
AcDbEntity
  8
OUTLINE
  6
CONTINUOUS
100
AcDbCircle
 10
269.5999957123603
 20
2.000025650750103
 30
0.0
 40
0.3999890296843836
100
AcDbArc
 50
269.9993027454079
 51
359.996325700119
  0
LINE
  5
16969
330
3E7
100
AcDbEntity
  8
OUTLINE
  6
CONTINUOUS
100
AcDbLine
 10
269.9999847412072
 20
5.0
 30
0.0
 11
269.9999847412072
 21
2.000000000002728
 31
0.0
  0
LINE
  5
1696A
330
3E7
100
AcDbEntity
  8
OUTLINE
  6
CONTINUOUS
100
AcDbLine
 10
272.9999847412182
 20
8.000000000001818
 30
0.0
 11
274.9999847412073
 21
8.000000000001818
 31
0.0
  0
LINE
  5
1696B
330
3E7
100
AcDbEntity
  8
OUTLINE
  6
CONTINUOUS
100
AcDbLine
 10
269.5999908447265
 20
0.0
 30
0.0
 11
267.9999847412182
 21
0.0
 31
0.0
  0
LINE
  5
1696C
330
3E7
100
AcDbEntity
  8
OUTLINE
  6
CONTINUOUS
100
AcDbLine
 10
267.9999847412182
 20
1.60003662109375
 30
0.0
 11
269.5999908447265
 21
1.60003662109375
 31
0.0
  0
LINE
  5
1696D
330
3E7
100
AcDbEntity
  8
OUTLINE
  6
CONTINUOUS
100
AcDbLine
 10
269.9999847412072
 20
2.000000000002728
 30
0.0
 11
274.9999847412073
 21
2.000000000002728
 31
0.0
  0
LINE
  5
1696E
330
3E7
100
AcDbEntity
  8
OUTLINE
  6
CONTINUOUS
100
AcDbLine
 10
264.9999847412073
 20
0.0
 30
0.0
 11
264.9999847412073
 21
1.60003662109375
 31
0.0
  0
ARC
  5
1696F
330
3E7
100
AcDbEntity
  8
OUTLINE
100
AcDbCircle
 10
229.8022648495425
 20
23.16428472629786
 30
0.0
 40
4.164302091584343
100
AcDbArc
 50
270.1654655758913
 51
309.2016128168366
  0
LINE
  5
16970
330
3E7
100
AcDbEntity
  8
OUTLINE
  6
CONTINUOUS
100
AcDbLine
 10
289.4999847412145
 20
25.0
 30
0.0
 11
272.9999847412182
 21
25.0
 31
0.0
  0
ARC
  5
16971
330
3E7
100
AcDbEntity
  8
OUTLINE
100
AcDbCircle
 10
389.7398293062615
 20
23.261384618384
 30
0.0
 40
4.279006739753893
100
AcDbArc
 50
268.8258325946661
 51
309.0273124884163
  0
LINE
  5
16972
330
3E7
100
AcDbEntity
  8
OUTLINE
  6
CONTINUOUS
100
AcDbLine
 10
394.4892425537182
 20
22.00000000000272
 30
0.0
 11
392.4342803955187
 21
19.93725585937681
 31
0.0
  0
ARC
  5
16973
330
3E7
100
AcDbEntity
  8
OUTLINE
100
AcDbCircle
 10
350.0998294481723
 20
23.24750857237813
 30
0.0
 40
4.28237070007441
100
AcDbArc
 50
230.9776662762388
 51
264.7246711742008
  0
LINE
  5
16974
330
3E7
100
AcDbEntity
  8
OUTLINE
  6
CONTINUOUS
100
AcDbLine
 10
345.3408050537109
 20
21.98327636719113
 30
0.0
 11
347.4035491943323
 21
19.92053222656522
 31
0.0
  0
LINE
  5
16975
330
3E7
100
AcDbEntity
  8
OUTLINE
  6
CONTINUOUS
100
AcDbLine
 10
329.9999847412073
 20
22.00000000000272
 30
0.0
 11
329.9999847412073
 21
5.000000000000454
 31
0.0
  0
LINE
  5
16976
330
3E7
100
AcDbEntity
  8
OUTLINE
  6
CONTINUOUS
100
AcDbLine
 10
310.4999847412182
 20
25.0
 30
0.0
 11
307.4999847412072
 21
25.0
 31
0.0
  0
LINE
  5
16977
330
3E7
100
AcDbEntity
  8
OUTLINE
  6
CONTINUOUS
100
AcDbLine
 10
326.9999847412145
 20
25.0
 30
0.0
 11
310.4999847412182
 21
25.0
 31
0.0
  0
ARC
  5
16978
330
3E7
100
AcDbEntity
  8
OUTLINE
  6
CONTINUOUS
100
AcDbCircle
 10
326.999998184674
 20
22.00001344346219
 30
0.0
 40
2.999986556570656
100
AcDbArc
 50
359.9997432476904
 51
90.00025675230956
  0
ARC
  5
16979
330
3E7
100
AcDbEntity
  8
OUTLINE
100
AcDbCircle
 10
308.9999847412109
 20
14.79832477719264
 30
0.0
 40
1.515548930785328
100
AcDbArc
 50
188.2143825019728
 51
351.7856174980638
  0
LINE
  5
1697A
330
3E7
100
AcDbEntity
  8
OUTLINE
  6
CONTINUOUS
100
AcDbLine
 10
307.4999847412072
 20
42.0
 30
0.0
 11
307.4999847412072
 21
14.58178710937772
 31
0.0
  0
LINE
  5
1697B
330
3E7
100
AcDbEntity
  8
OUTLINE
  6
CONTINUOUS
100
AcDbLine
 10
310.4999847412182
 20
14.58178710937772
 30
0.0
 11
310.4999847412182
 21
25.0
 31
0.0
  0
LINE
  5
1697C
330
3E7
100
AcDbEntity
  8
OUTLINE
  6
CONTINUOUS
100
AcDbLine
 10
324.9999847412073
 20
8.000000000001818
 30
0.0
 11
326.8477478027307
 21
8.000000000001818
 31
0.0
  0
LINE
  5
1697D
330
3E7
100
AcDbEntity
  8
OUTLINE
  6
CONTINUOUS
100
AcDbLine
 10
324.9999847412073
 20
2.000000000002728
 30
0.0
 11
329.9999847412073
 21
2.000000000002728
 31
0.0
  0
ARC
  5
1697E
330
3E7
100
AcDbEntity
  8
OUTLINE
  6
CONTINUOUS
100
AcDbCircle
 10
326.9999846069367
 20
5.000028865865715
 30
0.0
 40
3.000000134410163
100
AcDbArc
 50
359.9994487026088
 51
75.32013544760109
  0
ARC
  5
1697F
330
3E7
100
AcDbEntity
  8
OUTLINE
  6
CONTINUOUS
100
AcDbCircle
 10
330.4000027623624
 20
2.00000886586622
 30
0.0
 40
2.000008865886779
100
AcDbArc
 50
180.0002539872637
 51
269.9997460127622
  0
ARC
  5
16980
330
3E7
100
AcDbEntity
  8
OUTLINE
  6
CONTINUOUS
100
AcDbCircle
 10
330.3999798731456
 20
2.000031754046176
 30
0.0
 40
0.3999951331973375
100
AcDbArc
 50
180.0045484872865
 51
270.00200871949
  0
LINE
  5
16981
330
3E7
100
AcDbEntity
  8
OUTLINE
  6
CONTINUOUS
100
AcDbLine
 10
329.9999847412073
 20
5.0
 30
0.0
 11
329.9999847412073
 21
2.000000000002728
 31
0.0
  0
LINE
  5
16982
330
3E7
100
AcDbEntity
  8
OUTLINE
  6
CONTINUOUS
100
AcDbLine
 10
334.9999847412072
 20
0.0
 30
0.0
 11
334.9999847412072
 21
1.60003662109375
 31
0.0
  0
LINE
  5
16983
330
3E7
100
AcDbEntity
  8
OUTLINE
  6
CONTINUOUS
100
AcDbLine
 10
330.3999938964807
 20
1.60003662109375
 30
0.0
 11
331.9999847412145
 21
1.60003662109375
 31
0.0
  0
LINE
  5
16984
330
3E7
100
AcDbEntity
  8
OUTLINE
  6
CONTINUOUS
100
AcDbLine
 10
331.9999847412145
 20
0.0
 30
0.0
 11
330.3999938964807
 21
0.0
 31
0.0
  0
LINE
  5
16985
330
3E7
100
AcDbEntity
  8
OUTLINE
  6
CONTINUOUS
100
AcDbLine
 10
334.9999847412072
 20
1.60003662109375
 30
0.0
 11
331.9999847412145
 21
1.60003662109375
 31
0.0
  0
LINE
  5
16986
330
3E7
100
AcDbEntity
  8
OUTLINE
  6
CONTINUOUS
100
AcDbLine
 10
334.9999847412072
 20
0.0
 30
0.0
 11
331.9999847412145
 21
0.0
 31
0.0
  0
LINE
  5
16987
330
3E7
100
AcDbEntity
  8
OUTLINE
  6
CONTINUOUS
100
AcDbLine
 10
326.8477478027307
 20
8.000000000001818
 30
0.0
 11
327.7602386474609
 21
7.902099609377728
 31
0.0
  0
LINE
  5
16988
330
3E7
100
AcDbEntity
  8
OUTLINE
  6
CONTINUOUS
100
AcDbLine
 10
389.6521453857349
 20
18.98327636718931
 30
0.0
 11
349.7061004638635
 21
18.98327636718931
 31
0.0
  0
LINE
  5
169E2
330
3E7
100
AcDbEntity
  8
OUTLINE
  6
CONTINUOUS
100
AcDbLine
 10
525.0000152587927
 20
542.4000244140597
 30
0.0
 11
525.0000152587927
 21
26.99999999999818
 31
0.0
  0
LINE
  5
169E8
330
3E7
100
AcDbEntity
  8
OUTLINE
  6
CONTINUOUS
100
AcDbLine
 10
499.8142852783167
 20
19.0000000000009
 30
0.0
 11
459.8682403564453
 21
19.0000000000009
 31
0.0
  0
ARC
  5
169E9
330
3E7
100
AcDbEntity
  8
OUTLINE
100
AcDbCircle
 10
460.2619693407578
 20
23.26423220518972
 30
0.0
 40
4.28237070007441
100
AcDbArc
 50
230.9776662762388
 51
264.7246711742008
  0
LINE
  5
169EA
330
3E7
100
AcDbEntity
  8
OUTLINE
  6
CONTINUOUS
100
AcDbLine
 10
455.5029449462927
 20
22.00000000000272
 30
0.0
 11
457.565689086914
 21
19.93725585937681
 31
0.0
  0
ARC
  5
169EB
330
3E7
100
AcDbEntity
  8
OUTLINE
  6
CONTINUOUS
100
AcDbCircle
 10
523.9999926600285
 20
27.00002259874963
 30
0.0
 40
1.000022599007712
100
AcDbArc
 50
270.0012947838991
 51
359.9987052161269
  0
LINE
  5
169ED
330
3E7
100
AcDbEntity
  8
OUTLINE
  6
CONTINUOUS
100
AcDbLine
 10
524.000015258789
 20
25.99999999999909
 30
0.0
 11
486.2000274658202
 21
25.99999999999909
 31
0.0
  0
LINE
  5
169EE
330
3E7
100
AcDbEntity
  8
OUTLINE
  6
CONTINUOUS
100
AcDbLine
 10
526.3000030517469
 20
39.60498046874818
 30
0.0
 11
526.3000030517469
 21
49.35565185546693
 31
0.0
  0
LINE
  5
169EF
330
3E7
100
AcDbEntity
  8
OUTLINE
  6
CONTINUOUS
100
AcDbLine
 10
529.8000030517505
 20
40.99999999999909
 30
0.0
 11
529.8000030517505
 21
47.99999999999727
 31
0.0
  0
LINE
  5
169F0
330
3E7
100
AcDbEntity
  8
OUTLINE
  6
CONTINUOUS
100
AcDbLine
 10
525.5000152587854
 20
38.49999999999909
 30
0.0
 11
525.5000152587854
 21
50.49999999999727
 31
0.0
  0
LINE
  5
169F1
330
3E7
100
AcDbEntity
  8
OUTLINE
  6
CONTINUOUS
100
AcDbLine
 10
525.0000152587927
 20
38.49999999999909
 30
0.0
 11
525.0000152587927
 21
50.49999999999727
 31
0.0
  0
LINE
  5
169F2
330
3E7
100
AcDbEntity
  8
OUTLINE
  6
CONTINUOUS
100
AcDbLine
 10
529.1540679931677
 20
39.88122558593659
 30
0.0
 11
526.3000030517469
 21
39.88122558593659
 31
0.0
  0
LINE
  5
169F3
330
3E7
100
AcDbEntity
  8
OUTLINE
  6
CONTINUOUS
100
AcDbLine
 10
529.1540679931677
 20
42.19061279296965
 30
0.0
 11
526.3000030517469
 21
42.19061279296965
 31
0.0
  0
LINE
  5
169F4
330
3E7
100
AcDbEntity
  8
OUTLINE
  6
CONTINUOUS
100
AcDbLine
 10
529.1540679931677
 20
49.11883544921693
 30
0.0
 11
526.3000030517469
 21
49.11883544921693
 31
0.0
  0
LINE
  5
169F5
330
3E7
100
AcDbEntity
  8
OUTLINE
  6
CONTINUOUS
100
AcDbLine
 10
529.1540679931677
 20
46.8094482421884
 30
0.0
 11
526.3000030517469
 21
46.80944824218795
 31
0.0
  0
LINE
  5
169F6
330
3E7
100
AcDbEntity
  8
OUTLINE
  6
CONTINUOUS
100
AcDbLine
 10
526.3000030517469
 20
49.35565185546693
 30
0.0
 11
526.2865753173719
 21
49.43505859374909
 31
0.0
  0
LINE
  5
169F7
330
3E7
100
AcDbEntity
  8
OUTLINE
  6
CONTINUOUS
100
AcDbLine
 10
526.2865753173719
 20
49.43505859374909
 30
0.0
 11
526.2634429931677
 21
49.45361328124818
 31
0.0
  0
LINE
  5
169F8
330
3E7
100
AcDbEntity
  8
OUTLINE
  6
CONTINUOUS
100
AcDbLine
 10
526.2634429931677
 20
49.45361328124818
 30
0.0
 11
526.2500152587927
 21
49.47155761718477
 31
0.0
  0
LINE
  5
169F9
330
3E7
100
AcDbEntity
  8
OUTLINE
  6
CONTINUOUS
100
AcDbLine
 10
526.1999664306677
 20
39.49999999999818
 30
0.0
 11
526.2500152587927
 21
39.52850341796875
 31
0.0
  0
LINE
  5
169FA
330
3E7
100
AcDbEntity
  8
OUTLINE
  6
CONTINUOUS
100
AcDbLine
 10
526.2500152587927
 20
39.52850341796875
 30
0.0
 11
526.2806549072229
 21
39.55554199218568
 31
0.0
  0
LINE
  5
169FB
330
3E7
100
AcDbEntity
  8
OUTLINE
  6
CONTINUOUS
100
AcDbLine
 10
526.2806549072229
 20
39.55554199218568
 30
0.0
 11
526.2865753173719
 21
39.56500244140443
 31
0.0
  0
LINE
  5
169FC
330
3E7
100
AcDbEntity
  8
OUTLINE
  6
CONTINUOUS
100
AcDbLine
 10
526.2865753173719
 20
39.56500244140443
 30
0.0
 11
526.3000030517469
 21
39.60498046874818
 31
0.0
  0
LINE
  5
169FD
330
3E7
100
AcDbEntity
  8
OUTLINE
  6
CONTINUOUS
100
AcDbLine
 10
526.2500152587927
 20
49.47155761718477
 30
0.0
 11
526.1999664306677
 21
49.49999999999818
 31
0.0
  0
LINE
  5
169FE
330
3E7
100
AcDbEntity
  8
OUTLINE
  6
CONTINUOUS
100
AcDbLine
 10
529.1540679931677
 20
49.11883544921693
 30
0.0
 11
529.8000030517505
 21
47.99999999999727
 31
0.0
  0
LINE
  5
169FF
330
3E7
100
AcDbEntity
  8
OUTLINE
  6
CONTINUOUS
100
AcDbLine
 10
529.1540679931677
 20
39.88122558593659
 30
0.0
 11
529.8000030517505
 21
40.99999999999909
 31
0.0
  0
LINE
  5
16A00
330
3E7
100
AcDbEntity
  8
OUTLINE
  6
CONTINUOUS
100
AcDbLine
 10
526.1999664306677
 20
39.49999999999818
 30
0.0
 11
525.5000152587854
 21
39.49999999999818
 31
0.0
  0
LINE
  5
16A01
330
3E7
100
AcDbEntity
  8
OUTLINE
  6
CONTINUOUS
100
AcDbLine
 10
526.1999664306677
 20
49.49999999999818
 30
0.0
 11
525.5000152587854
 21
49.49999999999818
 31
0.0
  0
LINE
  5
16A02
330
3E7
100
AcDbEntity
  8
OUTLINE
  6
CONTINUOUS
100
AcDbLine
 10
525.5000152587854
 20
38.49999999999909
 30
0.0
 11
525.0000152587927
 21
38.49999999999909
 31
0.0
  0
LINE
  5
16A03
330
3E7
100
AcDbEntity
  8
OUTLINE
  6
CONTINUOUS
100
AcDbLine
 10
525.5000152587854
 20
50.49999999999727
 30
0.0
 11
525.0000152587927
 21
50.49999999999727
 31
0.0
  0
ARC
  5
16A04
330
3E7
100
AcDbEntity
  8
OUTLINE
100
AcDbCircle
 10
527.4665443267367
 20
47.96414184570267
 30
0.0
 40
2.044762441644811
100
AcDbArc
 50
325.6179868117804
 51
34.38201318821954
  0
ARC
  5
16A05
330
3E7
100
AcDbEntity
  8
OUTLINE
100
AcDbCircle
 10
521.8679179168829
 20
44.5000305175754
 30
0.0
 40
7.643388853176793
100
AcDbArc
 50
342.4134703781277
 51
17.58652962191866
  0
ARC
  5
16A06
330
3E7
100
AcDbEntity
  8
OUTLINE
100
AcDbCircle
 10
527.4665443267294
 20
41.03591918945312
 30
0.0
 40
2.044762441651843
100
AcDbArc
 50
325.6179868118429
 51
34.38201318814647
  0
ARC
  5
16A07
330
3E7
100
AcDbEntity
  8
OUTLINE
100
AcDbCircle
 10
498.7164868905493
 20
26.19935525413848
 30
0.0
 40
7.282573540683195
100
AcDbArc
 50
278.6699981171263
 51
300.6975035839381
  0
LINE
  5
16A08
330
3E7
100
AcDbEntity
  8
OUTLINE
  6
CONTINUOUS
100
AcDbLine
 10
502.4342803955187
 20
19.93725585937681
 30
0.0
 11
508.4969635009838
 21
25.99999999999909
 31
0.0
  0
LINE
  5
16A09
330
3E7
100
AcDbEntity
  8
OUTLINE
  6
CONTINUOUS
100
AcDbLine
 10
499.1524200439562
 20
23.60003662109647
 30
0.0
 11
500.5380401611364
 21
25.99999999999909
 31
0.0
  0
ARC
  5
16A0A
330
3E7
100
AcDbEntity
  8
OUTLINE
  6
CONTINUOUS
100
AcDbCircle
 10
496.3811263800017
 20
25.19998480749109
 30
0.0
 40
3.199984807935843
100
AcDbArc
 50
270.0009566574351
 51
330.0009141910805
  0
LINE
  5
16A58
330
3E7
100
AcDbEntity
  8
OUTLINE
  6
CONTINUOUS
100
AcDbLine
 10
528.0000152587854
 20
606.3546829223651
 30
0.0
 11
528.0000152587927
 21
547.2000274658203
 31
0.0
  0
ARC
  5
16A5F
330
3E7
100
AcDbEntity
  8
OUTLINE
  6
CONTINUOUS
100
AcDbCircle
 10
527.0000010983494
 20
545.3142591007872
 30
0.0
 40
1.000014160623244
100
AcDbArc
 50
314.9991614809717
 51
359.9988770853893
  0
ARC
  5
16A60
330
3E7
100
AcDbEntity
  8
OUTLINE
  6
CONTINUOUS
100
AcDbCircle
 10
525.2928931606947
 20
542.9000245514862
 30
0.0
 40
0.5000001383990286
100
AcDbArc
 50
269.9964221980628
 51
314.9986953727129
  0
LINE
  5
16A63
330
3E7
100
AcDbEntity
  8
OUTLINE
  6
CONTINUOUS
100
AcDbLine
 10
525.6464385986328
 20
542.5464630126953
 30
0.0
 11
527.707107543938
 21
544.6071319580096
 31
0.0
  0
LINE
  5
16A64
330
3E7
100
AcDbEntity
  8
OUTLINE
  6
CONTINUOUS
100
AcDbLine
 10
528.0000152587854
 20
547.2000274658194
 30
0.0
 11
528.0000152587854
 21
545.314239501954
 31
0.0
  0
ARC
  5
16A68
330
3E7
100
AcDbEntity
  8
OUTLINE
  6
CONTINUOUS
100
AcDbCircle
 10
526.9999985312279
 20
608.4857886639475
 30
0.0
 40
1.000016727767742
100
AcDbArc
 50
0.0011838384004254
 51
45.00077759523676
  0
ARC
  5
16A69
330
3E7
100
AcDbEntity
  8
OUTLINE
  6
CONTINUOUS
100
AcDbCircle
 10
525.2928775700275
 20
610.9000234730274
 30
0.0
 40
0.5000009412789228
100
AcDbArc
 50
44.99887006065293
 51
90.00179124045549
  0
LINE
  5
16A6B
330
3E7
100
AcDbEntity
  8
OUTLINE
  6
CONTINUOUS
100
AcDbLine
 10
528.0000152587854
 20
608.485809326171
 30
0.0
 11
528.0000152587854
 21
606.6000213623055
 31
0.0
  0
LINE
  5
16A6D
330
3E7
100
AcDbEntity
  8
OUTLINE
  6
CONTINUOUS
100
AcDbLine
 10
525.6464385986328
 20
611.2535705566415
 30
0.0
 11
527.707107543938
 21
609.1929168701153
 31
0.0
  0
LINE
  5
16B2E
330
3E7
100
AcDbEntity
  8
OUTLINE
  6
CONTINUOUS
100
AcDbLine
 10
162.9999847412
 20
1323.981201171877
 30
0.0
 11
158.9999847412036
 21
1326.290649414063
 31
0.0
  0
LINE
  5
16B2F
330
3E7
100
AcDbEntity
  8
OUTLINE
  6
CONTINUOUS
100
AcDbLine
 10
166.9999847412145
 20
1326.290649414063
 30
0.0
 11
162.9999847412
 21
1323.981201171877
 31
0.0
  0
ARC
  5
16B30
330
3E7
100
AcDbEntity
  8
OUTLINE
  6
CONTINUOUS
100
AcDbCircle
 10
161.9999798739991
 20
1327.600031753882
 30
0.0
 40
0.5000048672364274
100
AcDbArc
 50
0.0005577360762763
 51
89.99944226392372
  0
ARC
  5
16B31
330
3E7
100
AcDbEntity
  8
OUTLINE
  6
CONTINUOUS
100
AcDbCircle
 10
163.9999957118198
 20
1327.600025650481
 30
0.0
 40
0.5000109707332996
100
AcDbArc
 50
90.00125711207498
 51
179.9987428879511
  0
ARC
  5
16B32
330
3E7
100
AcDbEntity
  8
OUTLINE
  6
CONTINUOUS
100
AcDbCircle
 10
161.9999957117761
 20
1329.600025650529
 30
0.0
 40
0.4999890295551567
100
AcDbArc
 50
269.9987428382119
 51
0.0012571617620511
  0
ARC
  5
16B33
330
3E7
100
AcDbEntity
  8
OUTLINE
  6
CONTINUOUS
100
AcDbCircle
 10
163.9999798742428
 20
1329.600031754125
 30
0.0
 40
0.4999951330515113
100
AcDbArc
 50
179.9994422806511
 51
270.0005577194009
  0
LINE
  5
16B34
330
3E7
100
AcDbEntity
  8
OUTLINE
  6
CONTINUOUS
100
AcDbLine
 10
158.9999847412036
 20
1326.290649414063
 30
0.0
 11
158.9999847412036
 21
1330.909423828125
 31
0.0
  0
LINE
  5
16B35
330
3E7
100
AcDbEntity
  8
OUTLINE
  6
CONTINUOUS
100
AcDbLine
 10
160.5499877929651
 20
1328.100036621094
 30
0.0
 11
161.9999847412145
 21
1328.100036621094
 31
0.0
  0
LINE
  5
16B36
330
3E7
100
AcDbEntity
  8
OUTLINE
  6
CONTINUOUS
100
AcDbLine
 10
162.2820434570348
 20
1329.187194824221
 30
0.0
 11
162.2820434570348
 21
1328.012878417971
 31
0.0
  0
LINE
  5
16B37
330
3E7
100
AcDbEntity
  8
OUTLINE
  6
CONTINUOUS
100
AcDbLine
 10
163.587142944325
 20
1327.882080078125
 30
0.0
 11
162.4128417968677
 21
1327.882080078125
 31
0.0
  0
LINE
  5
16B38
330
3E7
100
AcDbEntity
  8
OUTLINE
  6
CONTINUOUS
100
AcDbLine
 10
163.4999847412109
 20
1326.150024414064
 30
0.0
 11
162.4999847412072
 21
1326.150024414064
 31
0.0
  0
LINE
  5
16B39
330
3E7
100
AcDbEntity
  8
OUTLINE
  6
CONTINUOUS
100
AcDbLine
 10
160.5499877929651
 20
1328.100036621094
 30
0.0
 11
160.5499877929651
 21
1329.100036621093
 31
0.0
  0
LINE
  5
16B3A
330
3E7
100
AcDbEntity
  8
OUTLINE
  6
CONTINUOUS
100
AcDbLine
 10
162.4999847412072
 20
1327.600036621097
 30
0.0
 11
162.4999847412072
 21
1326.150024414064
 31
0.0
  0
LINE
  5
16B3B
330
3E7
100
AcDbEntity
  8
OUTLINE
  6
CONTINUOUS
100
AcDbLine
 10
166.9999847412145
 20
1330.909423828125
 30
0.0
 11
166.9999847412145
 21
1326.290649414063
 31
0.0
  0
LINE
  5
16B3C
330
3E7
100
AcDbEntity
  8
OUTLINE
  6
CONTINUOUS
100
AcDbLine
 10
163.9999847412036
 20
1328.100036621094
 30
0.0
 11
165.4499969482458
 21
1328.100036621094
 31
0.0
  0
LINE
  5
16B3D
330
3E7
100
AcDbEntity
  8
OUTLINE
  6
CONTINUOUS
100
AcDbLine
 10
163.4999847412109
 20
1326.150024414064
 30
0.0
 11
163.4999847412109
 21
1327.600036621097
 31
0.0
  0
LINE
  5
16B3E
330
3E7
100
AcDbEntity
  8
OUTLINE
  6
CONTINUOUS
100
AcDbLine
 10
163.717941284176
 20
1329.187194824221
 30
0.0
 11
163.717941284176
 21
1328.012878417971
 31
0.0
  0
LINE
  5
16B3F
330
3E7
100
AcDbEntity
  8
OUTLINE
  6
CONTINUOUS
100
AcDbLine
 10
165.4499969482458
 20
1329.100036621093
 30
0.0
 11
165.4499969482458
 21
1328.100036621094
 31
0.0
  0
LINE
  5
16B40
330
3E7
100
AcDbEntity
  8
OUTLINE
  6
CONTINUOUS
100
AcDbLine
 10
158.9999847412036
 20
1330.909423828125
 30
0.0
 11
162.9999847412
 21
1333.218811035158
 31
0.0
  0
LINE
  5
16B41
330
3E7
100
AcDbEntity
  8
OUTLINE
  6
CONTINUOUS
100
AcDbLine
 10
161.9999847412145
 20
1329.100036621093
 30
0.0
 11
160.5499877929651
 21
1329.100036621093
 31
0.0
  0
LINE
  5
16B42
330
3E7
100
AcDbEntity
  8
OUTLINE
  6
CONTINUOUS
100
AcDbLine
 10
162.4999847412072
 20
1331.050048828128
 30
0.0
 11
162.4999847412072
 21
1329.600036621095
 31
0.0
  0
LINE
  5
16B43
330
3E7
100
AcDbEntity
  8
OUTLINE
  6
CONTINUOUS
100
AcDbLine
 10
163.587142944325
 20
1329.317993164063
 30
0.0
 11
162.4128417968677
 21
1329.317993164063
 31
0.0
  0
LINE
  5
16B44
330
3E7
100
AcDbEntity
  8
OUTLINE
  6
CONTINUOUS
100
AcDbLine
 10
162.4999847412072
 20
1331.050048828128
 30
0.0
 11
163.4999847412109
 21
1331.050048828128
 31
0.0
  0
LINE
  5
16B45
330
3E7
100
AcDbEntity
  8
OUTLINE
  6
CONTINUOUS
100
AcDbLine
 10
162.9999847412
 20
1333.218811035158
 30
0.0
 11
166.9999847412145
 21
1330.909423828125
 31
0.0
  0
LINE
  5
16B46
330
3E7
100
AcDbEntity
  8
OUTLINE
  6
CONTINUOUS
100
AcDbLine
 10
163.9999847412036
 20
1329.100036621093
 30
0.0
 11
165.4499969482458
 21
1329.100036621093
 31
0.0
  0
LINE
  5
16B47
330
3E7
100
AcDbEntity
  8
OUTLINE
  6
CONTINUOUS
100
AcDbLine
 10
163.4999847412109
 20
1329.600036621095
 30
0.0
 11
163.4999847412109
 21
1331.050048828128
 31
0.0
  0
LINE
  5
16B63
330
3E7
100
AcDbEntity
  8
OUTLINE
  6
CONTINUOUS
100
AcDbLine
 10
525.0000152587927
 20
1319.100036621093
 30
0.0
 11
525.0000152587927
 21
1333.000000000003
 31
0.0
  0
LINE
  5
16B64
330
3E7
100
AcDbEntity
  8
OUTLINE
  6
CONTINUOUS
100
AcDbLine
 10
492.8000030517615
 20
1323.981201171877
 30
0.0
 11
488.8000030517469
 21
1326.290649414063
 31
0.0
  0
LINE
  5
16B65
330
3E7
100
AcDbEntity
  8
OUTLINE
  6
CONTINUOUS
100
AcDbLine
 10
496.8000030517578
 20
1326.290649414063
 30
0.0
 11
492.8000030517615
 21
1323.981201171877
 31
0.0
  0
ARC
  5
16B67
330
3E7
100
AcDbEntity
  8
OUTLINE
  6
CONTINUOUS
100
AcDbCircle
 10
523.9999951329082
 20
1316.600016495217
 30
0.0
 40
1.000020126079322
100
AcDbArc
 50
0.001153104555397
 51
89.99884689541856
  0
LINE
  5
16B6B
330
3E7
100
AcDbEntity
  8
OUTLINE
  6
CONTINUOUS
100
AcDbLine
 10
486.2000274658202
 20
1317.600036621092
 30
0.0
 11
524.0000152587854
 21
1317.600036621094
 31
0.0
  0
ARC
  5
16B6D
330
3E7
100
AcDbEntity
  8
OUTLINE
  6
CONTINUOUS
100
AcDbCircle
 10
523.4999890145082
 20
1319.100017613341
 30
0.0
 40
1.50002624440144
100
AcDbArc
 50
300.0005787581043
 51
0.0007260300572996
  0
LINE
  5
16B6E
330
3E7
100
AcDbEntity
  8
OUTLINE
  6
CONTINUOUS
100
AcDbLine
 10
524.2500152587854
 20
1317.800964355469
 30
0.0
 11
524.0000152587854
 21
1317.600036621094
 31
0.0
  0
ARC
  5
16B6F
330
3E7
100
AcDbEntity
  8
OUTLINE
  6
CONTINUOUS
100
AcDbCircle
 10
519.9999951329191
 20
1332.999979874132
 30
0.0
 40
5.000020125910427
100
AcDbArc
 50
0.00023062456399
 51
89.99976937543602
  0
ARC
  5
16B70
330
3E7
100
AcDbEntity
  8
OUTLINE
  6
CONTINUOUS
100
AcDbCircle
 10
491.799989029405
 20
1327.60002259874
 30
0.0
 40
0.5000140225522496
100
AcDbArc
 50
0.0016067984589614
 51
89.99839320143683
  0
ARC
  5
16B71
330
3E7
100
AcDbEntity
  8
OUTLINE
  6
CONTINUOUS
100
AcDbCircle
 10
493.800004867262
 20
1327.600034805586
 30
0.0
 40
0.5000018155116087
100
AcDbArc
 50
90.00020804125053
 51
179.9997919588276
  0
ARC
  5
16B72
330
3E7
100
AcDbEntity
  8
OUTLINE
  6
CONTINUOUS
100
AcDbCircle
 10
491.8000048668727
 20
1329.60003480598
 30
0.0
 40
0.4999981848883386
100
AcDbArc
 50
269.9997920023136
 51
0.0002079976082317
  0
ARC
  5
16B73
330
3E7
100
AcDbEntity
  8
OUTLINE
  6
CONTINUOUS
100
AcDbCircle
 10
493.7999890294122
 20
1329.600022598747
 30
0.0
 40
0.4999859778478244
100
AcDbArc
 50
179.998393112172
 51
270.0016068878801
  0
LINE
  5
16B74
330
3E7
100
AcDbEntity
  8
OUTLINE
  6
CONTINUOUS
100
AcDbLine
 10
488.8000030517469
 20
1326.290649414063
 30
0.0
 11
488.8000030517469
 21
1330.909423828125
 31
0.0
  0
LINE
  5
16B75
330
3E7
100
AcDbEntity
  8
OUTLINE
  6
CONTINUOUS
100
AcDbLine
 10
490.3499908447156
 20
1328.100036621094
 30
0.0
 11
491.8000030517577
 21
1328.100036621094
 31
0.0
  0
LINE
  5
16B76
330
3E7
100
AcDbEntity
  8
OUTLINE
  6
CONTINUOUS
100
AcDbLine
 10
492.0820465087854
 20
1329.187194824221
 30
0.0
 11
492.0820465087854
 21
1328.012878417971
 31
0.0
  0
LINE
  5
16B77
330
3E7
100
AcDbEntity
  8
OUTLINE
  6
CONTINUOUS
100
AcDbLine
 10
493.3871612548864
 20
1327.882080078125
 30
0.0
 11
492.2128448486364
 21
1327.882080078125
 31
0.0
  0
LINE
  5
16B78
330
3E7
100
AcDbEntity
  8
OUTLINE
  6
CONTINUOUS
100
AcDbLine
 10
493.3000030517542
 20
1326.150024414064
 30
0.0
 11
492.3000030517505
 21
1326.150024414064
 31
0.0
  0
LINE
  5
16B79
330
3E7
100
AcDbEntity
  8
OUTLINE
  6
CONTINUOUS
100
AcDbLine
 10
490.3499908447156
 20
1328.100036621094
 30
0.0
 11
490.3499908447156
 21
1329.100036621093
 31
0.0
  0
LINE
  5
16B7A
330
3E7
100
AcDbEntity
  8
OUTLINE
  6
CONTINUOUS
100
AcDbLine
 10
492.3000030517505
 20
1327.600036621097
 30
0.0
 11
492.3000030517505
 21
1326.150024414064
 31
0.0
  0
LINE
  5
16B7B
330
3E7
100
AcDbEntity
  8
OUTLINE
  6
CONTINUOUS
100
AcDbLine
 10
496.8000030517578
 20
1330.909423828125
 30
0.0
 11
496.8000030517578
 21
1326.290649414063
 31
0.0
  0
LINE
  5
16B7C
330
3E7
100
AcDbEntity
  8
OUTLINE
  6
CONTINUOUS
100
AcDbLine
 10
493.8000030517469
 20
1328.100036621094
 30
0.0
 11
495.250015258789
 21
1328.100036621094
 31
0.0
  0
LINE
  5
16B7D
330
3E7
100
AcDbEntity
  8
OUTLINE
  6
CONTINUOUS
100
AcDbLine
 10
493.3000030517542
 20
1326.150024414064
 30
0.0
 11
493.3000030517542
 21
1327.600036621097
 31
0.0
  0
LINE
  5
16B7E
330
3E7
100
AcDbEntity
  8
OUTLINE
  6
CONTINUOUS
100
AcDbLine
 10
493.5179595947192
 20
1329.187194824221
 30
0.0
 11
493.5179595947192
 21
1328.012878417971
 31
0.0
  0
LINE
  5
16B7F
330
3E7
100
AcDbEntity
  8
OUTLINE
  6
CONTINUOUS
100
AcDbLine
 10
495.250015258789
 20
1329.100036621093
 30
0.0
 11
495.250015258789
 21
1328.100036621094
 31
0.0
  0
LINE
  5
16B80
330
3E7
100
AcDbEntity
  8
OUTLINE
  6
CONTINUOUS
100
AcDbLine
 10
488.8000030517469
 20
1330.909423828125
 30
0.0
 11
492.8000030517615
 21
1333.218811035158
 31
0.0
  0
LINE
  5
16B81
330
3E7
100
AcDbEntity
  8
OUTLINE
  6
CONTINUOUS
100
AcDbLine
 10
491.8000030517577
 20
1329.100036621093
 30
0.0
 11
490.3499908447156
 21
1329.100036621093
 31
0.0
  0
LINE
  5
16B82
330
3E7
100
AcDbEntity
  8
OUTLINE
  6
CONTINUOUS
100
AcDbLine
 10
492.3000030517505
 20
1331.050048828128
 30
0.0
 11
492.3000030517505
 21
1329.600036621095
 31
0.0
  0
LINE
  5
16B83
330
3E7
100
AcDbEntity
  8
OUTLINE
  6
CONTINUOUS
100
AcDbLine
 10
493.3871612548864
 20
1329.317993164063
 30
0.0
 11
492.2128448486364
 21
1329.317993164063
 31
0.0
  0
LINE
  5
16B84
330
3E7
100
AcDbEntity
  8
OUTLINE
  6
CONTINUOUS
100
AcDbLine
 10
492.3000030517505
 20
1331.050048828128
 30
0.0
 11
493.3000030517542
 21
1331.050048828128
 31
0.0
  0
LINE
  5
16B85
330
3E7
100
AcDbEntity
  8
OUTLINE
  6
CONTINUOUS
100
AcDbLine
 10
492.8000030517615
 20
1333.218811035158
 30
0.0
 11
496.8000030517578
 21
1330.909423828125
 31
0.0
  0
LINE
  5
16B86
330
3E7
100
AcDbEntity
  8
OUTLINE
  6
CONTINUOUS
100
AcDbLine
 10
493.8000030517469
 20
1329.100036621093
 30
0.0
 11
495.250015258789
 21
1329.100036621093
 31
0.0
  0
LINE
  5
16B87
330
3E7
100
AcDbEntity
  8
OUTLINE
  6
CONTINUOUS
100
AcDbLine
 10
493.3000030517542
 20
1329.600036621095
 30
0.0
 11
493.3000030517542
 21
1331.050048828128
 31
0.0
  0
LINE
  5
16B8A
330
3E7
100
AcDbEntity
  8
OUTLINE
100
AcDbLine
 10
486.2000274658202
 20
25.99999999999909
 30
0.0
 11
486.2000274671918
 21
28.00000000000864
 31
0.0
  0
LINE
  5
16B8B
330
3E7
100
AcDbEntity
  8
OUTLINE
100
AcDbLine
 10
-280.0
 20
26.99999999999818
 30
0.0
 11
-280.0
 21
28.00000000000864
 31
0.0
  0
LINE
  5
16B8C
330
3E7
100
AcDbEntity
  8
OUTLINE
100
AcDbLine
 10
-519.400009155262
 20
206.0000305175821
 30
0.0
 11
-524.000015258785
 21
206.0000305175819
 31
0.0
  0
LINE
  5
16B8D
330
3E7
100
AcDbEntity
  8
OUTLINE
100
AcDbLine
 10
-520.1999969482479
 20
185.0000305175785
 30
0.0
 11
-524.1423187255973
 21
184.9898376464811
 31
0.0
  0
ENDSEC
  0
SECTION
  2
OBJECTS
  0
DICTIONARY
  5
3D5
330
0
100
AcDbDictionary
  3
ACAD_GROUP
350
3D6
  3
ACAD_LAYOUT
350
3E2
  3
ACAD_MLINESTYLE
350
3DF
  3
ACAD_PLOTSETTINGS
350
3E1
  3
ACAD_PLOTSTYLENAME
350
3D7
  3
ACDBHEADERROUNDTRIPXREC
350
16B95
  0
DICTIONARY
  5
16BB8
330
3E7
100
AcDbDictionary
280
     1
  3
ACAD_LAYOUTSELFREF
360
16BB9
  0
DICTIONARY
  5
16BB6
330
3E3
100
AcDbDictionary
280
     1
  3
ACAD_LAYOUTSELFREF
360
16BB7
  0
DICTIONARY
  5
3D6
102
{ACAD_REACTORS
330
3D5
102
}
330
3D5
100
AcDbDictionary
  0
DICTIONARY
  5
3E2
102
{ACAD_REACTORS
330
3D5
102
}
330
3D5
100
AcDbDictionary
  0
DICTIONARY
  5
3DF
102
{ACAD_REACTORS
330
3D5
102
}
330
3D5
100
AcDbDictionary
  3
STANDARD
350
3E0
  0
DICTIONARY
  5
3E1
102
{ACAD_REACTORS
330
3D5
102
}
330
3D5
100
AcDbDictionary
  0
ACDBDICTIONARYWDFLT
  5
3D7
102
{ACAD_REACTORS
330
3D5
102
}
330
3D5
100
AcDbDictionary
281
     1
  3
Normal
350
3D8
100
AcDbDictionaryWithDefault
340
3D8
  0
DICTIONARY
  5
16B95
102
{ACAD_REACTORS
330
3D5
102
}
330
3D5
100
AcDbDictionary
  3
CEPSNTYPE
350
16B9F
  3
DIMSTYLEDATA
350
16BA3
  3
FINGERPRINTGUID
350
16BA0
  3
HYPERLINKBASE
350
16B98
  3
INSUNITS
350
16B9E
  3
LAYOUTDICT
350
16B9A
  3
LWETCUNION
350
16B9D
  3
PLOTSETDICT
350
16B9B
  3
PLOTSTYLNAMDICT
350
16B9C
  3
PSVPSCALE
350
16BA2
  3
PUCSBASE
350
16BA6
  3
PUCSORGBACK
350
16BAC
  3
PUCSORGBOTTOM
350
16BA8
  3
PUCSORGFRONT
350
16BAB
  3
PUCSORGLEFT
350
16BA9
  3
PUCSORGRIGHT
350
16BAA
  3
PUCSORGTOP
350
16BA7
  3
PUCSORTHOREF
350
16BA4
  3
PUCSORTHOVIEW
350
16BA5
  3
STYLESHEET
350
16B99
  3
TSTACKALIGN
350
16B96
  3
TSTACKSIZE
350
16B97
  3
UCSBASE
350
16BAF
  3
UCSORGBACK
350
16BB5
  3
UCSORGBOTTOM
350
16BB1
  3
UCSORGFRONT
350
16BB4
  3
UCSORGLEFT
350
16BB2
  3
UCSORGRIGHT
350
16BB3
  3
UCSORGTOP
350
16BB0
  3
UCSORTHOREF
350
16BAD
  3
UCSORTHOVIEW
350
16BAE
  3
VERSIONGUID
350
16BA1
  0
XRECORD
  5
16BB9
102
{ACAD_REACTORS
330
16BB8
102
}
330
16BB8
100
AcDbXrecord
340
3E7
  0
XRECORD
  5
16BB7
102
{ACAD_REACTORS
330
16BB6
102
}
330
16BB6
100
AcDbXrecord
340
3E3
  0
MLINESTYLE
  5
3E0
102
{ACAD_REACTORS
330
3DF
102
}
330
3DF
100
AcDbMlineStyle
  2
STANDARD
 70
     0
  3

 62
   256
 51
90.0
 52
90.0
 71
     2
 49
0.5
 62
   256
  6
BYLAYER
 49
-0.5
 62
   256
  6
BYLAYER
  0
ACDBPLACEHOLDER
  5
3D8
102
{ACAD_REACTORS
330
3D7
102
}
330
3D7
100
AcDbPlaceHolder
280
     0
  0
XRECORD
  5
16B9F
102
{ACAD_REACTORS
330
16B95
102
}
330
16B95
100
AcDbXrecord
 90
        0
  0
XRECORD
  5
16BA3
102
{ACAD_REACTORS
330
16B95
102
}
330
16B95
100
AcDbXrecord
1000
DSTYLE
1002
{
1070
   341
340
4A9
1070
   342
340
4A9
1002
}
  0
XRECORD
  5
16BA0
102
{ACAD_REACTORS
330
16B95
102
}
330
16B95
100
AcDbXrecord
  1
{D2272796-D80D-4ABD-900F-0E7B08E93DCD}
  0
XRECORD
  5
16B98
102
{ACAD_REACTORS
330
16B95
102
}
330
16B95
100
AcDbXrecord
  1

  0
XRECORD
  5
16B9E
102
{ACAD_REACTORS
330
16B95
102
}
330
16B95
100
AcDbXrecord
 90
        0
  0
XRECORD
  5
16B9A
102
{ACAD_REACTORS
330
16B95
102
}
330
16B95
100
AcDbXrecord
340
3E2
  0
XRECORD
  5
16B9D
102
{ACAD_REACTORS
330
16B95
102
}
330
16B95
100
AcDbXrecord
 90
    10781
  0
XRECORD
  5
16B9B
102
{ACAD_REACTORS
330
16B95
102
}
330
16B95
100
AcDbXrecord
340
3E1
  0
XRECORD
  5
16B9C
102
{ACAD_REACTORS
330
16B95
102
}
330
16B95
100
AcDbXrecord
340
3D7
  0
XRECORD
  5
16BA2
102
{ACAD_REACTORS
330
16B95
102
}
330
16B95
100
AcDbXrecord
 40
0.0
  0
XRECORD
  5
16BA6
102
{ACAD_REACTORS
330
16B95
102
}
330
16B95
100
AcDbXrecord
340
0
  0
XRECORD
  5
16BAC
102
{ACAD_REACTORS
330
16B95
102
}
330
16B95
100
AcDbXrecord
 10
0.0
 20
0.0
 30
0.0
  0
XRECORD
  5
16BA8
102
{ACAD_REACTORS
330
16B95
102
}
330
16B95
100
AcDbXrecord
 10
0.0
 20
0.0
 30
0.0
  0
XRECORD
  5
16BAB
102
{ACAD_REACTORS
330
16B95
102
}
330
16B95
100
AcDbXrecord
 10
0.0
 20
0.0
 30
0.0
  0
XRECORD
  5
16BA9
102
{ACAD_REACTORS
330
16B95
102
}
330
16B95
100
AcDbXrecord
 10
0.0
 20
0.0
 30
0.0
  0
XRECORD
  5
16BAA
102
{ACAD_REACTORS
330
16B95
102
}
330
16B95
100
AcDbXrecord
 10
0.0
 20
0.0
 30
0.0
  0
XRECORD
  5
16BA7
102
{ACAD_REACTORS
330
16B95
102
}
330
16B95
100
AcDbXrecord
 10
0.0
 20
0.0
 30
0.0
  0
XRECORD
  5
16BA4
102
{ACAD_REACTORS
330
16B95
102
}
330
16B95
100
AcDbXrecord
340
0
  0
XRECORD
  5
16BA5
102
{ACAD_REACTORS
330
16B95
102
}
330
16B95
100
AcDbXrecord
 70
     0
  0
XRECORD
  5
16B99
102
{ACAD_REACTORS
330
16B95
102
}
330
16B95
100
AcDbXrecord
  1

  0
XRECORD
  5
16B96
102
{ACAD_REACTORS
330
16B95
102
}
330
16B95
100
AcDbXrecord
 90
        1
  0
XRECORD
  5
16B97
102
{ACAD_REACTORS
330
16B95
102
}
330
16B95
100
AcDbXrecord
 90
       70
  0
XRECORD
  5
16BAF
102
{ACAD_REACTORS
330
16B95
102
}
330
16B95
100
AcDbXrecord
340
0
  0
XRECORD
  5
16BB5
102
{ACAD_REACTORS
330
16B95
102
}
330
16B95
100
AcDbXrecord
 10
0.0
 20
0.0
 30
0.0
  0
XRECORD
  5
16BB1
102
{ACAD_REACTORS
330
16B95
102
}
330
16B95
100
AcDbXrecord
 10
0.0
 20
0.0
 30
0.0
  0
XRECORD
  5
16BB4
102
{ACAD_REACTORS
330
16B95
102
}
330
16B95
100
AcDbXrecord
 10
0.0
 20
0.0
 30
0.0
  0
XRECORD
  5
16BB2
102
{ACAD_REACTORS
330
16B95
102
}
330
16B95
100
AcDbXrecord
 10
0.0
 20
0.0
 30
0.0
  0
XRECORD
  5
16BB3
102
{ACAD_REACTORS
330
16B95
102
}
330
16B95
100
AcDbXrecord
 10
0.0
 20
0.0
 30
0.0
  0
XRECORD
  5
16BB0
102
{ACAD_REACTORS
330
16B95
102
}
330
16B95
100
AcDbXrecord
 10
0.0
 20
0.0
 30
0.0
  0
XRECORD
  5
16BAD
102
{ACAD_REACTORS
330
16B95
102
}
330
16B95
100
AcDbXrecord
340
0
  0
XRECORD
  5
16BAE
102
{ACAD_REACTORS
330
16B95
102
}
330
16B95
100
AcDbXrecord
 70
     0
  0
XRECORD
  5
16BA1
102
{ACAD_REACTORS
330
16B95
102
}
330
16B95
100
AcDbXrecord
  1
{3F9521D2-F775-4592-8075-80B550A4848A}
  0
ENDSEC
  0
EOF
