  0
SECTION
  2
HEADER
  9
$ACADVER
  1
AC1015
  9
$ACADMAINTVER
 70
     6
  9
$DWGCODEPAGE
  3
ANSI_932
  9
$INSBASE
 10
0.0
 20
0.0
 30
0.0
  9
$EXTMIN
 10
-1401.412019971858
 20
-1088.506339585755
 30
0.0
  9
$EXTMAX
 10
2099.012465229839
 20
1247.76569321853
 30
0.0
  9
$LIMMIN
 10
-1401.412019971858
 20
-1088.506339585755
  9
$LIMMAX
 10
2099.012465229839
 20
1247.76569321853
  9
$ORTHOMODE
 70
     0
  9
$REGENMODE
 70
     1
  9
$FILLMODE
 70
     1
  9
$QTEXTMODE
 70
     0
  9
$MIRRTEXT
 70
     1
  9
$LTSCALE
 40
1.0
  9
$ATTMODE
 70
     1
  9
$TEXTSIZE
 40
0.2
  9
$TRACEWID
 40
0.05
  9
$TEXTSTYLE
  7
Standard
  9
$CLAYER
  8
SIZE
  9
$CELTYPE
  6
ByLayer
  9
$CECOLOR
 62
   256
  9
$CELTSCALE
 40
1.0
  9
$DISPSILH
 70
     0
  9
$DIMSCALE
 40
1.0
  9
$DIMASZ
 40
0.18
  9
$DIMEXO
 40
0.0625
  9
$DIMDLI
 40
0.38
  9
$DIMRND
 40
0.0
  9
$DIMDLE
 40
0.0
  9
$DIMEXE
 40
0.18
  9
$DIMTP
 40
0.0
  9
$DIMTM
 40
0.0
  9
$DIMTXT
 40
0.18
  9
$DIMCEN
 40
0.09
  9
$DIMTSZ
 40
0.0
  9
$DIMTOL
 70
     0
  9
$DIMLIM
 70
     0
  9
$DIMTIH
 70
     1
  9
$DIMTOH
 70
     1
  9
$DIMSE1
 70
     0
  9
$DIMSE2
 70
     0
  9
$DIMTAD
 70
     0
  9
$DIMZIN
 70
     0
  9
$DIMBLK
  1

  9
$DIMASO
 70
     1
  9
$DIMSHO
 70
     1
  9
$DIMPOST
  1

  9
$DIMAPOST
  1

  9
$DIMALT
 70
     0
  9
$DIMALTD
 70
     2
  9
$DIMALTF
 40
25.4
  9
$DIMLFAC
 40
1.0
  9
$DIMTOFL
 70
     0
  9
$DIMTVP
 40
0.0
  9
$DIMTIX
 70
     0
  9
$DIMSOXD
 70
     0
  9
$DIMSAH
 70
     0
  9
$DIMBLK1
  1

  9
$DIMBLK2
  1

  9
$DIMSTYLE
  2
Standard
  9
$DIMCLRD
 70
     0
  9
$DIMCLRE
 70
     0
  9
$DIMCLRT
 70
     0
  9
$DIMTFAC
 40
1.0
  9
$DIMGAP
 40
0.09
  9
$DIMJUST
 70
     0
  9
$DIMSD1
 70
     0
  9
$DIMSD2
 70
     0
  9
$DIMTOLJ
 70
     1
  9
$DIMTZIN
 70
     0
  9
$DIMALTZ
 70
     0
  9
$DIMALTTZ
 70
     0
  9
$DIMUPT
 70
     0
  9
$DIMDEC
 70
     4
  9
$DIMTDEC
 70
     4
  9
$DIMALTU
 70
     2
  9
$DIMALTTD
 70
     2
  9
$DIMTXSTY
  7
Standard
  9
$DIMAUNIT
 70
     0
  9
$DIMADEC
 70
     0
  9
$DIMALTRND
 40
0.0
  9
$DIMAZIN
 70
     0
  9
$DIMDSEP
 70
    46
  9
$DIMATFIT
 70
     3
  9
$DIMFRAC
 70
     0
  9
$DIMLDRBLK
  1

  9
$DIMLUNIT
 70
     2
  9
$DIMLWD
 70
    -2
  9
$DIMLWE
 70
    -2
  9
$DIMTMOVE
 70
     0
  9
$LUNITS
 70
     2
  9
$LUPREC
 70
     4
  9
$SKETCHINC
 40
0.1
  9
$FILLETRAD
 40
0.5
  9
$AUNITS
 70
     1
  9
$AUPREC
 70
     3
  9
$MENU
  1
.
  9
$ELEVATION
 40
0.0
  9
$PELEVATION
 40
0.0
  9
$THICKNESS
 40
0.0
  9
$LIMCHECK
 70
     0
  9
$CHAMFERA
 40
0.0
  9
$CHAMFERB
 40
0.0
  9
$CHAMFERC
 40
0.0
  9
$CHAMFERD
 40
0.0
  9
$SKPOLY
 70
     0
  9
$TDCREATE
 40
2457372.619560799
  9
$TDUCREATE
 40
2457372.244560799
  9
$TDUPDATE
 40
2457372.619562245
  9
$TDUUPDATE
 40
2457372.244562245
  9
$TDINDWG
 40
0.0000000116
  9
$TDUSRTIMER
 40
0.0000000116
  9
$USRTIMER
 70
     1
  9
$ANGBASE
 50
0.0
  9
$ANGDIR
 70
     0
  9
$PDMODE
 70
     0
  9
$PDSIZE
 40
0.0
  9
$PLINEWID
 40
0.0
  9
$SPLFRAME
 70
     0
  9
$SPLINETYPE
 70
     6
  9
$SPLINESEGS
 70
     8
  9
$HANDSEED
  5
39C
  9
$SURFTAB1
 70
     6
  9
$SURFTAB2
 70
     6
  9
$SURFTYPE
 70
     6
  9
$SURFU
 70
     6
  9
$SURFV
 70
     6
  9
$UCSBASE
  2

  9
$UCSNAME
  2

  9
$UCSORG
 10
0.0
 20
0.0
 30
0.0
  9
$UCSXDIR
 10
1.0
 20
0.0
 30
0.0
  9
$UCSYDIR
 10
0.0
 20
1.0
 30
0.0
  9
$UCSORTHOREF
  2

  9
$UCSORTHOVIEW
 70
     0
  9
$UCSORGTOP
 10
0.0
 20
0.0
 30
0.0
  9
$UCSORGBOTTOM
 10
0.0
 20
0.0
 30
0.0
  9
$UCSORGLEFT
 10
0.0
 20
0.0
 30
0.0
  9
$UCSORGRIGHT
 10
0.0
 20
0.0
 30
0.0
  9
$UCSORGFRONT
 10
0.0
 20
0.0
 30
0.0
  9
$UCSORGBACK
 10
0.0
 20
0.0
 30
0.0
  9
$PUCSBASE
  2

  9
$PUCSNAME
  2

  9
$PUCSORG
 10
0.0
 20
0.0
 30
0.0
  9
$PUCSXDIR
 10
1.0
 20
0.0
 30
0.0
  9
$PUCSYDIR
 10
0.0
 20
1.0
 30
0.0
  9
$PUCSORTHOREF
  2

  9
$PUCSORTHOVIEW
 70
     0
  9
$PUCSORGTOP
 10
0.0
 20
0.0
 30
0.0
  9
$PUCSORGBOTTOM
 10
0.0
 20
0.0
 30
0.0
  9
$PUCSORGLEFT
 10
0.0
 20
0.0
 30
0.0
  9
$PUCSORGRIGHT
 10
0.0
 20
0.0
 30
0.0
  9
$PUCSORGFRONT
 10
0.0
 20
0.0
 30
0.0
  9
$PUCSORGBACK
 10
0.0
 20
0.0
 30
0.0
  9
$USERI1
 70
     0
  9
$USERI2
 70
     0
  9
$USERI3
 70
     0
  9
$USERI4
 70
     0
  9
$USERI5
 70
     0
  9
$USERR1
 40
0.0
  9
$USERR2
 40
0.0
  9
$USERR3
 40
0.0
  9
$USERR4
 40
0.0
  9
$USERR5
 40
0.0
  9
$WORLDVIEW
 70
     1
  9
$SHADEDGE
 70
     3
  9
$SHADEDIF
 70
    70
  9
$TILEMODE
 70
     1
  9
$MAXACTVP
 70
    64
  9
$PINSBASE
 10
0.0
 20
0.0
 30
0.0
  9
$PLIMCHECK
 70
     0
  9
$PEXTMIN
 10
-9.375
 20
-25.0
 30
0.0
  9
$PEXTMAX
 10
371.25
 20
262.5
 30
0.0
  9
$PLIMMIN
 10
-7.5
 20
-20.0
  9
$PLIMMAX
 10
297.0
 20
210.0
  9
$UNITMODE
 70
     0
  9
$VISRETAIN
 70
     1
  9
$PLINEGEN
 70
     0
  9
$PSLTSCALE
 70
     1
  9
$TREEDEPTH
 70
  3020
  9
$CMLSTYLE
  2
Standard
  9
$CMLJUST
 70
     0
  9
$CMLSCALE
 40
1.0
  9
$PROXYGRAPHICS
 70
     1
  9
$MEASUREMENT
 70
     0
  9
$CELWEIGHT
370
    -1
  9
$ENDCAPS
280
     0
  9
$JOINSTYLE
280
     0
  9
$LWDISPLAY
290
     0
  9
$INSUNITS
 70
     0
  9
$HYPERLINKBASE
  1

  9
$STYLESHEET
  1

  9
$XEDIT
290
     1
  9
$CEPSNTYPE
380
     0
  9
$PSTYLEMODE
290
     1
  9
$FINGERPRINTGUID
  2
{264540D3-1F5B-4586-9D5C-6E4149E79254}
  9
$VERSIONGUID
  2
{FAEB1C32-E019-11D5-929B-00C0DF256EC4}
  9
$EXTNAMES
290
     1
  9
$PSVPSCALE
 40
0.0
  9
$OLESTARTUP
290
     0
  0
ENDSEC
  0
SECTION
  2
CLASSES
  0
CLASS
  1
ACDBDICTIONARYWDFLT
  2
AcDbDictionaryWithDefault
  3
ObjectDBX Classes
 90
        0
280
     0
281
     0
  0
CLASS
  1
VISUALSTYLE
  2
AcDbVisualStyle
  3
ObjectDBX Classes
 90
     4095
280
     0
281
     0
  0
CLASS
  1
MATERIAL
  2
AcDbMaterial
  3
ObjectDBX Classes
 90
     1153
280
     0
281
     0
  0
CLASS
  1
SCALE
  2
AcDbScale
  3
ObjectDBX Classes
 90
     1153
280
     0
281
     0
  0
CLASS
  1
SUN
  2
AcDbSun
  3
SCENEOE
 90
     1153
280
     0
281
     0
  0
CLASS
  1
RASTERVARIABLES
  2
AcDbRasterVariables
  3
ISM
 90
        0
280
     0
281
     0
  0
CLASS
  1
DICTIONARYVAR
  2
AcDbDictionaryVar
  3
ObjectDBX Classes
 90
        0
280
     0
281
     0
  0
CLASS
  1
ACDBPLACEHOLDER
  2
AcDbPlaceHolder
  3
ObjectDBX Classes
 90
        0
280
     0
281
     0
  0
CLASS
  1
LAYOUT
  2
AcDbLayout
  3
ObjectDBX Classes
 90
        0
280
     0
281
     0
  0
ENDSEC
  0
SECTION
  2
TABLES
  0
TABLE
  2
VPORT
  5
8
330
0
100
AcDbSymbolTable
 70
     1
  0
VPORT
  5
29
330
8
100
AcDbSymbolTableRecord
100
AcDbViewportTableRecord
  2
*Active
 70
     0
 10
0.0
 20
0.0
 11
1.0
 21
1.0
 12
279.0401781031926
 22
63.70374145311013
 13
0.0
 23
0.0
 14
0.5
 24
0.5
 15
0.5
 25
0.5
 16
0.0
 26
0.0
 36
1.0
 17
0.0
 27
0.0
 37
0.0
 40
1962.468507555599
 41
1.498294905752072
 42
50.0
 43
0.0
 44
0.0
 50
0.0
 51
0.0
 71
     0
 72
 20000
 73
     1
 74
     3
 75
     0
 76
     0
 77
     0
 78
     0
281
     0
 65
     1
110
0.0
120
0.0
130
0.0
111
1.0
121
0.0
131
0.0
112
0.0
122
1.0
132
0.0
 79
     0
146
0.0
  0
ENDTAB
  0
TABLE
  2
LTYPE
  5
5
330
0
100
AcDbSymbolTable
 70
     4
  0
LTYPE
  5
14
330
5
100
AcDbSymbolTableRecord
100
AcDbLinetypeTableRecord
  2
ByBlock
 70
     0
  3

 72
    65
 73
     0
 40
0.0
  0
LTYPE
  5
15
330
5
100
AcDbSymbolTableRecord
100
AcDbLinetypeTableRecord
  2
ByLayer
 70
     0
  3

 72
    65
 73
     0
 40
0.0
  0
LTYPE
  5
16
330
5
100
AcDbSymbolTableRecord
100
AcDbLinetypeTableRecord
  2
Continuous
 70
     0
  3
Solid line
 72
    65
 73
     0
 40
0.0
  0
LTYPE
  5
6C
330
5
100
AcDbSymbolTableRecord
100
AcDbLinetypeTableRecord
  2
DASHDOT
 70
     0
  3

 72
    65
 73
     4
 40
5.499999999999999
 49
4.0
 74
     0
 49
-0.6
 74
     0
 49
0.3
 74
     0
 49
-0.6
 74
     0
  0
LTYPE
  5
6D
330
5
100
AcDbSymbolTableRecord
100
AcDbLinetypeTableRecord
  2
CONTINOUS
 70
     0
  3

 72
    65
 73
     0
 40
0.0
  0
LTYPE
  5
6E
330
5
100
AcDbSymbolTableRecord
100
AcDbLinetypeTableRecord
  2
DOT_CENTER
 70
     0
  3

 72
    65
 73
     4
 40
14.25
 49
12.0
 74
     0
 49
-1.0
 74
     0
 49
0.25
 74
     0
 49
-1.0
 74
     0
  0
ENDTAB
  0
TABLE
  2
LAYER
  5
2
330
0
100
AcDbSymbolTable
 70
    12
  0
LAYER
  5
10
330
2
100
AcDbSymbolTableRecord
100
AcDbLayerTableRecord
  2
0
 70
     0
 62
     7
  6
Continuous
370
    35
390
F
  0
LAYER
  5
6F
330
2
100
AcDbSymbolTableRecord
100
AcDbLayerTableRecord
  2
SIZE
 70
     0
 62
    32
  6
Continuous
370
    35
390
F
  0
LAYER
  5
70
330
2
100
AcDbSymbolTableRecord
100
AcDbLayerTableRecord
  2
DETAIL
 70
     0
 62
     5
  6
Continuous
370
    35
390
F
  0
LAYER
  5
71
330
2
100
AcDbSymbolTableRecord
100
AcDbLayerTableRecord
  2
OUTLINE
 70
     0
 62
     3
  6
Continuous
370
    35
390
F
  0
LAYER
  5
72
330
2
100
AcDbSymbolTableRecord
100
AcDbLayerTableRecord
  2
BASIS
 70
     0
 62
     6
  6
Continuous
370
    35
390
F
  0
LAYER
  5
73
330
2
100
AcDbSymbolTableRecord
100
AcDbLayerTableRecord
  2
NOTE
 70
     0
 62
     4
  6
Continuous
370
    35
390
F
  0
LAYER
  5
74
330
2
100
AcDbSymbolTableRecord
100
AcDbLayerTableRecord
  2
ARRANGE
 70
     0
 62
     1
  6
Continuous
370
    35
390
F
  0
LAYER
  5
75
330
2
100
AcDbSymbolTableRecord
100
AcDbLayerTableRecord
  2
FIX
 70
     0
 62
   241
  6
Continuous
370
    35
390
F
  0
LAYER
  5
76
330
2
100
AcDbSymbolTableRecord
100
AcDbLayerTableRecord
  2
ETC
 70
     0
 62
    83
  6
Continuous
370
    35
390
F
  0
LAYER
  5
77
330
2
100
AcDbSymbolTableRecord
100
AcDbLayerTableRecord
  2
SERVICESPACE
 70
     0
 62
     2
  6
DASHDOT
370
    35
390
F
  0
LAYER
  5
78
330
2
100
AcDbSymbolTableRecord
100
AcDbLayerTableRecord
  2
DEFPOINTS
 70
     0
 62
     7
  6
Continuous
290
     0
370
    35
390
F
  0
LAYER
  5
79
330
2
100
AcDbSymbolTableRecord
100
AcDbLayerTableRecord
  2
rcviewportframe
 70
     0
 62
    -7
  6
Continuous
370
    -3
390
F
  0
ENDTAB
  0
TABLE
  2
STYLE
  5
3
330
0
100
AcDbSymbolTable
 70
     4
  0
STYLE
  5
11
330
3
100
AcDbSymbolTableRecord
100
AcDbTextStyleTableRecord
  2
Standard
 70
     0
 40
0.0
 41
1.0
 50
0.0
 71
     0
 42
0.2
  3
txt.shx
  4
extfont
  0
STYLE
  5
7A
330
3
100
AcDbSymbolTableRecord
100
AcDbTextStyleTableRecord
  2
MS PGothic
 70
     0
 40
0.0
 41
1.0
 50
0.0
 71
     0
 42
0.2
  3
MS PGothic.ttf
  4

1001
ACAD
1000
ＭＳ Ｐゴシック
1071
    32818
  0
STYLE
  5
7B
330
3
100
AcDbSymbolTableRecord
100
AcDbTextStyleTableRecord
  2
VERTICAL
 70
     4
 40
0.0
 41
1.0
 50
0.0
 71
     0
 42
0.2
  3
txt.shx
  4
extfont
  0
STYLE
  5
7C
330
3
100
AcDbSymbolTableRecord
100
AcDbTextStyleTableRecord
  2
VERTICAL MS PGothic
 70
     0
 40
0.0
 41
1.0
 50
0.0
 71
     0
 42
0.2
  3
MS PGothic.ttf
  4

1001
ACAD
1000
@ＭＳ Ｐゴシック
1071
    32818
  0
ENDTAB
  0
TABLE
  2
VIEW
  5
6
330
0
100
AcDbSymbolTable
 70
     0
  0
ENDTAB
  0
TABLE
  2
UCS
  5
7
330
0
100
AcDbSymbolTable
 70
     0
  0
ENDTAB
  0
TABLE
  2
APPID
  5
9
330
0
100
AcDbSymbolTable
 70
     2
  0
APPID
  5
12
330
9
100
AcDbSymbolTableRecord
100
AcDbRegAppTableRecord
  2
ACAD
 70
     0
  0
APPID
  5
6A
330
9
100
AcDbSymbolTableRecord
100
AcDbRegAppTableRecord
  2
RootPro CAD
 70
     0
  0
ENDTAB
  0
TABLE
  2
DIMSTYLE
  5
A
330
0
100
AcDbSymbolTable
 70
     1
100
AcDbDimStyleTable
  0
DIMSTYLE
105
27
330
A
100
AcDbSymbolTableRecord
100
AcDbDimStyleTableRecord
  2
Standard
 70
     0
178
     0
340
11
  0
ENDTAB
  0
TABLE
  2
BLOCK_RECORD
  5
1
330
0
100
AcDbSymbolTable
 70
     1
  0
BLOCK_RECORD
  5
1F
330
1
100
AcDbSymbolTableRecord
100
AcDbBlockTableRecord
  2
*Model_Space
340
22
  0
BLOCK_RECORD
  5
1B
330
1
100
AcDbSymbolTableRecord
100
AcDbBlockTableRecord
  2
*Paper_Space
340
1E
  0
ENDTAB
  0
ENDSEC
  0
SECTION
  2
BLOCKS
  0
BLOCK
  5
20
330
1F
100
AcDbEntity
  8
0
100
AcDbBlockBegin
  2
*Model_Space
 70
     0
 10
0.0
 20
0.0
 30
0.0
  3
*Model_Space
  1
*Model_Space
  0
ENDBLK
  5
21
330
1F
100
AcDbEntity
  8
0
100
AcDbBlockEnd
  0
BLOCK
  5
1C
330
1B
100
AcDbEntity
 67
     1
  8
0
100
AcDbBlockBegin
  2
*Paper_Space
 70
     0
 10
0.0
 20
0.0
 30
0.0
  3
*Paper_Space
  1
*Paper_Space
  0
ENDBLK
  5
1D
330
1B
100
AcDbEntity
 67
     1
  8
0
100
AcDbBlockEnd
  0
ENDSEC
  0
SECTION
  2
ENTITIES
  0
LINE
  5
7D
330
1F
100
AcDbEntity
  8
SIZE
  6
Continuous
100
AcDbLine
 10
345.0000305175653
 20
-217.599994623436
 30
0.0
 11
1222.365115136575
 21
-217.5999946234362
 31
0.0
  0
LINE
  5
7E
330
1F
100
AcDbEntity
  8
SIZE
  6
Continuous
100
AcDbLine
 10
345.000030517569
 20
199.3999977471712
 30
0.0
 11
1222.365115136575
 21
199.399997747171
 31
0.0
  0
LINE
  5
7F
330
1F
100
AcDbEntity
  8
SIZE
  6
Continuous
100
AcDbLine
 10
1192.365115136575
 20
-207.5999946234362
 30
0.0
 11
1192.365115136575
 21
189.399997747171
 31
0.0
  0
LINE
  5
80
330
1F
100
AcDbEntity
  8
SIZE
100
AcDbLine
 10
545.0000305175653
 20
-165.0000037787085
 30
0.0
 11
860.0261697354309
 21
-165.0000037787086
 31
0.0
  0
LINE
  5
81
330
1F
100
AcDbEntity
  8
SIZE
100
AcDbLine
 10
545.0000305175653
 20
-665.0000037787084
 30
0.0
 11
860.0261697354309
 21
-665.0000037787086
 31
0.0
  0
LINE
  5
82
330
1F
100
AcDbEntity
  8
SIZE
100
AcDbLine
 10
830.026169735431
 20
-175.0000037787086
 30
0.0
 11
830.0261697354308
 21
-655.0000037787087
 31
0.0
  0
LINE
  5
83
330
1F
100
AcDbEntity
  8
SIZE
  6
Continuous
100
AcDbLine
 10
525.0000305175653
 20
-185.0000037787085
 30
0.0
 11
525.0000305175653
 21
-410.967354094032
 31
0.0
  0
LINE
  5
84
330
1F
100
AcDbEntity
  8
SIZE
  6
Continuous
100
AcDbLine
 10
483.0000305175653
 20
-147.6999907782365
 30
0.0
 11
483.0000305175653
 21
-410.967354094032
 31
0.0
  0
LINE
  5
85
330
1F
100
AcDbEntity
  8
SIZE
  6
Continuous
100
AcDbLine
 10
473.0000305175654
 20
-380.9673540940321
 30
0.0
 11
463.0000305175654
 21
-380.9673540940321
 31
0.0
  0
LINE
  5
86
330
1F
100
AcDbEntity
  8
SIZE
  6
Continuous
100
AcDbLine
 10
535.0000305175654
 20
-380.9673540940321
 30
0.0
 11
678.2571733747081
 21
-380.9673540940321
 31
0.0
  0
LINE
  5
87
330
1F
100
AcDbEntity
  8
SIZE
  6
Continuous
100
AcDbLine
 10
483.0000305175653
 20
-380.9673540940321
 30
0.0
 11
525.0000305175653
 21
-380.9673540940321
 31
0.0
  0
LINE
  5
88
330
1F
100
AcDbEntity
  8
SIZE
  6
Continuous
100
AcDbLine
 10
525.0000305175653
 20
-185.0000037787085
 30
0.0
 11
525.0000305175653
 21
-565.4279792214174
 31
0.0
  0
LINE
  5
89
330
1F
100
AcDbEntity
  8
SIZE
  6
Continuous
100
AcDbLine
 10
325.0000305175654
 20
-205.0000037787085
 30
0.0
 11
325.0000305175654
 21
-565.4279792214174
 31
0.0
  0
LINE
  5
8A
330
1F
100
AcDbEntity
  8
SIZE
  6
Continuous
100
AcDbLine
 10
535.0000305175654
 20
-535.4279792214174
 30
0.0
 11
545.0000305175653
 21
-535.4279792214174
 31
0.0
  0
LINE
  5
8B
330
1F
100
AcDbEntity
  8
SIZE
  6
Continuous
100
AcDbLine
 10
315.0000305175653
 20
-535.4279792214174
 30
0.0
 11
305.0000305175653
 21
-535.4279792214174
 31
0.0
  0
LINE
  5
8C
330
1F
100
AcDbEntity
  8
SIZE
  6
Continuous
100
AcDbLine
 10
525.0000305175653
 20
-535.4279792214174
 30
0.0
 11
325.0000305175654
 21
-535.4279792214174
 31
0.0
  0
LINE
  5
8D
330
1F
100
AcDbEntity
  8
SIZE
  6
Continuous
100
AcDbLine
 10
340.0000305175653
 20
-189.5999946234396
 30
0.0
 11
1007.559004732227
 21
-189.5999946234398
 31
0.0
  0
LINE
  5
8E
330
1F
100
AcDbEntity
  8
SIZE
  6
Continuous
100
AcDbLine
 10
345.0000305175653
 20
-217.599994623436
 30
0.0
 11
1007.559004732227
 21
-217.5999946234361
 31
0.0
  0
LINE
  5
8F
330
1F
100
AcDbEntity
  8
SIZE
  6
Continuous
100
AcDbLine
 10
977.5590047322275
 20
-179.5999946234398
 30
0.0
 11
977.5590047322275
 21
-169.5999946234398
 31
0.0
  0
LINE
  5
90
330
1F
100
AcDbEntity
  8
SIZE
  6
Continuous
100
AcDbLine
 10
977.5590047322275
 20
-227.5999946234362
 30
0.0
 11
977.5590047322275
 21
-370.857137480579
 31
0.0
  0
LINE
  5
91
330
1F
100
AcDbEntity
  8
SIZE
  6
Continuous
100
AcDbLine
 10
977.5590047322275
 20
-189.5999946234398
 30
0.0
 11
977.5590047322275
 21
-217.5999946234361
 31
0.0
  0
LINE
  5
92
330
1F
100
AcDbEntity
  8
SIZE
  6
Continuous
100
AcDbLine
 10
483.0000305175653
 20
-147.6999907782365
 30
0.0
 11
483.0000305175653
 21
-410.967354094032
 31
0.0
  0
LINE
  5
93
330
1F
100
AcDbEntity
  8
SIZE
  6
Continuous
100
AcDbLine
 10
423.0000305175654
 20
-157.6000117809544
 30
0.0
 11
423.0000305175654
 21
-410.967354094032
 31
0.0
  0
LINE
  5
94
330
1F
100
AcDbEntity
  8
SIZE
  6
Continuous
100
AcDbLine
 10
473.0000305175654
 20
-380.9673540940321
 30
0.0
 11
433.0000305175653
 21
-380.9673540940321
 31
0.0
  0
LINE
  5
95
330
1F
100
AcDbEntity
  8
SIZE
  6
Continuous
100
AcDbLine
 10
423.0000305175654
 20
-380.9673540940321
 30
0.0
 11
279.7428876604225
 21
-380.9673540940321
 31
0.0
  0
LINE
  5
96
330
1F
100
AcDbEntity
  8
SIZE
  6
Continuous
100
AcDbLine
 10
-545.0
 20
-165.0000037787085
 30
0.0
 11
-794.8478152415119
 21
-165.0000037787084
 31
0.0
  0
LINE
  5
97
330
1F
100
AcDbEntity
  8
SIZE
  6
Continuous
100
AcDbLine
 10
-489.1577148437554
 20
-190.0000037787085
 30
0.0
 11
-794.8478152415119
 21
-190.0000037787084
 31
0.0
  0
LINE
  5
98
330
1F
100
AcDbEntity
  8
SIZE
  6
Continuous
100
AcDbLine
 10
-764.8478152415119
 20
-155.0000037787084
 30
0.0
 11
-764.8478152415119
 21
-145.0000037787084
 31
0.0
  0
LINE
  5
99
330
1F
100
AcDbEntity
  8
SIZE
  6
Continuous
100
AcDbLine
 10
-764.8478152415119
 20
-200.0000037787084
 30
0.0
 11
-764.8478152415119
 21
-343.2571466358512
 31
0.0
  0
LINE
  5
9A
330
1F
100
AcDbEntity
  8
SIZE
  6
Continuous
100
AcDbLine
 10
-764.8478152415119
 20
-165.0000037787084
 30
0.0
 11
-764.8478152415119
 21
-190.0000037787084
 31
0.0
  0
LINE
  5
9B
330
1F
100
AcDbEntity
  8
SIZE
  6
Continuous
100
AcDbLine
 10
-525.0
 20
-185.0000037787085
 30
0.0
 11
-525.0
 21
-428.1296424310449
 31
0.0
  0
LINE
  5
9C
330
1F
100
AcDbEntity
  8
SIZE
  6
Continuous
100
AcDbLine
 10
-162.9999785875061
 20
-276.021959807671
 30
0.0
 11
-162.9999785875061
 21
-428.1296424310449
 31
0.0
  0
LINE
  5
9D
330
1F
100
AcDbEntity
  8
SIZE
  6
Continuous
100
AcDbLine
 10
-515.0
 20
-398.1296424310448
 30
0.0
 11
-172.9999785875061
 21
-398.1296424310448
 31
0.0
  0
LINE
  5
9E
330
1F
100
AcDbEntity
  8
SIZE
  6
Continuous
100
AcDbLine
 10
340.0000305175653
 20
-189.5999946234396
 30
0.0
 11
1007.559004732227
 21
-189.5999946234398
 31
0.0
  0
LINE
  5
9F
330
1F
100
AcDbEntity
  8
SIZE
  6
Continuous
100
AcDbLine
 10
344.518578839803
 20
180.3999977471685
 30
0.0
 11
1007.559004732227
 21
180.3999977471683
 31
0.0
  0
LINE
  5
A0
330
1F
100
AcDbEntity
  8
SIZE
  6
Continuous
100
AcDbLine
 10
977.5590047322275
 20
-179.5999946234398
 30
0.0
 11
977.5590047322275
 21
170.3999977471683
 31
0.0
  0
LINE
  5
A1
330
1F
100
AcDbEntity
  8
SIZE
100
AcDbLine
 10
25.00003051756539
 20
-685.0000037787084
 30
0.0
 11
25.00003051756538
 21
-870.8050716686038
 31
0.0
  0
LINE
  5
A2
330
1F
100
AcDbEntity
  8
SIZE
100
AcDbLine
 10
525.0000305175653
 20
-685.0000037787084
 30
0.0
 11
525.0000305175653
 21
-870.8050716686038
 31
0.0
  0
LINE
  5
A3
330
1F
100
AcDbEntity
  8
SIZE
100
AcDbLine
 10
35.00003051756538
 20
-840.8050716686039
 30
0.0
 11
515.0000305175653
 21
-840.8050716686039
 31
0.0
  0
LINE
  5
A4
330
1F
100
AcDbEntity
  8
SIZE
  6
Continuous
100
AcDbLine
 10
-525.0000000000018
 20
185.0000038506832
 30
0.0
 11
-525.0000000000018
 21
741.5542688347313
 31
0.0
  0
LINE
  5
A5
330
1F
100
AcDbEntity
  8
SIZE
  6
Continuous
100
AcDbLine
 10
525.0000305175653
 20
185.0000038506832
 30
0.0
 11
525.0000305175653
 21
741.5542688347313
 31
0.0
  0
LINE
  5
A6
330
1F
100
AcDbEntity
  8
SIZE
  6
Continuous
100
AcDbLine
 10
-515.0000000000018
 20
711.5542688347313
 30
0.0
 11
515.0000305175653
 21
711.5542688347313
 31
0.0
  0
LINE
  5
A7
330
1F
100
AcDbEntity
  8
SIZE
  6
Continuous
100
AcDbLine
 10
-525.0000000000018
 20
185.0000038507023
 30
0.0
 11
-525.0000000000018
 21
567.628693484633
 31
0.0
  0
LINE
  5
A8
330
1F
100
AcDbEntity
  8
SIZE
  6
Continuous
100
AcDbLine
 10
-299.9999847412091
 20
221.0404141190047
 30
0.0
 11
-299.9999847412091
 21
567.628693484633
 31
0.0
  0
LINE
  5
A9
330
1F
100
AcDbEntity
  8
SIZE
  6
Continuous
100
AcDbLine
 10
-515.0000000000018
 20
537.628693484633
 30
0.0
 11
-309.9999847412091
 21
537.628693484633
 31
0.0
  0
LINE
  5
AA
330
1F
100
AcDbEntity
  8
SIZE
100
AcDbLine
 10
-369.9999755859444
 20
163.1499959186258
 30
0.0
 11
-369.9999755859444
 21
431.7064337143137
 31
0.0
  0
LINE
  5
AB
330
1F
100
AcDbEntity
  8
SIZE
100
AcDbLine
 10
-209.9999755859444
 20
163.1499959186258
 30
0.0
 11
-209.9999755859443
 21
431.7064337143137
 31
0.0
  0
LINE
  5
AC
330
1F
100
AcDbEntity
  8
SIZE
100
AcDbLine
 10
-359.9999755859444
 20
401.7064337143137
 30
0.0
 11
-219.9999755859443
 21
401.7064337143137
 31
0.0
  0
LINE
  5
AD
330
1F
100
AcDbEntity
  8
SIZE
100
AcDbLine
 10
-525.0000000000018
 20
185.0000038507023
 30
0.0
 11
-525.0000000000018
 21
567.628693484633
 31
0.0
  0
LINE
  5
AE
330
1F
100
AcDbEntity
  8
SIZE
100
AcDbLine
 10
-535.0000000000018
 20
185.0000038507023
 30
0.0
 11
-535.0000000000018
 21
567.628693484633
 31
0.0
  0
LINE
  5
AF
330
1F
100
AcDbEntity
  8
SIZE
100
AcDbLine
 10
-515.0000000000018
 20
537.628693484633
 30
0.0
 11
-505.0000000000018
 21
537.628693484633
 31
0.0
  0
LINE
  5
B0
330
1F
100
AcDbEntity
  8
SIZE
100
AcDbLine
 10
-545.0000000000017
 20
537.628693484633
 30
0.0
 11
-831.9828571428588
 21
537.628693484633
 31
0.0
  0
LINE
  5
B1
330
1F
100
AcDbEntity
  8
SIZE
100
AcDbLine
 10
-525.0000000000018
 20
537.628693484633
 30
0.0
 11
-535.0000000000018
 21
537.628693484633
 31
0.0
  0
LINE
  5
B2
330
1F
100
AcDbEntity
  8
SIZE
100
AcDbLine
 10
-369.9999755859444
 20
163.1499959186258
 30
0.0
 11
-369.9999755859444
 21
431.7064337143137
 31
0.0
  0
LINE
  5
B3
330
1F
100
AcDbEntity
  8
SIZE
100
AcDbLine
 10
-479.9999755859444
 20
27.34999591858559
 30
0.0
 11
-479.9999755859444
 21
431.7064337143137
 31
0.0
  0
LINE
  5
B4
330
1F
100
AcDbEntity
  8
SIZE
100
AcDbLine
 10
-379.9999755859444
 20
401.7064337143137
 30
0.0
 11
-469.9999755859444
 21
401.7064337143137
 31
0.0
  0
LINE
  5
B5
330
1F
100
AcDbEntity
  8
SIZE
100
AcDbLine
 10
-479.9999755859444
 20
27.34999591858559
 30
0.0
 11
-479.9999755859444
 21
431.7064337143137
 31
0.0
  0
LINE
  5
B6
330
1F
100
AcDbEntity
  8
SIZE
100
AcDbLine
 10
-525.0000000000018
 20
185.0000038506832
 30
0.0
 11
-525.0000000000018
 21
431.7064337143137
 31
0.0
  0
LINE
  5
B7
330
1F
100
AcDbEntity
  8
SIZE
100
AcDbLine
 10
-469.9999755859444
 20
401.7064337143137
 30
0.0
 11
-459.9999755859443
 21
401.7064337143137
 31
0.0
  0
LINE
  5
B8
330
1F
100
AcDbEntity
  8
SIZE
100
AcDbLine
 10
-535.0000000000018
 20
401.7064337143137
 30
0.0
 11
-678.2571428571446
 21
401.7064337143137
 31
0.0
  0
LINE
  5
B9
330
1F
100
AcDbEntity
  8
SIZE
100
AcDbLine
 10
-479.9999755859444
 20
401.7064337143137
 30
0.0
 11
-525.0000000000018
 21
401.7064337143137
 31
0.0
  0
LINE
  5
BA
330
1F
100
AcDbEntity
  8
SIZE
100
AcDbLine
 10
-408.1499755859494
 20
124.9999959186252
 30
0.0
 11
-656.1743829412062
 21
124.9999959186253
 31
0.0
  0
LINE
  5
BB
330
1F
100
AcDbEntity
  8
SIZE
100
AcDbLine
 10
-518.1499755859495
 20
-11.00000408141476
 30
0.0
 11
-656.1743829412062
 21
-11.00000408141472
 31
0.0
  0
LINE
  5
BC
330
1F
100
AcDbEntity
  8
SIZE
100
AcDbLine
 10
-626.1743829412061
 20
114.9999959186253
 30
0.0
 11
-626.1743829412061
 21
-1.000004081414736
 31
0.0
  0
LINE
  5
BD
330
1F
100
AcDbEntity
  8
SIZE
100
AcDbLine
 10
-545.0
 20
-165.0000037787085
 30
0.0
 11
-656.174382941208
 21
-165.0000037787085
 31
0.0
  0
LINE
  5
BE
330
1F
100
AcDbEntity
  8
SIZE
100
AcDbLine
 10
-518.1499755859495
 20
-11.00000408141476
 30
0.0
 11
-656.174382941208
 21
-11.00000408141472
 31
0.0
  0
LINE
  5
BF
330
1F
100
AcDbEntity
  8
SIZE
100
AcDbLine
 10
-626.174382941208
 20
-155.0000037787085
 30
0.0
 11
-626.174382941208
 21
-21.00000408141473
 31
0.0
  0
LINE
  5
C0
330
1F
100
AcDbEntity
  8
SIZE
  6
Continuous
100
AcDbLine
 10
-545.0
 20
-165.0000037787085
 30
0.0
 11
-794.84781524151
 21
-165.0000037787084
 31
0.0
  0
LINE
  5
C1
330
1F
100
AcDbEntity
  8
SIZE
  6
Continuous
100
AcDbLine
 10
-545.0
 20
164.9999962212914
 30
0.0
 11
-794.84781524151
 21
164.9999962212915
 31
0.0
  0
LINE
  5
C2
330
1F
100
AcDbEntity
  8
SIZE
  6
Continuous
100
AcDbLine
 10
-764.84781524151
 20
-155.0000037787084
 30
0.0
 11
-764.84781524151
 21
154.9999962212915
 31
0.0
  0
LINE
  5
C3
330
1F
100
AcDbEntity
  8
SIZE
  6
Continuous
100
AcDbLine
 10
344.518578839803
 20
180.3999977471685
 30
0.0
 11
1007.559004732227
 21
180.3999977471683
 31
0.0
  0
LINE
  5
C4
330
1F
100
AcDbEntity
  8
SIZE
  6
Continuous
100
AcDbLine
 10
345.000030517569
 20
199.3999977471712
 30
0.0
 11
1007.559004732227
 21
199.3999977471711
 31
0.0
  0
LINE
  5
C5
330
1F
100
AcDbEntity
  8
SIZE
  6
Continuous
100
AcDbLine
 10
977.5590047322275
 20
170.3999977471683
 30
0.0
 11
977.5590047322275
 21
160.3999977471683
 31
0.0
  0
LINE
  5
C6
330
1F
100
AcDbEntity
  8
SIZE
  6
Continuous
100
AcDbLine
 10
977.5590047322275
 20
209.399997747171
 30
0.0
 11
977.5590047322275
 21
338.9428548900297
 31
0.0
  0
LINE
  5
C7
330
1F
100
AcDbEntity
  8
SIZE
  6
Continuous
100
AcDbLine
 10
977.5590047322275
 20
180.3999977471683
 30
0.0
 11
977.5590047322275
 21
199.3999977471711
 31
0.0
  0
LINE
  5
C8
330
1F
100
AcDbEntity
  8
SIZE
  6
Continuous
100
AcDbLine
 10
300.0000305175654
 20
222.8427815268223
 30
0.0
 11
300.0000305175654
 21
567.628693484633
 31
0.0
  0
LINE
  5
C9
330
1F
100
AcDbEntity
  8
SIZE
  6
Continuous
100
AcDbLine
 10
525.0000305175653
 20
185.0000038506832
 30
0.0
 11
525.0000305175653
 21
567.628693484633
 31
0.0
  0
LINE
  5
CA
330
1F
100
AcDbEntity
  8
SIZE
  6
Continuous
100
AcDbLine
 10
310.0000305175654
 20
537.628693484633
 30
0.0
 11
515.0000305175653
 21
537.628693484633
 31
0.0
  0
LINE
  5
CB
330
1F
100
AcDbEntity
  8
SIZE
  6
Continuous
100
AcDbLine
 10
-299.9999847412091
 20
221.0404141190047
 30
0.0
 11
-299.9999847412091
 21
567.628693484633
 31
0.0
  0
LINE
  5
CC
330
1F
100
AcDbEntity
  8
SIZE
  6
Continuous
100
AcDbLine
 10
300.0000305175654
 20
222.8427815268223
 30
0.0
 11
300.0000305175654
 21
567.628693484633
 31
0.0
  0
LINE
  5
CD
330
1F
100
AcDbEntity
  8
SIZE
  6
Continuous
100
AcDbLine
 10
-289.9999847412091
 20
537.628693484633
 30
0.0
 11
290.0000305175653
 21
537.628693484633
 31
0.0
  0
LINE
  5
CE
330
1F
100
AcDbEntity
  8
SIZE
100
AcDbLine
 10
-209.9999755859444
 20
163.1499959186258
 30
0.0
 11
-209.9999755859443
 21
431.7064337143137
 31
0.0
  0
LINE
  5
CF
330
1F
100
AcDbEntity
  8
SIZE
100
AcDbLine
 10
-49.99997558594441
 20
161.4999959186252
 30
0.0
 11
-49.99997558594439
 21
431.7064337143137
 31
0.0
  0
LINE
  5
D0
330
1F
100
AcDbEntity
  8
SIZE
100
AcDbLine
 10
-199.9999755859443
 20
401.7064337143137
 30
0.0
 11
-59.9999755859444
 21
401.7064337143137
 31
0.0
  0
LINE
  5
D1
330
1F
100
AcDbEntity
  8
SIZE
100
AcDbLine
 10
-49.99997558594441
 20
161.4999959186252
 30
0.0
 11
-49.99997558594439
 21
431.7064337143137
 31
0.0
  0
LINE
  5
D2
330
1F
100
AcDbEntity
  8
SIZE
100
AcDbLine
 10
110.0000244140555
 20
161.4999959186252
 30
0.0
 11
110.0000244140556
 21
431.7064337143137
 31
0.0
  0
LINE
  5
D3
330
1F
100
AcDbEntity
  8
SIZE
100
AcDbLine
 10
-39.9999755859444
 20
401.7064337143137
 30
0.0
 11
100.0000244140555
 21
401.7064337143137
 31
0.0
  0
LINE
  5
D4
330
1F
100
AcDbEntity
  8
SIZE
100
AcDbLine
 10
335.0000305175654
 20
-147.0000190374994
 30
0.0
 11
335.0000305175654
 21
-67.56694206078555
 31
0.0
  0
LINE
  5
D5
330
1F
100
AcDbEntity
  8
SIZE
100
AcDbLine
 10
265.0000305175653
 20
-147.0000037787112
 30
0.0
 11
265.0000305175653
 21
-67.56694206078555
 31
0.0
  0
LINE
  5
D6
330
1F
100
AcDbEntity
  8
SIZE
100
AcDbLine
 10
325.0000305175654
 20
-97.56694206078556
 30
0.0
 11
275.0000305175654
 21
-97.56694206078556
 31
0.0
  0
LINE
  5
D7
330
1F
100
AcDbEntity
  8
SIZE
100
AcDbLine
 10
265.0000305175653
 20
-97.56694206078556
 30
0.0
 11
121.7428876604225
 21
-97.56694206078556
 31
0.0
  0
LINE
  5
D8
330
1F
100
AcDbEntity
  8
SIZE
100
AcDbLine
 10
545.0000305175653
 20
165.0000038506832
 30
0.0
 11
706.9526896746955
 21
165.0000038506831
 31
0.0
  0
LINE
  5
D9
330
1F
100
AcDbEntity
  8
SIZE
100
AcDbLine
 10
545.0000305175653
 20
315.0000038506832
 30
0.0
 11
706.9526896746956
 21
315.0000038506831
 31
0.0
  0
LINE
  5
DA
330
1F
100
AcDbEntity
  8
SIZE
100
AcDbLine
 10
676.9526896746955
 20
175.0000038506832
 30
0.0
 11
676.9526896746956
 21
305.0000038506831
 31
0.0
  0
LINE
  5
DB
330
1F
100
AcDbEntity
  8
SIZE
100
AcDbLine
 10
676.9526896746956
 20
315.0000038506831
 30
0.0
 11
676.9526896746956
 21
656.8400038506832
 31
0.0
  0
LINE
  5
DC
330
1F
100
AcDbEntity
  8
SIZE
  6
Continuous
100
AcDbLine
 10
545.0000305175653
 20
-164.9999961493167
 30
0.0
 11
860.0261697354309
 21
-164.9999961493168
 31
0.0
  0
LINE
  5
DD
330
1F
100
AcDbEntity
  8
SIZE
  6
Continuous
100
AcDbLine
 10
521.7000172143944
 20
-109.000004081412
 30
0.0
 11
860.0261697354309
 21
-109.0000040814121
 31
0.0
  0
LINE
  5
DE
330
1F
100
AcDbEntity
  8
SIZE
  6
Continuous
100
AcDbLine
 10
830.0261697354308
 20
-174.9999961493168
 30
0.0
 11
830.0261697354308
 21
-184.9999961493168
 31
0.0
  0
LINE
  5
DF
330
1F
100
AcDbEntity
  8
SIZE
  6
Continuous
100
AcDbLine
 10
830.0261697354308
 20
-99.00000408141213
 30
0.0
 11
830.0261697354308
 21
41.51428163287524
 31
0.0
  0
LINE
  5
E0
330
1F
100
AcDbEntity
  8
SIZE
  6
Continuous
100
AcDbLine
 10
830.0261697354308
 20
-164.9999961493168
 30
0.0
 11
830.0261697354308
 21
-109.0000040814121
 31
0.0
  0
LINE
  5
E1
330
1F
100
AcDbEntity
  8
SIZE
  6
Continuous
100
AcDbLine
 10
545.0000305175653
 20
-165.0000037787085
 30
0.0
 11
684.9022547538879
 21
-165.0000037787085
 31
0.0
  0
LINE
  5
E2
330
1F
100
AcDbEntity
  8
SIZE
  6
Continuous
100
AcDbLine
 10
455.1000385198003
 20
-125.0000037787103
 30
0.0
 11
684.9022547538879
 21
-125.0000037787104
 31
0.0
  0
LINE
  5
E3
330
1F
100
AcDbEntity
  8
SIZE
  6
Continuous
100
AcDbLine
 10
654.9022547538879
 20
-175.0000037787085
 30
0.0
 11
654.9022547538879
 21
-185.0000037787085
 31
0.0
  0
LINE
  5
E4
330
1F
100
AcDbEntity
  8
SIZE
  6
Continuous
100
AcDbLine
 10
654.9022547538879
 20
-115.0000037787104
 30
0.0
 11
654.9022547538879
 21
28.25713907843413
 31
0.0
  0
LINE
  5
E5
330
1F
100
AcDbEntity
  8
SIZE
  6
Continuous
100
AcDbLine
 10
654.9022547538879
 20
-165.0000037787085
 30
0.0
 11
654.9022547538879
 21
-125.0000037787104
 31
0.0
  0
TEXT
  5
E6
330
1F
100
AcDbEntity
  8
SIZE
100
AcDbText
 10
1168.279115136575
 20
-68.53589420456797
 30
0.0
 40
64.0
  1
417
 50
90.0
 41
0.9
  7
MS PGothic
 11
1181.365115136575
 21
-68.53589420456797
 31
0.0
100
AcDbText
 73
     1
  0
CIRCLE
  5
E7
330
1F
100
AcDbEntity
  8
SIZE
  6
Continuous
100
AcDbCircle
 10
977.5590047322275
 20
-189.5999946234398
 30
0.0
 40
5.0
  0
LINE
  5
E8
330
1F
100
AcDbEntity
  8
SIZE
  6
Continuous
100
AcDbLine
 10
977.5590047322275
 20
-189.5999946234398
 30
0.0
 11
977.5590047322275
 21
-179.5999946234398
 31
0.0
  0
CIRCLE
  5
E9
330
1F
100
AcDbEntity
  8
SIZE
  6
Continuous
100
AcDbCircle
 10
-764.8478152415119
 20
-190.0000037787084
 30
0.0
 40
5.0
  0
LINE
  5
EA
330
1F
100
AcDbEntity
  8
SIZE
  6
Continuous
100
AcDbLine
 10
-764.8478152415119
 20
-190.0000037787084
 30
0.0
 11
-764.8478152415119
 21
-200.0000037787084
 31
0.0
  0
CIRCLE
  5
EB
330
1F
100
AcDbEntity
  8
SIZE
  6
Continuous
100
AcDbCircle
 10
977.5590047322275
 20
-189.5999946234398
 30
0.0
 40
5.0
  0
LINE
  5
EC
330
1F
100
AcDbEntity
  8
SIZE
  6
Continuous
100
AcDbLine
 10
977.5590047322275
 20
-189.5999946234398
 30
0.0
 11
977.5590047322275
 21
-179.5999946234398
 31
0.0
  0
TEXT
  5
ED
330
1F
100
AcDbEntity
  8
SIZE
100
AcDbText
 10
-430.5559073360917
 20
-374.0436424310448
 30
0.0
 40
64.0
  1
362
 41
0.9
  7
MS PGothic
 11
-430.5559073360917
 21
-387.1296424310448
 31
0.0
100
AcDbText
 73
     1
  0
TEXT
  5
EE
330
1F
100
AcDbEntity
  8
SIZE
100
AcDbText
 10
-788.9338152415119
 20
-323.2571466358514
 30
0.0
 40
64.0
  1
25
 50
90.0
 41
0.9
  7
MS PGothic
 11
-775.8478152415119
 21
-323.2571466358514
 31
0.0
100
AcDbText
 73
     1
  0
CIRCLE
  5
EF
330
1F
100
AcDbEntity
  8
SIZE
  6
Continuous
100
AcDbCircle
 10
-525.0
 20
-398.1296424310448
 30
0.0
 40
5.0
  0
LINE
  5
F0
330
1F
100
AcDbEntity
  8
SIZE
  6
Continuous
100
AcDbLine
 10
-525.0
 20
-398.1296424310448
 30
0.0
 11
-515.0
 21
-398.1296424310448
 31
0.0
  0
TEXT
  5
F1
330
1F
100
AcDbEntity
  8
SIZE
100
AcDbText
 10
123.594316231851
 20
-816.7190716686038
 30
0.0
 40
64.0
  1
500以上
 41
0.9
  7
MS PGothic
 11
123.594316231851
 21
-829.8050716686038
 31
0.0
100
AcDbText
 73
     1
  0
TEXT
  5
F2
330
1F
100
AcDbEntity
  8
SIZE
100
AcDbText
 10
349.2428031448299
 20
-511.3419792214174
 30
0.0
 40
64.0
  1
200
 41
0.9
  7
MS PGothic
 11
349.2428031448299
 21
-524.4279792214174
 31
0.0
100
AcDbText
 73
     1
  0
CIRCLE
  5
F3
330
1F
100
AcDbEntity
  8
SIZE
  6
Continuous
100
AcDbCircle
 10
25.00003051756538
 20
-840.8050716686039
 30
0.0
 40
5.0
  0
LINE
  5
F4
330
1F
100
AcDbEntity
  8
SIZE
  6
Continuous
100
AcDbLine
 10
25.00003051756538
 20
-840.8050716686039
 30
0.0
 11
35.00003051756538
 21
-840.8050716686039
 31
0.0
  0
CIRCLE
  5
F5
330
1F
100
AcDbEntity
  8
SIZE
  6
Continuous
100
AcDbCircle
 10
-162.9999785875061
 20
-398.1296424310448
 30
0.0
 40
5.0
  0
LINE
  5
F6
330
1F
100
AcDbEntity
  8
SIZE
  6
Continuous
100
AcDbLine
 10
-162.9999785875061
 20
-398.1296424310448
 30
0.0
 11
-172.9999785875061
 21
-398.1296424310448
 31
0.0
  0
CIRCLE
  5
F7
330
1F
100
AcDbEntity
  8
SIZE
  6
Continuous
100
AcDbCircle
 10
325.0000305175654
 20
-535.4279792214174
 30
0.0
 40
5.0
  0
LINE
  5
F8
330
1F
100
AcDbEntity
  8
SIZE
  6
Continuous
100
AcDbLine
 10
325.0000305175654
 20
-535.4279792214174
 30
0.0
 11
315.0000305175653
 21
-535.4279792214174
 31
0.0
  0
TEXT
  5
F9
330
1F
100
AcDbEntity
  8
SIZE
100
AcDbText
 10
299.7428876604225
 20
-356.881354094032
 30
0.0
 40
64.0
  1
60
 41
0.9
  7
MS PGothic
 11
299.7428876604225
 21
-369.967354094032
 31
0.0
100
AcDbText
 73
     1
  0
CIRCLE
  5
FA
330
1F
100
AcDbEntity
  8
SIZE
  6
Continuous
100
AcDbCircle
 10
525.0000305175653
 20
-840.8050716686039
 30
0.0
 40
5.0
  0
LINE
  5
FB
330
1F
100
AcDbEntity
  8
SIZE
  6
Continuous
100
AcDbLine
 10
525.0000305175653
 20
-840.8050716686039
 30
0.0
 11
515.0000305175653
 21
-840.8050716686039
 31
0.0
  0
TEXT
  5
FC
330
1F
100
AcDbEntity
  8
SIZE
100
AcDbText
 10
805.9401697354309
 20
-566.4057180644228
 30
0.0
 40
64.0
  1
500以上
 50
90.0
 41
0.9
  7
MS PGothic
 11
819.0261697354309
 21
-566.4057180644228
 31
0.0
100
AcDbText
 73
     1
  0
CIRCLE
  5
FD
330
1F
100
AcDbEntity
  8
SIZE
  6
Continuous
100
AcDbCircle
 10
525.0000305175653
 20
-535.4279792214174
 30
0.0
 40
5.0
  0
LINE
  5
FE
330
1F
100
AcDbEntity
  8
SIZE
  6
Continuous
100
AcDbLine
 10
525.0000305175653
 20
-535.4279792214174
 30
0.0
 11
535.0000305175654
 21
-535.4279792214174
 31
0.0
  0
TEXT
  5
FF
330
1F
100
AcDbEntity
  8
SIZE
100
AcDbText
 10
565.0000305175653
 20
-356.881354094032
 30
0.0
 40
64.0
  1
42
 41
0.9
  7
MS PGothic
 11
565.0000305175653
 21
-369.967354094032
 31
0.0
100
AcDbText
 73
     1
  0
CIRCLE
  5
100
330
1F
100
AcDbEntity
  8
SIZE
  6
Continuous
100
AcDbCircle
 10
483.0000305175653
 20
-380.9673540940321
 30
0.0
 40
5.0
  0
LINE
  5
101
330
1F
100
AcDbEntity
  8
SIZE
  6
Continuous
100
AcDbLine
 10
483.0000305175653
 20
-380.9673540940321
 30
0.0
 11
473.0000305175654
 21
-380.9673540940321
 31
0.0
  0
CIRCLE
  5
102
330
1F
100
AcDbEntity
  8
SIZE
  6
Continuous
100
AcDbCircle
 10
483.0000305175653
 20
-380.9673540940321
 30
0.0
 40
5.0
  0
LINE
  5
103
330
1F
100
AcDbEntity
  8
SIZE
  6
Continuous
100
AcDbLine
 10
483.0000305175653
 20
-380.9673540940321
 30
0.0
 11
473.0000305175654
 21
-380.9673540940321
 31
0.0
  0
CIRCLE
  5
104
330
1F
100
AcDbEntity
  8
SIZE
  6
Continuous
100
AcDbCircle
 10
423.0000305175654
 20
-380.9673540940321
 30
0.0
 40
5.0
  0
LINE
  5
105
330
1F
100
AcDbEntity
  8
SIZE
  6
Continuous
100
AcDbLine
 10
423.0000305175654
 20
-380.9673540940321
 30
0.0
 11
433.0000305175653
 21
-380.9673540940321
 31
0.0
  0
CIRCLE
  5
106
330
1F
100
AcDbEntity
  8
SIZE
  6
Continuous
100
AcDbCircle
 10
525.0000305175653
 20
-380.9673540940321
 30
0.0
 40
5.0
  0
LINE
  5
107
330
1F
100
AcDbEntity
  8
SIZE
  6
Continuous
100
AcDbLine
 10
525.0000305175653
 20
-380.9673540940321
 30
0.0
 11
535.0000305175654
 21
-380.9673540940321
 31
0.0
  0
CIRCLE
  5
108
330
1F
100
AcDbEntity
  8
SIZE
  6
Continuous
100
AcDbCircle
 10
830.0261697354308
 20
-665.0000037787086
 30
0.0
 40
5.0
  0
LINE
  5
109
330
1F
100
AcDbEntity
  8
SIZE
  6
Continuous
100
AcDbLine
 10
830.0261697354308
 20
-665.0000037787086
 30
0.0
 11
830.0261697354308
 21
-655.0000037787087
 31
0.0
  0
TEXT
  5
10A
330
1F
100
AcDbEntity
  8
SIZE
100
AcDbText
 10
953.4730047322275
 20
-350.8571374805788
 30
0.0
 40
64.0
  1
28
 50
90.0
 41
0.9
  7
MS PGothic
 11
966.5590047322275
 21
-350.8571374805788
 31
0.0
100
AcDbText
 73
     1
  0
CIRCLE
  5
10B
330
1F
100
AcDbEntity
  8
SIZE
  6
Continuous
100
AcDbCircle
 10
977.5590047322275
 20
-217.5999946234361
 30
0.0
 40
5.0
  0
LINE
  5
10C
330
1F
100
AcDbEntity
  8
SIZE
  6
Continuous
100
AcDbLine
 10
977.5590047322275
 20
-217.5999946234361
 30
0.0
 11
977.5590047322275
 21
-227.5999946234362
 31
0.0
  0
TEXT
  5
10D
330
1F
100
AcDbEntity
  8
SIZE
100
AcDbText
 10
-358.5714041573729
 20
425.7924337143137
 30
0.0
 40
64.0
  1
160
 41
0.9
  7
MS PGothic
 11
-358.5714041573729
 21
412.7064337143137
 31
0.0
100
AcDbText
 73
     1
  0
TEXT
  5
10E
330
1F
100
AcDbEntity
  8
SIZE
100
AcDbText
 10
-650.260382941208
 20
-157.9428610729189
 30
0.0
 40
64.0
  1
154
 50
90.0
 41
0.9
  7
MS PGothic
 11
-637.174382941208
 21
-157.9428610729189
 31
0.0
100
AcDbText
 73
     1
  0
TEXT
  5
10F
330
1F
100
AcDbEntity
  8
SIZE
100
AcDbText
 10
-650.2603829412061
 20
-10.20000408139481
 30
0.0
 40
64.0
  1
136
 50
90.0
 41
0.9
  7
MS PGothic
 11
-637.1743829412061
 21
-10.20000408139481
 31
0.0
100
AcDbText
 73
     1
  0
TEXT
  5
110
330
1F
100
AcDbEntity
  8
SIZE
100
AcDbText
 10
-788.93381524151
 20
-70.58916146169838
 30
0.0
 40
64.0
  1
330
 50
90.0
 41
0.9
  7
MS PGothic
 11
-775.84781524151
 21
-70.58916146169838
 31
0.0
100
AcDbText
 73
     1
  0
CIRCLE
  5
111
330
1F
100
AcDbEntity
  8
SIZE
  6
Continuous
100
AcDbCircle
 10
-764.84781524151
 20
-165.0000037787084
 30
0.0
 40
5.0
  0
LINE
  5
112
330
1F
100
AcDbEntity
  8
SIZE
  6
Continuous
100
AcDbLine
 10
-764.84781524151
 20
-165.0000037787084
 30
0.0
 11
-764.84781524151
 21
-155.0000037787084
 31
0.0
  0
CIRCLE
  5
113
330
1F
100
AcDbEntity
  8
SIZE
  6
Continuous
100
AcDbCircle
 10
-764.8478152415119
 20
-165.0000037787084
 30
0.0
 40
5.0
  0
LINE
  5
114
330
1F
100
AcDbEntity
  8
SIZE
  6
Continuous
100
AcDbLine
 10
-764.8478152415119
 20
-165.0000037787084
 30
0.0
 11
-764.8478152415119
 21
-155.0000037787084
 31
0.0
  0
CIRCLE
  5
115
330
1F
100
AcDbEntity
  8
SIZE
  6
Continuous
100
AcDbCircle
 10
-764.84781524151
 20
164.9999962212915
 30
0.0
 40
5.0
  0
LINE
  5
116
330
1F
100
AcDbEntity
  8
SIZE
  6
Continuous
100
AcDbLine
 10
-764.84781524151
 20
164.9999962212915
 30
0.0
 11
-764.84781524151
 21
154.9999962212915
 31
0.0
  0
CIRCLE
  5
117
330
1F
100
AcDbEntity
  8
SIZE
  6
Continuous
100
AcDbCircle
 10
-626.174382941208
 20
-165.0000037787085
 30
0.0
 40
5.0
  0
LINE
  5
118
330
1F
100
AcDbEntity
  8
SIZE
  6
Continuous
100
AcDbLine
 10
-626.174382941208
 20
-165.0000037787085
 30
0.0
 11
-626.174382941208
 21
-155.0000037787085
 31
0.0
  0
CIRCLE
  5
119
330
1F
100
AcDbEntity
  8
SIZE
  6
Continuous
100
AcDbCircle
 10
-626.174382941208
 20
-11.00000408141473
 30
0.0
 40
5.0
  0
LINE
  5
11A
330
1F
100
AcDbEntity
  8
SIZE
  6
Continuous
100
AcDbLine
 10
-626.174382941208
 20
-11.00000408141473
 30
0.0
 11
-626.174382941208
 21
-21.00000408141473
 31
0.0
  0
CIRCLE
  5
11B
330
1F
100
AcDbEntity
  8
SIZE
  6
Continuous
100
AcDbCircle
 10
-626.1743829412061
 20
-11.00000408141473
 30
0.0
 40
5.0
  0
LINE
  5
11C
330
1F
100
AcDbEntity
  8
SIZE
  6
Continuous
100
AcDbLine
 10
-626.1743829412061
 20
-11.00000408141473
 30
0.0
 11
-626.1743829412061
 21
-1.000004081414736
 31
0.0
  0
CIRCLE
  5
11D
330
1F
100
AcDbEntity
  8
SIZE
  6
Continuous
100
AcDbCircle
 10
-626.1743829412061
 20
124.9999959186253
 30
0.0
 40
5.0
  0
LINE
  5
11E
330
1F
100
AcDbEntity
  8
SIZE
  6
Continuous
100
AcDbLine
 10
-626.1743829412061
 20
124.9999959186253
 30
0.0
 11
-626.1743829412061
 21
114.9999959186253
 31
0.0
  0
TEXT
  5
11F
330
1F
100
AcDbEntity
  8
SIZE
100
AcDbText
 10
-811.9828571428588
 20
561.7146934846329
 30
0.0
 40
64.0
  1
10以上
 41
0.9
  7
MS PGothic
 11
-811.9828571428588
 21
548.6286934846329
 31
0.0
100
AcDbText
 73
     1
  0
TEXT
  5
120
330
1F
100
AcDbEntity
  8
SIZE
100
AcDbText
 10
-481.9195952980834
 20
561.7146934846329
 30
0.0
 40
64.0
  1
225
 41
0.9
  7
MS PGothic
 11
-481.9195952980834
 21
548.6286934846329
 31
0.0
100
AcDbText
 73
     1
  0
TEXT
  5
121
330
1F
100
AcDbEntity
  8
SIZE
100
AcDbText
 10
-658.2571428571445
 20
425.7924337143137
 30
0.0
 40
64.0
  1
45
 41
0.9
  7
MS PGothic
 11
-658.2571428571445
 21
412.7064337143137
 31
0.0
100
AcDbText
 73
     1
  0
CIRCLE
  5
122
330
1F
100
AcDbEntity
  8
SIZE
  6
Continuous
100
AcDbCircle
 10
-525.0000000000018
 20
401.7064337143137
 30
0.0
 40
5.0
  0
LINE
  5
123
330
1F
100
AcDbEntity
  8
SIZE
  6
Continuous
100
AcDbLine
 10
-525.0000000000018
 20
401.7064337143137
 30
0.0
 11
-535.0000000000018
 21
401.7064337143137
 31
0.0
  0
CIRCLE
  5
124
330
1F
100
AcDbEntity
  8
SIZE
  6
Continuous
100
AcDbCircle
 10
-535.0000000000018
 20
537.628693484633
 30
0.0
 40
5.0
  0
LINE
  5
125
330
1F
100
AcDbEntity
  8
SIZE
  6
Continuous
100
AcDbLine
 10
-535.0000000000018
 20
537.628693484633
 30
0.0
 11
-545.0000000000017
 21
537.628693484633
 31
0.0
  0
CIRCLE
  5
126
330
1F
100
AcDbEntity
  8
SIZE
  6
Continuous
100
AcDbCircle
 10
-525.0000000000018
 20
537.628693484633
 30
0.0
 40
5.0
  0
LINE
  5
127
330
1F
100
AcDbEntity
  8
SIZE
  6
Continuous
100
AcDbLine
 10
-525.0000000000018
 20
537.628693484633
 30
0.0
 11
-515.0000000000018
 21
537.628693484633
 31
0.0
  0
CIRCLE
  5
128
330
1F
100
AcDbEntity
  8
SIZE
  6
Continuous
100
AcDbCircle
 10
-525.0000000000018
 20
537.628693484633
 30
0.0
 40
5.0
  0
LINE
  5
129
330
1F
100
AcDbEntity
  8
SIZE
  6
Continuous
100
AcDbLine
 10
-525.0000000000018
 20
537.628693484633
 30
0.0
 11
-515.0000000000018
 21
537.628693484633
 31
0.0
  0
TEXT
  5
12A
330
1F
100
AcDbEntity
  8
SIZE
100
AcDbText
 10
-488.0856898716587
 20
425.7924337143137
 30
0.0
 40
64.0
  1
110
 41
0.9
  7
MS PGothic
 11
-488.0856898716587
 21
412.7064337143137
 31
0.0
100
AcDbText
 73
     1
  0
CIRCLE
  5
12B
330
1F
100
AcDbEntity
  8
SIZE
  6
Continuous
100
AcDbCircle
 10
-479.9999755859444
 20
401.7064337143137
 30
0.0
 40
5.0
  0
LINE
  5
12C
330
1F
100
AcDbEntity
  8
SIZE
  6
Continuous
100
AcDbLine
 10
-479.9999755859444
 20
401.7064337143137
 30
0.0
 11
-469.9999755859444
 21
401.7064337143137
 31
0.0
  0
CIRCLE
  5
12D
330
1F
100
AcDbEntity
  8
SIZE
  6
Continuous
100
AcDbCircle
 10
-479.9999755859444
 20
401.7064337143137
 30
0.0
 40
5.0
  0
LINE
  5
12E
330
1F
100
AcDbEntity
  8
SIZE
  6
Continuous
100
AcDbLine
 10
-479.9999755859444
 20
401.7064337143137
 30
0.0
 11
-469.9999755859444
 21
401.7064337143137
 31
0.0
  0
CIRCLE
  5
12F
330
1F
100
AcDbEntity
  8
SIZE
  6
Continuous
100
AcDbCircle
 10
-369.9999755859444
 20
401.7064337143137
 30
0.0
 40
5.0
  0
LINE
  5
130
330
1F
100
AcDbEntity
  8
SIZE
  6
Continuous
100
AcDbLine
 10
-369.9999755859444
 20
401.7064337143137
 30
0.0
 11
-379.9999755859444
 21
401.7064337143137
 31
0.0
  0
CIRCLE
  5
131
330
1F
100
AcDbEntity
  8
SIZE
  6
Continuous
100
AcDbCircle
 10
-369.9999755859444
 20
401.7064337143137
 30
0.0
 40
5.0
  0
LINE
  5
132
330
1F
100
AcDbEntity
  8
SIZE
  6
Continuous
100
AcDbLine
 10
-369.9999755859444
 20
401.7064337143137
 30
0.0
 11
-359.9999755859444
 21
401.7064337143137
 31
0.0
  0
CIRCLE
  5
133
330
1F
100
AcDbEntity
  8
SIZE
  6
Continuous
100
AcDbCircle
 10
-525.0000000000018
 20
711.5542688347313
 30
0.0
 40
5.0
  0
LINE
  5
134
330
1F
100
AcDbEntity
  8
SIZE
  6
Continuous
100
AcDbLine
 10
-525.0000000000018
 20
711.5542688347313
 30
0.0
 11
-515.0000000000018
 21
711.5542688347313
 31
0.0
  0
TEXT
  5
135
330
1F
100
AcDbEntity
  8
SIZE
100
AcDbText
 10
346.5347040101452
 20
561.7146934846329
 30
0.0
 40
64.0
  1
225
 41
0.9
  7
MS PGothic
 11
346.5347040101452
 21
548.6286934846329
 31
0.0
100
AcDbText
 73
     1
  0
TEXT
  5
136
330
1F
100
AcDbEntity
  8
SIZE
100
AcDbText
 10
141.7428876604225
 20
-73.48094206078555
 30
0.0
 40
64.0
  1
70
 41
0.9
  7
MS PGothic
 11
141.7428876604225
 21
-86.56694206078555
 31
0.0
100
AcDbText
 73
     1
  0
CIRCLE
  5
137
330
1F
100
AcDbEntity
  8
SIZE
  6
Continuous
100
AcDbCircle
 10
265.0000305175653
 20
-97.56694206078556
 30
0.0
 40
5.0
  0
LINE
  5
138
330
1F
100
AcDbEntity
  8
SIZE
  6
Continuous
100
AcDbLine
 10
265.0000305175653
 20
-97.56694206078556
 30
0.0
 11
275.0000305175654
 21
-97.56694206078556
 31
0.0
  0
CIRCLE
  5
139
330
1F
100
AcDbEntity
  8
SIZE
  6
Continuous
100
AcDbCircle
 10
335.0000305175654
 20
-97.56694206078556
 30
0.0
 40
5.0
  0
LINE
  5
13A
330
1F
100
AcDbEntity
  8
SIZE
  6
Continuous
100
AcDbLine
 10
335.0000305175654
 20
-97.56694206078556
 30
0.0
 11
325.0000305175654
 21
-97.56694206078556
 31
0.0
  0
TEXT
  5
13B
330
1F
100
AcDbEntity
  8
SIZE
100
AcDbText
 10
-38.57140415737295
 20
425.7924337143137
 30
0.0
 40
64.0
  1
160
 41
0.9
  7
MS PGothic
 11
-38.57140415737295
 21
412.7064337143137
 31
0.0
100
AcDbText
 73
     1
  0
TEXT
  5
13C
330
1F
100
AcDbEntity
  8
SIZE
100
AcDbText
 10
-69.23150074816922
 20
561.7146934846329
 30
0.0
 40
64.0
  1
600
 41
0.9
  7
MS PGothic
 11
-69.23150074816922
 21
548.6286934846329
 31
0.0
100
AcDbText
 73
     1
  0
TEXT
  5
13D
330
1F
100
AcDbEntity
  8
SIZE
100
AcDbText
 10
-94.17055430033543
 20
735.6402688347314
 30
0.0
 40
64.0
  1
1050
 41
0.9
  7
MS PGothic
 11
-94.17055430033543
 21
722.5542688347314
 31
0.0
100
AcDbText
 73
     1
  0
TEXT
  5
13E
330
1F
100
AcDbEntity
  8
SIZE
100
AcDbText
 10
-198.5714041573729
 20
425.7924337143137
 30
0.0
 40
64.0
  1
160
 41
0.9
  7
MS PGothic
 11
-198.5714041573729
 21
412.7064337143137
 31
0.0
100
AcDbText
 73
     1
  0
CIRCLE
  5
13F
330
1F
100
AcDbEntity
  8
SIZE
  6
Continuous
100
AcDbCircle
 10
-209.9999755859443
 20
401.7064337143137
 30
0.0
 40
5.0
  0
LINE
  5
140
330
1F
100
AcDbEntity
  8
SIZE
  6
Continuous
100
AcDbLine
 10
-209.9999755859443
 20
401.7064337143137
 30
0.0
 11
-199.9999755859443
 21
401.7064337143137
 31
0.0
  0
CIRCLE
  5
141
330
1F
100
AcDbEntity
  8
SIZE
  6
Continuous
100
AcDbCircle
 10
-209.9999755859443
 20
401.7064337143137
 30
0.0
 40
5.0
  0
LINE
  5
142
330
1F
100
AcDbEntity
  8
SIZE
  6
Continuous
100
AcDbLine
 10
-209.9999755859443
 20
401.7064337143137
 30
0.0
 11
-219.9999755859443
 21
401.7064337143137
 31
0.0
  0
CIRCLE
  5
143
330
1F
100
AcDbEntity
  8
SIZE
  6
Continuous
100
AcDbCircle
 10
-299.9999847412091
 20
537.628693484633
 30
0.0
 40
5.0
  0
LINE
  5
144
330
1F
100
AcDbEntity
  8
SIZE
  6
Continuous
100
AcDbLine
 10
-299.9999847412091
 20
537.628693484633
 30
0.0
 11
-289.9999847412091
 21
537.628693484633
 31
0.0
  0
CIRCLE
  5
145
330
1F
100
AcDbEntity
  8
SIZE
  6
Continuous
100
AcDbCircle
 10
-299.9999847412091
 20
537.628693484633
 30
0.0
 40
5.0
  0
LINE
  5
146
330
1F
100
AcDbEntity
  8
SIZE
  6
Continuous
100
AcDbLine
 10
-299.9999847412091
 20
537.628693484633
 30
0.0
 11
-309.9999847412091
 21
537.628693484633
 31
0.0
  0
CIRCLE
  5
147
330
1F
100
AcDbEntity
  8
SIZE
  6
Continuous
100
AcDbCircle
 10
-49.9999755859444
 20
401.7064337143137
 30
0.0
 40
5.0
  0
LINE
  5
148
330
1F
100
AcDbEntity
  8
SIZE
  6
Continuous
100
AcDbLine
 10
-49.9999755859444
 20
401.7064337143137
 30
0.0
 11
-59.9999755859444
 21
401.7064337143137
 31
0.0
  0
CIRCLE
  5
149
330
1F
100
AcDbEntity
  8
SIZE
  6
Continuous
100
AcDbCircle
 10
-49.9999755859444
 20
401.7064337143137
 30
0.0
 40
5.0
  0
LINE
  5
14A
330
1F
100
AcDbEntity
  8
SIZE
  6
Continuous
100
AcDbLine
 10
-49.9999755859444
 20
401.7064337143137
 30
0.0
 11
-39.9999755859444
 21
401.7064337143137
 31
0.0
  0
CIRCLE
  5
14B
330
1F
100
AcDbEntity
  8
SIZE
  6
Continuous
100
AcDbCircle
 10
110.0000244140556
 20
401.7064337143137
 30
0.0
 40
5.0
  0
LINE
  5
14C
330
1F
100
AcDbEntity
  8
SIZE
  6
Continuous
100
AcDbLine
 10
110.0000244140556
 20
401.7064337143137
 30
0.0
 11
100.0000244140555
 21
401.7064337143137
 31
0.0
  0
CIRCLE
  5
14D
330
1F
100
AcDbEntity
  8
SIZE
  6
Continuous
100
AcDbCircle
 10
300.0000305175654
 20
537.628693484633
 30
0.0
 40
5.0
  0
LINE
  5
14E
330
1F
100
AcDbEntity
  8
SIZE
  6
Continuous
100
AcDbLine
 10
300.0000305175654
 20
537.628693484633
 30
0.0
 11
290.0000305175653
 21
537.628693484633
 31
0.0
  0
CIRCLE
  5
14F
330
1F
100
AcDbEntity
  8
SIZE
  6
Continuous
100
AcDbCircle
 10
300.0000305175654
 20
537.628693484633
 30
0.0
 40
5.0
  0
LINE
  5
150
330
1F
100
AcDbEntity
  8
SIZE
  6
Continuous
100
AcDbLine
 10
300.0000305175654
 20
537.628693484633
 30
0.0
 11
310.0000305175654
 21
537.628693484633
 31
0.0
  0
TEXT
  5
151
330
1F
100
AcDbEntity
  8
SIZE
100
AcDbText
 10
805.940169735431
 20
-69.00000408141034
 30
0.0
 40
64.0
  1
56
 50
90.0
 41
0.9
  7
MS PGothic
 11
819.026169735431
 21
-69.00000408141034
 31
0.0
100
AcDbText
 73
     1
  0
TEXT
  5
152
330
1F
100
AcDbEntity
  8
SIZE
100
AcDbText
 10
630.8162547538878
 20
-85.00000377870856
 30
0.0
 40
64.0
  1
40
 50
90.0
 41
0.9
  7
MS PGothic
 11
643.9022547538879
 21
-85.00000377870856
 31
0.0
100
AcDbText
 73
     1
  0
CIRCLE
  5
153
330
1F
100
AcDbEntity
  8
SIZE
  6
Continuous
100
AcDbCircle
 10
654.9022547538879
 20
-125.0000037787104
 30
0.0
 40
5.0
  0
LINE
  5
154
330
1F
100
AcDbEntity
  8
SIZE
  6
Continuous
100
AcDbLine
 10
654.9022547538879
 20
-125.0000037787104
 30
0.0
 11
654.9022547538879
 21
-115.0000037787104
 31
0.0
  0
CIRCLE
  5
155
330
1F
100
AcDbEntity
  8
SIZE
  6
Continuous
100
AcDbCircle
 10
654.9022547538879
 20
-165.0000037787085
 30
0.0
 40
5.0
  0
LINE
  5
156
330
1F
100
AcDbEntity
  8
SIZE
  6
Continuous
100
AcDbLine
 10
654.9022547538879
 20
-165.0000037787085
 30
0.0
 11
654.9022547538879
 21
-175.0000037787085
 31
0.0
  0
CIRCLE
  5
157
330
1F
100
AcDbEntity
  8
SIZE
  6
Continuous
100
AcDbCircle
 10
676.9526896746955
 20
165.0000038506832
 30
0.0
 40
5.0
  0
LINE
  5
158
330
1F
100
AcDbEntity
  8
SIZE
  6
Continuous
100
AcDbLine
 10
676.9526896746955
 20
165.0000038506832
 30
0.0
 11
676.9526896746955
 21
175.0000038506832
 31
0.0
  0
CIRCLE
  5
159
330
1F
100
AcDbEntity
  8
SIZE
  6
Continuous
100
AcDbCircle
 10
676.9526896746956
 20
315.0000038506831
 30
0.0
 40
5.0
  0
LINE
  5
15A
330
1F
100
AcDbEntity
  8
SIZE
  6
Continuous
100
AcDbLine
 10
676.9526896746956
 20
315.0000038506831
 30
0.0
 11
676.9526896746956
 21
305.0000038506831
 31
0.0
  0
TEXT
  5
15B
330
1F
100
AcDbEntity
  8
SIZE
100
AcDbText
 10
953.4730047322275
 20
-84.27537383822437
 30
0.0
 40
64.0
  1
370
 50
90.0
 41
0.9
  7
MS PGothic
 11
966.5590047322275
 21
-84.27537383822437
 31
0.0
100
AcDbText
 73
     1
  0
CIRCLE
  5
15C
330
1F
100
AcDbEntity
  8
SIZE
  6
Continuous
100
AcDbCircle
 10
830.0261697354308
 20
-109.0000040814121
 30
0.0
 40
5.0
  0
LINE
  5
15D
330
1F
100
AcDbEntity
  8
SIZE
  6
Continuous
100
AcDbLine
 10
830.0261697354308
 20
-109.0000040814121
 30
0.0
 11
830.0261697354308
 21
-99.00000408141213
 31
0.0
  0
CIRCLE
  5
15E
330
1F
100
AcDbEntity
  8
SIZE
  6
Continuous
100
AcDbCircle
 10
830.0261697354308
 20
-164.9999961493168
 30
0.0
 40
5.0
  0
LINE
  5
15F
330
1F
100
AcDbEntity
  8
SIZE
  6
Continuous
100
AcDbLine
 10
830.0261697354308
 20
-164.9999961493168
 30
0.0
 11
830.0261697354308
 21
-174.9999961493168
 31
0.0
  0
CIRCLE
  5
160
330
1F
100
AcDbEntity
  8
SIZE
  6
Continuous
100
AcDbCircle
 10
830.026169735431
 20
-165.0000037787086
 30
0.0
 40
5.0
  0
LINE
  5
161
330
1F
100
AcDbEntity
  8
SIZE
  6
Continuous
100
AcDbLine
 10
830.026169735431
 20
-165.0000037787086
 30
0.0
 11
830.026169735431
 21
-175.0000037787086
 31
0.0
  0
TEXT
  5
162
330
1F
100
AcDbEntity
  8
SIZE
100
AcDbText
 10
953.4730047322275
 20
239.3999977471727
 30
0.0
 40
64.0
  1
19
 50
90.0
 41
0.9
  7
MS PGothic
 11
966.5590047322275
 21
239.3999977471727
 31
0.0
100
AcDbText
 73
     1
  0
CIRCLE
  5
163
330
1F
100
AcDbEntity
  8
SIZE
  6
Continuous
100
AcDbCircle
 10
977.5590047322275
 20
199.3999977471711
 30
0.0
 40
5.0
  0
LINE
  5
164
330
1F
100
AcDbEntity
  8
SIZE
  6
Continuous
100
AcDbLine
 10
977.5590047322275
 20
199.3999977471711
 30
0.0
 11
977.5590047322275
 21
209.399997747171
 31
0.0
  0
CIRCLE
  5
165
330
1F
100
AcDbEntity
  8
SIZE
  6
Continuous
100
AcDbCircle
 10
977.5590047322275
 20
180.3999977471683
 30
0.0
 40
5.0
  0
LINE
  5
166
330
1F
100
AcDbEntity
  8
SIZE
  6
Continuous
100
AcDbLine
 10
977.5590047322275
 20
180.3999977471683
 30
0.0
 11
977.5590047322275
 21
170.3999977471683
 31
0.0
  0
CIRCLE
  5
167
330
1F
100
AcDbEntity
  8
SIZE
  6
Continuous
100
AcDbCircle
 10
977.5590047322275
 20
180.3999977471683
 30
0.0
 40
5.0
  0
LINE
  5
168
330
1F
100
AcDbEntity
  8
SIZE
  6
Continuous
100
AcDbLine
 10
977.5590047322275
 20
180.3999977471683
 30
0.0
 11
977.5590047322275
 21
170.3999977471683
 31
0.0
  0
TEXT
  5
169
330
1F
100
AcDbEntity
  8
SIZE
100
AcDbText
 10
652.8666896746955
 20
345.0000038506833
 30
0.0
 40
64.0
  1
150以上
 50
90.0
 41
0.9
  7
MS PGothic
 11
665.9526896746955
 21
345.0000038506833
 31
0.0
100
AcDbText
 73
     1
  0
CIRCLE
  5
16A
330
1F
100
AcDbEntity
  8
SIZE
  6
Continuous
100
AcDbCircle
 10
525.0000305175653
 20
537.628693484633
 30
0.0
 40
5.0
  0
LINE
  5
16B
330
1F
100
AcDbEntity
  8
SIZE
  6
Continuous
100
AcDbLine
 10
525.0000305175653
 20
537.628693484633
 30
0.0
 11
515.0000305175653
 21
537.628693484633
 31
0.0
  0
CIRCLE
  5
16C
330
1F
100
AcDbEntity
  8
SIZE
  6
Continuous
100
AcDbCircle
 10
525.0000305175653
 20
711.5542688347313
 30
0.0
 40
5.0
  0
LINE
  5
16D
330
1F
100
AcDbEntity
  8
SIZE
  6
Continuous
100
AcDbLine
 10
525.0000305175653
 20
711.5542688347313
 30
0.0
 11
515.0000305175653
 21
711.5542688347313
 31
0.0
  0
CIRCLE
  5
16E
330
1F
100
AcDbEntity
  8
SIZE
  6
Continuous
100
AcDbCircle
 10
1192.365115136575
 20
-217.5999946234362
 30
0.0
 40
5.0
  0
LINE
  5
16F
330
1F
100
AcDbEntity
  8
SIZE
  6
Continuous
100
AcDbLine
 10
1192.365115136575
 20
-217.5999946234362
 30
0.0
 11
1192.365115136575
 21
-207.5999946234362
 31
0.0
  0
CIRCLE
  5
170
330
1F
100
AcDbEntity
  8
SIZE
  6
Continuous
100
AcDbCircle
 10
1192.365115136575
 20
199.399997747171
 30
0.0
 40
5.0
  0
LINE
  5
171
330
1F
100
AcDbEntity
  8
SIZE
  6
Continuous
100
AcDbLine
 10
1192.365115136575
 20
199.399997747171
 30
0.0
 11
1192.365115136575
 21
189.399997747171
 31
0.0
  0
LINE
  5
172
330
1F
100
AcDbEntity
  8
DETAIL
  6
Continuous
100
AcDbLine
 10
-328.399963378908
 20
194.3999977471694
 30
0.0
 11
-328.399963378908
 21
-212.5999946234369
 31
0.0
  0
LINE
  5
173
330
1F
100
AcDbEntity
  8
DETAIL
  6
Continuous
100
AcDbLine
 10
-271.5999755859429
 20
-212.5999946234369
 30
0.0
 11
-271.5999755859429
 21
194.3999977471694
 31
0.0
  0
CIRCLE
  5
174
330
1F
100
AcDbEntity
  8
DETAIL
  6
Continuous
100
AcDbCircle
 10
-479.9999755859444
 20
-11.00000408141477
 30
0.0
 40
16.5
  0
CIRCLE
  5
175
330
1F
100
AcDbEntity
  8
DETAIL
  6
Continuous
100
AcDbCircle
 10
-369.9999755859444
 20
124.9999959186252
 30
0.0
 40
16.5
  0
LINE
  5
176
330
1F
100
AcDbEntity
  8
DETAIL
  6
Continuous
100
AcDbLine
 10
-324.9999694824346
 20
197.799991643652
 30
0.0
 11
-310.9999694824382
 21
197.799991643652
 31
0.0
  0
ARC
  5
177
330
1F
100
AcDbEntity
  8
DETAIL
  6
Continuous
100
AcDbCircle
 10
-324.9999716199108
 20
194.3999998846593
 30
0.0
 40
3.399991758995373
100
AcDbArc
 50
89.99996397954833
 51
180.0000360203995
  0
LINE
  5
178
330
1F
100
AcDbEntity
  8
DETAIL
  6
Continuous
100
AcDbLine
 10
-310.4288940429814
 20
158.1999855401372
 30
0.0
 11
-289.5710449218877
 21
158.1999855401372
 31
0.0
  0
ARC
  5
179
330
1F
100
AcDbEntity
  8
DETAIL
  6
Continuous
100
AcDbCircle
 10
-274.9999734484499
 20
194.399993781154
 30
0.0
 40
3.399997862503181
100
AcDbArc
 50
0.0000668341816535
 51
89.99993316584442
  0
ARC
  5
17A
330
1F
100
AcDbEntity
  8
DETAIL
  6
Continuous
100
AcDbCircle
 10
-288.9999716199254
 20
194.3999998846593
 30
0.0
 40
3.399991758996283
100
AcDbArc
 50
89.99996397954833
 51
180.0000360203995
  0
ARC
  5
17B
330
1F
100
AcDbEntity
  8
DETAIL
  6
Continuous
100
AcDbCircle
 10
-299.9999694824346
 20
180.3999977471685
 30
0.0
 40
7.600006103516081
100
AcDbArc
 50
180.0
 51
0.0
  0
ARC
  5
17C
330
1F
100
AcDbEntity
  8
DETAIL
  6
Continuous
100
AcDbCircle
 10
-310.9999734484536
 20
194.399993781154
 30
0.0
 40
3.399997862503181
100
AcDbArc
 50
0.0000668341816535
 51
89.99993316584442
  0
LINE
  5
17D
330
1F
100
AcDbEntity
  8
DETAIL
  6
Continuous
100
AcDbLine
 10
-288.9999694824309
 20
197.799991643652
 30
0.0
 11
-274.9999694824345
 21
197.799991643652
 31
0.0
  0
LINE
  5
17E
330
1F
100
AcDbEntity
  8
DETAIL
  6
Continuous
100
AcDbLine
 10
-292.3999633789226
 20
180.3999977471685
 30
0.0
 11
-292.3999633789226
 21
194.3999977471694
 31
0.0
  0
LINE
  5
17F
330
1F
100
AcDbEntity
  8
DETAIL
  6
Continuous
100
AcDbLine
 10
-289.4999694824237
 20
137.1232185723611
 30
0.0
 11
-289.4999694824237
 21
158.2141228082045
 31
0.0
  0
LINE
  5
180
330
1F
100
AcDbEntity
  8
DETAIL
  6
Continuous
100
AcDbLine
 10
-295.4999694824273
 20
131.123218572362
 30
0.0
 11
-304.4999694824237
 21
131.123218572362
 31
0.0
  0
LINE
  5
181
330
1F
100
AcDbEntity
  8
DETAIL
  6
Continuous
100
AcDbLine
 10
-307.5999755859466
 20
194.3999977471694
 30
0.0
 11
-307.5999755859466
 21
180.3999977471685
 31
0.0
  0
LINE
  5
182
330
1F
100
AcDbEntity
  8
DETAIL
  6
Continuous
100
AcDbLine
 10
-310.4999694824273
 20
158.2141228082045
 30
0.0
 11
-310.4999694824273
 21
137.1232185723611
 31
0.0
  0
LINE
  5
183
330
1F
100
AcDbEntity
  8
DETAIL
  6
Continuous
100
AcDbLine
 10
-296.2471923828179
 20
104.6999950768813
 30
0.0
 11
-303.752746582033
 21
104.6999950768813
 31
0.0
  0
LINE
  5
184
330
1F
100
AcDbEntity
  8
DETAIL
  6
Continuous
100
AcDbLine
 10
-292.4944152832194
 20
98.19999507688046
 30
0.0
 11
-296.2471923828179
 21
104.6999950768813
 31
0.0
  0
LINE
  5
185
330
1F
100
AcDbEntity
  8
DETAIL
  6
Continuous
100
AcDbLine
 10
-303.752746582033
 20
91.69999603055749
 30
0.0
 11
-296.2471923828179
 21
91.69999603055749
 31
0.0
  0
LINE
  5
186
330
1F
100
AcDbEntity
  8
DETAIL
  6
Continuous
100
AcDbLine
 10
-296.2471923828179
 20
91.69999603055749
 30
0.0
 11
-292.4944152832194
 21
98.19999507688046
 31
0.0
  0
LINE
  5
187
330
1F
100
AcDbEntity
  8
DETAIL
  6
Continuous
100
AcDbLine
 10
-303.752746582033
 20
104.6999950768813
 30
0.0
 11
-307.5055236816497
 21
98.19999507688046
 31
0.0
  0
LINE
  5
188
330
1F
100
AcDbEntity
  8
DETAIL
  6
Continuous
100
AcDbLine
 10
-307.5055236816497
 20
98.19999507688046
 30
0.0
 11
-303.752746582033
 21
91.69999603055749
 31
0.0
  0
CIRCLE
  5
189
330
1F
100
AcDbEntity
  8
DETAIL
  6
Continuous
100
AcDbCircle
 10
-49.99997558594441
 20
124.9999959186252
 30
0.0
 40
16.5
  0
CIRCLE
  5
18A
330
1F
100
AcDbEntity
  8
DETAIL
  6
Continuous
100
AcDbCircle
 10
-209.9999755859444
 20
124.9999959186252
 30
0.0
 40
16.5
  0
CIRCLE
  5
18B
330
1F
100
AcDbEntity
  8
DETAIL
  6
Continuous
100
AcDbCircle
 10
110.0000244140555
 20
124.9999959186252
 30
0.0
 40
16.5
  0
LINE
  5
18C
330
1F
100
AcDbEntity
  8
DETAIL
  6
Continuous
100
AcDbLine
 10
311.000030517569
 20
197.799991643652
 30
0.0
 11
325.0000305175654
 21
197.799991643652
 31
0.0
  0
ARC
  5
18D
330
1F
100
AcDbEntity
  8
DETAIL
  6
Continuous
100
AcDbCircle
 10
311.0000283800745
 20
194.3999998846593
 30
0.0
 40
3.399991758996738
100
AcDbArc
 50
89.99996397954833
 51
180.0000360203995
  0
ARC
  5
18E
330
1F
100
AcDbEntity
  8
DETAIL
  6
Continuous
100
AcDbCircle
 10
300.0000305175654
 20
180.3999977471685
 30
0.0
 40
7.600006103515852
100
AcDbArc
 50
180.0
 51
0.0
  0
ARC
  5
18F
330
1F
100
AcDbEntity
  8
DETAIL
  6
Continuous
100
AcDbCircle
 10
275.0000207506837
 20
194.3999922552766
 30
0.0
 40
3.399999388391393
100
AcDbArc
 50
89.9998354112632
 51
179.9999074522447
  0
ARC
  5
190
330
1F
100
AcDbEntity
  8
DETAIL
  6
Continuous
100
AcDbCircle
 10
289.0000265515464
 20
194.399993781154
 30
0.0
 40
3.399997862503181
100
AcDbArc
 50
0.0000668341816535
 51
89.99993316584442
  0
LINE
  5
191
330
1F
100
AcDbEntity
  8
DETAIL
  6
Continuous
100
AcDbLine
 10
307.6000366210773
 20
180.3999977471685
 30
0.0
 11
307.6000366210773
 21
194.3999977471694
 31
0.0
  0
LINE
  5
192
330
1F
100
AcDbEntity
  8
DETAIL
  6
Continuous
100
AcDbLine
 10
292.4000244140533
 20
194.3999977471694
 30
0.0
 11
292.4000244140533
 21
180.3999977471685
 31
0.0
  0
LINE
  5
193
330
1F
100
AcDbEntity
  8
DETAIL
  6
Continuous
100
AcDbLine
 10
275.0000305175654
 20
197.799991643652
 30
0.0
 11
289.0000305175617
 21
197.799991643652
 31
0.0
  0
ARC
  5
194
330
1F
100
AcDbEntity
  8
DETAIL
  6
Continuous
100
AcDbCircle
 10
325.00002655155
 20
194.399993781154
 30
0.0
 40
3.399997862503181
100
AcDbArc
 50
0.0000668341816535
 51
89.99993316584442
  0
LINE
  5
195
330
1F
100
AcDbEntity
  8
DETAIL
  6
Continuous
100
AcDbLine
 10
307.6000366210773
 20
-203.599994623436
 30
0.0
 11
307.6000366210773
 21
-179.5999946234351
 31
0.0
  0
LINE
  5
196
330
1F
100
AcDbEntity
  8
DETAIL
  6
Continuous
100
AcDbLine
 10
292.4000244140533
 20
-179.5999946234351
 30
0.0
 11
292.4000244140533
 21
-203.599994623436
 31
0.0
  0
LINE
  5
197
330
1F
100
AcDbEntity
  8
DETAIL
  6
Continuous
100
AcDbLine
 10
325.0000305175654
 20
-216.0000190375003
 30
0.0
 11
275.0000305175654
 21
-216.0000190375003
 31
0.0
  0
ARC
  5
198
330
1F
100
AcDbEntity
  8
DETAIL
  6
Continuous
100
AcDbCircle
 10
275.0000303662254
 20
-212.6000100335331
 30
0.0
 40
3.400009003964219
100
AcDbArc
 50
179.9997403143286
 51
270.0000025503778
  0
ARC
  5
199
330
1F
100
AcDbEntity
  8
DETAIL
  6
Continuous
100
AcDbCircle
 10
325.0000169360264
 20
-212.6000115594515
 30
0.0
 40
3.400007478077102
100
AcDbArc
 50
270.0002288716808
 51
0.000285400000598
  0
LINE
  5
19A
330
1F
100
AcDbEntity
  8
DETAIL
  6
Continuous
100
AcDbLine
 10
525.0000305175653
 20
-79.14999767519384
 30
0.0
 11
459.200012207033
 21
-79.14999767519566
 31
0.0
  0
LINE
  5
19B
330
1F
100
AcDbEntity
  8
DETAIL
  6
Continuous
100
AcDbLine
 10
444.1500244140643
 20
-165.0000037787085
 30
0.0
 11
444.1500244140643
 21
-94.20000072694984
 31
0.0
  0
LINE
  5
19C
330
1F
100
AcDbEntity
  8
DETAIL
  6
Continuous
100
AcDbLine
 10
225.900024414057
 20
177.0499992730456
 30
0.0
 11
180.8972778320258
 21
177.0499992730456
 31
0.0
  0
LINE
  5
19D
330
1F
100
AcDbEntity
  8
DETAIL
  6
Continuous
100
AcDbLine
 10
184.0586269399664
 20
183.0499992730447
 30
0.0
 11
221.9000235221192
 21
183.0499992730447
 31
0.0
  0
LINE
  5
19E
330
1F
100
AcDbEntity
  8
DETAIL
  6
Continuous
100
AcDbLine
 10
221.900024414057
 20
171.0499992730483
 30
0.0
 11
184.0586242675799
 21
171.0499992730465
 31
0.0
  0
LINE
  5
19F
330
1F
100
AcDbEntity
  8
DETAIL
  6
Continuous
100
AcDbLine
 10
231.3883209228497
 20
177.7999992730437
 30
0.0
 11
207.9000244140643
 21
177.7999992730437
 31
0.0
  0
LINE
  5
1A0
330
1F
100
AcDbEntity
  8
DETAIL
  6
Continuous
100
AcDbLine
 10
231.3883209228497
 20
180.7999992730456
 30
0.0
 11
207.9000244140643
 21
180.7999992730456
 31
0.0
  0
LINE
  5
1A1
330
1F
100
AcDbEntity
  8
DETAIL
  6
Continuous
100
AcDbLine
 10
510.0000305175781
 20
165.0000038506841
 30
0.0
 11
335.0000305175654
 21
165.0000038506841
 31
0.0
  0
LINE
  5
1A2
330
1F
100
AcDbEntity
  8
DETAIL
  6
Continuous
100
AcDbLine
 10
-510.0000000000018
 20
-165.0000037787085
 30
0.0
 11
-334.9999694824327
 21
-165.0000037787076
 31
0.0
  0
LINE
  5
1A3
330
1F
100
AcDbEntity
  8
DETAIL
  6
Continuous
100
AcDbLine
 10
-525.0000000000018
 20
150.0000038506832
 30
0.0
 11
-525.0000000000018
 21
-150.0000037787085
 31
0.0
  0
LINE
  5
1A4
330
1F
100
AcDbEntity
  8
DETAIL
  6
Continuous
100
AcDbLine
 10
143.139262140301
 20
-190.0000037787085
 30
0.0
 11
-264.9999694824328
 21
-190.0000037787085
 31
0.0
  0
LINE
  5
1A5
330
1F
100
AcDbEntity
  8
DETAIL
  6
Continuous
100
AcDbLine
 10
-274.9999694824345
 20
-217.5999946234369
 30
0.0
 11
-324.9999694824346
 21
-217.5999946234369
 31
0.0
  0
LINE
  5
1A6
330
1F
100
AcDbEntity
  8
DETAIL
  6
Continuous
100
AcDbLine
 10
-334.9999694824327
 20
-190.0000037787085
 30
0.0
 11
-334.9999694824346
 21
-209.5999946234396
 31
0.0
  0
LINE
  5
1A7
330
1F
100
AcDbEntity
  8
DETAIL
  6
Continuous
100
AcDbLine
 10
-331.9999694824255
 20
-212.5999946234396
 30
0.0
 11
-329.9999694824346
 21
-212.5999946234369
 31
0.0
  0
ARC
  5
1A8
330
1F
100
AcDbEntity
  8
DETAIL
  6
Continuous
100
AcDbCircle
 10
-324.9999772631436
 20
-212.6000024041504
 30
0.0
 40
4.999992219293091
100
AcDbArc
 50
179.9999108394603
 51
270.0000891605657
  0
ARC
  5
1A9
330
1F
100
AcDbEntity
  8
DETAIL
  6
Continuous
100
AcDbCircle
 10
-331.999977263169
 20
-209.6000024041805
 30
0.0
 40
2.999992219268819
100
AcDbArc
 50
179.9998513984144
 51
270.0001486016375
  0
ARC
  5
1AA
330
1F
100
AcDbEntity
  8
DETAIL
100
AcDbCircle
 10
-469.1577148437554
 20
-184.0000037787085
 30
0.0
 40
6.0
100
AcDbArc
 50
180.0000000000055
 51
270.0
  0
LINE
  5
1AB
330
1F
100
AcDbEntity
  8
DETAIL
100
AcDbLine
 10
-475.1577148437554
 20
-184.0000037787094
 30
0.0
 11
-475.1577148437554
 21
-165.0000037787085
 31
0.0
  0
ARC
  5
1AC
330
1F
100
AcDbEntity
  8
DETAIL
  6
Continuous
100
AcDbCircle
 10
-509.9999879443221
 20
-149.9999917230243
 30
0.0
 40
15.00001205569363
100
AcDbArc
 50
180.0000460492956
 51
269.9999539507303
  0
LINE
  5
1AD
330
1F
100
AcDbEntity
  8
DETAIL
  6
Continuous
100
AcDbLine
 10
-264.9999694824328
 20
-190.0000037787085
 30
0.0
 11
-264.9999694824346
 21
-209.5999946234396
 31
0.0
  0
LINE
  5
1AE
330
1F
100
AcDbEntity
  8
DETAIL
  6
Continuous
100
AcDbLine
 10
-267.9999694824346
 20
-212.599994623436
 30
0.0
 11
-269.9999694824346
 21
-212.5999946234369
 31
0.0
  0
ARC
  5
1AF
330
1F
100
AcDbEntity
  8
DETAIL
  6
Continuous
100
AcDbCircle
 10
-274.9999678052354
 20
-212.5999963006361
 30
0.0
 40
4.999998322800193
100
AcDbArc
 50
269.9999807807131
 51
0.0000192193129332
  0
ARC
  5
1B0
330
1F
100
AcDbEntity
  8
DETAIL
  6
Continuous
100
AcDbCircle
 10
-267.9999678052099
 20
-209.5999963006615
 30
0.0
 40
2.999998322775367
100
AcDbArc
 50
269.9999679673341
 51
0.0000320326658989
  0
ARC
  5
1B1
330
1F
100
AcDbEntity
  8
DETAIL
100
AcDbCircle
 10
143.139262140301
 20
-184.0000037787085
 30
0.0
 40
6.0
100
AcDbArc
 50
270.0
 51
0.0
  0
LINE
  5
1B2
330
1F
100
AcDbEntity
  8
DETAIL
100
AcDbLine
 10
149.139262140301
 20
-184.0000037787094
 30
0.0
 11
149.1392621403028
 21
-165.0000037787085
 31
0.0
  0
ARC
  5
1B3
330
1F
100
AcDbEntity
  8
DETAIL
  6
Continuous
100
AcDbCircle
 10
-299.9999694824255
 20
180.4112364641789
 30
0.0
 40
6.012581518906202
100
AcDbArc
 50
176.2927707833235
 51
3.707229216676447
  0
LINE
  5
1B4
330
1F
100
AcDbEntity
  8
DETAIL
  6
Continuous
100
AcDbLine
 10
191.9000244140606
 20
180.7999992730456
 30
0.0
 11
-264.9999694824346
 21
180.7999992730456
 31
0.0
  0
LINE
  5
1B5
330
1F
100
AcDbEntity
  8
DETAIL
  6
Continuous
100
AcDbLine
 10
191.9000244140606
 20
177.7999992730437
 30
0.0
 11
-264.999938964851
 21
177.7999992730437
 31
0.0
  0
ARC
  5
1B6
330
1F
100
AcDbEntity
  8
DETAIL
100
AcDbCircle
 10
-461.0286861700878
 20
176.2148421830343
 30
0.0
 40
4.597585737168428
100
AcDbArc
 50
94.21388350712202
 51
145.7859773649081
  0
ARC
  5
1B7
330
1F
100
AcDbEntity
  8
DETAIL
100
AcDbCircle
 10
-461.2821022024927
 20
176.653785474863
 30
0.0
 40
1.149317962738672
100
AcDbArc
 50
94.21199355029654
 51
145.7878673211844
  0
ARC
  5
1B8
330
1F
100
AcDbEntity
  8
DETAIL
100
AcDbCircle
 10
-471.6433771034753
 20
169.0000099905901
 30
0.0
 40
1.000013769316874
100
AcDbArc
 50
270.0003163509841
 51
329.9995445210357
  0
ARC
  5
1B9
330
1F
100
AcDbEntity
  8
DETAIL
100
AcDbCircle
 10
-471.6433454072066
 20
168.9999677084333
 30
0.0
 40
3.999971487232676
100
AcDbArc
 50
269.9996250705566
 51
330.0002358015441
  0
ARC
  5
1BA
330
1F
100
AcDbEntity
  8
DETAIL
100
AcDbCircle
 10
-490.1494163783882
 20
166.4632912041988
 30
0.0
 40
1.550969182181833
100
AcDbArc
 50
109.3579073171617
 51
250.642092682841
  0
ARC
  5
1BB
330
1F
100
AcDbEntity
  8
DETAIL
100
AcDbCircle
 10
-497.7494529994856
 20
166.4632912041988
 30
0.0
 40
1.550969182181833
100
AcDbArc
 50
109.3579073171617
 51
250.642092682841
  0
LINE
  5
1BC
330
1F
100
AcDbEntity
  8
DETAIL
  6
Continuous
100
AcDbLine
 10
-331.9999694824236
 20
194.3999977471694
 30
0.0
 11
-328.399963378908
 21
194.3999977471694
 31
0.0
  0
LINE
  5
1BD
330
1F
100
AcDbEntity
  8
DETAIL
  6
Continuous
100
AcDbLine
 10
-324.9999694824346
 20
199.3999977471694
 30
0.0
 11
-310.99996948242
 21
199.3999977471694
 31
0.0
  0
LINE
  5
1BE
330
1F
100
AcDbEntity
  8
DETAIL
  6
Continuous
100
AcDbLine
 10
-305.99996948242
 20
194.3999977471694
 30
0.0
 11
-305.99996948242
 21
180.7999992730456
 31
0.0
  0
ARC
  5
1BF
330
1F
100
AcDbEntity
  8
DETAIL
  6
Continuous
100
AcDbCircle
 10
-324.9999716199108
 20
194.3999998846548
 30
0.0
 40
4.999997862511465
100
AcDbArc
 50
89.99997550611786
 51
180.00002449383
  0
ARC
  5
1C0
330
1F
100
AcDbEntity
  8
DETAIL
  6
Continuous
100
AcDbCircle
 10
-331.9999716198817
 20
191.3999998846256
 30
0.0
 40
2.999997862540873
100
AcDbArc
 50
89.99995917748845
 51
180.0000408225114
  0
LINE
  5
1C1
330
1F
100
AcDbEntity
  8
DETAIL
  6
Continuous
100
AcDbLine
 10
-334.9999694824346
 20
191.3999977471676
 30
0.0
 11
-334.9999694824327
 21
-190.0000037787085
 31
0.0
  0
ARC
  5
1C2
330
1F
100
AcDbEntity
  8
DETAIL
  6
Continuous
100
AcDbCircle
 10
-310.9999734484354
 20
194.399993781154
 30
0.0
 40
5.000003966017837
100
AcDbArc
 50
0.0000454471622229
 51
89.99995455281172
  0
LINE
  5
1C3
330
1F
100
AcDbEntity
  8
DETAIL
  6
Continuous
100
AcDbLine
 10
-462.2325439453216
 20
177.2999992730465
 30
0.0
 11
-468.1792602539116
 21
166.9999962212896
 31
0.0
  0
LINE
  5
1C4
330
1F
100
AcDbEntity
  8
DETAIL
  6
Continuous
100
AcDbLine
 10
-470.7773437499981
 20
168.4999962212905
 30
0.0
 11
-464.830627441408
 21
178.7999992730474
 31
0.0
  0
LINE
  5
1C5
330
1F
100
AcDbEntity
  8
DETAIL
  6
Continuous
100
AcDbLine
 10
-498.2635498046893
 20
167.9265785577135
 30
0.0
 11
-471.643371582033
 21
167.9999962212887
 31
0.0
  0
ARC
  5
1C6
330
1F
100
AcDbEntity
  8
DETAIL
  6
Continuous
100
AcDbCircle
 10
-509.9999838269122
 20
149.9999876775982
 30
0.0
 40
15.00001617309575
100
AcDbArc
 50
90.00006177654724
 51
179.9999382234267
  0
LINE
  5
1C7
330
1F
100
AcDbEntity
  8
DETAIL
  6
Continuous
100
AcDbLine
 10
-271.5999755859429
 20
194.3999977471694
 30
0.0
 11
-267.9999694824273
 21
194.3999977471694
 31
0.0
  0
LINE
  5
1C8
330
1F
100
AcDbEntity
  8
DETAIL
  6
Continuous
100
AcDbLine
 10
-293.9999694824309
 20
180.7999992730456
 30
0.0
 11
-293.9999694824309
 21
194.3999977471694
 31
0.0
  0
LINE
  5
1C9
330
1F
100
AcDbEntity
  8
DETAIL
  6
Continuous
100
AcDbLine
 10
-288.9999694824309
 20
199.3999977471694
 30
0.0
 11
-274.9999694824345
 21
199.3999977471694
 31
0.0
  0
ARC
  5
1CA
330
1F
100
AcDbEntity
  8
DETAIL
  6
Continuous
100
AcDbCircle
 10
-288.9999716199254
 20
194.3999998846548
 30
0.0
 40
4.999997862511465
100
AcDbArc
 50
89.99997550611786
 51
180.00002449383
  0
ARC
  5
1CB
330
1F
100
AcDbEntity
  8
DETAIL
  6
Continuous
100
AcDbCircle
 10
-267.999973448479
 20
191.3999937811249
 30
0.0
 40
3.000003966047763
100
AcDbArc
 50
0.0000757457827885
 51
89.99992425416508
  0
ARC
  5
1CC
330
1F
100
AcDbEntity
  8
DETAIL
  6
Continuous
100
AcDbCircle
 10
-274.9999734484499
 20
194.399993781154
 30
0.0
 40
5.000003966017837
100
AcDbArc
 50
0.0000454471622229
 51
89.99995455281172
  0
LINE
  5
1CD
330
1F
100
AcDbEntity
  8
DETAIL
  6
Continuous
100
AcDbLine
 10
-264.9999694824346
 20
191.3999977471676
 30
0.0
 11
-264.9999694824328
 21
-190.0000037787085
 31
0.0
  0
LINE
  5
1CE
330
1F
100
AcDbEntity
  8
DETAIL
  6
Continuous
100
AcDbLine
 10
191.9000244140606
 20
183.0499992730447
 30
0.0
 11
191.9000244140606
 21
171.0901063689916
 31
0.0
  0
LINE
  5
1CF
330
1F
100
AcDbEntity
  8
DETAIL
  6
Continuous
100
AcDbLine
 10
181.3069915771466
 20
181.2451973321285
 30
0.0
 11
181.1656188964825
 21
180.7999992730456
 31
0.0
  0
LINE
  5
1D0
330
1F
100
AcDbEntity
  8
DETAIL
  6
Continuous
100
AcDbLine
 10
180.9365844726544
 20
177.7999992730437
 30
0.0
 11
180.8972778320258
 21
177.0499992730456
 31
0.0
  0
LINE
  5
1D1
330
1F
100
AcDbEntity
  8
DETAIL
  6
Continuous
100
AcDbLine
 10
207.9000244140643
 20
183.0499992730447
 30
0.0
 11
207.9000244140643
 21
171.0687159178223
 31
0.0
  0
ARC
  5
1D2
330
1F
100
AcDbEntity
  8
DETAIL
  6
Continuous
100
AcDbCircle
 10
184.0586269399664
 20
180.0500005002286
 30
0.0
 40
2.999998772820216
100
AcDbArc
 50
90.00005103892624
 51
156.521862997538
  0
LINE
  5
1D3
330
1F
100
AcDbEntity
  8
DETAIL
  6
Continuous
100
AcDbLine
 10
180.8972778320258
 20
177.0499992730456
 30
0.0
 11
181.0627288818231
 21
173.8929863335952
 31
0.0
  0
LINE
  5
1D4
330
1F
100
AcDbEntity
  8
DETAIL
  6
Continuous
100
AcDbLine
 10
205.900024414057
 20
175.0499992730428
 30
0.0
 11
193.9000244140497
 21
175.0499992730428
 31
0.0
  0
LINE
  5
1D5
330
1F
100
AcDbEntity
  8
DETAIL
  6
Continuous
100
AcDbLine
 10
193.9000244140497
 20
171.0874325625955
 30
0.0
 11
193.9000244140497
 21
175.0499992730428
 31
0.0
  0
LINE
  5
1D6
330
1F
100
AcDbEntity
  8
DETAIL
  6
Continuous
100
AcDbLine
 10
205.900024414057
 20
171.0813713433581
 30
0.0
 11
205.900024414057
 21
175.0499992730428
 31
0.0
  0
LINE
  5
1D7
330
1F
100
AcDbEntity
  8
DETAIL
  6
Continuous
100
AcDbLine
 10
184.0586242675799
 20
171.0499992730465
 30
0.0
 11
183.2821655273419
 21
171.1522179009771
 31
0.0
  0
ARC
  5
1D8
330
1F
100
AcDbEntity
  8
DETAIL
  6
Continuous
100
AcDbCircle
 10
184.0586184914518
 20
174.049997727935
 30
0.0
 40
3.000001188498706
100
AcDbArc
 50
183.0000662369811
 51
255.0000885561681
  0
LINE
  5
1D9
330
1F
100
AcDbEntity
  8
DETAIL
  6
Continuous
100
AcDbLine
 10
525.0000305175653
 20
-150.0000037787085
 30
0.0
 11
525.0000305175653
 21
150.0000038506832
 31
0.0
  0
LINE
  5
1DA
330
1F
100
AcDbEntity
  8
DETAIL
  6
Continuous
100
AcDbLine
 10
335.0000305175654
 20
-167.0000190374994
 30
0.0
 11
335.0000305175654
 21
-209.5999946234396
 31
0.0
  0
LINE
  5
1DB
330
1F
100
AcDbEntity
  8
DETAIL
  6
Continuous
100
AcDbLine
 10
294.0000305175654
 20
-179.5999946234396
 30
0.0
 11
294.0000305175654
 21
-203.599994623436
 31
0.0
  0
LINE
  5
1DC
330
1F
100
AcDbEntity
  8
DETAIL
  6
Continuous
100
AcDbLine
 10
306.0000305175654
 20
-203.599994623436
 30
0.0
 11
306.0000305175654
 21
-179.5999946234396
 31
0.0
  0
LINE
  5
1DD
330
1F
100
AcDbEntity
  8
DETAIL
  6
Continuous
100
AcDbLine
 10
265.0000305175653
 20
-167.0000190374994
 30
0.0
 11
265.0000305175653
 21
-209.5999946234396
 31
0.0
  0
LINE
  5
1DE
330
1F
100
AcDbEntity
  8
DETAIL
  6
Continuous
100
AcDbLine
 10
271.6000213622955
 20
-212.5999946234342
 30
0.0
 11
271.6000213622992
 21
194.3999977471694
 31
0.0
  0
LINE
  5
1DF
330
1F
100
AcDbEntity
  8
DETAIL
  6
Continuous
100
AcDbLine
 10
328.4000244140516
 20
194.3999977471712
 30
0.0
 11
328.4000244140607
 21
-212.5999946234378
 31
0.0
  0
LINE
  5
1E0
330
1F
100
AcDbEntity
  8
DETAIL
  6
Continuous
100
AcDbLine
 10
325.0000305175654
 20
-217.5999946234369
 30
0.0
 11
275.0000305175654
 21
-217.5999946234369
 31
0.0
  0
LINE
  5
1E1
330
1F
100
AcDbEntity
  8
DETAIL
  6
Continuous
100
AcDbLine
 10
332.0000305175653
 20
-212.5999946234378
 30
0.0
 11
328.400024414057
 21
-212.5999946234369
 31
0.0
  0
ARC
  5
1E2
330
1F
100
AcDbEntity
  8
DETAIL
  6
Continuous
100
AcDbCircle
 10
300.0000305175654
 20
-203.599994623436
 30
0.0
 40
6.0
100
AcDbArc
 50
180.0
 51
0.0
  0
ARC
  5
1E3
330
1F
100
AcDbEntity
  8
DETAIL
  6
Continuous
100
AcDbCircle
 10
325.0000321947645
 20
-212.5999963006361
 30
0.0
 40
4.999998322800193
100
AcDbArc
 50
269.9999807807131
 51
0.0000192193129332
  0
LINE
  5
1E4
330
1F
100
AcDbEntity
  8
DETAIL
  6
Continuous
100
AcDbLine
 10
271.6000213622992
 20
-212.5999946234369
 30
0.0
 11
268.0000305175763
 21
-212.5999946234369
 31
0.0
  0
ARC
  5
1E5
330
1F
100
AcDbEntity
  8
DETAIL
  6
Continuous
100
AcDbCircle
 10
268.0000227368309
 20
-209.6000024041805
 30
0.0
 40
2.999992219268135
100
AcDbArc
 50
179.9998513984144
 51
270.0001486016375
  0
ARC
  5
1E6
330
1F
100
AcDbEntity
  8
DETAIL
  6
Continuous
100
AcDbCircle
 10
275.0000227368563
 20
-212.6000024041504
 30
0.0
 40
4.999992219292977
100
AcDbArc
 50
179.9999108394603
 51
270.0000891605657
  0
ARC
  5
1E7
330
1F
100
AcDbEntity
  8
DETAIL
  6
Continuous
100
AcDbCircle
 10
332.00003219479
 20
-209.5999963006615
 30
0.0
 40
2.999998322775367
100
AcDbArc
 50
269.9999679673341
 51
0.0000320326658989
  0
LINE
  5
1E8
330
1F
100
AcDbEntity
  8
DETAIL
  6
Continuous
100
AcDbLine
 10
339.1213378906268
 20
-165.8786964056653
 30
0.0
 11
338.8786621093622
 21
-166.121311151759
 31
0.0
  0
LINE
  5
1E9
330
1F
100
AcDbEntity
  8
DETAIL
  6
Continuous
100
AcDbLine
 10
336.243041992182
 20
-167.0000037787112
 30
0.0
 11
337.1843261718622
 21
-166.9694556830099
 31
0.0
  0
ARC
  5
1EA
330
1F
100
AcDbEntity
  8
DETAIL
  6
Continuous
100
AcDbCircle
 10
341.2426704177942
 20
-168.0000018791806
 30
0.0
 40
2.999998100476906
100
AcDbArc
 50
89.99989756571368
 51
135.0003653530951
  0
ARC
  5
1EB
330
1F
100
AcDbEntity
  8
DETAIL
  6
Continuous
100
AcDbCircle
 10
336.7573466785306
 20
-164.0000226266774
 30
0.0
 40
2.999974027183649
100
AcDbArc
 50
278.1825644195621
 51
315.0003633585593
  0
LINE
  5
1EC
330
1F
100
AcDbEntity
  8
DETAIL
  6
Continuous
100
AcDbLine
 10
217.2426757812518
 20
-167.0000037787112
 30
0.0
 11
223.9999999999945
 21
-167.0000037787112
 31
0.0
  0
LINE
  5
1ED
330
1F
100
AcDbEntity
  8
DETAIL
  6
Continuous
100
AcDbLine
 10
265.0000305175672
 20
-167.0000037787112
 30
0.0
 11
223.9999999999945
 21
-167.0000037787112
 31
0.0
  0
ARC
  5
1EE
330
1F
100
AcDbEntity
  8
DETAIL
  6
Continuous
100
AcDbCircle
 10
300.0000305175654
 20
-179.5999946234396
 30
0.0
 40
6.0
100
AcDbArc
 50
0.0
 51
180.0
  0
LINE
  5
1EF
330
1F
100
AcDbEntity
  8
DETAIL
  6
Continuous
100
AcDbLine
 10
335.0000305175654
 20
-167.0000037787112
 30
0.0
 11
336.243041992182
 21
-167.0000037787112
 31
0.0
  0
LINE
  5
1F0
330
1F
100
AcDbEntity
  8
DETAIL
  6
Continuous
100
AcDbLine
 10
214.8786621093659
 20
-165.8786964056653
 30
0.0
 11
215.1213378906122
 21
-166.121311151759
 31
0.0
  0
ARC
  5
1F1
330
1F
100
AcDbEntity
  8
DETAIL
  6
Continuous
100
AcDbCircle
 10
212.7573367328277
 20
-167.9999846161072
 30
0.0
 40
2.999980837422236
100
AcDbArc
 50
44.99949807818188
 51
90.00023900305165
  0
ARC
  5
1F2
330
1F
100
AcDbEntity
  8
DETAIL
  6
Continuous
100
AcDbCircle
 10
217.2426702037573
 20
-164.0000061949731
 30
0.0
 40
2.999997583740558
100
AcDbArc
 50
224.9996305590268
 51
270.0001065221237
  0
ARC
  5
1F3
330
1F
100
AcDbEntity
  8
DETAIL
100
AcDbCircle
 10
510.5502903990145
 20
-150.5502647796975
 30
0.0
 40
14.46021357597423
100
AcDbArc
 50
267.8190548570497
 51
2.180828574516186
  0
LINE
  5
1F4
330
1F
100
AcDbEntity
  8
DETAIL
  6
Continuous
100
AcDbLine
 10
525.8787231445222
 20
-35.87868114687717
 30
0.0
 11
526.1213378906159
 21
-36.12132641054722
 31
0.0
  0
LINE
  5
1F5
330
1F
100
AcDbEntity
  8
DETAIL
  6
Continuous
100
AcDbLine
 10
526.9999999999872
 20
-45.00000377871311
 30
0.0
 11
526.9999999999872
 21
-38.75702282168186
 31
0.0
  0
LINE
  5
1F6
330
1F
100
AcDbEntity
  8
DETAIL
  6
Continuous
100
AcDbLine
 10
526.9999999999872
 20
-57.00000377871129
 30
0.0
 11
526.9999999999872
 21
-45.00000377871311
 31
0.0
  0
LINE
  5
1F7
330
1F
100
AcDbEntity
  8
DETAIL
  6
Continuous
100
AcDbLine
 10
526.9999999999872
 20
-38.75702282168186
 30
0.0
 11
526.9694824218622
 21
-37.81569286562353
 31
0.0
  0
ARC
  5
1F8
330
1F
100
AcDbEntity
  8
DETAIL
  6
Continuous
100
AcDbCircle
 10
528.0000045470642
 20
-33.75731543216625
 30
0.0
 40
3.000004547383368
100
AcDbArc
 50
180.0008228210425
 51
225.0011386125625
  0
ARC
  5
1F9
330
1F
100
AcDbEntity
  8
DETAIL
  6
Continuous
100
AcDbCircle
 10
524.000025163712
 20
-38.24264626588865
 30
0.0
 40
2.999994268992653
100
AcDbArc
 50
8.182005363900423
 51
45.00009626795093
  0
LINE
  5
1FA
330
1F
100
AcDbEntity
  8
DETAIL
  6
Continuous
100
AcDbLine
 10
525.8787231445222
 20
-66.12132641054723
 30
0.0
 11
526.1213378906159
 21
-65.87868114687717
 31
0.0
  0
LINE
  5
1FB
330
1F
100
AcDbEntity
  8
DETAIL
  6
Continuous
100
AcDbLine
 10
526.9999999999872
 20
-63.75735851503941
 30
0.0
 11
526.9999999999872
 21
-57.00000377871129
 31
0.0
  0
ARC
  5
1FC
330
1F
100
AcDbEntity
  8
DETAIL
  6
Continuous
100
AcDbCircle
 10
528.0000047609592
 20
-68.24269221385657
 30
0.0
 40
3.000004761271592
100
AcDbArc
 50
134.9988630794738
 51
179.9991754869128
  0
ARC
  5
1FD
330
1F
100
AcDbEntity
  8
DETAIL
  6
Continuous
100
AcDbCircle
 10
524.0000155509533
 20
-63.75738479171923
 30
0.0
 40
2.999984449147369
100
AcDbArc
 50
315.000350915865
 51
0.0005018502232593
  0
ARC
  5
1FE
330
1F
100
AcDbEntity
  8
DETAIL
100
AcDbCircle
 10
221.9000260200973
 20
175.0499976670107
 30
0.0
 40
3.999998393963077
100
AcDbArc
 50
269.9999769951578
 51
0.0000230048047259
  0
ARC
  5
1FF
330
1F
100
AcDbEntity
  8
DETAIL
100
AcDbCircle
 10
231.3882859354817
 20
176.799921849567
 30
0.0
 40
4.000077423630019
100
AcDbArc
 50
30.00064027546269
 51
89.99949885256873
  0
ARC
  5
200
330
1F
100
AcDbEntity
  8
DETAIL
100
AcDbCircle
 10
231.3883154014183
 20
176.7999855037533
 30
0.0
 40
1.000013769305619
100
AcDbArc
 50
30.00045547894405
 51
89.99968364964116
  0
LINE
  5
201
330
1F
100
AcDbEntity
  8
DETAIL
  6
Continuous
100
AcDbLine
 10
335.0000305175654
 20
191.3999977471676
 30
0.0
 11
335.0000305175654
 21
-167.0000190374994
 31
0.0
  0
LINE
  5
202
330
1F
100
AcDbEntity
  8
DETAIL
  6
Continuous
100
AcDbLine
 10
275.0000305175654
 20
199.3999977471694
 30
0.0
 11
289.0000305175799
 21
199.3999977471694
 31
0.0
  0
LINE
  5
203
330
1F
100
AcDbEntity
  8
DETAIL
  6
Continuous
100
AcDbLine
 10
294.0000305175799
 20
194.3999977471694
 30
0.0
 11
294.0000305175799
 21
180.3999977471685
 31
0.0
  0
LINE
  5
204
330
1F
100
AcDbEntity
  8
DETAIL
  6
Continuous
100
AcDbLine
 10
306.000030517569
 20
180.3999977471685
 30
0.0
 11
306.000030517569
 21
194.3999977471694
 31
0.0
  0
LINE
  5
205
330
1F
100
AcDbEntity
  8
DETAIL
  6
Continuous
100
AcDbLine
 10
332.0000305175635
 20
194.3999977471694
 30
0.0
 11
328.400024414057
 21
194.3999977471694
 31
0.0
  0
LINE
  5
206
330
1F
100
AcDbEntity
  8
DETAIL
  6
Continuous
100
AcDbLine
 10
311.000030517569
 20
199.3999977471694
 30
0.0
 11
325.0000305175654
 21
199.3999977471694
 31
0.0
  0
ARC
  5
207
330
1F
100
AcDbEntity
  8
DETAIL
  6
Continuous
100
AcDbCircle
 10
300.0000305175654
 20
180.3999977471685
 30
0.0
 40
6.0
100
AcDbArc
 50
180.0
 51
0.0
  0
ARC
  5
208
330
1F
100
AcDbEntity
  8
DETAIL
  6
Continuous
100
AcDbCircle
 10
289.0000265515464
 20
194.399993781154
 30
0.0
 40
5.000003966018521
100
AcDbArc
 50
0.0000454471622229
 51
89.99995455281172
  0
ARC
  5
209
330
1F
100
AcDbEntity
  8
DETAIL
  6
Continuous
100
AcDbCircle
 10
311.0000283800745
 20
194.3999998846548
 30
0.0
 40
4.999997862511465
100
AcDbArc
 50
89.99997550611786
 51
180.00002449383
  0
ARC
  5
20A
330
1F
100
AcDbEntity
  8
DETAIL
  6
Continuous
100
AcDbCircle
 10
325.00002655155
 20
194.399993781154
 30
0.0
 40
5.000003966018521
100
AcDbArc
 50
0.0000454471622229
 51
89.99995455281172
  0
LINE
  5
20B
330
1F
100
AcDbEntity
  8
DETAIL
  6
Continuous
100
AcDbLine
 10
239.355743408194
 20
165.0000038506832
 30
0.0
 11
232.2543487548846
 21
177.2999992730465
 31
0.0
  0
LINE
  5
20C
330
1F
100
AcDbEntity
  8
DETAIL
  6
Continuous
100
AcDbLine
 10
234.8524322509711
 20
178.7999992730474
 30
0.0
 11
242.8198547363153
 21
165.0000038506832
 31
0.0
  0
LINE
  5
20D
330
1F
100
AcDbEntity
  8
DETAIL
  6
Continuous
100
AcDbLine
 10
239.355743408194
 20
165.0000038506832
 30
0.0
 11
232.2543487548846
 21
177.2999992730465
 31
0.0
  0
LINE
  5
20E
330
1F
100
AcDbEntity
  8
DETAIL
  6
Continuous
100
AcDbLine
 10
234.8524322509711
 20
178.7999992730474
 30
0.0
 11
242.8198547363153
 21
165.0000038506832
 31
0.0
  0
LINE
  5
20F
330
1F
100
AcDbEntity
  8
DETAIL
  6
Continuous
100
AcDbLine
 10
239.355743408194
 20
165.0000038506832
 30
0.0
 11
232.2543487548846
 21
177.2999992730465
 31
0.0
  0
LINE
  5
210
330
1F
100
AcDbEntity
  8
DETAIL
  6
Continuous
100
AcDbLine
 10
234.8524322509711
 20
178.7999992730474
 30
0.0
 11
242.8198547363153
 21
165.0000038506832
 31
0.0
  0
LINE
  5
211
330
1F
100
AcDbEntity
  8
DETAIL
  6
Continuous
100
AcDbLine
 10
225.4563751220648
 20
180.7999992730456
 30
0.0
 11
225.1679077148383
 21
181.3567161919909
 31
0.0
  0
LINE
  5
212
330
1F
100
AcDbEntity
  8
DETAIL
  6
Continuous
100
AcDbLine
 10
218.5945892333966
 20
180.9770470025396
 30
0.0
 11
218.6363983154278
 21
180.7999992730456
 31
0.0
  0
ARC
  5
213
330
1F
100
AcDbEntity
  8
DETAIL
  6
Continuous
100
AcDbCircle
 10
221.9000235221192
 20
179.0499963080365
 30
0.0
 40
4.000002965009712
100
AcDbArc
 50
35.21733670015661
 51
89.99998722393188
  0
LINE
  5
214
330
1F
100
AcDbEntity
  8
DETAIL
  6
Continuous
100
AcDbLine
 10
225.900024414057
 20
175.0499992730428
 30
0.0
 11
225.900024414057
 21
177.7999992730437
 31
0.0
  0
LINE
  5
215
330
1F
100
AcDbEntity
  8
DETAIL
  6
Continuous
100
AcDbLine
 10
220.6500244140606
 20
171.0499992730465
 30
0.0
 11
220.6500244140606
 21
165.0000038506832
 31
0.0
  0
LINE
  5
216
330
1F
100
AcDbEntity
  8
DETAIL
  6
Continuous
100
AcDbLine
 10
223.1500244140606
 20
171.2772484185561
 30
0.0
 11
223.1500244140606
 21
165.0000038506832
 31
0.0
  0
LINE
  5
217
330
1F
100
AcDbEntity
  8
DETAIL
  6
Continuous
100
AcDbLine
 10
265.0000305175653
 20
191.3999977471676
 30
0.0
 11
265.0000305175653
 21
-167.0000190374994
 31
0.0
  0
LINE
  5
218
330
1F
100
AcDbEntity
  8
DETAIL
  6
Continuous
100
AcDbLine
 10
268.0000305175763
 20
194.3999977471694
 30
0.0
 11
271.6000213622992
 21
194.3999977471694
 31
0.0
  0
ARC
  5
219
330
1F
100
AcDbEntity
  8
DETAIL
  6
Continuous
100
AcDbCircle
 10
268.0000283801182
 20
191.3999998846256
 30
0.0
 40
2.999997862540873
100
AcDbArc
 50
89.99995917748845
 51
180.0000408225114
  0
ARC
  5
21A
330
1F
100
AcDbEntity
  8
DETAIL
  6
Continuous
100
AcDbCircle
 10
275.0000283800891
 20
194.3999998846548
 30
0.0
 40
4.999997862511465
100
AcDbArc
 50
89.99997550611786
 51
180.00002449383
  0
ARC
  5
21B
330
1F
100
AcDbEntity
  8
DETAIL
  6
Continuous
100
AcDbCircle
 10
332.0000265515209
 20
191.3999937811249
 30
0.0
 40
3.000003966047536
100
AcDbArc
 50
0.0000757457827885
 51
89.99992425426932
  0
ARC
  5
21C
330
1F
100
AcDbEntity
  8
DETAIL
  6
Continuous
100
AcDbCircle
 10
215.7414204740034
 20
180.0500018147713
 30
0.0
 40
2.999997458277343
100
AcDbArc
 50
17.99989939344546
 51
89.9999219529783
  0
ARC
  5
21D
330
1F
100
AcDbEntity
  8
DETAIL
100
AcDbCircle
 10
510.0000234997878
 20
149.9999968329129
 30
0.0
 40
15.00000701777258
100
AcDbArc
 50
359.9999999998774
 51
89.99997319402831
  0
CIRCLE
  5
21E
330
1F
100
AcDbEntity
  8
DETAIL
100
AcDbCircle
 10
-299.9999832104749
 20
98.19999151656793
 30
0.0
 40
6.500014123494312
  0
CIRCLE
  5
21F
330
1F
100
AcDbEntity
  8
DETAIL
100
AcDbCircle
 10
-299.9999755859444
 20
-76.70000072694984
 30
0.0
 40
6.500014123494312
  0
LINE
  5
220
330
1F
100
AcDbEntity
  8
DETAIL
  6
Continuous
100
AcDbLine
 10
-296.2471847582873
 20
-70.19999716663642
 30
0.0
 11
-303.7527389575025
 21
-70.19999716663642
 31
0.0
  0
LINE
  5
221
330
1F
100
AcDbEntity
  8
DETAIL
  6
Continuous
100
AcDbLine
 10
-303.7527389575025
 20
-70.19999716663642
 30
0.0
 11
-307.5055160571191
 21
-76.69999716663733
 31
0.0
  0
LINE
  5
222
330
1F
100
AcDbEntity
  8
DETAIL
  6
Continuous
100
AcDbLine
 10
-307.5055160571191
 20
-76.69999716663733
 30
0.0
 11
-303.7527389575025
 21
-83.19999621296029
 31
0.0
  0
LINE
  5
223
330
1F
100
AcDbEntity
  8
DETAIL
  6
Continuous
100
AcDbLine
 10
-303.7527389575025
 20
-83.19999621296029
 30
0.0
 11
-296.2471847582873
 21
-83.19999621296029
 31
0.0
  0
LINE
  5
224
330
1F
100
AcDbEntity
  8
DETAIL
  6
Continuous
100
AcDbLine
 10
-296.2471847582873
 20
-83.19999621296029
 30
0.0
 11
-292.4944076586889
 21
-76.69999716663733
 31
0.0
  0
LINE
  5
225
330
1F
100
AcDbEntity
  8
DETAIL
  6
Continuous
100
AcDbLine
 10
-292.4944076586889
 20
-76.69999716663733
 30
0.0
 11
-296.2471847582873
 21
-70.19999716663642
 31
0.0
  0
CIRCLE
  5
226
330
1F
100
AcDbEntity
  8
DETAIL
100
AcDbCircle
 10
300.0000294337933
 20
98.19999881672722
 30
0.0
 40
6.500014123494312
  0
LINE
  5
227
330
1F
100
AcDbEntity
  8
DETAIL
  6
Continuous
100
AcDbLine
 10
303.7528202614503
 20
104.7000023770406
 30
0.0
 11
296.2472660622352
 21
104.7000023770406
 31
0.0
  0
LINE
  5
228
330
1F
100
AcDbEntity
  8
DETAIL
  6
Continuous
100
AcDbLine
 10
296.2472660622352
 20
104.7000023770406
 30
0.0
 11
292.4944889626185
 21
98.20000237703972
 31
0.0
  0
LINE
  5
229
330
1F
100
AcDbEntity
  8
DETAIL
  6
Continuous
100
AcDbLine
 10
292.4944889626185
 20
98.20000237703972
 30
0.0
 11
296.2472660622352
 21
91.70000333071675
 31
0.0
  0
LINE
  5
22A
330
1F
100
AcDbEntity
  8
DETAIL
  6
Continuous
100
AcDbLine
 10
296.2472660622352
 20
91.70000333071675
 30
0.0
 11
303.7528202614503
 21
91.70000333071675
 31
0.0
  0
LINE
  5
22B
330
1F
100
AcDbEntity
  8
DETAIL
  6
Continuous
100
AcDbLine
 10
303.7528202614503
 20
91.70000333071675
 30
0.0
 11
307.5055973610488
 21
98.20000237703972
 31
0.0
  0
LINE
  5
22C
330
1F
100
AcDbEntity
  8
DETAIL
  6
Continuous
100
AcDbLine
 10
307.5055973610488
 20
98.20000237703972
 30
0.0
 11
303.7528202614503
 21
104.7000023770406
 31
0.0
  0
CIRCLE
  5
22D
330
1F
100
AcDbEntity
  8
DETAIL
100
AcDbCircle
 10
300.0000308378348
 20
-76.70000037265618
 30
0.0
 40
6.500014123494312
  0
LINE
  5
22E
330
1F
100
AcDbEntity
  8
DETAIL
  6
Continuous
100
AcDbLine
 10
303.7528216654918
 20
-70.19999681234276
 30
0.0
 11
296.2472674662767
 21
-70.19999681234276
 31
0.0
  0
LINE
  5
22F
330
1F
100
AcDbEntity
  8
DETAIL
  6
Continuous
100
AcDbLine
 10
296.2472674662767
 20
-70.19999681234276
 30
0.0
 11
292.4944903666601
 21
-76.69999681234367
 31
0.0
  0
LINE
  5
230
330
1F
100
AcDbEntity
  8
DETAIL
  6
Continuous
100
AcDbLine
 10
292.4944903666601
 20
-76.69999681234367
 30
0.0
 11
296.2472674662767
 21
-83.19999585866663
 31
0.0
  0
LINE
  5
231
330
1F
100
AcDbEntity
  8
DETAIL
  6
Continuous
100
AcDbLine
 10
296.2472674662767
 20
-83.19999585866663
 30
0.0
 11
303.7528216654918
 21
-83.19999585866663
 31
0.0
  0
LINE
  5
232
330
1F
100
AcDbEntity
  8
DETAIL
  6
Continuous
100
AcDbLine
 10
303.7528216654918
 20
-83.19999585866663
 30
0.0
 11
307.5055987650903
 21
-76.69999681234367
 31
0.0
  0
LINE
  5
233
330
1F
100
AcDbEntity
  8
DETAIL
  6
Continuous
100
AcDbLine
 10
307.5055987650903
 20
-76.69999681234367
 30
0.0
 11
303.7528216654918
 21
-70.19999681234276
 31
0.0
  0
ARC
  5
234
330
1F
100
AcDbEntity
  8
DETAIL
100
AcDbCircle
 10
-304.3998046371216
 20
137.2233834176659
 30
0.0
 40
6.100987144400357
100
AcDbArc
 50
180.9407134628051
 51
269.0592865372201
  0
ARC
  5
235
330
1F
100
AcDbEntity
  8
DETAIL
100
AcDbCircle
 10
-295.499965990386
 20
137.1232150803234
 30
0.0
 40
5.999996507962912
100
AcDbArc
 50
269.9999666534426
 51
0.000033346518268
  0
ARC
  5
236
330
1F
100
AcDbEntity
  8
DETAIL
100
AcDbCircle
 10
304.5000340096139
 20
137.1232150803234
 30
0.0
 40
5.999996507962912
100
AcDbArc
 50
269.9999666534426
 51
0.000033346518268
  0
ARC
  5
237
330
1F
100
AcDbEntity
  8
DETAIL
100
AcDbCircle
 10
295.6001953628783
 20
137.2233834176659
 30
0.0
 40
6.100987144400357
100
AcDbArc
 50
180.9407134628051
 51
269.0592865372201
  0
LINE
  5
238
330
1F
100
AcDbEntity
  8
DETAIL
  6
Continuous
100
AcDbLine
 10
304.5000305175726
 20
131.123218572362
 30
0.0
 11
295.5000305175762
 21
131.123218572362
 31
0.0
  0
LINE
  5
239
330
1F
100
AcDbEntity
  8
DETAIL
  6
Continuous
100
AcDbLine
 10
310.5000305175763
 20
137.1232185723611
 30
0.0
 11
310.5000305175763
 21
158.2141228082045
 31
0.0
  0
LINE
  5
23A
330
1F
100
AcDbEntity
  8
DETAIL
  6
Continuous
100
AcDbLine
 10
289.5000305175726
 20
158.2141228082045
 30
0.0
 11
289.5000305175726
 21
137.1232185723611
 31
0.0
  0
LINE
  5
23B
330
1F
100
AcDbEntity
  8
DETAIL
  6
Continuous
100
AcDbLine
 10
289.5711059570185
 20
158.1999855401372
 30
0.0
 11
310.4289550781122
 21
158.1999855401372
 31
0.0
  0
ARC
  5
23C
330
1F
100
AcDbEntity
  8
DETAIL
100
AcDbCircle
 10
-144.8937649089802
 20
71.37908274194069
 30
0.0
 40
5.999996507962912
100
AcDbArc
 50
359.9999666534816
 51
90.00003334655737
  0
ARC
  5
23D
330
1F
100
AcDbEntity
  8
DETAIL
100
AcDbCircle
 10
-153.7936035557159
 20
71.27891440459825
 30
0.0
 40
6.100987144400357
100
AcDbArc
 50
90.94071346277983
 51
179.0592865371948
  0
LINE
  5
23E
330
1F
100
AcDbEntity
  8
DETAIL
  6
Continuous
100
AcDbLine
 10
-144.8937684010215
 20
77.37907924990213
 30
0.0
 11
-153.8937684010179
 21
77.37907924990213
 31
0.0
  0
LINE
  5
23F
330
1F
100
AcDbEntity
  8
DETAIL
  6
Continuous
100
AcDbLine
 10
-138.8937684010179
 20
71.37907924990304
 30
0.0
 11
-138.8937684010179
 21
50.28817501405956
 31
0.0
  0
LINE
  5
240
330
1F
100
AcDbEntity
  8
DETAIL
  6
Continuous
100
AcDbLine
 10
-159.8937684010215
 20
50.28817501405956
 30
0.0
 11
-159.8937684010215
 21
71.37907924990304
 31
0.0
  0
LINE
  5
241
330
1F
100
AcDbEntity
  8
DETAIL
  6
Continuous
100
AcDbLine
 10
-159.8226929615757
 20
50.30231228212688
 30
0.0
 11
-138.964843840482
 21
50.30231228212688
 31
0.0
  0
LINE
  5
242
330
1F
100
AcDbEntity
  8
DETAIL
  6
Continuous
100
AcDbLine
 10
-289.4999694824237
 20
-138.1232337591736
 30
0.0
 11
-289.4999694824237
 21
-159.2141379950171
 31
0.0
  0
LINE
  5
243
330
1F
100
AcDbEntity
  8
DETAIL
  6
Continuous
100
AcDbLine
 10
-310.4999694824273
 20
-159.2141379950171
 30
0.0
 11
-310.4999694824273
 21
-138.1232337591736
 31
0.0
  0
LINE
  5
244
330
1F
100
AcDbEntity
  8
DETAIL
  6
Continuous
100
AcDbLine
 10
-310.4288940429814
 20
-159.2000007269498
 30
0.0
 11
-289.5710449218877
 21
-159.2000007269498
 31
0.0
  0
LINE
  5
245
330
1F
100
AcDbEntity
  8
DETAIL
  6
Continuous
100
AcDbLine
 10
-295.4999694824273
 20
-132.1232337591745
 30
0.0
 11
-304.4999694824237
 21
-132.1232337591745
 31
0.0
  0
ARC
  5
246
330
1F
100
AcDbEntity
  8
DETAIL
100
AcDbCircle
 10
-295.499965990386
 20
-138.1232302671369
 30
0.0
 40
5.999996507962912
100
AcDbArc
 50
359.9999666534816
 51
90.00003334655737
  0
ARC
  5
247
330
1F
100
AcDbEntity
  8
DETAIL
100
AcDbCircle
 10
-304.3998046371216
 20
-138.2233986044784
 30
0.0
 40
6.100987144400357
100
AcDbArc
 50
90.94071346277983
 51
179.0592865371948
  0
LINE
  5
248
330
1F
100
AcDbEntity
  8
DETAIL
  6
Continuous
100
AcDbLine
 10
310.5000305175763
 20
-138.1232337591736
 30
0.0
 11
310.5000305175763
 21
-159.2141379950171
 31
0.0
  0
LINE
  5
249
330
1F
100
AcDbEntity
  8
DETAIL
  6
Continuous
100
AcDbLine
 10
289.5000305175726
 20
-159.2141379950171
 30
0.0
 11
289.5000305175726
 21
-138.1232337591736
 31
0.0
  0
LINE
  5
24A
330
1F
100
AcDbEntity
  8
DETAIL
  6
Continuous
100
AcDbLine
 10
289.5711059570185
 20
-159.2000007269498
 30
0.0
 11
310.4289550781122
 21
-159.2000007269498
 31
0.0
  0
LINE
  5
24B
330
1F
100
AcDbEntity
  8
DETAIL
  6
Continuous
100
AcDbLine
 10
304.5000305175726
 20
-132.1232337591745
 30
0.0
 11
295.5000305175762
 21
-132.1232337591745
 31
0.0
  0
ARC
  5
24C
330
1F
100
AcDbEntity
  8
DETAIL
100
AcDbCircle
 10
304.5000340096139
 20
-138.1232302671369
 30
0.0
 40
5.999996507962912
100
AcDbArc
 50
359.9999666534816
 51
90.00003334655737
  0
ARC
  5
24D
330
1F
100
AcDbEntity
  8
DETAIL
100
AcDbCircle
 10
295.6001953628783
 20
-138.2233986044784
 30
0.0
 40
6.100987144400357
100
AcDbArc
 50
90.94071346277983
 51
179.0592865371948
  0
ARC
  5
24E
330
1F
100
AcDbEntity
  8
DETAIL
100
AcDbCircle
 10
300.0000305175672
 20
-179.599994623436
 30
0.0
 40
7.600006103517443
100
AcDbArc
 50
0.0000000000068745
 51
179.9999999999932
  0
ARC
  5
24F
330
1F
100
AcDbEntity
  8
DETAIL
100
AcDbCircle
 10
300.0000305175672
 20
-203.5999946234351
 30
0.0
 40
7.600006103517443
100
AcDbArc
 50
180.0000000000068
 51
0.0
  0
LINE
  5
250
330
1F
100
AcDbEntity
  8
DETAIL
  6
Continuous
100
AcDbLine
 10
265.0000305175672
 20
165.0000038506832
 30
0.0
 11
-264.9999694824346
 21
165.0000038506832
 31
0.0
  0
LINE
  5
251
330
1F
100
AcDbEntity
  8
DETAIL
  6
Continuous
100
AcDbLine
 10
335.0000305175654
 20
-165.0000037787085
 30
0.0
 11
509.9999999999872
 21
-165.0000037787085
 31
0.0
  0
LINE
  5
252
330
1F
100
AcDbEntity
  8
DETAIL
  6
Continuous
100
AcDbLine
 10
-265.0000000000018
 20
-165.0000037787085
 30
0.0
 11
265.0000305175653
 21
-165.0000037787085
 31
0.0
  0
LINE
  5
253
330
1F
100
AcDbEntity
  8
DETAIL
  6
Continuous
100
AcDbLine
 10
-334.9999694824327
 20
-190.0000037787085
 30
0.0
 11
-469.1577148437554
 21
-190.0000037787085
 31
0.0
  0
LINE
  5
254
330
1F
100
AcDbEntity
  8
DETAIL
  6
Continuous
100
AcDbLine
 10
-334.9999694824346
 20
180.7999992730465
 30
0.0
 11
-461.3665161132867
 21
180.7999992730456
 31
0.0
  0
LINE
  5
255
330
1F
100
AcDbEntity
  8
DETAIL
  6
Continuous
100
AcDbLine
 10
-334.9999694824346
 20
177.7999992730428
 30
0.0
 11
-461.3665161132867
 21
177.7999992730437
 31
0.0
  0
LINE
  5
256
330
1F
100
AcDbEntity
  8
DETAIL
  6
Continuous
100
AcDbLine
 10
-334.9999694824327
 20
165.0000038506832
 30
0.0
 11
-510.0000000000018
 21
165.0000038506832
 31
0.0
  0
ARC
  5
257
330
1F
100
AcDbEntity
  8
DETAIL
  6
Continuous
100
AcDbCircle
 10
-299.9999694824346
 20
-179.5999946234396
 30
0.0
 40
6.0
100
AcDbArc
 50
0.0
 51
180.0
  0
LINE
  5
258
330
1F
100
AcDbEntity
  8
DETAIL
  6
Continuous
100
AcDbLine
 10
-293.9999694824346
 20
-203.599994623436
 30
0.0
 11
-293.9999694824346
 21
-179.5999946234396
 31
0.0
  0
ARC
  5
259
330
1F
100
AcDbEntity
  8
DETAIL
100
AcDbCircle
 10
-299.9999694824328
 20
-179.599994623436
 30
0.0
 40
7.600006103517443
100
AcDbArc
 50
0.0000000000068745
 51
179.9999999999932
  0
LINE
  5
25A
330
1F
100
AcDbEntity
  8
DETAIL
  6
Continuous
100
AcDbLine
 10
-292.3999633789226
 20
-203.599994623436
 30
0.0
 11
-292.3999633789226
 21
-179.5999946234351
 31
0.0
  0
LINE
  5
25B
330
1F
100
AcDbEntity
  8
DETAIL
  6
Continuous
100
AcDbLine
 10
-305.9999694824345
 20
-179.5999946234396
 30
0.0
 11
-305.9999694824345
 21
-203.599994623436
 31
0.0
  0
LINE
  5
25C
330
1F
100
AcDbEntity
  8
DETAIL
  6
Continuous
100
AcDbLine
 10
-307.5999755859466
 20
-179.5999946234351
 30
0.0
 11
-307.5999755859466
 21
-203.599994623436
 31
0.0
  0
ARC
  5
25D
330
1F
100
AcDbEntity
  8
DETAIL
  6
Continuous
100
AcDbCircle
 10
-299.9999694824346
 20
-203.599994623436
 30
0.0
 40
6.0
100
AcDbArc
 50
180.0
 51
0.0
  0
ARC
  5
25E
330
1F
100
AcDbEntity
  8
DETAIL
100
AcDbCircle
 10
-299.9999694824328
 20
-203.5999946234351
 30
0.0
 40
7.600006103517443
100
AcDbArc
 50
180.0000000000068
 51
0.0
  0
ARC
  5
25F
330
1F
100
AcDbEntity
  8
DETAIL
100
AcDbCircle
 10
459.4462480217335
 20
-94.44622103074379
 30
0.0
 40
15.29820515678972
100
AcDbArc
 50
90.92225735316974
 51
179.0778013136881
  0
CIRCLE
  5
260
330
1F
100
AcDbEntity
  8
DETAIL
100
AcDbCircle
 10
483.0000305175653
 20
-109.000004081412
 30
0.0
 40
9.525
  0
CIRCLE
  5
261
330
1F
100
AcDbEntity
  8
DETAIL
100
AcDbCircle
 10
423.0000305175654
 20
-125.0000037787103
 30
0.0
 40
6.349999999999999
  0
LINE
  5
262
330
1F
100
AcDbEntity
  8
OUTLINE
  6
Continuous
100
AcDbLine
 10
335.0000305175654
 20
-167.0000190374994
 30
0.0
 11
335.0000305175654
 21
-209.5999946234396
 31
0.0
  0
LINE
  5
263
330
1F
100
AcDbEntity
  8
OUTLINE
  6
Continuous
100
AcDbLine
 10
265.0000305175653
 20
-167.0000190374994
 30
0.0
 11
265.0000305175653
 21
-209.5999946234396
 31
0.0
  0
LINE
  5
264
330
1F
100
AcDbEntity
  8
OUTLINE
  6
Continuous
100
AcDbLine
 10
-264.9999694824328
 20
-190.0000037787085
 30
0.0
 11
-264.9999694824346
 21
-209.5999946234396
 31
0.0
  0
LINE
  5
265
330
1F
100
AcDbEntity
  8
OUTLINE
  6
Continuous
100
AcDbLine
 10
-334.9999694824327
 20
-190.0000037787085
 30
0.0
 11
-334.9999694824346
 21
-209.5999946234396
 31
0.0
  0
ARC
  5
266
330
1F
100
AcDbEntity
  8
OUTLINE
  6
Continuous
100
AcDbCircle
 10
-324.9999772631436
 20
-212.6000024041504
 30
0.0
 40
4.999992219293091
100
AcDbArc
 50
179.9999108394603
 51
270.0000891605657
  0
LINE
  5
267
330
1F
100
AcDbEntity
  8
OUTLINE
  6
Continuous
100
AcDbLine
 10
-331.9999694824255
 20
-212.5999946234396
 30
0.0
 11
-329.9999694824346
 21
-212.5999946234369
 31
0.0
  0
ARC
  5
268
330
1F
100
AcDbEntity
  8
OUTLINE
  6
Continuous
100
AcDbCircle
 10
-331.999977263169
 20
-209.6000024041805
 30
0.0
 40
2.999992219268819
100
AcDbArc
 50
179.9998513984144
 51
270.0001486016375
  0
LINE
  5
269
330
1F
100
AcDbEntity
  8
OUTLINE
  6
Continuous
100
AcDbLine
 10
-267.9999694824346
 20
-212.599994623436
 30
0.0
 11
-269.9999694824346
 21
-212.5999946234369
 31
0.0
  0
ARC
  5
26A
330
1F
100
AcDbEntity
  8
OUTLINE
  6
Continuous
100
AcDbCircle
 10
-274.9999678052354
 20
-212.5999963006361
 30
0.0
 40
4.999998322800193
100
AcDbArc
 50
269.9999807807131
 51
0.0000192193129332
  0
ARC
  5
26B
330
1F
100
AcDbEntity
  8
OUTLINE
  6
Continuous
100
AcDbCircle
 10
-267.9999678052099
 20
-209.5999963006615
 30
0.0
 40
2.999998322775367
100
AcDbArc
 50
269.9999679673341
 51
0.0000320326658989
  0
LINE
  5
26C
330
1F
100
AcDbEntity
  8
OUTLINE
  6
Continuous
100
AcDbLine
 10
-274.9999694824345
 20
-217.5999946234369
 30
0.0
 11
-324.9999694824346
 21
-217.5999946234369
 31
0.0
  0
LINE
  5
26D
330
1F
100
AcDbEntity
  8
OUTLINE
  6
Continuous
100
AcDbLine
 10
325.0000305175654
 20
-216.0000190375003
 30
0.0
 11
275.0000305175654
 21
-216.0000190375003
 31
0.0
  0
LINE
  5
26E
330
1F
100
AcDbEntity
  8
OUTLINE
  6
Continuous
100
AcDbLine
 10
325.0000305175654
 20
-217.5999946234369
 30
0.0
 11
275.0000305175654
 21
-217.5999946234369
 31
0.0
  0
ARC
  5
26F
330
1F
100
AcDbEntity
  8
OUTLINE
  6
Continuous
100
AcDbCircle
 10
275.0000303662254
 20
-212.6000100335331
 30
0.0
 40
3.400009003964219
100
AcDbArc
 50
179.9997403143286
 51
270.0000025503778
  0
LINE
  5
270
330
1F
100
AcDbEntity
  8
OUTLINE
  6
Continuous
100
AcDbLine
 10
271.6000213622992
 20
-212.5999946234369
 30
0.0
 11
268.0000305175763
 21
-212.5999946234369
 31
0.0
  0
ARC
  5
271
330
1F
100
AcDbEntity
  8
OUTLINE
  6
Continuous
100
AcDbCircle
 10
268.0000227368309
 20
-209.6000024041805
 30
0.0
 40
2.999992219268135
100
AcDbArc
 50
179.9998513984144
 51
270.0001486016375
  0
ARC
  5
272
330
1F
100
AcDbEntity
  8
OUTLINE
  6
Continuous
100
AcDbCircle
 10
275.0000227368563
 20
-212.6000024041504
 30
0.0
 40
4.999992219292977
100
AcDbArc
 50
179.9999108394603
 51
270.0000891605657
  0
ARC
  5
273
330
1F
100
AcDbEntity
  8
OUTLINE
  6
Continuous
100
AcDbCircle
 10
325.0000169360264
 20
-212.6000115594515
 30
0.0
 40
3.400007478077102
100
AcDbArc
 50
270.0002288716808
 51
0.000285400000598
  0
LINE
  5
274
330
1F
100
AcDbEntity
  8
OUTLINE
  6
Continuous
100
AcDbLine
 10
332.0000305175653
 20
-212.5999946234378
 30
0.0
 11
328.400024414057
 21
-212.5999946234369
 31
0.0
  0
ARC
  5
275
330
1F
100
AcDbEntity
  8
OUTLINE
  6
Continuous
100
AcDbCircle
 10
325.0000321947645
 20
-212.5999963006361
 30
0.0
 40
4.999998322800193
100
AcDbArc
 50
269.9999807807131
 51
0.0000192193129332
  0
ARC
  5
276
330
1F
100
AcDbEntity
  8
OUTLINE
  6
Continuous
100
AcDbCircle
 10
332.00003219479
 20
-209.5999963006615
 30
0.0
 40
2.999998322775367
100
AcDbArc
 50
269.9999679673341
 51
0.0000320326658989
  0
LINE
  5
277
330
1F
100
AcDbEntity
  8
OUTLINE
  6
Continuous
100
AcDbLine
 10
-331.9999694824236
 20
194.3999977471694
 30
0.0
 11
-328.399963378908
 21
194.3999977471694
 31
0.0
  0
ARC
  5
278
330
1F
100
AcDbEntity
  8
OUTLINE
  6
Continuous
100
AcDbCircle
 10
-324.9999716199108
 20
194.3999998846548
 30
0.0
 40
4.999997862511465
100
AcDbArc
 50
89.99997550611786
 51
180.00002449383
  0
LINE
  5
279
330
1F
100
AcDbEntity
  8
OUTLINE
  6
Continuous
100
AcDbLine
 10
-525.0000000000018
 20
150.0000038506832
 30
0.0
 11
-525.0000000000018
 21
-150.0000037787085
 31
0.0
  0
LINE
  5
27A
330
1F
100
AcDbEntity
  8
OUTLINE
  6
Continuous
100
AcDbLine
 10
-334.9999694824346
 20
191.3999977471676
 30
0.0
 11
-334.9999694824327
 21
-190.0000037787085
 31
0.0
  0
ARC
  5
27B
330
1F
100
AcDbEntity
  8
OUTLINE
  6
Continuous
100
AcDbCircle
 10
-509.9999879443221
 20
-149.9999917230243
 30
0.0
 40
15.00001205569363
100
AcDbArc
 50
180.0000460492956
 51
269.9999539507303
  0
LINE
  5
27C
330
1F
100
AcDbEntity
  8
OUTLINE
  6
Continuous
100
AcDbLine
 10
-510.0000000000018
 20
-165.0000037787085
 30
0.0
 11
-334.9999694824327
 21
-165.0000037787076
 31
0.0
  0
LINE
  5
27D
330
1F
100
AcDbEntity
  8
OUTLINE
  6
Continuous
100
AcDbLine
 10
-334.9999694824327
 20
-190.0000037787085
 30
0.0
 11
-469.1577148437554
 21
-190.0000037787085
 31
0.0
  0
ARC
  5
27E
330
1F
100
AcDbEntity
  8
OUTLINE
100
AcDbCircle
 10
-469.1577148437554
 20
-184.0000037787085
 30
0.0
 40
6.0
100
AcDbArc
 50
180.0000000000055
 51
270.0
  0
LINE
  5
27F
330
1F
100
AcDbEntity
  8
OUTLINE
100
AcDbLine
 10
-475.1577148437554
 20
-184.0000037787094
 30
0.0
 11
-475.1577148437554
 21
-165.0000037787085
 31
0.0
  0
ARC
  5
280
330
1F
100
AcDbEntity
  8
OUTLINE
  6
Continuous
100
AcDbCircle
 10
-509.9999838269122
 20
149.9999876775982
 30
0.0
 40
15.00001617309575
100
AcDbArc
 50
90.00006177654724
 51
179.9999382234267
  0
LINE
  5
281
330
1F
100
AcDbEntity
  8
OUTLINE
  6
Continuous
100
AcDbLine
 10
-334.9999694824346
 20
180.7999992730465
 30
0.0
 11
-461.3665161132867
 21
180.7999992730456
 31
0.0
  0
LINE
  5
282
330
1F
100
AcDbEntity
  8
OUTLINE
  6
Continuous
100
AcDbLine
 10
-334.9999694824346
 20
177.7999992730428
 30
0.0
 11
-461.3665161132867
 21
177.7999992730437
 31
0.0
  0
LINE
  5
283
330
1F
100
AcDbEntity
  8
OUTLINE
  6
Continuous
100
AcDbLine
 10
-334.9999694824327
 20
165.0000038506832
 30
0.0
 11
-510.0000000000018
 21
165.0000038506832
 31
0.0
  0
ARC
  5
284
330
1F
100
AcDbEntity
  8
OUTLINE
100
AcDbCircle
 10
-461.0286861700878
 20
176.2148421830343
 30
0.0
 40
4.597585737168428
100
AcDbArc
 50
94.21388350712202
 51
145.7859773649081
  0
ARC
  5
285
330
1F
100
AcDbEntity
  8
OUTLINE
100
AcDbCircle
 10
-461.2821022024927
 20
176.653785474863
 30
0.0
 40
1.149317962738672
100
AcDbArc
 50
94.21199355029654
 51
145.7878673211844
  0
ARC
  5
286
330
1F
100
AcDbEntity
  8
OUTLINE
100
AcDbCircle
 10
-471.6433771034753
 20
169.0000099905901
 30
0.0
 40
1.000013769316874
100
AcDbArc
 50
270.0003163509841
 51
329.9995445210357
  0
LINE
  5
287
330
1F
100
AcDbEntity
  8
OUTLINE
  6
Continuous
100
AcDbLine
 10
-470.7773437499981
 20
168.4999962212905
 30
0.0
 11
-464.830627441408
 21
178.7999992730474
 31
0.0
  0
LINE
  5
288
330
1F
100
AcDbEntity
  8
OUTLINE
  6
Continuous
100
AcDbLine
 10
-498.2635498046893
 20
167.9265785577135
 30
0.0
 11
-471.643371582033
 21
167.9999962212887
 31
0.0
  0
ARC
  5
289
330
1F
100
AcDbEntity
  8
OUTLINE
100
AcDbCircle
 10
-471.6433454072066
 20
168.9999677084333
 30
0.0
 40
3.999971487232676
100
AcDbArc
 50
269.9996250705566
 51
330.0002358015441
  0
ARC
  5
28A
330
1F
100
AcDbEntity
  8
OUTLINE
100
AcDbCircle
 10
-490.1494163783882
 20
166.4632912041988
 30
0.0
 40
1.550969182181833
100
AcDbArc
 50
109.3579073171617
 51
250.642092682841
  0
ARC
  5
28B
330
1F
100
AcDbEntity
  8
OUTLINE
100
AcDbCircle
 10
-497.7494529994856
 20
166.4632912041988
 30
0.0
 40
1.550969182181833
100
AcDbArc
 50
109.3579073171617
 51
250.642092682841
  0
LINE
  5
28C
330
1F
100
AcDbEntity
  8
OUTLINE
  6
Continuous
100
AcDbLine
 10
-462.2325439453216
 20
177.2999992730465
 30
0.0
 11
-468.1792602539116
 21
166.9999962212896
 31
0.0
  0
ARC
  5
28D
330
1F
100
AcDbEntity
  8
OUTLINE
  6
Continuous
100
AcDbCircle
 10
-331.9999716198817
 20
191.3999998846256
 30
0.0
 40
2.999997862540873
100
AcDbArc
 50
89.99995917748845
 51
180.0000408225114
  0
LINE
  5
28E
330
1F
100
AcDbEntity
  8
OUTLINE
  6
Continuous
100
AcDbLine
 10
510.0000305175781
 20
165.0000038506841
 30
0.0
 11
335.0000305175654
 21
165.0000038506841
 31
0.0
  0
LINE
  5
28F
330
1F
100
AcDbEntity
  8
OUTLINE
  6
Continuous
100
AcDbLine
 10
335.0000305175654
 20
-165.0000037787085
 30
0.0
 11
509.9999999999872
 21
-165.0000037787085
 31
0.0
  0
LINE
  5
290
330
1F
100
AcDbEntity
  8
OUTLINE
  6
Continuous
100
AcDbLine
 10
191.9000244140606
 20
180.7999992730456
 30
0.0
 11
-264.9999694824346
 21
180.7999992730456
 31
0.0
  0
LINE
  5
291
330
1F
100
AcDbEntity
  8
OUTLINE
  6
Continuous
100
AcDbLine
 10
191.9000244140606
 20
177.7999992730437
 30
0.0
 11
-264.999938964851
 21
177.7999992730437
 31
0.0
  0
LINE
  5
292
330
1F
100
AcDbEntity
  8
OUTLINE
  6
Continuous
100
AcDbLine
 10
143.139262140301
 20
-190.0000037787085
 30
0.0
 11
-264.9999694824328
 21
-190.0000037787085
 31
0.0
  0
LINE
  5
293
330
1F
100
AcDbEntity
  8
OUTLINE
  6
Continuous
100
AcDbLine
 10
265.0000305175672
 20
165.0000038506832
 30
0.0
 11
-264.9999694824346
 21
165.0000038506832
 31
0.0
  0
LINE
  5
294
330
1F
100
AcDbEntity
  8
OUTLINE
  6
Continuous
100
AcDbLine
 10
-265.0000000000018
 20
-165.0000037787085
 30
0.0
 11
265.0000305175653
 21
-165.0000037787085
 31
0.0
  0
LINE
  5
295
330
1F
100
AcDbEntity
  8
OUTLINE
  6
Continuous
100
AcDbLine
 10
-264.9999694824346
 20
191.3999977471676
 30
0.0
 11
-264.9999694824328
 21
-190.0000037787085
 31
0.0
  0
ARC
  5
296
330
1F
100
AcDbEntity
  8
OUTLINE
  6
Continuous
100
AcDbCircle
 10
-274.9999734484499
 20
194.399993781154
 30
0.0
 40
3.399997862503181
100
AcDbArc
 50
0.0000668341816535
 51
89.99993316584442
  0
ARC
  5
297
330
1F
100
AcDbEntity
  8
OUTLINE
  6
Continuous
100
AcDbCircle
 10
-288.9999716199254
 20
194.3999998846593
 30
0.0
 40
3.399991758996283
100
AcDbArc
 50
89.99996397954833
 51
180.0000360203995
  0
ARC
  5
298
330
1F
100
AcDbEntity
  8
OUTLINE
  6
Continuous
100
AcDbCircle
 10
-288.9999716199254
 20
194.3999998846548
 30
0.0
 40
4.999997862511465
100
AcDbArc
 50
89.99997550611786
 51
180.00002449383
  0
ARC
  5
299
330
1F
100
AcDbEntity
  8
OUTLINE
  6
Continuous
100
AcDbCircle
 10
-274.9999734484499
 20
194.399993781154
 30
0.0
 40
5.000003966017837
100
AcDbArc
 50
0.0000454471622229
 51
89.99995455281172
  0
ARC
  5
29A
330
1F
100
AcDbEntity
  8
OUTLINE
  6
Continuous
100
AcDbCircle
 10
-324.9999716199108
 20
194.3999998846593
 30
0.0
 40
3.399991758995373
100
AcDbArc
 50
89.99996397954833
 51
180.0000360203995
  0
ARC
  5
29B
330
1F
100
AcDbEntity
  8
OUTLINE
  6
Continuous
100
AcDbCircle
 10
-310.9999734484536
 20
194.399993781154
 30
0.0
 40
3.399997862503181
100
AcDbArc
 50
0.0000668341816535
 51
89.99993316584442
  0
ARC
  5
29C
330
1F
100
AcDbEntity
  8
OUTLINE
  6
Continuous
100
AcDbCircle
 10
-310.9999734484354
 20
194.399993781154
 30
0.0
 40
5.000003966017837
100
AcDbArc
 50
0.0000454471622229
 51
89.99995455281172
  0
LINE
  5
29D
330
1F
100
AcDbEntity
  8
OUTLINE
  6
Continuous
100
AcDbLine
 10
-292.3999633789226
 20
180.3999977471685
 30
0.0
 11
-292.3999633789226
 21
194.3999977471694
 31
0.0
  0
LINE
  5
29E
330
1F
100
AcDbEntity
  8
OUTLINE
  6
Continuous
100
AcDbLine
 10
-271.5999755859429
 20
194.3999977471694
 30
0.0
 11
-267.9999694824273
 21
194.3999977471694
 31
0.0
  0
LINE
  5
29F
330
1F
100
AcDbEntity
  8
OUTLINE
  6
Continuous
100
AcDbLine
 10
-293.9999694824309
 20
180.7999992730456
 30
0.0
 11
-293.9999694824309
 21
194.3999977471694
 31
0.0
  0
ARC
  5
2A0
330
1F
100
AcDbEntity
  8
OUTLINE
  6
Continuous
100
AcDbCircle
 10
-267.999973448479
 20
191.3999937811249
 30
0.0
 40
3.000003966047763
100
AcDbArc
 50
0.0000757457827885
 51
89.99992425416508
  0
LINE
  5
2A1
330
1F
100
AcDbEntity
  8
OUTLINE
  6
Continuous
100
AcDbLine
 10
-307.5999755859466
 20
194.3999977471694
 30
0.0
 11
-307.5999755859466
 21
180.3999977471685
 31
0.0
  0
LINE
  5
2A2
330
1F
100
AcDbEntity
  8
OUTLINE
  6
Continuous
100
AcDbLine
 10
-305.99996948242
 20
194.3999977471694
 30
0.0
 11
-305.99996948242
 21
180.7999992730456
 31
0.0
  0
ARC
  5
2A3
330
1F
100
AcDbEntity
  8
OUTLINE
  6
Continuous
100
AcDbCircle
 10
-299.9999694824346
 20
180.3999977471685
 30
0.0
 40
7.600006103516081
100
AcDbArc
 50
180.0
 51
0.0
  0
ARC
  5
2A4
330
1F
100
AcDbEntity
  8
OUTLINE
  6
Continuous
100
AcDbCircle
 10
-299.9999694824255
 20
180.4112364641789
 30
0.0
 40
6.012581518906204
100
AcDbArc
 50
176.2927707833232
 51
3.707229216676718
  0
LINE
  5
2A5
330
1F
100
AcDbEntity
  8
OUTLINE
  6
Continuous
100
AcDbLine
 10
-288.9999694824309
 20
197.799991643652
 30
0.0
 11
-274.9999694824345
 21
197.799991643652
 31
0.0
  0
LINE
  5
2A6
330
1F
100
AcDbEntity
  8
OUTLINE
  6
Continuous
100
AcDbLine
 10
-288.9999694824309
 20
199.3999977471694
 30
0.0
 11
-274.9999694824345
 21
199.3999977471694
 31
0.0
  0
LINE
  5
2A7
330
1F
100
AcDbEntity
  8
OUTLINE
  6
Continuous
100
AcDbLine
 10
-324.9999694824346
 20
197.799991643652
 30
0.0
 11
-310.9999694824382
 21
197.799991643652
 31
0.0
  0
LINE
  5
2A8
330
1F
100
AcDbEntity
  8
OUTLINE
  6
Continuous
100
AcDbLine
 10
-324.9999694824346
 20
199.3999977471694
 30
0.0
 11
-310.99996948242
 21
199.3999977471694
 31
0.0
  0
LINE
  5
2A9
330
1F
100
AcDbEntity
  8
OUTLINE
  6
Continuous
100
AcDbLine
 10
335.0000305175654
 20
191.3999977471676
 30
0.0
 11
335.0000305175654
 21
-167.0000190374994
 31
0.0
  0
LINE
  5
2AA
330
1F
100
AcDbEntity
  8
OUTLINE
  6
Continuous
100
AcDbLine
 10
265.0000305175653
 20
191.3999977471676
 30
0.0
 11
265.0000305175653
 21
-167.0000190374994
 31
0.0
  0
ARC
  5
2AB
330
1F
100
AcDbEntity
  8
OUTLINE
  6
Continuous
100
AcDbCircle
 10
212.7573367328277
 20
-167.9999846161072
 30
0.0
 40
2.999980837422236
100
AcDbArc
 50
44.99949807818188
 51
90.00023900305165
  0
ARC
  5
2AC
330
1F
100
AcDbEntity
  8
OUTLINE
100
AcDbCircle
 10
143.139262140301
 20
-184.0000037787085
 30
0.0
 40
6.0
100
AcDbArc
 50
270.0
 51
0.0
  0
LINE
  5
2AD
330
1F
100
AcDbEntity
  8
OUTLINE
100
AcDbLine
 10
149.139262140301
 20
-184.0000037787094
 30
0.0
 11
149.1392621403028
 21
-165.0000037787085
 31
0.0
  0
LINE
  5
2AE
330
1F
100
AcDbEntity
  8
OUTLINE
  6
Continuous
100
AcDbLine
 10
217.2426757812518
 20
-167.0000037787112
 30
0.0
 11
223.9999999999945
 21
-167.0000037787112
 31
0.0
  0
LINE
  5
2AF
330
1F
100
AcDbEntity
  8
OUTLINE
  6
Continuous
100
AcDbLine
 10
214.8786621093659
 20
-165.8786964056653
 30
0.0
 11
215.1213378906122
 21
-166.121311151759
 31
0.0
  0
ARC
  5
2B0
330
1F
100
AcDbEntity
  8
OUTLINE
  6
Continuous
100
AcDbCircle
 10
217.2426702037573
 20
-164.0000061949731
 30
0.0
 40
2.999997583740558
100
AcDbArc
 50
224.9996305590268
 51
270.0001065221237
  0
LINE
  5
2B1
330
1F
100
AcDbEntity
  8
OUTLINE
  6
Continuous
100
AcDbLine
 10
265.0000305175672
 20
-167.0000037787112
 30
0.0
 11
223.9999999999945
 21
-167.0000037787112
 31
0.0
  0
LINE
  5
2B2
330
1F
100
AcDbEntity
  8
OUTLINE
  6
Continuous
100
AcDbLine
 10
339.1213378906268
 20
-165.8786964056653
 30
0.0
 11
338.8786621093622
 21
-166.121311151759
 31
0.0
  0
ARC
  5
2B3
330
1F
100
AcDbEntity
  8
OUTLINE
  6
Continuous
100
AcDbCircle
 10
341.2426704177942
 20
-168.0000018791806
 30
0.0
 40
2.999998100476906
100
AcDbArc
 50
89.99989756571368
 51
135.0003653530951
  0
LINE
  5
2B4
330
1F
100
AcDbEntity
  8
OUTLINE
  6
Continuous
100
AcDbLine
 10
336.243041992182
 20
-167.0000037787112
 30
0.0
 11
337.1843261718622
 21
-166.9694556830099
 31
0.0
  0
LINE
  5
2B5
330
1F
100
AcDbEntity
  8
OUTLINE
  6
Continuous
100
AcDbLine
 10
335.0000305175654
 20
-167.0000037787112
 30
0.0
 11
336.243041992182
 21
-167.0000037787112
 31
0.0
  0
ARC
  5
2B6
330
1F
100
AcDbEntity
  8
OUTLINE
  6
Continuous
100
AcDbCircle
 10
336.7573466785306
 20
-164.0000226266774
 30
0.0
 40
2.999974027183649
100
AcDbArc
 50
278.1825644195621
 51
315.0003633585593
  0
LINE
  5
2B7
330
1F
100
AcDbEntity
  8
OUTLINE
  6
Continuous
100
AcDbLine
 10
225.900024414057
 20
177.0499992730456
 30
0.0
 11
180.8972778320258
 21
177.0499992730456
 31
0.0
  0
LINE
  5
2B8
330
1F
100
AcDbEntity
  8
OUTLINE
  6
Continuous
100
AcDbLine
 10
184.0586269399664
 20
183.0499992730447
 30
0.0
 11
221.9000235221192
 21
183.0499992730447
 31
0.0
  0
LINE
  5
2B9
330
1F
100
AcDbEntity
  8
OUTLINE
  6
Continuous
100
AcDbLine
 10
221.900024414057
 20
171.0499992730483
 30
0.0
 11
184.0586242675799
 21
171.0499992730465
 31
0.0
  0
LINE
  5
2BA
330
1F
100
AcDbEntity
  8
OUTLINE
  6
Continuous
100
AcDbLine
 10
231.3883209228497
 20
177.7999992730437
 30
0.0
 11
207.9000244140643
 21
177.7999992730437
 31
0.0
  0
LINE
  5
2BB
330
1F
100
AcDbEntity
  8
OUTLINE
  6
Continuous
100
AcDbLine
 10
231.3883209228497
 20
180.7999992730456
 30
0.0
 11
207.9000244140643
 21
180.7999992730456
 31
0.0
  0
LINE
  5
2BC
330
1F
100
AcDbEntity
  8
OUTLINE
  6
Continuous
100
AcDbLine
 10
191.9000244140606
 20
183.0499992730447
 30
0.0
 11
191.9000244140606
 21
171.0901063689916
 31
0.0
  0
LINE
  5
2BD
330
1F
100
AcDbEntity
  8
OUTLINE
  6
Continuous
100
AcDbLine
 10
181.3069915771466
 20
181.2451973321285
 30
0.0
 11
181.1656188964825
 21
180.7999992730456
 31
0.0
  0
LINE
  5
2BE
330
1F
100
AcDbEntity
  8
OUTLINE
  6
Continuous
100
AcDbLine
 10
180.9365844726544
 20
177.7999992730437
 30
0.0
 11
180.8972778320258
 21
177.0499992730456
 31
0.0
  0
LINE
  5
2BF
330
1F
100
AcDbEntity
  8
OUTLINE
  6
Continuous
100
AcDbLine
 10
207.9000244140643
 20
183.0499992730447
 30
0.0
 11
207.9000244140643
 21
171.0687159178223
 31
0.0
  0
ARC
  5
2C0
330
1F
100
AcDbEntity
  8
OUTLINE
  6
Continuous
100
AcDbCircle
 10
184.0586269399664
 20
180.0500005002286
 30
0.0
 40
2.999998772820216
100
AcDbArc
 50
90.00005103892624
 51
156.521862997538
  0
LINE
  5
2C1
330
1F
100
AcDbEntity
  8
OUTLINE
  6
Continuous
100
AcDbLine
 10
180.8972778320258
 20
177.0499992730456
 30
0.0
 11
181.0627288818231
 21
173.8929863335952
 31
0.0
  0
LINE
  5
2C2
330
1F
100
AcDbEntity
  8
OUTLINE
  6
Continuous
100
AcDbLine
 10
205.900024414057
 20
175.0499992730428
 30
0.0
 11
193.9000244140497
 21
175.0499992730428
 31
0.0
  0
LINE
  5
2C3
330
1F
100
AcDbEntity
  8
OUTLINE
  6
Continuous
100
AcDbLine
 10
193.9000244140497
 20
171.0874325625955
 30
0.0
 11
193.9000244140497
 21
175.0499992730428
 31
0.0
  0
LINE
  5
2C4
330
1F
100
AcDbEntity
  8
OUTLINE
  6
Continuous
100
AcDbLine
 10
205.900024414057
 20
171.0813713433581
 30
0.0
 11
205.900024414057
 21
175.0499992730428
 31
0.0
  0
LINE
  5
2C5
330
1F
100
AcDbEntity
  8
OUTLINE
  6
Continuous
100
AcDbLine
 10
184.0586242675799
 20
171.0499992730465
 30
0.0
 11
183.2821655273419
 21
171.1522179009771
 31
0.0
  0
ARC
  5
2C6
330
1F
100
AcDbEntity
  8
OUTLINE
  6
Continuous
100
AcDbCircle
 10
184.0586184914518
 20
174.049997727935
 30
0.0
 40
3.000001188498706
100
AcDbArc
 50
183.0000662369811
 51
255.0000885561681
  0
ARC
  5
2C7
330
1F
100
AcDbEntity
  8
OUTLINE
  6
Continuous
100
AcDbCircle
 10
311.0000283800745
 20
194.3999998846593
 30
0.0
 40
3.399991758996738
100
AcDbArc
 50
89.99996397954833
 51
180.0000360203995
  0
ARC
  5
2C8
330
1F
100
AcDbEntity
  8
OUTLINE
  6
Continuous
100
AcDbCircle
 10
275.0000207506837
 20
194.3999922552766
 30
0.0
 40
3.399999388391393
100
AcDbArc
 50
89.9998354112632
 51
179.9999074522447
  0
ARC
  5
2C9
330
1F
100
AcDbEntity
  8
OUTLINE
  6
Continuous
100
AcDbCircle
 10
289.0000265515464
 20
194.399993781154
 30
0.0
 40
3.399997862503181
100
AcDbArc
 50
0.0000668341816535
 51
89.99993316584442
  0
ARC
  5
2CA
330
1F
100
AcDbEntity
  8
OUTLINE
  6
Continuous
100
AcDbCircle
 10
325.00002655155
 20
194.399993781154
 30
0.0
 40
3.399997862503181
100
AcDbArc
 50
0.0000668341816535
 51
89.99993316584442
  0
ARC
  5
2CB
330
1F
100
AcDbEntity
  8
OUTLINE
  6
Continuous
100
AcDbCircle
 10
289.0000265515464
 20
194.399993781154
 30
0.0
 40
5.000003966018521
100
AcDbArc
 50
0.0000454471622229
 51
89.99995455281172
  0
ARC
  5
2CC
330
1F
100
AcDbEntity
  8
OUTLINE
  6
Continuous
100
AcDbCircle
 10
311.0000283800745
 20
194.3999998846548
 30
0.0
 40
4.999997862511465
100
AcDbArc
 50
89.99997550611786
 51
180.00002449383
  0
ARC
  5
2CD
330
1F
100
AcDbEntity
  8
OUTLINE
  6
Continuous
100
AcDbCircle
 10
325.00002655155
 20
194.399993781154
 30
0.0
 40
5.000003966018521
100
AcDbArc
 50
0.0000454471622229
 51
89.99995455281172
  0
ARC
  5
2CE
330
1F
100
AcDbEntity
  8
OUTLINE
  6
Continuous
100
AcDbCircle
 10
275.0000283800891
 20
194.3999998846548
 30
0.0
 40
4.999997862511465
100
AcDbArc
 50
89.99997550611786
 51
180.00002449383
  0
ARC
  5
2CF
330
1F
100
AcDbEntity
  8
OUTLINE
  6
Continuous
100
AcDbCircle
 10
300.0000305175654
 20
180.3999977471685
 30
0.0
 40
7.600006103515852
100
AcDbArc
 50
180.0
 51
0.0
  0
ARC
  5
2D0
330
1F
100
AcDbEntity
  8
OUTLINE
  6
Continuous
100
AcDbCircle
 10
300.0000305175654
 20
180.3999977471685
 30
0.0
 40
6.0
100
AcDbArc
 50
180.0
 51
0.0
  0
LINE
  5
2D1
330
1F
100
AcDbEntity
  8
OUTLINE
  6
Continuous
100
AcDbLine
 10
292.4000244140533
 20
194.3999977471694
 30
0.0
 11
292.4000244140533
 21
180.3999977471685
 31
0.0
  0
LINE
  5
2D2
330
1F
100
AcDbEntity
  8
OUTLINE
  6
Continuous
100
AcDbLine
 10
294.0000305175799
 20
194.3999977471694
 30
0.0
 11
294.0000305175799
 21
180.3999977471685
 31
0.0
  0
LINE
  5
2D3
330
1F
100
AcDbEntity
  8
OUTLINE
  6
Continuous
100
AcDbLine
 10
268.0000305175763
 20
194.3999977471694
 30
0.0
 11
271.6000213622992
 21
194.3999977471694
 31
0.0
  0
ARC
  5
2D4
330
1F
100
AcDbEntity
  8
OUTLINE
  6
Continuous
100
AcDbCircle
 10
268.0000283801182
 20
191.3999998846256
 30
0.0
 40
2.999997862540873
100
AcDbArc
 50
89.99995917748845
 51
180.0000408225114
  0
ARC
  5
2D5
330
1F
100
AcDbEntity
  8
OUTLINE
100
AcDbCircle
 10
221.9000260200973
 20
175.0499976670107
 30
0.0
 40
3.999998393963077
100
AcDbArc
 50
269.9999769951578
 51
0.0000230048047259
  0
ARC
  5
2D6
330
1F
100
AcDbEntity
  8
OUTLINE
100
AcDbCircle
 10
231.3882859354817
 20
176.799921849567
 30
0.0
 40
4.000077423630019
100
AcDbArc
 50
30.00064027546269
 51
89.99949885256873
  0
ARC
  5
2D7
330
1F
100
AcDbEntity
  8
OUTLINE
100
AcDbCircle
 10
231.3883154014183
 20
176.7999855037533
 30
0.0
 40
1.000013769305619
100
AcDbArc
 50
30.00045547894405
 51
89.99968364964116
  0
LINE
  5
2D8
330
1F
100
AcDbEntity
  8
OUTLINE
  6
Continuous
100
AcDbLine
 10
225.4563751220648
 20
180.7999992730456
 30
0.0
 11
225.1679077148383
 21
181.3567161919909
 31
0.0
  0
LINE
  5
2D9
330
1F
100
AcDbEntity
  8
OUTLINE
  6
Continuous
100
AcDbLine
 10
218.5945892333966
 20
180.9770470025396
 30
0.0
 11
218.6363983154278
 21
180.7999992730456
 31
0.0
  0
ARC
  5
2DA
330
1F
100
AcDbEntity
  8
OUTLINE
  6
Continuous
100
AcDbCircle
 10
221.9000235221192
 20
179.0499963080365
 30
0.0
 40
4.000002965009712
100
AcDbArc
 50
35.21733670015661
 51
89.99998722393188
  0
LINE
  5
2DB
330
1F
100
AcDbEntity
  8
OUTLINE
  6
Continuous
100
AcDbLine
 10
225.900024414057
 20
175.0499992730428
 30
0.0
 11
225.900024414057
 21
177.7999992730437
 31
0.0
  0
ARC
  5
2DC
330
1F
100
AcDbEntity
  8
OUTLINE
  6
Continuous
100
AcDbCircle
 10
215.7414204740034
 20
180.0500018147713
 30
0.0
 40
2.999997458277343
100
AcDbArc
 50
17.99989939344546
 51
89.9999219529783
  0
LINE
  5
2DD
330
1F
100
AcDbEntity
  8
OUTLINE
  6
Continuous
100
AcDbLine
 10
239.355743408194
 20
165.0000038506832
 30
0.0
 11
232.2543487548846
 21
177.2999992730465
 31
0.0
  0
LINE
  5
2DE
330
1F
100
AcDbEntity
  8
OUTLINE
  6
Continuous
100
AcDbLine
 10
234.8524322509711
 20
178.7999992730474
 30
0.0
 11
242.8198547363153
 21
165.0000038506832
 31
0.0
  0
LINE
  5
2DF
330
1F
100
AcDbEntity
  8
OUTLINE
  6
Continuous
100
AcDbLine
 10
239.355743408194
 20
165.0000038506832
 30
0.0
 11
232.2543487548846
 21
177.2999992730465
 31
0.0
  0
LINE
  5
2E0
330
1F
100
AcDbEntity
  8
OUTLINE
  6
Continuous
100
AcDbLine
 10
234.8524322509711
 20
178.7999992730474
 30
0.0
 11
242.8198547363153
 21
165.0000038506832
 31
0.0
  0
LINE
  5
2E1
330
1F
100
AcDbEntity
  8
OUTLINE
  6
Continuous
100
AcDbLine
 10
239.355743408194
 20
165.0000038506832
 30
0.0
 11
232.2543487548846
 21
177.2999992730465
 31
0.0
  0
LINE
  5
2E2
330
1F
100
AcDbEntity
  8
OUTLINE
  6
Continuous
100
AcDbLine
 10
234.8524322509711
 20
178.7999992730474
 30
0.0
 11
242.8198547363153
 21
165.0000038506832
 31
0.0
  0
LINE
  5
2E3
330
1F
100
AcDbEntity
  8
OUTLINE
  6
Continuous
100
AcDbLine
 10
220.6500244140606
 20
171.0499992730465
 30
0.0
 11
220.6500244140606
 21
165.0000038506832
 31
0.0
  0
LINE
  5
2E4
330
1F
100
AcDbEntity
  8
OUTLINE
  6
Continuous
100
AcDbLine
 10
223.1500244140606
 20
171.2772484185561
 30
0.0
 11
223.1500244140606
 21
165.0000038506832
 31
0.0
  0
LINE
  5
2E5
330
1F
100
AcDbEntity
  8
OUTLINE
  6
Continuous
100
AcDbLine
 10
307.6000366210773
 20
180.3999977471685
 30
0.0
 11
307.6000366210773
 21
194.3999977471694
 31
0.0
  0
LINE
  5
2E6
330
1F
100
AcDbEntity
  8
OUTLINE
  6
Continuous
100
AcDbLine
 10
306.000030517569
 20
180.3999977471685
 30
0.0
 11
306.000030517569
 21
194.3999977471694
 31
0.0
  0
LINE
  5
2E7
330
1F
100
AcDbEntity
  8
OUTLINE
  6
Continuous
100
AcDbLine
 10
332.0000305175635
 20
194.3999977471694
 30
0.0
 11
328.400024414057
 21
194.3999977471694
 31
0.0
  0
ARC
  5
2E8
330
1F
100
AcDbEntity
  8
OUTLINE
  6
Continuous
100
AcDbCircle
 10
332.0000265515209
 20
191.3999937811249
 30
0.0
 40
3.000003966047536
100
AcDbArc
 50
0.0000757457827885
 51
89.99992425426932
  0
LINE
  5
2E9
330
1F
100
AcDbEntity
  8
OUTLINE
  6
Continuous
100
AcDbLine
 10
275.0000305175654
 20
197.799991643652
 30
0.0
 11
289.0000305175617
 21
197.799991643652
 31
0.0
  0
LINE
  5
2EA
330
1F
100
AcDbEntity
  8
OUTLINE
  6
Continuous
100
AcDbLine
 10
275.0000305175654
 20
199.3999977471694
 30
0.0
 11
289.0000305175799
 21
199.3999977471694
 31
0.0
  0
LINE
  5
2EB
330
1F
100
AcDbEntity
  8
OUTLINE
  6
Continuous
100
AcDbLine
 10
311.000030517569
 20
197.799991643652
 30
0.0
 11
325.0000305175654
 21
197.799991643652
 31
0.0
  0
LINE
  5
2EC
330
1F
100
AcDbEntity
  8
OUTLINE
  6
Continuous
100
AcDbLine
 10
311.000030517569
 20
199.3999977471694
 30
0.0
 11
325.0000305175654
 21
199.3999977471694
 31
0.0
  0
LINE
  5
2ED
330
1F
100
AcDbEntity
  8
OUTLINE
  6
Continuous
100
AcDbLine
 10
525.0000305175653
 20
-150.0000037787085
 30
0.0
 11
525.0000305175653
 21
150.0000038506832
 31
0.0
  0
LINE
  5
2EE
330
1F
100
AcDbEntity
  8
OUTLINE
  6
Continuous
100
AcDbLine
 10
526.9999999999872
 20
-63.75735851503941
 30
0.0
 11
526.9999999999872
 21
-57.00000377871129
 31
0.0
  0
LINE
  5
2EF
330
1F
100
AcDbEntity
  8
OUTLINE
  6
Continuous
100
AcDbLine
 10
525.8787231445222
 20
-66.12132641054723
 30
0.0
 11
526.1213378906159
 21
-65.87868114687717
 31
0.0
  0
ARC
  5
2F0
330
1F
100
AcDbEntity
  8
OUTLINE
  6
Continuous
100
AcDbCircle
 10
528.0000047609592
 20
-68.24269221385657
 30
0.0
 40
3.000004761271592
100
AcDbArc
 50
134.9988630794738
 51
179.9991754869128
  0
ARC
  5
2F1
330
1F
100
AcDbEntity
  8
OUTLINE
  6
Continuous
100
AcDbCircle
 10
524.0000155509533
 20
-63.75738479171923
 30
0.0
 40
2.999984449147369
100
AcDbArc
 50
315.000350915865
 51
0.0005018502232593
  0
ARC
  5
2F2
330
1F
100
AcDbEntity
  8
OUTLINE
100
AcDbCircle
 10
510.5502903990145
 20
-150.5502647796975
 30
0.0
 40
14.46021357597423
100
AcDbArc
 50
267.8190548570497
 51
2.180828574516186
  0
LINE
  5
2F3
330
1F
100
AcDbEntity
  8
OUTLINE
  6
Continuous
100
AcDbLine
 10
525.8787231445222
 20
-35.87868114687717
 30
0.0
 11
526.1213378906159
 21
-36.12132641054722
 31
0.0
  0
LINE
  5
2F4
330
1F
100
AcDbEntity
  8
OUTLINE
  6
Continuous
100
AcDbLine
 10
526.9999999999872
 20
-45.00000377871311
 30
0.0
 11
526.9999999999872
 21
-38.75702282168186
 31
0.0
  0
LINE
  5
2F5
330
1F
100
AcDbEntity
  8
OUTLINE
  6
Continuous
100
AcDbLine
 10
526.9999999999872
 20
-57.00000377871129
 30
0.0
 11
526.9999999999872
 21
-45.00000377871311
 31
0.0
  0
LINE
  5
2F6
330
1F
100
AcDbEntity
  8
OUTLINE
  6
Continuous
100
AcDbLine
 10
526.9999999999872
 20
-38.75702282168186
 30
0.0
 11
526.9694824218622
 21
-37.81569286562353
 31
0.0
  0
ARC
  5
2F7
330
1F
100
AcDbEntity
  8
OUTLINE
  6
Continuous
100
AcDbCircle
 10
528.0000045470642
 20
-33.75731543216625
 30
0.0
 40
3.000004547383368
100
AcDbArc
 50
180.0008228210425
 51
225.0011386125625
  0
ARC
  5
2F8
330
1F
100
AcDbEntity
  8
OUTLINE
  6
Continuous
100
AcDbCircle
 10
524.000025163712
 20
-38.24264626588865
 30
0.0
 40
2.999994268992653
100
AcDbArc
 50
8.182005363900423
 51
45.00009626795093
  0
ARC
  5
2F9
330
1F
100
AcDbEntity
  8
OUTLINE
100
AcDbCircle
 10
510.0000234997878
 20
149.9999968329129
 30
0.0
 40
15.00000701777258
100
AcDbArc
 50
359.9999999998774
 51
89.99997319402831
  0
LINE
  5
2FA
330
1F
100
AcDbEntity
  8
BASIS
  6
DOT_CENTER
100
AcDbLine
 10
-369.9999755859444
 20
106.8499959186246
 30
0.0
 11
-369.9999755859444
 21
143.1499959186257
 31
0.0
  0
LINE
  5
2FB
330
1F
100
AcDbEntity
  8
BASIS
  6
DOT_CENTER
100
AcDbLine
 10
-351.8499755859575
 20
124.9999959186252
 30
0.0
 11
-388.1499755859495
 21
124.9999959186252
 31
0.0
  0
LINE
  5
2FC
330
1F
100
AcDbEntity
  8
BASIS
  6
DOT_CENTER
100
AcDbLine
 10
-479.9999755859444
 20
-29.15000408141532
 30
0.0
 11
-479.9999755859444
 21
7.149995918585773
 31
0.0
  0
LINE
  5
2FD
330
1F
100
AcDbEntity
  8
BASIS
  6
DOT_CENTER
100
AcDbLine
 10
-49.99997558594441
 20
106.8499959186246
 30
0.0
 11
-49.99997558594441
 21
143.1499959186257
 31
0.0
  0
LINE
  5
2FE
330
1F
100
AcDbEntity
  8
BASIS
  6
DOT_CENTER
100
AcDbLine
 10
-209.9999755859444
 20
106.8499959186246
 30
0.0
 11
-209.9999755859444
 21
143.1499959186257
 31
0.0
  0
LINE
  5
2FF
330
1F
100
AcDbEntity
  8
BASIS
  6
DOT_CENTER
100
AcDbLine
 10
-191.8499755859575
 20
124.9999959186252
 30
0.0
 11
-228.1499755859495
 21
124.9999959186252
 31
0.0
  0
LINE
  5
300
330
1F
100
AcDbEntity
  8
BASIS
  6
DOT_CENTER
100
AcDbLine
 10
-31.84997558595751
 20
124.9999959186252
 30
0.0
 11
-68.1499755859495
 21
124.9999959186252
 31
0.0
  0
LINE
  5
301
330
1F
100
AcDbEntity
  8
BASIS
  6
DOT_CENTER
100
AcDbLine
 10
110.0000244140555
 20
106.8499959186246
 30
0.0
 11
110.0000244140555
 21
143.1499959186257
 31
0.0
  0
LINE
  5
302
330
1F
100
AcDbEntity
  8
BASIS
  6
DOT_CENTER
100
AcDbLine
 10
128.1500244140424
 20
124.9999959186252
 30
0.0
 11
91.8500244140505
 21
124.9999959186252
 31
0.0
  0
LINE
  5
303
330
1F
100
AcDbEntity
  8
BASIS
100
AcDbLine
 10
-162.9999785875061
 20
-256.0219598076709
 30
0.0
 11
-162.9999785875061
 21
-123.9780477497461
 31
0.0
  0
LINE
  5
304
330
1F
100
AcDbEntity
  8
BASIS
  6
DOT_CENTER
100
AcDbLine
 10
-299.9999694824346
 20
-146.1145808421215
 30
0.0
 11
-299.9999694824346
 21
-225.1634313506301
 31
0.0
  0
LINE
  5
305
330
1F
100
AcDbEntity
  8
BASIS
  6
DOT_CENTER
100
AcDbLine
 10
-275.4814364189714
 20
180.4514525419135
 30
0.0
 11
-324.5185330634467
 21
180.4514525419135
 31
0.0
  0
LINE
  5
306
330
1F
100
AcDbEntity
  8
BASIS
  6
DOT_CENTER
100
AcDbLine
 10
-299.9999847412091
 20
201.0404141190047
 30
0.0
 11
-299.9999847412091
 21
159.8624909648233
 31
0.0
  0
LINE
  5
307
330
1F
100
AcDbEntity
  8
BASIS
  6
DOT_CENTER
100
AcDbLine
 10
300.0000305175654
 20
-212.3281799389869
 30
0.0
 11
300.0000305175654
 21
-166.8718093078923
 31
0.0
  0
LINE
  5
308
330
1F
100
AcDbEntity
  8
BASIS
  6
DOT_CENTER
100
AcDbLine
 10
501.4000141626438
 20
-109.000004081412
 30
0.0
 11
464.0000407689858
 21
-109.000004081412
 31
0.0
  0
LINE
  5
309
330
1F
100
AcDbEntity
  8
BASIS
  6
DOT_CENTER
100
AcDbLine
 10
288.5858757775968
 20
-189.5999946234396
 30
0.0
 11
311.4141852575339
 21
-189.5999946234396
 31
0.0
  0
LINE
  5
30A
330
1F
100
AcDbEntity
  8
BASIS
  6
DOT_CENTER
100
AcDbLine
 10
300.0000305175654
 20
202.8427815268223
 30
0.0
 11
300.0000305175654
 21
157.9572139675146
 31
0.0
  0
LINE
  5
30B
330
1F
100
AcDbEntity
  8
BASIS
  6
DOT_CENTER
100
AcDbLine
 10
324.518578839803
 20
180.3999977471685
 30
0.0
 11
275.4814821953277
 21
180.3999977471685
 31
0.0
  0
LINE
  5
30C
330
1F
100
AcDbEntity
  8
BASIS
  6
DOT_CENTER
100
AcDbLine
 10
-311.4141242224031
 20
-189.5999946234396
 30
0.0
 11
-288.585814742466
 21
-189.5999946234396
 31
0.0
  0
LINE
  5
30D
330
1F
100
AcDbEntity
  8
BASIS
  6
DASHDOT
100
AcDbLine
 10
518.9188715
 20
0.0
 30
0.0
 11
-518.9188715
 21
0.0
 31
0.0
  0
LINE
  5
30E
330
1F
100
AcDbEntity
  8
BASIS
  6
DASHDOT
100
AcDbLine
 10
0.0
 20
202.185091897244
 30
0.0
 11
0.0
 21
-209.5297219955146
 31
0.0
  0
LINE
  5
30F
330
1F
100
AcDbEntity
  8
BASIS
  6
DOT_CENTER
100
AcDbLine
 10
501.7000172143943
 20
-109.000004081412
 30
0.0
 11
464.3000438207364
 21
-109.000004081412
 31
0.0
  0
LINE
  5
310
330
1F
100
AcDbEntity
  8
BASIS
  6
DOT_CENTER
100
AcDbLine
 10
435.1000385198004
 20
-125.0000037787103
 30
0.0
 11
410.9000225153122
 21
-125.0000037787103
 31
0.0
  0
LINE
  5
311
330
1F
100
AcDbEntity
  8
BASIS
  6
DOT_CENTER
100
AcDbLine
 10
423.0000305175654
 20
-112.8999957764663
 30
0.0
 11
423.0000305175654
 21
-137.1000117809544
 31
0.0
  0
LINE
  5
312
330
1F
100
AcDbEntity
  8
BASIS
  6
DOT_CENTER
100
AcDbLine
 10
483.0000305175653
 20
-90.30001738458759
 30
0.0
 11
483.0000305175653
 21
-127.6999907782365
 31
0.0
  0
LINE
  5
313
330
1F
100
AcDbEntity
  8
BASIS
  6
DOT_CENTER
100
AcDbLine
 10
-461.8499755859393
 20
-11.00000408141477
 30
0.0
 11
-498.1499755859495
 21
-11.00000408141477
 31
0.0
  0
TEXT
  5
314
330
1F
100
AcDbEntity
  8
NOTE
  6
Continuous
100
AcDbText
 10
86.40527897099673
 20
-657.4226482392098
 30
0.0
 40
64.0
  1
ｻ-ﾋﾞｽｽﾍﾟ-ｽ
 41
0.9
  7
MS PGothic
 11
86.40527897099673
 21
-670.5086482392098
 31
0.0
100
AcDbText
 73
     1
  0
LINE
  5
315
330
1F
100
AcDbEntity
  8
NOTE
  6
Continuous
100
AcDbLine
 10
325.0000305175654
 20
-165.0000037787085
 30
0.0
 11
167.3247167883273
 21
-352.5583916703581
 31
0.0
  0
TEXT
  5
316
330
1F
100
AcDbEntity
  8
NOTE
  6
Continuous
100
AcDbText
 10
-1088.829143515669
 20
-444.6443759003816
 30
0.0
 40
64.0
  1
AH 2-12×36
 41
0.9
  7
MS PGothic
 11
-1088.829143515669
 21
-457.7303759003816
 31
0.0
100
AcDbText
 73
     1
  0
LINE
  5
317
330
1F
100
AcDbEntity
  8
NOTE
  6
Continuous
100
AcDbLine
 10
-1103.60944851567
 20
-463.8326769003806
 30
0.0
 11
-530.5400412909311
 21
-463.8326769003806
 31
0.0
  0
LINE
  5
318
330
1F
100
AcDbEntity
  8
NOTE
  6
Continuous
100
AcDbLine
 10
-299.9999694824346
 20
-189.5999946234396
 30
0.0
 11
-530.5400412909311
 21
-463.8326769003806
 31
0.0
  0
LWPOLYLINE
  5
319
330
1F
100
AcDbEntity
  8
NOTE
  6
Continuous
100
AcDbPolyline
 90
        3
 70
     0
 43
0.0
 10
-332.9618056035633
 20
-212.26091612047
 10
-299.9999694824346
 20
-189.5999946234396
 10
-317.2152966767553
 20
-225.7058463243765
  0
LINE
  5
31A
330
1F
100
AcDbEntity
  8
NOTE
  6
CONTINOUS
100
AcDbLine
 10
-279.9999694824346
 20
-189.5999946234396
 30
0.0
 11
-319.9999694824346
 21
-189.5999946234396
 31
0.0
  0
TEXT
  5
31B
330
1F
100
AcDbEntity
  8
NOTE
  6
Continuous
100
AcDbText
 10
-66.31531550939508
 20
-333.3700906703582
 30
0.0
 40
64.0
  1
EL,CL
 41
0.9
  7
MS PGothic
 11
-66.31531550939508
 21
-346.4560906703582
 31
0.0
100
AcDbText
 73
     1
  0
LINE
  5
31C
330
1F
100
AcDbEntity
  8
NOTE
  6
Continuous
100
AcDbLine
 10
-81.0956205093953
 20
-352.5583916703581
 30
0.0
 11
167.3247167883273
 21
-352.5583916703581
 31
0.0
  0
LINE
  5
31D
330
1F
100
AcDbEntity
  8
NOTE
  6
CONTINOUS
100
AcDbLine
 10
-299.9999694824346
 20
-169.5999946234396
 30
0.0
 11
-299.9999694824346
 21
-209.5999946234396
 31
0.0
  0
TEXT
  5
31E
330
1F
100
AcDbEntity
  8
NOTE
  6
Continuous
100
AcDbText
 10
-977.1091532667105
 20
637.4468096626822
 30
0.0
 40
64.0
  1
ｻ-ﾋﾞｽｽﾍﾟ-ｽ
 41
0.9
  7
MS PGothic
 11
-977.1091532667105
 21
624.3608096626822
 31
0.0
100
AcDbText
 73
     1
  0
TEXT
  5
31F
330
1F
100
AcDbEntity
  8
NOTE
  6
Continuous
100
AcDbText
 10
-1093.423545977486
 20
322.5298067016881
 30
0.0
 40
64.0
  1
AH 2-U cut
 41
0.9
  7
MS PGothic
 11
-1093.423545977486
 21
309.4438067016881
 31
0.0
100
AcDbText
 73
     1
  0
LINE
  5
320
330
1F
100
AcDbEntity
  8
NOTE
  6
Continuous
100
AcDbLine
 10
-1121.129615977486
 20
307.8561087016878
 30
0.0
 11
-545.8317229245549
 21
307.8561087016878
 31
0.0
  0
LINE
  5
321
330
1F
100
AcDbEntity
  8
NOTE
  6
CONTINOUS
100
AcDbLine
 10
-279.9999847412091
 20
180.4514525419135
 30
0.0
 11
-319.9999847412091
 21
180.4514525419135
 31
0.0
  0
LWPOLYLINE
  5
322
330
1F
100
AcDbEntity
  8
NOTE
  6
Continuous
100
AcDbPolyline
 90
        3
 70
     0
 43
0.0
 10
-329.3326220528924
 20
207.6469740833736
 10
-299.9999847412091
 20
180.4514525419135
 10
-339.00055464682
 20
189.3371469151779
  0
LINE
  5
323
330
1F
100
AcDbEntity
  8
NOTE
  6
Continuous
100
AcDbLine
 10
-299.9999847412091
 20
180.4514525419135
 30
0.0
 11
-545.8317229245549
 21
307.8561087016878
 31
0.0
  0
TEXT
  5
324
330
1F
100
AcDbEntity
  8
NOTE
  6
Continuous
100
AcDbText
 10
-237.664560482126
 20
258.4748531353431
 30
0.0
 40
64.0
  1
ｻ-ﾋﾞｽｽﾍﾟ-ｽ
 41
0.9
  7
MS PGothic
 11
-237.664560482126
 21
245.3888531353431
 31
0.0
100
AcDbText
 73
     1
  0
LINE
  5
325
330
1F
100
AcDbEntity
  8
NOTE
  6
CONTINOUS
100
AcDbLine
 10
-299.9999847412091
 20
200.4514525419135
 30
0.0
 11
-299.9999847412091
 21
160.4514525419135
 31
0.0
  0
LINE
  5
326
330
1F
100
AcDbEntity
  8
NOTE
  6
Continuous
100
AcDbLine
 10
487.4259962092557
 20
-100.7479988192626
 30
0.0
 11
744.2442877693584
 21
380.4120675666681
 31
0.0
  0
LINE
  5
327
330
1F
100
AcDbEntity
  8
NOTE
  6
Continuous
100
AcDbLine
 10
426.0072236438536
 20
-119.4609673376644
 30
0.0
 11
763.8013768407042
 21
513.4108432706498
 31
0.0
  0
LINE
  5
328
330
1F
100
AcDbEntity
  8
NOTE
  6
CONTINOUS
100
AcDbLine
 10
503.0000305175653
 20
-109.000004081412
 30
0.0
 11
463.0000305175654
 21
-109.000004081412
 31
0.0
  0
LINE
  5
329
330
1F
100
AcDbEntity
  8
NOTE
  6
CONTINOUS
100
AcDbLine
 10
320.0000305175653
 20
-189.5999946234396
 30
0.0
 11
280.0000305175653
 21
-189.5999946234396
 31
0.0
  0
LINE
  5
32A
330
1F
100
AcDbEntity
  8
NOTE
  6
CONTINOUS
100
AcDbLine
 10
300.0000305175654
 20
-169.5999946234396
 30
0.0
 11
300.0000305175654
 21
-209.5999946234396
 31
0.0
  0
LWPOLYLINE
  5
32B
330
1F
100
AcDbEntity
  8
NOTE
  6
Continuous
100
AcDbPolyline
 90
        3
 70
     0
 43
0.0
 10
292.0381943964366
 20
-187.660925275738
 10
325.0000305175654
 20
-165.0000037787085
 10
307.7847033232446
 20
-201.1058554796454
  0
LINE
  5
32C
330
1F
100
AcDbEntity
  8
NOTE
  6
CONTINOUS
100
AcDbLine
 10
325.0000305175654
 20
-185.0000037787085
 30
0.0
 11
325.0000305175654
 21
-145.0000037787085
 31
0.0
  0
LINE
  5
32D
330
1F
100
AcDbEntity
  8
NOTE
  6
CONTINOUS
100
AcDbLine
 10
345.0000305175653
 20
-165.0000037787085
 30
0.0
 11
305.0000305175653
 21
-165.0000037787085
 31
0.0
  0
LINE
  5
32E
330
1F
100
AcDbEntity
  8
NOTE
  6
CONTINOUS
100
AcDbLine
 10
443.0000305175562
 20
-125.0000037787103
 30
0.0
 11
403.0000305175563
 21
-125.0000037787103
 31
0.0
  0
LINE
  5
32F
330
1F
100
AcDbEntity
  8
NOTE
  6
CONTINOUS
100
AcDbLine
 10
423.0000305175563
 20
-145.0000037787103
 30
0.0
 11
423.0000305175563
 21
-105.0000037787103
 31
0.0
  0
LWPOLYLINE
  5
330
330
1F
100
AcDbEntity
  8
NOTE
  6
Continuous
100
AcDbPolyline
 90
        3
 70
     0
 43
0.0
 10
453.5565949203137
 20
-90.46041310429884
 10
426.0072236438536
 20
-119.4609673376644
 10
435.3654024166353
 20
-80.57106495267271
  0
LINE
  5
331
330
1F
100
AcDbEntity
  8
NOTE
  6
CONTINOUS
100
AcDbLine
 10
483.0000305175653
 20
-129.000004081412
 30
0.0
 11
483.0000305175653
 21
-89.00000408141204
 31
0.0
  0
LWPOLYLINE
  5
332
330
1F
100
AcDbEntity
  8
NOTE
  6
Continuous
100
AcDbPolyline
 90
        3
 70
     0
 43
0.0
 10
514.9753674857159
 20
-71.74744458589703
 10
487.4259962092557
 20
-100.7479988192626
 10
496.7841749820393
 20
-61.85809643427001
  0
TEXT
  5
333
330
1F
100
AcDbEntity
  8
NOTE
  6
Continuous
100
AcDbText
 10
776.4877146039053
 20
537.2134905194796
 30
0.0
 40
64.0
  1
RLφ12.7
 41
0.9
  7
MS PGothic
 11
776.4877146039053
 21
524.1274905194796
 31
0.0
100
AcDbText
 73
     1
  0
LINE
  5
334
330
1F
100
AcDbEntity
  8
NOTE
  6
CONTINOUS
100
AcDbLine
 10
280.0000305175653
 20
180.3999977471685
 30
0.0
 11
320.0000305175653
 21
180.3999977471685
 31
0.0
  0
LINE
  5
335
330
1F
100
AcDbEntity
  8
NOTE
  6
CONTINOUS
100
AcDbLine
 10
300.0000305175654
 20
200.3999977471685
 30
0.0
 11
300.0000305175654
 21
160.3999977471685
 31
0.0
  0
LINE
  5
336
330
1F
100
AcDbEntity
  8
NOTE
  6
Continuous
100
AcDbLine
 10
1115.117640341595
 20
513.4108432706498
 30
0.0
 11
763.8013768407042
 21
513.4108432706498
 31
0.0
  0
LINE
  5
337
330
1F
100
AcDbEntity
  8
NOTE
  6
Continuous
100
AcDbLine
 10
744.2442877693584
 20
380.4120675666681
 30
0.0
 11
1174.349236666863
 21
380.4120675666681
 31
0.0
  0
TEXT
  5
338
330
1F
100
AcDbEntity
  8
NOTE
  6
Continuous
100
AcDbText
 10
775.83515528934
 20
404.7794235666685
 30
0.0
 40
64.0
  1
RGφ19.05(付属ジョイント取付φ25.4)
 41
0.9
  7
MS PGothic
 11
775.83515528934
 21
391.6934235666685
 31
0.0
100
AcDbText
 73
     1
  0
LINE
  5
339
330
1F
100
AcDbEntity
  8
NOTE
  6
Continuous
100
AcDbLine
 10
764.638567730728
 20
795.9584823462983
 30
0.0
 11
368.8342012005596
 21
795.6844939971141
 31
0.0
  0
TEXT
  5
33A
330
1F
100
AcDbEntity
  8
NOTE
  6
Continuous
100
AcDbText
 10
381.5712815181978
 20
819.4871412459439
 30
0.0
 40
64.0
  1
D 5-φ33
 41
0.9
  7
MS PGothic
 11
381.5712815181978
 21
806.4011412459439
 31
0.0
100
AcDbText
 73
     1
  0
LINE
  5
33B
330
1F
100
AcDbEntity
  8
NOTE
  6
Continuous
100
AcDbLine
 10
110.0000242232508
 20
124.9999957177697
 30
0.0
 11
368.8342012005596
 21
795.6844939971141
 31
0.0
  0
LWPOLYLINE
  5
33C
330
1F
100
AcDbEntity
  8
NOTE
  6
Continuous
100
AcDbPolyline
 90
        3
 70
     0
 43
0.0
 10
133.8164323289802
 20
157.1368703093021
 10
110.0000242232508
 20
124.9999957177697
 10
114.5572018690309
 20
164.7395496830868
  0
POINT
  5
33D
330
1F
100
AcDbEntity
  8
ARRANGE
  6
Continuous
100
AcDbPoint
 10
0.0
 20
0.0
 30
0.0
  0
CIRCLE
  5
33E
330
1F
100
AcDbEntity
  8
ARRANGE
  6
Continuous
100
AcDbCircle
 10
0.0
 20
0.0
 30
0.0
 40
40.0
  0
CIRCLE
  5
33F
330
1F
100
AcDbEntity
  8
FIX
  6
Continuous
100
AcDbCircle
 10
-299.9999694824346
 20
-189.5999946234396
 30
0.0
 40
40.0
  0
CIRCLE
  5
340
330
1F
100
AcDbEntity
  8
FIX
  6
Continuous
100
AcDbCircle
 10
-299.9999847412091
 20
180.4514525419135
 30
0.0
 40
40.0
  0
CIRCLE
  5
341
330
1F
100
AcDbEntity
  8
FIX
  6
Continuous
100
AcDbCircle
 10
300.0000305175654
 20
-189.5999946234396
 30
0.0
 40
40.0
  0
CIRCLE
  5
342
330
1F
100
AcDbEntity
  8
FIX
  6
Continuous
100
AcDbCircle
 10
300.0000305175654
 20
180.3999977471685
 30
0.0
 40
40.0
  0
TEXT
  5
343
330
1F
100
AcDbEntity
  8
ETC
  6
Continuous
100
AcDbText
 10
853.9976465745112
 20
821.935844981537
 30
0.0
 40
64.0
  1
SMPU4956
 41
0.9
  7
MS PGothic
 11
853.9976465745112
 21
808.849844981537
 31
0.0
100
AcDbText
 73
     1
  0
TEXT
  5
344
330
1F
100
AcDbEntity
  8
ETC
  6
Continuous
100
AcDbText
 10
865.8203905745121
 20
947.298554574824
 30
0.0
 40
64.0
  1
PAC
 41
0.9
  7
MS PGothic
 11
865.8203905745121
 21
934.212554574824
 31
0.0
100
AcDbText
 73
     1
  0
LINE
  5
345
330
1F
100
AcDbEntity
  8
SERVICESPACE
  6
DASHDOT
100
AcDbLine
 10
525.0000305175653
 20
315.0000038506832
 30
0.0
 11
-525.0000000000018
 21
315.0000038506832
 31
0.0
  0
LINE
  5
346
330
1F
100
AcDbEntity
  8
SERVICESPACE
  6
DASHDOT
100
AcDbLine
 10
-525.0000000000018
 20
315.0000038506832
 30
0.0
 11
525.0000305175653
 21
165.0000038506832
 31
0.0
  0
LINE
  5
347
330
1F
100
AcDbEntity
  8
SERVICESPACE
  6
DASHDOT
100
AcDbLine
 10
-525.0000000000018
 20
165.0000038506832
 30
0.0
 11
525.0000305175653
 21
315.0000038506832
 31
0.0
  0
LINE
  5
348
330
1F
100
AcDbEntity
  8
SERVICESPACE
  6
DASHDOT
100
AcDbLine
 10
525.0000305175653
 20
-665.0000037787084
 30
0.0
 11
25.00003051756357
 21
-665.0000037787084
 31
0.0
  0
LINE
  5
349
330
1F
100
AcDbEntity
  8
SERVICESPACE
100
AcDbLine
 10
25.00003051756721
 20
-165.0000037787085
 30
0.0
 11
525.0000305175653
 21
-665.0000037787084
 31
0.0
  0
LINE
  5
34A
330
1F
100
AcDbEntity
  8
SERVICESPACE
100
AcDbLine
 10
25.00003051756357
 20
-665.0000037787084
 30
0.0
 11
525.0000305175653
 21
-165.0000037787085
 31
0.0
  0
LINE
  5
34B
330
1F
100
AcDbEntity
  8
SERVICESPACE
  6
DASHDOT
100
AcDbLine
 10
525.0000305175653
 20
165.0000038506832
 30
0.0
 11
-535.0000000000018
 21
165.0000038506841
 31
0.0
  0
LINE
  5
34C
330
1F
100
AcDbEntity
  8
SERVICESPACE
  6
DASHDOT
100
AcDbLine
 10
525.0000305175653
 20
-165.0000037787085
 30
0.0
 11
-535.0000000000018
 21
-164.9999961493158
 31
0.0
  0
LINE
  5
34D
330
1F
100
AcDbEntity
  8
SERVICESPACE
  6
DASHDOT
100
AcDbLine
 10
-525.0000000000018
 20
315.0000038506832
 30
0.0
 11
-525.0
 21
-165.0000037787085
 31
0.0
  0
LINE
  5
34E
330
1F
100
AcDbEntity
  8
SERVICESPACE
100
AcDbLine
 10
-535.0000000000018
 20
-164.9999961493158
 30
0.0
 11
-525.0000000000018
 21
165.0000038506841
 31
0.0
  0
LINE
  5
34F
330
1F
100
AcDbEntity
  8
SERVICESPACE
100
AcDbLine
 10
-535.0000000000018
 20
165.0000038506841
 30
0.0
 11
-525.0000000000018
 21
-164.9999961493158
 31
0.0
  0
LINE
  5
350
330
1F
100
AcDbEntity
  8
SERVICESPACE
  6
DASHDOT
100
AcDbLine
 10
-535.0000000000018
 20
165.0000038506841
 30
0.0
 11
-535.0000000000018
 21
-164.9999961493158
 31
0.0
  0
LINE
  5
351
330
1F
100
AcDbEntity
  8
SERVICESPACE
  6
DASHDOT
100
AcDbLine
 10
25.00003051756721
 20
-165.0000037787085
 30
0.0
 11
25.00003051756357
 21
-665.0000037787084
 31
0.0
  0
LINE
  5
352
330
1F
100
AcDbEntity
  8
SERVICESPACE
  6
DASHDOT
100
AcDbLine
 10
525.0000305175653
 20
315.0000038506832
 30
0.0
 11
525.0000305175653
 21
-665.0000037787084
 31
0.0
  0
VIEWPORT
  5
353
330
1B
100
AcDbEntity
 67
     1
  8
0
100
AcDbViewport
 10
0.0
 20
0.0
 30
0.0
 40
2927.755039422699
 41
1954.057928237504
 68
     1
 69
     1
 12
1410.169794080678
 22
944.5088131217137
 13
0.0
 23
0.0
 14
0.5
 24
0.5
 15
0.5
 25
0.5
 16
0.0
 26
0.0
 36
1.0
 17
0.0
 27
0.0
 37
0.0
 42
50.0
 43
0.0
 44
0.0
 45
1954.057928237504
 50
0.0
 51
0.0
 72
   100
 90
   557152
  1

281
     0
 71
     1
 74
     0
110
0.0
120
0.0
130
0.0
111
1.0
121
0.0
131
0.0
112
0.0
122
1.0
132
0.0
 79
     0
146
0.0
  0
POLYLINE
  5
355
102
{ACAD_REACTORS
102
}
330
1B
100
AcDbEntity
 67
     1
  8
rcviewportframe
100
AcDb2dPolyline
 66
     1
 10
0.0
 20
0.0
 30
0.0
 70
     1
  0
VERTEX
  5
356
330
355
100
AcDbEntity
 67
     1
  8
rcviewportframe
100
AcDbVertex
100
AcDb2dVertex
 10
-25.00424485201688
 20
-13.36272032804288
 30
0.0
  0
VERTEX
  5
357
330
355
100
AcDbEntity
 67
     1
  8
rcviewportframe
100
AcDbVertex
100
AcDb2dVertex
 10
2845.343833013374
 20
-13.36272032804288
 30
0.0
  0
VERTEX
  5
358
330
355
100
AcDbEntity
 67
     1
  8
rcviewportframe
100
AcDbVertex
100
AcDb2dVertex
 10
2845.343833013374
 20
1902.38034657147
 30
0.0
  0
VERTEX
  5
359
330
355
100
AcDbEntity
 67
     1
  8
rcviewportframe
100
AcDbVertex
100
AcDb2dVertex
 10
-25.00424485201688
 20
1902.38034657147
 30
0.0
  0
SEQEND
  5
35A
330
355
100
AcDbEntity
 67
     1
  8
rcviewportframe
  0
VIEWPORT
  5
35B
330
1B
100
AcDbEntity
 67
     1
  8
SIZE
100
AcDbViewport
 10
1410.169794080678
 20
944.5088131217137
 30
0.0
 40
2870.348077865391
 41
1915.743066899513
 68
     2
 69
     2
 12
279.0401781031926
 22
63.70374145311013
 13
0.0
 23
0.0
 14
0.5
 24
0.5
 15
0.5
 25
0.5
 16
0.0
 26
0.0
 36
1.0
 17
0.0
 27
0.0
 37
0.0
 42
50.0
 43
0.0
 44
0.0
 45
1915.743066899513
 50
0.0
 51
0.0
 72
   100
 90
   622688
340
355
  1

281
     0
 71
     1
 74
     0
110
0.0
120
0.0
130
0.0
111
1.0
121
0.0
131
0.0
112
0.0
122
1.0
132
0.0
 79
     0
146
0.0
  0
ENDSEC
  0
SECTION
  2
OBJECTS
  0
DICTIONARY
  5
C
330
0
100
AcDbDictionary
281
     1
  3
ACAD_GROUP
350
D
  3
ACAD_IMAGE_VARS
350
6B
  3
ACAD_LAYOUT
350
1A
  3
ACAD_MATERIAL
350
43
  3
ACAD_MLEADERSTYLE
350
35F
  3
ACAD_MLINESTYLE
350
17
  3
ACAD_PLOTSETTINGS
350
19
  3
ACAD_PLOTSTYLENAME
350
E
  3
ACAD_SCALELIST
350
47
  3
ACAD_VISUALSTYLE
350
2A
  3
AcDbVariableDictionary
350
35D
  0
DICTIONARY
  5
D
102
{ACAD_REACTORS
330
C
102
}
330
C
100
AcDbDictionary
281
     1
  0
RASTERVARIABLES
  5
6B
102
{ACAD_REACTORS
330
C
102
}
330
C
100
AcDbRasterVariables
 90
        0
 70
     0
 71
     1
 72
     0
  0
DICTIONARY
  5
1A
102
{ACAD_REACTORS
330
C
102
}
330
C
100
AcDbDictionary
281
     1
  3
Model
350
22
  3
レイアウト1
350
1E
  0
DICTIONARY
  5
43
102
{ACAD_REACTORS
330
C
102
}
330
C
100
AcDbDictionary
281
     1
  3
ByBlock
350
45
  3
ByLayer
350
44
  3
Global
350
46
  0
DICTIONARY
  5
35F
102
{ACAD_REACTORS
330
C
102
}
330
C
100
AcDbDictionary
281
     1
  0
DICTIONARY
  5
17
102
{ACAD_REACTORS
330
C
102
}
330
C
100
AcDbDictionary
281
     1
  3
Standard
350
18
  0
DICTIONARY
  5
19
102
{ACAD_REACTORS
330
C
102
}
330
C
100
AcDbDictionary
281
     1
  0
ACDBDICTIONARYWDFLT
  5
E
102
{ACAD_REACTORS
330
C
102
}
330
C
100
AcDbDictionary
281
     1
  3
Normal
350
F
100
AcDbDictionaryWithDefault
340
F
  0
DICTIONARY
  5
47
102
{ACAD_REACTORS
330
C
102
}
330
C
100
AcDbDictionary
281
     1
  3
A0
350
48
  3
A1
350
49
  3
A2
350
4A
  3
A3
350
4B
  3
A4
350
4C
  3
A5
350
4D
  3
A6
350
4E
  3
A7
350
4F
  3
A8
350
50
  3
A9
350
51
  3
B0
350
52
  3
B1
350
53
  3
B2
350
54
  3
B3
350
55
  3
B4
350
56
  3
B5
350
57
  3
B6
350
58
  3
B7
350
59
  3
B8
350
5A
  3
B9
350
5B
  3
C0
350
5C
  3
C1
350
5D
  3
C2
350
5E
  3
C3
350
5F
  3
C4
350
60
  3
C5
350
61
  3
C6
350
62
  3
C7
350
63
  3
C8
350
64
  3
C9
350
65
  3
D0
350
66
  3
D1
350
67
  3
D2
350
68
  0
DICTIONARY
  5
2A
102
{ACAD_REACTORS
330
C
102
}
330
C
100
AcDbDictionary
281
     1
  3
2dWireframe
350
2F
  3
Basic
350
32
  3
Brighten
350
36
  3
ColorChange
350
3A
  3
Conceptual
350
34
  3
Dim
350
35
  3
EdgeColorOff
350
3D
  3
Facepattern
350
39
  3
Flat
350
2B
  3
FlatWithEdges
350
2C
  3
Gouraud
350
2D
  3
GouraudWithEdges
350
2E
  3
Hidden
350
31
  3
JitterOff
350
3B
  3
Linepattern
350
38
  3
OverhangOff
350
3C
  3
Realistic
350
33
  3
Shaded
350
42
  3
Shaded with edges
350
41
  3
Shades of Gray
350
3E
  3
Sketchy
350
3F
  3
Thicken
350
37
  3
Wireframe
350
30
  3
X-Ray
350
40
  0
DICTIONARY
  5
35D
102
{ACAD_REACTORS
330
C
102
}
330
C
100
AcDbDictionary
281
     1
  3
CANNOSCALE
350
364
  3
DIMASSOC
350
362
  3
HIDETEXT
350
363
  3
MSLTSCALE
350
365
  0
LAYOUT
  5
22
102
{ACAD_REACTORS
330
1A
102
}
330
1A
100
AcDbPlotSettings
  1

  2
none_device
  4
Letter_(8.50_x_11.00_Inches)
  6

 40
6.35
 41
6.35
 42
6.35000508
 43
6.35000508
 44
215.9
 45
279.4
 46
0.0
 47
0.0
 48
0.0
 49
0.0
140
0.0
141
0.0
142
1.0
143
1.0
 70
  1712
 72
     0
 73
     0
 74
     0
  7

 75
     0
147
1.0
148
0.0
149
0.0
100
AcDbLayout
  1
Model
 70
     1
 71
     0
 10
-1401.412019971858
 20
-1088.506339585755
 11
2099.012465229839
 21
1247.76569321853
 12
0.0
 22
0.0
 32
0.0
 14
-1401.412019971858
 24
-1088.506339585755
 34
0.0
 15
2099.012465229839
 25
1247.76569321853
 35
0.0
146
0.0
 13
0.0
 23
0.0
 33
0.0
 16
1.0
 26
0.0
 36
0.0
 17
0.0
 27
1.0
 37
0.0
 76
     0
330
1F
331
29
  0
LAYOUT
  5
1E
102
{ACAD_REACTORS
330
1A
102
}
330
1A
100
AcDbPlotSettings
  1

  2
none_device
  4
ISO_A4_(297.00_x_210.00_MM)
  6

 40
7.5
 41
20.0
 42
7.5
 43
20.0
 44
297.0
 45
210.0
 46
-7.5
 47
-20.0
 48
0.0
 49
0.0
140
0.0
141
0.0
142
1.0
143
1.0
 70
   688
 72
     1
 73
     0
 74
     5
  7

 75
    16
147
1.0
148
0.0
149
0.0
100
AcDbLayout
  1
レイアウト1
 70
     1
 71
     1
 10
-7.5
 20
-20.0
 11
297.0
 21
210.0
 12
0.0
 22
0.0
 32
0.0
 14
-9.375
 24
-25.0
 34
0.0
 15
371.25
 25
262.5
 35
0.0
146
0.0
 13
0.0
 23
0.0
 33
0.0
 16
1.0
 26
0.0
 36
0.0
 17
0.0
 27
1.0
 37
0.0
 76
     0
330
1B
331
353
  0
MATERIAL
  5
45
102
{ACAD_REACTORS
330
43
102
}
102
{ACAD_XDICTIONARY
360
398
102
}
330
43
100
AcDbMaterial
  1
ByBlock
  0
MATERIAL
  5
44
102
{ACAD_REACTORS
330
43
102
}
102
{ACAD_XDICTIONARY
360
396
102
}
330
43
100
AcDbMaterial
  1
ByLayer
  0
MATERIAL
  5
46
102
{ACAD_REACTORS
330
43
102
}
102
{ACAD_XDICTIONARY
360
39A
102
}
330
43
100
AcDbMaterial
  1
Global
  0
MLINESTYLE
  5
18
102
{ACAD_REACTORS
330
17
102
}
330
17
100
AcDbMlineStyle
  2
Standard
 70
     0
  3

 62
   256
 51
90.0
 52
90.0
 71
     2
 49
0.5
 62
   256
  6
BYLAYER
 49
-0.5
 62
   256
  6
BYLAYER
  0
ACDBPLACEHOLDER
  5
F
102
{ACAD_REACTORS
330
E
102
}
330
E
  0
SCALE
  5
48
102
{ACAD_REACTORS
330
47
102
}
330
47
100
AcDbScale
 70
     0
300
1:1
140
1.0
141
1.0
290
     1
  0
SCALE
  5
49
102
{ACAD_REACTORS
330
47
102
}
330
47
100
AcDbScale
 70
     0
300
1:2
140
1.0
141
2.0
290
     0
  0
SCALE
  5
4A
102
{ACAD_REACTORS
330
47
102
}
330
47
100
AcDbScale
 70
     0
300
1:4
140
1.0
141
4.0
290
     0
  0
SCALE
  5
4B
102
{ACAD_REACTORS
330
47
102
}
330
47
100
AcDbScale
 70
     0
300
1:5
140
1.0
141
5.0
290
     0
  0
SCALE
  5
4C
102
{ACAD_REACTORS
330
47
102
}
330
47
100
AcDbScale
 70
     0
300
1:8
140
1.0
141
8.0
290
     0
  0
SCALE
  5
4D
102
{ACAD_REACTORS
330
47
102
}
330
47
100
AcDbScale
 70
     0
300
1:10
140
1.0
141
10.0
290
     0
  0
SCALE
  5
4E
102
{ACAD_REACTORS
330
47
102
}
330
47
100
AcDbScale
 70
     0
300
1:16
140
1.0
141
16.0
290
     0
  0
SCALE
  5
4F
102
{ACAD_REACTORS
330
47
102
}
330
47
100
AcDbScale
 70
     0
300
1:20
140
1.0
141
20.0
290
     0
  0
SCALE
  5
50
102
{ACAD_REACTORS
330
47
102
}
330
47
100
AcDbScale
 70
     0
300
1:30
140
1.0
141
30.0
290
     0
  0
SCALE
  5
51
102
{ACAD_REACTORS
330
47
102
}
330
47
100
AcDbScale
 70
     0
300
1:40
140
1.0
141
40.0
290
     0
  0
SCALE
  5
52
102
{ACAD_REACTORS
330
47
102
}
330
47
100
AcDbScale
 70
     0
300
1:50
140
1.0
141
50.0
290
     0
  0
SCALE
  5
53
102
{ACAD_REACTORS
330
47
102
}
330
47
100
AcDbScale
 70
     0
300
1:100
140
1.0
141
100.0
290
     0
  0
SCALE
  5
54
102
{ACAD_REACTORS
330
47
102
}
330
47
100
AcDbScale
 70
     0
300
2:1
140
2.0
141
1.0
290
     0
  0
SCALE
  5
55
102
{ACAD_REACTORS
330
47
102
}
330
47
100
AcDbScale
 70
     0
300
4:1
140
4.0
141
1.0
290
     0
  0
SCALE
  5
56
102
{ACAD_REACTORS
330
47
102
}
330
47
100
AcDbScale
 70
     0
300
8:1
140
8.0
141
1.0
290
     0
  0
SCALE
  5
57
102
{ACAD_REACTORS
330
47
102
}
330
47
100
AcDbScale
 70
     0
300
10:1
140
10.0
141
1.0
290
     0
  0
SCALE
  5
58
102
{ACAD_REACTORS
330
47
102
}
330
47
100
AcDbScale
 70
     0
300
100:1
140
100.0
141
1.0
290
     0
  0
SCALE
  5
59
102
{ACAD_REACTORS
330
47
102
}
330
47
100
AcDbScale
 70
     0
300
1/128" = 1'-0"
140
0.0078125
141
12.0
290
     0
  0
SCALE
  5
5A
102
{ACAD_REACTORS
330
47
102
}
330
47
100
AcDbScale
 70
     0
300
1/64" = 1'-0"
140
0.015625
141
12.0
290
     0
  0
SCALE
  5
5B
102
{ACAD_REACTORS
330
47
102
}
330
47
100
AcDbScale
 70
     0
300
1/32" = 1'-0"
140
0.03125
141
12.0
290
     0
  0
SCALE
  5
5C
102
{ACAD_REACTORS
330
47
102
}
330
47
100
AcDbScale
 70
     0
300
1/16" = 1'-0"
140
0.0625
141
12.0
290
     0
  0
SCALE
  5
5D
102
{ACAD_REACTORS
330
47
102
}
330
47
100
AcDbScale
 70
     0
300
3/32" = 1'-0"
140
0.09375
141
12.0
290
     0
  0
SCALE
  5
5E
102
{ACAD_REACTORS
330
47
102
}
330
47
100
AcDbScale
 70
     0
300
1/8" = 1'-0"
140
0.125
141
12.0
290
     0
  0
SCALE
  5
5F
102
{ACAD_REACTORS
330
47
102
}
330
47
100
AcDbScale
 70
     0
300
3/16" = 1'-0"
140
0.1875
141
12.0
290
     0
  0
SCALE
  5
60
102
{ACAD_REACTORS
330
47
102
}
330
47
100
AcDbScale
 70
     0
300
1/4" = 1'-0"
140
0.25
141
12.0
290
     0
  0
SCALE
  5
61
102
{ACAD_REACTORS
330
47
102
}
330
47
100
AcDbScale
 70
     0
300
3/8" = 1'-0"
140
0.375
141
12.0
290
     0
  0
SCALE
  5
62
102
{ACAD_REACTORS
330
47
102
}
330
47
100
AcDbScale
 70
     0
300
1/2" = 1'-0"
140
0.5
141
12.0
290
     0
  0
SCALE
  5
63
102
{ACAD_REACTORS
330
47
102
}
330
47
100
AcDbScale
 70
     0
300
3/4" = 1'-0"
140
0.75
141
12.0
290
     0
  0
SCALE
  5
64
102
{ACAD_REACTORS
330
47
102
}
330
47
100
AcDbScale
 70
     0
300
1" = 1'-0"
140
1.0
141
12.0
290
     0
  0
SCALE
  5
65
102
{ACAD_REACTORS
330
47
102
}
330
47
100
AcDbScale
 70
     0
300
1-1/2" = 1'-0"
140
1.5
141
12.0
290
     0
  0
SCALE
  5
66
102
{ACAD_REACTORS
330
47
102
}
330
47
100
AcDbScale
 70
     0
300
3" = 1'-0"
140
3.0
141
12.0
290
     0
  0
SCALE
  5
67
102
{ACAD_REACTORS
330
47
102
}
330
47
100
AcDbScale
 70
     0
300
6" = 1'-0"
140
6.0
141
12.0
290
     0
  0
SCALE
  5
68
102
{ACAD_REACTORS
330
47
102
}
330
47
100
AcDbScale
 70
     0
300
1'-0" = 1'-0"
140
12.0
141
12.0
290
     0
  0
VISUALSTYLE
  5
2F
102
{ACAD_REACTORS
330
2A
102
}
102
{ACAD_XDICTIONARY
360
36E
102
}
330
2A
100
AcDbVisualStyle
  2
2dWireframe
 70
     4
 71
     0
 72
     2
 73
     0
 90
        0
 40
0.6
 41
30.0
 62
     5
 63
     7
 74
     1
 91
        4
 64
     7
 65
   257
 75
     1
175
     1
 42
1.0
 92
        0
 66
   257
 43
1.0
 76
     1
 77
     6
 78
     2
 67
     7
 79
     5
170
     0
171
     0
290
     0
174
     0
 93
        1
 44
0.0
173
     0
291
     0
 45
0.0
1001
ACAD
1000
AcDbSavedByObjectVersion
1070
     0
  0
VISUALSTYLE
  5
32
102
{ACAD_REACTORS
330
2A
102
}
102
{ACAD_XDICTIONARY
360
374
102
}
330
2A
100
AcDbVisualStyle
  2
Basic
 70
     7
 71
     1
 72
     0
 73
     1
 90
        0
 40
0.6
 41
30.0
 62
     5
 63
     7
 74
     0
 91
        4
 64
     7
 65
   257
 75
     1
175
     1
 42
1.0
 92
        8
 66
     7
 43
1.0
 76
     1
 77
     6
 78
     2
 67
     7
 79
     5
170
     0
171
     0
290
     0
174
     0
 93
        1
 44
0.0
173
     0
291
     1
 45
0.0
1001
ACAD
1000
AcDbSavedByObjectVersion
1070
     0
  0
VISUALSTYLE
  5
36
102
{ACAD_REACTORS
330
2A
102
}
102
{ACAD_XDICTIONARY
360
37C
102
}
330
2A
100
AcDbVisualStyle
  2
Brighten
 70
    12
 71
     2
 72
     2
 73
     0
 90
        0
 40
0.6
 41
30.0
 62
     5
 63
     7
 74
     1
 91
        4
 64
     7
 65
   257
 75
     1
175
     1
 42
1.0
 92
        8
 66
     7
 43
1.0
 76
     1
 77
     6
 78
     2
 67
     7
 79
     5
170
     0
171
     0
290
     0
174
     0
 93
        1
 44
50.0
173
     0
291
     1
 45
0.0
1001
ACAD
1000
AcDbSavedByObjectVersion
1070
     0
  0
VISUALSTYLE
  5
3A
102
{ACAD_REACTORS
330
2A
102
}
102
{ACAD_XDICTIONARY
360
384
102
}
330
2A
100
AcDbVisualStyle
  2
ColorChange
 70
    16
 71
     2
 72
     2
 73
     3
 90
        0
 40
0.6
 41
30.0
 62
     5
 63
     8
 74
     1
 91
        4
 64
     7
 65
   257
 75
     1
175
     1
 42
1.0
 92
        8
 66
     8
 43
1.0
 76
     1
 77
     6
 78
     2
 67
     7
 79
     5
170
     0
171
     0
290
     0
174
     0
 93
        1
 44
0.0
173
     0
291
     1
 45
0.0
1001
ACAD
1000
AcDbSavedByObjectVersion
1070
     0
  0
VISUALSTYLE
  5
34
102
{ACAD_REACTORS
330
2A
102
}
102
{ACAD_XDICTIONARY
360
378
102
}
330
2A
100
AcDbVisualStyle
  2
Conceptual
 70
     9
 71
     3
 72
     2
 73
     0
 90
        0
 40
0.6
 41
30.0
 62
     5
 63
     7
 74
     2
 91
        2
 64
     7
 65
   257
 75
     1
175
     1
 42
179.0
 92
        8
 66
     7
 43
1.0
 76
     1
 77
     6
 78
     2
 67
     7
 79
     3
170
     0
171
     0
290
     0
174
     0
 93
        1
 44
0.0
173
     0
291
     0
 45
0.0
1001
ACAD
1000
AcDbSavedByObjectVersion
1070
     0
  0
VISUALSTYLE
  5
35
102
{ACAD_REACTORS
330
2A
102
}
102
{ACAD_XDICTIONARY
360
37A
102
}
330
2A
100
AcDbVisualStyle
  2
Dim
 70
    11
 71
     2
 72
     2
 73
     0
 90
        0
 40
0.6
 41
30.0
 62
     5
 63
     7
 74
     1
 91
        4
 64
     7
 65
   257
 75
     1
175
     1
 42
1.0
 92
        8
 66
     7
 43
1.0
 76
     1
 77
     6
 78
     2
 67
     7
 79
     5
170
     0
171
     0
290
     0
174
     0
 93
        1
 44
-50.0
173
     0
291
     1
 45
0.0
1001
ACAD
1000
AcDbSavedByObjectVersion
1070
     0
  0
VISUALSTYLE
  5
3D
102
{ACAD_REACTORS
330
2A
102
}
102
{ACAD_XDICTIONARY
360
38A
102
}
330
2A
100
AcDbVisualStyle
  2
EdgeColorOff
 70
    22
 71
     2
 72
     2
 73
     0
 90
        0
 40
0.6
 41
30.0
 62
     5
 63
     7
 74
     1
 91
        4
 64
     7
 65
   257
 75
     1
175
     1
 42
1.0
 92
        8
 66
     7
 43
1.0
 76
     1
 77
     6
 78
     2
 67
     7
 79
     5
170
     0
171
     0
290
     0
174
     0
 93
        1
 44
0.0
173
     0
291
     1
 45
0.0
1001
ACAD
1000
AcDbSavedByObjectVersion
1070
     0
  0
VISUALSTYLE
  5
39
102
{ACAD_REACTORS
330
2A
102
}
102
{ACAD_XDICTIONARY
360
382
102
}
330
2A
100
AcDbVisualStyle
  2
Facepattern
 70
    15
 71
     2
 72
     2
 73
     0
 90
        0
 40
0.6
 41
30.0
 62
     5
 63
     7
 74
     1
 91
        4
 64
     7
 65
   257
 75
     1
175
     1
 42
1.0
 92
        8
 66
     7
 43
1.0
 76
     1
 77
     6
 78
     2
 67
     7
 79
     5
170
     0
171
     0
290
     0
174
     0
 93
        1
 44
0.0
173
     0
291
     1
 45
0.0
1001
ACAD
1000
AcDbSavedByObjectVersion
1070
     0
  0
VISUALSTYLE
  5
2B
102
{ACAD_REACTORS
330
2A
102
}
102
{ACAD_XDICTIONARY
360
366
102
}
330
2A
100
AcDbVisualStyle
  2
Flat
 70
     0
 71
     2
 72
     1
 73
     1
 90
        2
 40
0.6
 41
30.0
 62
     5
 63
     7
 74
     0
 91
        0
 64
     7
 65
   257
 75
     1
175
     1
 42
1.0
 92
        8
 66
     7
 43
1.0
 76
     1
 77
     6
 78
     2
 67
     7
 79
     5
170
     0
171
     0
290
     0
174
     0
 93
       13
 44
0.0
173
     0
291
     1
 45
0.0
1001
ACAD
1000
AcDbSavedByObjectVersion
1070
     0
  0
VISUALSTYLE
  5
2C
102
{ACAD_REACTORS
330
2A
102
}
102
{ACAD_XDICTIONARY
360
368
102
}
330
2A
100
AcDbVisualStyle
  2
FlatWithEdges
 70
     1
 71
     2
 72
     1
 73
     1
 90
        2
 40
0.6
 41
30.0
 62
     5
 63
     7
 74
     1
 91
        0
 64
     7
 65
   257
 75
     1
175
     1
 42
1.0
 92
        0
 66
   257
 43
1.0
 76
     1
 77
     6
 78
     2
 67
     7
 79
     5
170
     0
171
     0
290
     0
174
     0
 93
       13
 44
0.0
173
     0
291
     1
 45
0.0
1001
ACAD
1000
AcDbSavedByObjectVersion
1070
     0
  0
VISUALSTYLE
  5
2D
102
{ACAD_REACTORS
330
2A
102
}
102
{ACAD_XDICTIONARY
360
36A
102
}
330
2A
100
AcDbVisualStyle
  2
Gouraud
 70
     2
 71
     2
 72
     2
 73
     1
 90
        2
 40
0.6
 41
30.0
 62
     5
 63
     7
 74
     0
 91
        0
 64
     7
 65
   257
 75
     1
175
     1
 42
1.0
 92
        0
 66
     7
 43
1.0
 76
     1
 77
     6
 78
     2
 67
     7
 79
     5
170
     0
171
     0
290
     0
174
     0
 93
       13
 44
0.0
173
     0
291
     1
 45
0.0
1001
ACAD
1000
AcDbSavedByObjectVersion
1070
     0
  0
VISUALSTYLE
  5
2E
102
{ACAD_REACTORS
330
2A
102
}
102
{ACAD_XDICTIONARY
360
36C
102
}
330
2A
100
AcDbVisualStyle
  2
GouraudWithEdges
 70
     3
 71
     2
 72
     2
 73
     1
 90
        2
 40
0.6
 41
30.0
 62
     5
 63
     7
 74
     1
 91
        0
 64
     7
 65
   257
 75
     1
175
     1
 42
1.0
 92
        0
 66
   257
 43
1.0
 76
     1
 77
     6
 78
     2
 67
     7
 79
     5
170
     0
171
     0
290
     0
174
     0
 93
       13
 44
0.0
173
     0
291
     1
 45
0.0
1001
ACAD
1000
AcDbSavedByObjectVersion
1070
     0
  0
VISUALSTYLE
  5
31
102
{ACAD_REACTORS
330
2A
102
}
102
{ACAD_XDICTIONARY
360
372
102
}
330
2A
100
AcDbVisualStyle
  2
Hidden
 70
     6
 71
     1
 72
     2
 73
     2
 90
        0
 40
0.6
 41
30.0
 62
     5
 63
     7
 74
     2
 91
        2
 64
     7
 65
   257
 75
     2
175
     1
 42
40.0
 92
        0
 66
   257
 43
1.0
 76
     1
 77
     6
 78
     2
 67
     7
 79
     3
170
     0
171
     0
290
     0
174
     0
 93
        1
 44
0.0
173
     0
291
     0
 45
0.0
1001
ACAD
1000
AcDbSavedByObjectVersion
1070
     0
  0
VISUALSTYLE
  5
3B
102
{ACAD_REACTORS
330
2A
102
}
102
{ACAD_XDICTIONARY
360
386
102
}
330
2A
100
AcDbVisualStyle
  2
JitterOff
 70
    20
 71
     2
 72
     2
 73
     0
 90
        0
 40
0.6
 41
30.0
 62
     5
 63
     7
 74
     1
 91
        4
 64
     7
 65
   257
 75
     1
175
     1
 42
1.0
 92
       10
 66
     7
 43
1.0
 76
     1
 77
     6
 78
     2
 67
     7
 79
     5
170
     0
171
     0
290
     0
174
     0
 93
        1
 44
0.0
173
     0
291
     1
 45
0.0
1001
ACAD
1000
AcDbSavedByObjectVersion
1070
     0
  0
VISUALSTYLE
  5
38
102
{ACAD_REACTORS
330
2A
102
}
102
{ACAD_XDICTIONARY
360
380
102
}
330
2A
100
AcDbVisualStyle
  2
Linepattern
 70
    14
 71
     2
 72
     2
 73
     0
 90
        0
 40
0.6
 41
30.0
 62
     5
 63
     7
 74
     1
 91
        4
 64
     7
 65
   257
 75
     7
175
     7
 42
1.0
 92
        8
 66
     7
 43
1.0
 76
     1
 77
     6
 78
     2
 67
     7
 79
     5
170
     0
171
     0
290
     0
174
     0
 93
        1
 44
0.0
173
     0
291
     1
 45
0.0
1001
ACAD
1000
AcDbSavedByObjectVersion
1070
     0
  0
VISUALSTYLE
  5
3C
102
{ACAD_REACTORS
330
2A
102
}
102
{ACAD_XDICTIONARY
360
388
102
}
330
2A
100
AcDbVisualStyle
  2
OverhangOff
 70
    21
 71
     2
 72
     2
 73
     0
 90
        0
 40
0.6
 41
30.0
 62
     5
 63
     7
 74
     1
 91
        4
 64
     7
 65
   257
 75
     1
175
     1
 42
1.0
 92
        9
 66
     7
 43
1.0
 76
     1
 77
     6
 78
     2
 67
     7
 79
     5
170
     0
171
     0
290
     0
174
     0
 93
        1
 44
0.0
173
     0
291
     1
 45
0.0
1001
ACAD
1000
AcDbSavedByObjectVersion
1070
     0
  0
VISUALSTYLE
  5
33
102
{ACAD_REACTORS
330
2A
102
}
102
{ACAD_XDICTIONARY
360
376
102
}
330
2A
100
AcDbVisualStyle
  2
Realistic
 70
     8
 71
     2
 72
     3
 73
     0
 90
        2
 40
0.6
 41
30.0
 62
     5
 63
     7
 74
     0
 91
        0
 64
     7
 65
   257
 75
     1
175
     1
 42
1.0
 92
        8
 66
   257
 43
1.0
 76
     1
 77
     6
 78
     2
 67
     7
 79
     3
170
     0
171
     0
290
     0
174
     0
 93
       13
 44
0.0
173
     0
291
     0
 45
0.0
1001
ACAD
1000
AcDbSavedByObjectVersion
1070
     0
  0
VISUALSTYLE
  5
42
102
{ACAD_REACTORS
330
2A
102
}
102
{ACAD_XDICTIONARY
360
394
102
}
330
2A
100
AcDbVisualStyle
  2
Shaded
 70
    27
 71
     2
 72
     2
 73
     1
 90
        2
 40
0.6
 41
30.0
 62
     5
 63
     7
 74
     0
 91
        4
 64
     7
 65
   257
 75
     1
175
     1
 42
1.0
 92
        8
 66
   257
 43
1.0
 76
     1
 77
     6
 78
     2
 67
     8
 79
     3
170
     0
171
     0
290
     0
174
     0
 93
        5
 44
0.0
173
     0
291
     0
 45
0.0
1001
ACAD
1000
AcDbSavedByObjectVersion
1070
     0
  0
VISUALSTYLE
  5
41
102
{ACAD_REACTORS
330
2A
102
}
102
{ACAD_XDICTIONARY
360
392
102
}
330
2A
100
AcDbVisualStyle
  2
Shaded with edges
 70
    26
 71
     2
 72
     2
 73
     1
 90
        2
 40
0.6
 41
30.0
 62
     5
 63
     7
 74
     1
 91
       10
 64
     7
 65
   257
 75
     2
175
     1
 42
1.0
 92
        8
 66
   257
 43
1.0
 76
     1
 77
     6
 78
     2
 67
     7
 79
     3
170
     0
171
     0
290
     0
174
     0
 93
        5
 44
0.0
173
     0
291
     0
 45
0.0
1001
ACAD
1000
AcDbSavedByObjectVersion
1070
     0
  0
VISUALSTYLE
  5
3E
102
{ACAD_REACTORS
330
2A
102
}
102
{ACAD_XDICTIONARY
360
38C
102
}
330
2A
100
AcDbVisualStyle
  2
Shades of Gray
 70
    23
 71
     2
 72
     2
 73
     3
 90
        0
 40
0.6
 41
30.0
 62
     5
 63
     7
 74
     2
 91
        2
 64
     7
 65
     7
 75
     1
175
     1
 42
40.0
 92
        8
 66
     7
 43
1.0
 76
     1
 77
     6
 78
     2
 67
     7
 79
     3
170
     0
171
     0
290
     0
174
     0
 93
        1
 44
0.0
173
     0
291
     0
 45
0.0
1001
ACAD
1000
AcDbSavedByObjectVersion
1070
     0
  0
VISUALSTYLE
  5
3F
102
{ACAD_REACTORS
330
2A
102
}
102
{ACAD_XDICTIONARY
360
38E
102
}
330
2A
100
AcDbVisualStyle
  2
Sketchy
 70
    24
 71
     1
 72
     2
 73
     2
 90
        0
 40
0.6
 41
30.0
 62
     5
 63
     7
 74
     2
 91
        2
 64
     7
 65
     7
 75
     1
175
     1
 42
40.0
 92
       11
 66
     7
 43
1.0
 76
     1
 77
     6
 78
     2
 67
     7
 79
     6
170
     0
171
     0
290
     0
174
     0
 93
        1
 44
0.0
173
     0
291
     0
 45
0.0
1001
ACAD
1000
AcDbSavedByObjectVersion
1070
     0
  0
VISUALSTYLE
  5
37
102
{ACAD_REACTORS
330
2A
102
}
102
{ACAD_XDICTIONARY
360
37E
102
}
330
2A
100
AcDbVisualStyle
  2
Thicken
 70
    13
 71
     2
 72
     2
 73
     0
 90
        0
 40
0.6
 41
30.0
 62
     5
 63
     7
 74
     1
 91
        4
 64
     7
 65
   257
 75
     1
175
     1
 42
1.0
 92
       12
 66
     7
 43
1.0
 76
     1
 77
     6
 78
     2
 67
     7
 79
     5
170
     0
171
     0
290
     0
174
     0
 93
        1
 44
0.0
173
     0
291
     1
 45
0.0
1001
ACAD
1000
AcDbSavedByObjectVersion
1070
     0
  0
VISUALSTYLE
  5
30
102
{ACAD_REACTORS
330
2A
102
}
102
{ACAD_XDICTIONARY
360
370
102
}
330
2A
100
AcDbVisualStyle
  2
Wireframe
 70
     5
 71
     0
 72
     2
 73
     0
 90
        0
 40
0.6
 41
30.0
 62
     5
 63
     7
 74
     1
 91
        4
 64
     7
 65
   257
 75
     1
175
     1
 42
1.0
 92
        0
 66
   257
 43
1.0
 76
     1
 77
     6
 78
     2
 67
     7
 79
     3
170
     0
171
     0
290
     0
174
     0
 93
        1
 44
0.0
173
     0
291
     0
 45
0.0
1001
ACAD
1000
AcDbSavedByObjectVersion
1070
     0
  0
VISUALSTYLE
  5
40
102
{ACAD_REACTORS
330
2A
102
}
102
{ACAD_XDICTIONARY
360
390
102
}
330
2A
100
AcDbVisualStyle
  2
X-Ray
 70
    25
 71
     2
 72
     2
 73
     1
 90
        1
 40
0.5
 41
30.0
 62
     5
 63
     7
 74
     1
 91
        0
 64
     7
 65
   257
 75
     1
175
     1
 42
1.0
 92
        8
 66
     7
 43
1.0
 76
     1
 77
     6
 78
     2
 67
     7
 79
     3
170
     0
171
     0
290
     0
174
     0
 93
       13
 44
0.0
173
     0
291
     0
 45
0.0
1001
ACAD
1000
AcDbSavedByObjectVersion
1070
     0
  0
DICTIONARYVAR
  5
364
102
{ACAD_REACTORS
330
35D
102
}
330
35D
100
DictionaryVariables
280
     0
  1
1:1
  0
DICTIONARYVAR
  5
362
102
{ACAD_REACTORS
330
35D
102
}
330
35D
100
DictionaryVariables
280
     0
  1
2
  0
DICTIONARYVAR
  5
363
102
{ACAD_REACTORS
330
35D
102
}
330
35D
100
DictionaryVariables
280
     0
  1
1
  0
DICTIONARYVAR
  5
365
102
{ACAD_REACTORS
330
35D
102
}
330
35D
100
DictionaryVariables
280
     0
  1
1
  0
DICTIONARY
  5
398
330
45
100
AcDbDictionary
280
     1
281
     1
  3
ACAD_XREC_ROUNDTRIP
360
399
  0
DICTIONARY
  5
396
330
44
100
AcDbDictionary
280
     1
281
     1
  3
ACAD_XREC_ROUNDTRIP
360
397
  0
DICTIONARY
  5
39A
330
46
100
AcDbDictionary
280
     1
281
     1
  3
ACAD_XREC_ROUNDTRIP
360
39B
  0
DICTIONARY
  5
36E
330
2F
100
AcDbDictionary
280
     1
281
     1
  3
ACAD_XREC_ROUNDTRIP
360
36F
  0
DICTIONARY
  5
374
330
32
100
AcDbDictionary
280
     1
281
     1
  3
ACAD_XREC_ROUNDTRIP
360
375
  0
DICTIONARY
  5
37C
330
36
100
AcDbDictionary
280
     1
281
     1
  3
ACAD_XREC_ROUNDTRIP
360
37D
  0
DICTIONARY
  5
384
330
3A
100
AcDbDictionary
280
     1
281
     1
  3
ACAD_XREC_ROUNDTRIP
360
385
  0
DICTIONARY
  5
378
330
34
100
AcDbDictionary
280
     1
281
     1
  3
ACAD_XREC_ROUNDTRIP
360
379
  0
DICTIONARY
  5
37A
330
35
100
AcDbDictionary
280
     1
281
     1
  3
ACAD_XREC_ROUNDTRIP
360
37B
  0
DICTIONARY
  5
38A
330
3D
100
AcDbDictionary
280
     1
281
     1
  3
ACAD_XREC_ROUNDTRIP
360
38B
  0
DICTIONARY
  5
382
330
39
100
AcDbDictionary
280
     1
281
     1
  3
ACAD_XREC_ROUNDTRIP
360
383
  0
DICTIONARY
  5
366
330
2B
100
AcDbDictionary
280
     1
281
     1
  3
ACAD_XREC_ROUNDTRIP
360
367
  0
DICTIONARY
  5
368
330
2C
100
AcDbDictionary
280
     1
281
     1
  3
ACAD_XREC_ROUNDTRIP
360
369
  0
DICTIONARY
  5
36A
330
2D
100
AcDbDictionary
280
     1
281
     1
  3
ACAD_XREC_ROUNDTRIP
360
36B
  0
DICTIONARY
  5
36C
330
2E
100
AcDbDictionary
280
     1
281
     1
  3
ACAD_XREC_ROUNDTRIP
360
36D
  0
DICTIONARY
  5
372
330
31
100
AcDbDictionary
280
     1
281
     1
  3
ACAD_XREC_ROUNDTRIP
360
373
  0
DICTIONARY
  5
386
330
3B
100
AcDbDictionary
280
     1
281
     1
  3
ACAD_XREC_ROUNDTRIP
360
387
  0
DICTIONARY
  5
380
330
38
100
AcDbDictionary
280
     1
281
     1
  3
ACAD_XREC_ROUNDTRIP
360
381
  0
DICTIONARY
  5
388
330
3C
100
AcDbDictionary
280
     1
281
     1
  3
ACAD_XREC_ROUNDTRIP
360
389
  0
DICTIONARY
  5
376
330
33
100
AcDbDictionary
280
     1
281
     1
  3
ACAD_XREC_ROUNDTRIP
360
377
  0
DICTIONARY
  5
394
330
42
100
AcDbDictionary
280
     1
281
     1
  3
ACAD_XREC_ROUNDTRIP
360
395
  0
DICTIONARY
  5
392
330
41
100
AcDbDictionary
280
     1
281
     1
  3
ACAD_XREC_ROUNDTRIP
360
393
  0
DICTIONARY
  5
38C
330
3E
100
AcDbDictionary
280
     1
281
     1
  3
ACAD_XREC_ROUNDTRIP
360
38D
  0
DICTIONARY
  5
38E
330
3F
100
AcDbDictionary
280
     1
281
     1
  3
ACAD_XREC_ROUNDTRIP
360
38F
  0
DICTIONARY
  5
37E
330
37
100
AcDbDictionary
280
     1
281
     1
  3
ACAD_XREC_ROUNDTRIP
360
37F
  0
DICTIONARY
  5
370
330
30
100
AcDbDictionary
280
     1
281
     1
  3
ACAD_XREC_ROUNDTRIP
360
371
  0
DICTIONARY
  5
390
330
40
100
AcDbDictionary
280
     1
281
     1
  3
ACAD_XREC_ROUNDTRIP
360
391
  0
XRECORD
  5
399
102
{ACAD_REACTORS
330
398
102
}
330
398
100
AcDbXrecord
280
     1
102
MATERIAL
148
0.0
149
0.0
149
0.0
 93
        0
 94
      127
282
     0
 72
     1
 77
     1
171
     1
175
     1
179
     1
273
     0
  0
XRECORD
  5
397
102
{ACAD_REACTORS
330
396
102
}
330
396
100
AcDbXrecord
280
     1
102
MATERIAL
148
0.0
149
0.0
149
0.0
 93
        0
 94
      127
282
     0
 72
     1
 77
     1
171
     1
175
     1
179
     1
273
     0
  0
XRECORD
  5
39B
102
{ACAD_REACTORS
330
39A
102
}
330
39A
100
AcDbXrecord
280
     1
102
MATERIAL
148
0.0
149
0.0
149
0.0
 93
        0
 94
      127
282
     0
 72
     1
 77
     1
171
     1
175
     1
179
     1
273
     0
  0
XRECORD
  5
36F
102
{ACAD_REACTORS
330
36E
102
}
330
36E
100
AcDbXrecord
280
     1
102
RTVSPropertyOp0
 70
     1
102
RTVSPropertyOp1
 70
     1
102
RTVSPropertyOp2
 70
     1
102
RTVSPropertyOp3
 70
     1
102
RTVSPropertyOp4
 70
     1
102
RTVSPropertyOp5
 70
     1
102
RTVSPropertyOp6
 70
     1
102
RTVSPropertyOp7
 70
     1
102
RTVSPropertyOp8
 70
     1
102
RTVSPropertyOp9
 70
     1
102
RTVSPropertyOp10
 70
     1
102
RTVSPropertyOp11
 70
     1
102
RTVSPropertyOp12
 70
     1
102
RTVSPropertyOp13
 70
     1
102
RTVSPropertyOp14
 70
     1
102
RTVSPropertyOp15
 70
     1
102
RTVSPropertyOp16
 70
     1
102
RTVSPropertyOp17
 70
     1
102
RTVSPropertyOp18
 70
     1
102
RTVSPropertyOp19
 70
     1
102
RTVSPropertyOp20
 70
     1
102
RTVSPropertyOp21
 70
     1
102
RTVSPropertyOp22
 70
     1
102
RTVSPropertyOp23
 70
     1
102
RTVSPropertyOp24
 70
     1
102
RTVSPropertyOp25
 70
     1
102
RTVSPropertyOp26
 70
     1
102
RTVSPropertyOp27
 70
     1
102
RTVSPropertyOp28
 70
     1
102
RTVSPropertyOp29
 70
     1
102
RTVSPropertyOp30
 70
     1
102
RTVSPropertyOp31
 70
     1
102
RTVSPropertyOp32
 70
     1
102
RTVSPropertyOp33
 70
     1
102
RTVSPropertyOp34
 70
     1
102
RTVSPropertyOp35
 70
     1
102
RTVSPropertyOp36
 70
     1
102
RTVSPropertyOp37
 70
     1
102
RTVSPropertyOp38
 70
     1
102
RTVSPropertyOp39
 70
     1
102
RTVSPropertyOp40
 70
     1
102
RTVSPropertyOp41
 70
     1
102
RTVSPropertyOp42
 70
     1
102
RTVSPropertyOp43
 70
     1
102
RTVSPropertyOp44
 70
     1
102
RTVSPropertyOp45
 70
     1
102
RTVSPropertyOp46
 70
     1
102
RTVSPropertyOp47
 70
     1
102
RTVSPropertyOp48
 70
     1
102
RTVSPropertyOp49
 70
     1
102
RTVSPropertyOp50
 70
     1
102
RTVSPropertyOp51
 70
     0
102
RTVSPropertyOp52
 70
     0
102
RTVSPropertyOp53
 70
     1
102
RTVSPropertyOp54
 70
     1
102
RTVSPropertyOp55
 70
     1
102
RTVSPropertyOp56
 70
     1
102
RTVSPropertyOp57
 70
     1
102
RTVSPost2010Prop28
280
     1
102
RTVSPost2010PropOp28
 70
     1
102
RTVSPost2010Prop29
280
     1
102
RTVSPost2010PropOp29
 70
     1
102
RTVSPost2010Prop30
280
     0
102
RTVSPost2010PropOp30
 70
     1
102
RTVSPost2010Prop31
280
     0
102
RTVSPost2010PropOp31
 70
     1
102
RTVSPost2010Prop32
280
     0
102
RTVSPost2010PropOp32
 70
     1
102
RTVSPost2010Prop33
280
     0
102
RTVSPost2010PropOp33
 70
     1
102
RTVSPost2010Prop34
280
     0
102
RTVSPost2010PropOp34
 70
     1
102
RTVSPost2010Prop35
280
     0
102
RTVSPost2010PropOp35
 70
     1
102
RTVSPost2010Prop36
280
     0
102
RTVSPost2010PropOp36
 70
     1
102
RTVSPost2010Prop37
 90
       50
102
RTVSPost2010PropOp37
 70
     1
102
RTVSPost2010Prop38
140
0.0
102
RTVSPost2010PropOp38
 70
     1
102
RTVSPost2010Prop39
140
1.0
102
RTVSPost2010PropOp39
 70
     1
102
RTVSPost2010Prop40
 90
        0
102
RTVSPost2010PropOp40
 70
     1
102
RTVSPost2010Prop41ColorIndex
 90
       18
102
RTVSPost2010Prop41ColorRGB
 90
        0
102
RTVSPost2010PropOp41
 70
     1
102
RTVSPost2010Prop42
 90
       50
102
RTVSPost2010PropOp42
 70
     1
102
RTVSPost2010Prop43
 90
        3
102
RTVSPost2010PropOp43
 70
     1
102
RTVSPost2010Prop44ColorIndex
 90
        5
102
RTVSPost2010Prop44ColorRGB
 90
      255
102
RTVSPost2010PropOp44
 70
     1
102
RTVSPost2010Prop45
280
     0
102
RTVSPost2010PropOp45
 70
     1
102
RTVSPost2010Prop46
 90
       50
102
RTVSPost2010PropOp46
 70
     1
102
RTVSPost2010Prop47
 90
       50
102
RTVSPost2010PropOp47
 70
     1
102
RTVSPost2010Prop48
 90
       50
102
RTVSPost2010PropOp48
 70
     1
102
RTVSPost2010Prop49
280
     0
102
RTVSPost2010PropOp49
 70
     1
102
RTVSPost2010Prop50
 90
       50
102
RTVSPost2010PropOp50
 70
     1
102
RTVSPost2010Prop51ColorIndex
 90
      256
102
RTVSPost2010Prop51ColorRGB
 90
-16777216
102
RTVSPost2010PropOp51
 70
     0
102
RTVSPost2010Prop52
140
1.0
102
RTVSPost2010PropOp52
 70
     0
102
RTVSPost2010Prop53
 90
        2
102
RTVSPost2010PropOp53
 70
     1
102
RTVSPost2010Prop54
  1
strokes_ogs.tif
102
RTVSPost2010PropOp54
 70
     1
102
RTVSPost2010Prop55
280
     0
102
RTVSPost2010PropOp55
 70
     1
102
RTVSPost2010Prop56
140
1.0
102
RTVSPost2010PropOp56
 70
     1
102
RTVSPost2010Prop57
140
1.0
102
RTVSPost2010PropOp57
 70
     1
  0
XRECORD
  5
375
102
{ACAD_REACTORS
330
374
102
}
330
374
100
AcDbXrecord
280
     1
102
RTVSPropertyOp0
 70
     1
102
RTVSPropertyOp1
 70
     1
102
RTVSPropertyOp2
 70
     1
102
RTVSPropertyOp3
 70
     1
102
RTVSPropertyOp4
 70
     1
102
RTVSPropertyOp5
 70
     1
102
RTVSPropertyOp6
 70
     1
102
RTVSPropertyOp7
 70
     1
102
RTVSPropertyOp8
 70
     1
102
RTVSPropertyOp9
 70
     1
102
RTVSPropertyOp10
 70
     1
102
RTVSPropertyOp11
 70
     1
102
RTVSPropertyOp12
 70
     1
102
RTVSPropertyOp13
 70
     1
102
RTVSPropertyOp14
 70
     1
102
RTVSPropertyOp15
 70
     1
102
RTVSPropertyOp16
 70
     1
102
RTVSPropertyOp17
 70
     1
102
RTVSPropertyOp18
 70
     1
102
RTVSPropertyOp19
 70
     1
102
RTVSPropertyOp20
 70
     1
102
RTVSPropertyOp21
 70
     1
102
RTVSPropertyOp22
 70
     1
102
RTVSPropertyOp23
 70
     1
102
RTVSPropertyOp24
 70
     1
102
RTVSPropertyOp25
 70
     1
102
RTVSPropertyOp26
 70
     1
102
RTVSPropertyOp27
 70
     1
102
RTVSPropertyOp28
 70
     1
102
RTVSPropertyOp29
 70
     1
102
RTVSPropertyOp30
 70
     1
102
RTVSPropertyOp31
 70
     1
102
RTVSPropertyOp32
 70
     1
102
RTVSPropertyOp33
 70
     1
102
RTVSPropertyOp34
 70
     1
102
RTVSPropertyOp35
 70
     1
102
RTVSPropertyOp36
 70
     1
102
RTVSPropertyOp37
 70
     1
102
RTVSPropertyOp38
 70
     1
102
RTVSPropertyOp39
 70
     1
102
RTVSPropertyOp40
 70
     1
102
RTVSPropertyOp41
 70
     1
102
RTVSPropertyOp42
 70
     1
102
RTVSPropertyOp43
 70
     1
102
RTVSPropertyOp44
 70
     1
102
RTVSPropertyOp45
 70
     1
102
RTVSPropertyOp46
 70
     1
102
RTVSPropertyOp47
 70
     1
102
RTVSPropertyOp48
 70
     1
102
RTVSPropertyOp49
 70
     1
102
RTVSPropertyOp50
 70
     1
102
RTVSPropertyOp51
 70
     0
102
RTVSPropertyOp52
 70
     0
102
RTVSPropertyOp53
 70
     1
102
RTVSPropertyOp54
 70
     1
102
RTVSPropertyOp55
 70
     1
102
RTVSPropertyOp56
 70
     1
102
RTVSPropertyOp57
 70
     1
102
RTVSPost2010Prop28
280
     0
102
RTVSPost2010PropOp28
 70
     1
102
RTVSPost2010Prop29
280
     1
102
RTVSPost2010PropOp29
 70
     1
102
RTVSPost2010Prop30
280
     1
102
RTVSPost2010PropOp30
 70
     1
102
RTVSPost2010Prop31
280
     0
102
RTVSPost2010PropOp31
 70
     1
102
RTVSPost2010Prop32
280
     0
102
RTVSPost2010PropOp32
 70
     1
102
RTVSPost2010Prop33
280
     0
102
RTVSPost2010PropOp33
 70
     1
102
RTVSPost2010Prop34
280
     0
102
RTVSPost2010PropOp34
 70
     1
102
RTVSPost2010Prop35
280
     0
102
RTVSPost2010PropOp35
 70
     1
102
RTVSPost2010Prop36
280
     0
102
RTVSPost2010PropOp36
 70
     1
102
RTVSPost2010Prop37
 90
       50
102
RTVSPost2010PropOp37
 70
     1
102
RTVSPost2010Prop38
140
0.0
102
RTVSPost2010PropOp38
 70
     1
102
RTVSPost2010Prop39
140
1.0
102
RTVSPost2010PropOp39
 70
     1
102
RTVSPost2010Prop40
 90
        0
102
RTVSPost2010PropOp40
 70
     1
102
RTVSPost2010Prop41ColorIndex
 90
       18
102
RTVSPost2010Prop41ColorRGB
 90
        0
102
RTVSPost2010PropOp41
 70
     1
102
RTVSPost2010Prop42
 90
       50
102
RTVSPost2010PropOp42
 70
     1
102
RTVSPost2010Prop43
 90
        3
102
RTVSPost2010PropOp43
 70
     1
102
RTVSPost2010Prop44ColorIndex
 90
        5
102
RTVSPost2010Prop44ColorRGB
 90
      255
102
RTVSPost2010PropOp44
 70
     1
102
RTVSPost2010Prop45
280
     0
102
RTVSPost2010PropOp45
 70
     1
102
RTVSPost2010Prop46
 90
       50
102
RTVSPost2010PropOp46
 70
     1
102
RTVSPost2010Prop47
 90
       50
102
RTVSPost2010PropOp47
 70
     1
102
RTVSPost2010Prop48
 90
       50
102
RTVSPost2010PropOp48
 70
     1
102
RTVSPost2010Prop49
280
     0
102
RTVSPost2010PropOp49
 70
     1
102
RTVSPost2010Prop50
 90
       50
102
RTVSPost2010PropOp50
 70
     1
102
RTVSPost2010Prop51ColorIndex
 90
      256
102
RTVSPost2010Prop51ColorRGB
 90
-16777216
102
RTVSPost2010PropOp51
 70
     0
102
RTVSPost2010Prop52
140
1.0
102
RTVSPost2010PropOp52
 70
     0
102
RTVSPost2010Prop53
 90
        2
102
RTVSPost2010PropOp53
 70
     1
102
RTVSPost2010Prop54
  1
strokes_ogs.tif
102
RTVSPost2010PropOp54
 70
     1
102
RTVSPost2010Prop55
280
     0
102
RTVSPost2010PropOp55
 70
     1
102
RTVSPost2010Prop56
140
1.0
102
RTVSPost2010PropOp56
 70
     1
102
RTVSPost2010Prop57
140
1.0
102
RTVSPost2010PropOp57
 70
     1
  0
XRECORD
  5
37D
102
{ACAD_REACTORS
330
37C
102
}
330
37C
100
AcDbXrecord
280
     1
102
RTVSPropertyOp0
 70
     1
102
RTVSPropertyOp1
 70
     1
102
RTVSPropertyOp2
 70
     1
102
RTVSPropertyOp3
 70
     1
102
RTVSPropertyOp4
 70
     1
102
RTVSPropertyOp5
 70
     1
102
RTVSPropertyOp6
 70
     1
102
RTVSPropertyOp7
 70
     1
102
RTVSPropertyOp8
 70
     1
102
RTVSPropertyOp9
 70
     1
102
RTVSPropertyOp10
 70
     1
102
RTVSPropertyOp11
 70
     1
102
RTVSPropertyOp12
 70
     1
102
RTVSPropertyOp13
 70
     1
102
RTVSPropertyOp14
 70
     1
102
RTVSPropertyOp15
 70
     1
102
RTVSPropertyOp16
 70
     1
102
RTVSPropertyOp17
 70
     1
102
RTVSPropertyOp18
 70
     1
102
RTVSPropertyOp19
 70
     1
102
RTVSPropertyOp20
 70
     1
102
RTVSPropertyOp21
 70
     1
102
RTVSPropertyOp22
 70
     1
102
RTVSPropertyOp23
 70
     1
102
RTVSPropertyOp24
 70
     1
102
RTVSPropertyOp25
 70
     1
102
RTVSPropertyOp26
 70
     1
102
RTVSPropertyOp27
 70
     1
102
RTVSPropertyOp28
 70
     1
102
RTVSPropertyOp29
 70
     1
102
RTVSPropertyOp30
 70
     1
102
RTVSPropertyOp31
 70
     1
102
RTVSPropertyOp32
 70
     1
102
RTVSPropertyOp33
 70
     1
102
RTVSPropertyOp34
 70
     1
102
RTVSPropertyOp35
 70
     1
102
RTVSPropertyOp36
 70
     1
102
RTVSPropertyOp37
 70
     1
102
RTVSPropertyOp38
 70
     1
102
RTVSPropertyOp39
 70
     1
102
RTVSPropertyOp40
 70
     1
102
RTVSPropertyOp41
 70
     1
102
RTVSPropertyOp42
 70
     1
102
RTVSPropertyOp43
 70
     1
102
RTVSPropertyOp44
 70
     1
102
RTVSPropertyOp45
 70
     1
102
RTVSPropertyOp46
 70
     1
102
RTVSPropertyOp47
 70
     1
102
RTVSPropertyOp48
 70
     1
102
RTVSPropertyOp49
 70
     1
102
RTVSPropertyOp50
 70
     1
102
RTVSPropertyOp51
 70
     0
102
RTVSPropertyOp52
 70
     0
102
RTVSPropertyOp53
 70
     1
102
RTVSPropertyOp54
 70
     1
102
RTVSPropertyOp55
 70
     1
102
RTVSPropertyOp56
 70
     1
102
RTVSPropertyOp57
 70
     1
102
RTVSPost2010Prop28
280
     0
102
RTVSPost2010PropOp28
 70
     1
102
RTVSPost2010Prop29
280
     1
102
RTVSPost2010PropOp29
 70
     1
102
RTVSPost2010Prop30
280
     1
102
RTVSPost2010PropOp30
 70
     1
102
RTVSPost2010Prop31
280
     0
102
RTVSPost2010PropOp31
 70
     1
102
RTVSPost2010Prop32
280
     0
102
RTVSPost2010PropOp32
 70
     1
102
RTVSPost2010Prop33
280
     0
102
RTVSPost2010PropOp33
 70
     1
102
RTVSPost2010Prop34
280
     0
102
RTVSPost2010PropOp34
 70
     1
102
RTVSPost2010Prop35
280
     0
102
RTVSPost2010PropOp35
 70
     1
102
RTVSPost2010Prop36
280
     0
102
RTVSPost2010PropOp36
 70
     1
102
RTVSPost2010Prop37
 90
       50
102
RTVSPost2010PropOp37
 70
     1
102
RTVSPost2010Prop38
140
0.0
102
RTVSPost2010PropOp38
 70
     1
102
RTVSPost2010Prop39
140
1.0
102
RTVSPost2010PropOp39
 70
     1
102
RTVSPost2010Prop40
 90
        0
102
RTVSPost2010PropOp40
 70
     1
102
RTVSPost2010Prop41ColorIndex
 90
       18
102
RTVSPost2010Prop41ColorRGB
 90
        0
102
RTVSPost2010PropOp41
 70
     1
102
RTVSPost2010Prop42
 90
       50
102
RTVSPost2010PropOp42
 70
     1
102
RTVSPost2010Prop43
 90
        3
102
RTVSPost2010PropOp43
 70
     1
102
RTVSPost2010Prop44ColorIndex
 90
        5
102
RTVSPost2010Prop44ColorRGB
 90
      255
102
RTVSPost2010PropOp44
 70
     1
102
RTVSPost2010Prop45
280
     0
102
RTVSPost2010PropOp45
 70
     1
102
RTVSPost2010Prop46
 90
       50
102
RTVSPost2010PropOp46
 70
     1
102
RTVSPost2010Prop47
 90
       50
102
RTVSPost2010PropOp47
 70
     1
102
RTVSPost2010Prop48
 90
       50
102
RTVSPost2010PropOp48
 70
     1
102
RTVSPost2010Prop49
280
     0
102
RTVSPost2010PropOp49
 70
     1
102
RTVSPost2010Prop50
 90
       50
102
RTVSPost2010PropOp50
 70
     1
102
RTVSPost2010Prop51ColorIndex
 90
      256
102
RTVSPost2010Prop51ColorRGB
 90
-16777216
102
RTVSPost2010PropOp51
 70
     0
102
RTVSPost2010Prop52
140
1.0
102
RTVSPost2010PropOp52
 70
     0
102
RTVSPost2010Prop53
 90
        2
102
RTVSPost2010PropOp53
 70
     1
102
RTVSPost2010Prop54
  1
strokes_ogs.tif
102
RTVSPost2010PropOp54
 70
     1
102
RTVSPost2010Prop55
280
     0
102
RTVSPost2010PropOp55
 70
     1
102
RTVSPost2010Prop56
140
1.0
102
RTVSPost2010PropOp56
 70
     1
102
RTVSPost2010Prop57
140
1.0
102
RTVSPost2010PropOp57
 70
     1
  0
XRECORD
  5
385
102
{ACAD_REACTORS
330
384
102
}
330
384
100
AcDbXrecord
280
     1
102
RTVSPropertyOp0
 70
     1
102
RTVSPropertyOp1
 70
     1
102
RTVSPropertyOp2
 70
     1
102
RTVSPropertyOp3
 70
     1
102
RTVSPropertyOp4
 70
     1
102
RTVSPropertyOp5
 70
     1
102
RTVSPropertyOp6
 70
     1
102
RTVSPropertyOp7
 70
     1
102
RTVSPropertyOp8
 70
     1
102
RTVSPropertyOp9
 70
     1
102
RTVSPropertyOp10
 70
     1
102
RTVSPropertyOp11
 70
     1
102
RTVSPropertyOp12
 70
     1
102
RTVSPropertyOp13
 70
     1
102
RTVSPropertyOp14
 70
     1
102
RTVSPropertyOp15
 70
     1
102
RTVSPropertyOp16
 70
     1
102
RTVSPropertyOp17
 70
     1
102
RTVSPropertyOp18
 70
     1
102
RTVSPropertyOp19
 70
     1
102
RTVSPropertyOp20
 70
     1
102
RTVSPropertyOp21
 70
     1
102
RTVSPropertyOp22
 70
     1
102
RTVSPropertyOp23
 70
     1
102
RTVSPropertyOp24
 70
     1
102
RTVSPropertyOp25
 70
     1
102
RTVSPropertyOp26
 70
     1
102
RTVSPropertyOp27
 70
     1
102
RTVSPropertyOp28
 70
     1
102
RTVSPropertyOp29
 70
     1
102
RTVSPropertyOp30
 70
     1
102
RTVSPropertyOp31
 70
     1
102
RTVSPropertyOp32
 70
     1
102
RTVSPropertyOp33
 70
     1
102
RTVSPropertyOp34
 70
     1
102
RTVSPropertyOp35
 70
     1
102
RTVSPropertyOp36
 70
     1
102
RTVSPropertyOp37
 70
     1
102
RTVSPropertyOp38
 70
     1
102
RTVSPropertyOp39
 70
     1
102
RTVSPropertyOp40
 70
     1
102
RTVSPropertyOp41
 70
     1
102
RTVSPropertyOp42
 70
     1
102
RTVSPropertyOp43
 70
     1
102
RTVSPropertyOp44
 70
     1
102
RTVSPropertyOp45
 70
     1
102
RTVSPropertyOp46
 70
     1
102
RTVSPropertyOp47
 70
     1
102
RTVSPropertyOp48
 70
     1
102
RTVSPropertyOp49
 70
     1
102
RTVSPropertyOp50
 70
     1
102
RTVSPropertyOp51
 70
     0
102
RTVSPropertyOp52
 70
     0
102
RTVSPropertyOp53
 70
     1
102
RTVSPropertyOp54
 70
     1
102
RTVSPropertyOp55
 70
     1
102
RTVSPropertyOp56
 70
     1
102
RTVSPropertyOp57
 70
     1
102
RTVSPost2010Prop28
280
     0
102
RTVSPost2010PropOp28
 70
     1
102
RTVSPost2010Prop29
280
     1
102
RTVSPost2010PropOp29
 70
     1
102
RTVSPost2010Prop30
280
     1
102
RTVSPost2010PropOp30
 70
     1
102
RTVSPost2010Prop31
280
     0
102
RTVSPost2010PropOp31
 70
     1
102
RTVSPost2010Prop32
280
     0
102
RTVSPost2010PropOp32
 70
     1
102
RTVSPost2010Prop33
280
     0
102
RTVSPost2010PropOp33
 70
     1
102
RTVSPost2010Prop34
280
     0
102
RTVSPost2010PropOp34
 70
     1
102
RTVSPost2010Prop35
280
     0
102
RTVSPost2010PropOp35
 70
     1
102
RTVSPost2010Prop36
280
     0
102
RTVSPost2010PropOp36
 70
     1
102
RTVSPost2010Prop37
 90
       50
102
RTVSPost2010PropOp37
 70
     1
102
RTVSPost2010Prop38
140
0.0
102
RTVSPost2010PropOp38
 70
     1
102
RTVSPost2010Prop39
140
1.0
102
RTVSPost2010PropOp39
 70
     1
102
RTVSPost2010Prop40
 90
        0
102
RTVSPost2010PropOp40
 70
     1
102
RTVSPost2010Prop41ColorIndex
 90
       18
102
RTVSPost2010Prop41ColorRGB
 90
        0
102
RTVSPost2010PropOp41
 70
     1
102
RTVSPost2010Prop42
 90
       50
102
RTVSPost2010PropOp42
 70
     1
102
RTVSPost2010Prop43
 90
        3
102
RTVSPost2010PropOp43
 70
     1
102
RTVSPost2010Prop44ColorIndex
 90
        5
102
RTVSPost2010Prop44ColorRGB
 90
      255
102
RTVSPost2010PropOp44
 70
     1
102
RTVSPost2010Prop45
280
     0
102
RTVSPost2010PropOp45
 70
     1
102
RTVSPost2010Prop46
 90
       50
102
RTVSPost2010PropOp46
 70
     1
102
RTVSPost2010Prop47
 90
       50
102
RTVSPost2010PropOp47
 70
     1
102
RTVSPost2010Prop48
 90
       50
102
RTVSPost2010PropOp48
 70
     1
102
RTVSPost2010Prop49
280
     0
102
RTVSPost2010PropOp49
 70
     1
102
RTVSPost2010Prop50
 90
       50
102
RTVSPost2010PropOp50
 70
     1
102
RTVSPost2010Prop51ColorIndex
 90
      256
102
RTVSPost2010Prop51ColorRGB
 90
-16777216
102
RTVSPost2010PropOp51
 70
     0
102
RTVSPost2010Prop52
140
1.0
102
RTVSPost2010PropOp52
 70
     0
102
RTVSPost2010Prop53
 90
        2
102
RTVSPost2010PropOp53
 70
     1
102
RTVSPost2010Prop54
  1
strokes_ogs.tif
102
RTVSPost2010PropOp54
 70
     1
102
RTVSPost2010Prop55
280
     0
102
RTVSPost2010PropOp55
 70
     1
102
RTVSPost2010Prop56
140
1.0
102
RTVSPost2010PropOp56
 70
     1
102
RTVSPost2010Prop57
140
1.0
102
RTVSPost2010PropOp57
 70
     1
  0
XRECORD
  5
379
102
{ACAD_REACTORS
330
378
102
}
330
378
100
AcDbXrecord
280
     1
102
RTVSPropertyOp0
 70
     1
102
RTVSPropertyOp1
 70
     1
102
RTVSPropertyOp2
 70
     1
102
RTVSPropertyOp3
 70
     1
102
RTVSPropertyOp4
 70
     1
102
RTVSPropertyOp5
 70
     1
102
RTVSPropertyOp6
 70
     1
102
RTVSPropertyOp7
 70
     1
102
RTVSPropertyOp8
 70
     1
102
RTVSPropertyOp9
 70
     1
102
RTVSPropertyOp10
 70
     1
102
RTVSPropertyOp11
 70
     1
102
RTVSPropertyOp12
 70
     1
102
RTVSPropertyOp13
 70
     1
102
RTVSPropertyOp14
 70
     1
102
RTVSPropertyOp15
 70
     1
102
RTVSPropertyOp16
 70
     1
102
RTVSPropertyOp17
 70
     1
102
RTVSPropertyOp18
 70
     1
102
RTVSPropertyOp19
 70
     1
102
RTVSPropertyOp20
 70
     1
102
RTVSPropertyOp21
 70
     1
102
RTVSPropertyOp22
 70
     1
102
RTVSPropertyOp23
 70
     1
102
RTVSPropertyOp24
 70
     1
102
RTVSPropertyOp25
 70
     1
102
RTVSPropertyOp26
 70
     1
102
RTVSPropertyOp27
 70
     1
102
RTVSPropertyOp28
 70
     1
102
RTVSPropertyOp29
 70
     1
102
RTVSPropertyOp30
 70
     1
102
RTVSPropertyOp31
 70
     1
102
RTVSPropertyOp32
 70
     1
102
RTVSPropertyOp33
 70
     1
102
RTVSPropertyOp34
 70
     1
102
RTVSPropertyOp35
 70
     1
102
RTVSPropertyOp36
 70
     1
102
RTVSPropertyOp37
 70
     1
102
RTVSPropertyOp38
 70
     1
102
RTVSPropertyOp39
 70
     1
102
RTVSPropertyOp40
 70
     1
102
RTVSPropertyOp41
 70
     1
102
RTVSPropertyOp42
 70
     1
102
RTVSPropertyOp43
 70
     1
102
RTVSPropertyOp44
 70
     1
102
RTVSPropertyOp45
 70
     1
102
RTVSPropertyOp46
 70
     1
102
RTVSPropertyOp47
 70
     1
102
RTVSPropertyOp48
 70
     1
102
RTVSPropertyOp49
 70
     1
102
RTVSPropertyOp50
 70
     1
102
RTVSPropertyOp51
 70
     0
102
RTVSPropertyOp52
 70
     0
102
RTVSPropertyOp53
 70
     1
102
RTVSPropertyOp54
 70
     1
102
RTVSPropertyOp55
 70
     1
102
RTVSPropertyOp56
 70
     1
102
RTVSPropertyOp57
 70
     1
102
RTVSPost2010Prop28
280
     0
102
RTVSPost2010PropOp28
 70
     1
102
RTVSPost2010Prop29
280
     1
102
RTVSPost2010PropOp29
 70
     1
102
RTVSPost2010Prop30
280
     1
102
RTVSPost2010PropOp30
 70
     1
102
RTVSPost2010Prop31
280
     0
102
RTVSPost2010PropOp31
 70
     1
102
RTVSPost2010Prop32
280
     0
102
RTVSPost2010PropOp32
 70
     1
102
RTVSPost2010Prop33
280
     0
102
RTVSPost2010PropOp33
 70
     1
102
RTVSPost2010Prop34
280
     0
102
RTVSPost2010PropOp34
 70
     1
102
RTVSPost2010Prop35
280
     0
102
RTVSPost2010PropOp35
 70
     1
102
RTVSPost2010Prop36
280
     0
102
RTVSPost2010PropOp36
 70
     1
102
RTVSPost2010Prop37
 90
       50
102
RTVSPost2010PropOp37
 70
     1
102
RTVSPost2010Prop38
140
0.0
102
RTVSPost2010PropOp38
 70
     1
102
RTVSPost2010Prop39
140
1.0
102
RTVSPost2010PropOp39
 70
     1
102
RTVSPost2010Prop40
 90
        0
102
RTVSPost2010PropOp40
 70
     1
102
RTVSPost2010Prop41ColorIndex
 90
       18
102
RTVSPost2010Prop41ColorRGB
 90
        0
102
RTVSPost2010PropOp41
 70
     1
102
RTVSPost2010Prop42
 90
       50
102
RTVSPost2010PropOp42
 70
     1
102
RTVSPost2010Prop43
 90
        3
102
RTVSPost2010PropOp43
 70
     1
102
RTVSPost2010Prop44ColorIndex
 90
        5
102
RTVSPost2010Prop44ColorRGB
 90
      255
102
RTVSPost2010PropOp44
 70
     1
102
RTVSPost2010Prop45
280
     0
102
RTVSPost2010PropOp45
 70
     1
102
RTVSPost2010Prop46
 90
       50
102
RTVSPost2010PropOp46
 70
     1
102
RTVSPost2010Prop47
 90
       50
102
RTVSPost2010PropOp47
 70
     1
102
RTVSPost2010Prop48
 90
       50
102
RTVSPost2010PropOp48
 70
     1
102
RTVSPost2010Prop49
280
     0
102
RTVSPost2010PropOp49
 70
     1
102
RTVSPost2010Prop50
 90
       50
102
RTVSPost2010PropOp50
 70
     1
102
RTVSPost2010Prop51ColorIndex
 90
      256
102
RTVSPost2010Prop51ColorRGB
 90
-16777216
102
RTVSPost2010PropOp51
 70
     0
102
RTVSPost2010Prop52
140
1.0
102
RTVSPost2010PropOp52
 70
     0
102
RTVSPost2010Prop53
 90
        2
102
RTVSPost2010PropOp53
 70
     1
102
RTVSPost2010Prop54
  1
strokes_ogs.tif
102
RTVSPost2010PropOp54
 70
     1
102
RTVSPost2010Prop55
280
     0
102
RTVSPost2010PropOp55
 70
     1
102
RTVSPost2010Prop56
140
1.0
102
RTVSPost2010PropOp56
 70
     1
102
RTVSPost2010Prop57
140
1.0
102
RTVSPost2010PropOp57
 70
     1
  0
XRECORD
  5
37B
102
{ACAD_REACTORS
330
37A
102
}
330
37A
100
AcDbXrecord
280
     1
102
RTVSPropertyOp0
 70
     1
102
RTVSPropertyOp1
 70
     1
102
RTVSPropertyOp2
 70
     1
102
RTVSPropertyOp3
 70
     1
102
RTVSPropertyOp4
 70
     1
102
RTVSPropertyOp5
 70
     1
102
RTVSPropertyOp6
 70
     1
102
RTVSPropertyOp7
 70
     1
102
RTVSPropertyOp8
 70
     1
102
RTVSPropertyOp9
 70
     1
102
RTVSPropertyOp10
 70
     1
102
RTVSPropertyOp11
 70
     1
102
RTVSPropertyOp12
 70
     1
102
RTVSPropertyOp13
 70
     1
102
RTVSPropertyOp14
 70
     1
102
RTVSPropertyOp15
 70
     1
102
RTVSPropertyOp16
 70
     1
102
RTVSPropertyOp17
 70
     1
102
RTVSPropertyOp18
 70
     1
102
RTVSPropertyOp19
 70
     1
102
RTVSPropertyOp20
 70
     1
102
RTVSPropertyOp21
 70
     1
102
RTVSPropertyOp22
 70
     1
102
RTVSPropertyOp23
 70
     1
102
RTVSPropertyOp24
 70
     1
102
RTVSPropertyOp25
 70
     1
102
RTVSPropertyOp26
 70
     1
102
RTVSPropertyOp27
 70
     1
102
RTVSPropertyOp28
 70
     1
102
RTVSPropertyOp29
 70
     1
102
RTVSPropertyOp30
 70
     1
102
RTVSPropertyOp31
 70
     1
102
RTVSPropertyOp32
 70
     1
102
RTVSPropertyOp33
 70
     1
102
RTVSPropertyOp34
 70
     1
102
RTVSPropertyOp35
 70
     1
102
RTVSPropertyOp36
 70
     1
102
RTVSPropertyOp37
 70
     1
102
RTVSPropertyOp38
 70
     1
102
RTVSPropertyOp39
 70
     1
102
RTVSPropertyOp40
 70
     1
102
RTVSPropertyOp41
 70
     1
102
RTVSPropertyOp42
 70
     1
102
RTVSPropertyOp43
 70
     1
102
RTVSPropertyOp44
 70
     1
102
RTVSPropertyOp45
 70
     1
102
RTVSPropertyOp46
 70
     1
102
RTVSPropertyOp47
 70
     1
102
RTVSPropertyOp48
 70
     1
102
RTVSPropertyOp49
 70
     1
102
RTVSPropertyOp50
 70
     1
102
RTVSPropertyOp51
 70
     0
102
RTVSPropertyOp52
 70
     0
102
RTVSPropertyOp53
 70
     1
102
RTVSPropertyOp54
 70
     1
102
RTVSPropertyOp55
 70
     1
102
RTVSPropertyOp56
 70
     1
102
RTVSPropertyOp57
 70
     1
102
RTVSPost2010Prop28
280
     0
102
RTVSPost2010PropOp28
 70
     1
102
RTVSPost2010Prop29
280
     1
102
RTVSPost2010PropOp29
 70
     1
102
RTVSPost2010Prop30
280
     1
102
RTVSPost2010PropOp30
 70
     1
102
RTVSPost2010Prop31
280
     0
102
RTVSPost2010PropOp31
 70
     1
102
RTVSPost2010Prop32
280
     0
102
RTVSPost2010PropOp32
 70
     1
102
RTVSPost2010Prop33
280
     0
102
RTVSPost2010PropOp33
 70
     1
102
RTVSPost2010Prop34
280
     0
102
RTVSPost2010PropOp34
 70
     1
102
RTVSPost2010Prop35
280
     0
102
RTVSPost2010PropOp35
 70
     1
102
RTVSPost2010Prop36
280
     0
102
RTVSPost2010PropOp36
 70
     1
102
RTVSPost2010Prop37
 90
       50
102
RTVSPost2010PropOp37
 70
     1
102
RTVSPost2010Prop38
140
0.0
102
RTVSPost2010PropOp38
 70
     1
102
RTVSPost2010Prop39
140
1.0
102
RTVSPost2010PropOp39
 70
     1
102
RTVSPost2010Prop40
 90
        0
102
RTVSPost2010PropOp40
 70
     1
102
RTVSPost2010Prop41ColorIndex
 90
       18
102
RTVSPost2010Prop41ColorRGB
 90
        0
102
RTVSPost2010PropOp41
 70
     1
102
RTVSPost2010Prop42
 90
       50
102
RTVSPost2010PropOp42
 70
     1
102
RTVSPost2010Prop43
 90
        3
102
RTVSPost2010PropOp43
 70
     1
102
RTVSPost2010Prop44ColorIndex
 90
        5
102
RTVSPost2010Prop44ColorRGB
 90
      255
102
RTVSPost2010PropOp44
 70
     1
102
RTVSPost2010Prop45
280
     0
102
RTVSPost2010PropOp45
 70
     1
102
RTVSPost2010Prop46
 90
       50
102
RTVSPost2010PropOp46
 70
     1
102
RTVSPost2010Prop47
 90
       50
102
RTVSPost2010PropOp47
 70
     1
102
RTVSPost2010Prop48
 90
       50
102
RTVSPost2010PropOp48
 70
     1
102
RTVSPost2010Prop49
280
     0
102
RTVSPost2010PropOp49
 70
     1
102
RTVSPost2010Prop50
 90
       50
102
RTVSPost2010PropOp50
 70
     1
102
RTVSPost2010Prop51ColorIndex
 90
      256
102
RTVSPost2010Prop51ColorRGB
 90
-16777216
102
RTVSPost2010PropOp51
 70
     0
102
RTVSPost2010Prop52
140
1.0
102
RTVSPost2010PropOp52
 70
     0
102
RTVSPost2010Prop53
 90
        2
102
RTVSPost2010PropOp53
 70
     1
102
RTVSPost2010Prop54
  1
strokes_ogs.tif
102
RTVSPost2010PropOp54
 70
     1
102
RTVSPost2010Prop55
280
     0
102
RTVSPost2010PropOp55
 70
     1
102
RTVSPost2010Prop56
140
1.0
102
RTVSPost2010PropOp56
 70
     1
102
RTVSPost2010Prop57
140
1.0
102
RTVSPost2010PropOp57
 70
     1
  0
XRECORD
  5
38B
102
{ACAD_REACTORS
330
38A
102
}
330
38A
100
AcDbXrecord
280
     1
102
RTVSPropertyOp0
 70
     0
102
RTVSPropertyOp1
 70
     0
102
RTVSPropertyOp2
 70
     0
102
RTVSPropertyOp3
 70
     0
102
RTVSPropertyOp4
 70
     0
102
RTVSPropertyOp5
 70
     0
102
RTVSPropertyOp6
 70
     0
102
RTVSPropertyOp7
 70
     0
102
RTVSPropertyOp8
 70
     0
102
RTVSPropertyOp9
 70
     0
102
RTVSPropertyOp10
 70
     0
102
RTVSPropertyOp11
 70
     0
102
RTVSPropertyOp12
 70
     0
102
RTVSPropertyOp13
 70
     0
102
RTVSPropertyOp14
 70
     2
102
RTVSPropertyOp15
 70
     0
102
RTVSPropertyOp16
 70
     0
102
RTVSPropertyOp17
 70
     0
102
RTVSPropertyOp18
 70
     0
102
RTVSPropertyOp19
 70
     0
102
RTVSPropertyOp20
 70
     0
102
RTVSPropertyOp21
 70
     0
102
RTVSPropertyOp22
 70
     0
102
RTVSPropertyOp23
 70
     0
102
RTVSPropertyOp24
 70
     0
102
RTVSPropertyOp25
 70
     0
102
RTVSPropertyOp26
 70
     0
102
RTVSPropertyOp27
 70
     0
102
RTVSPropertyOp28
 70
     0
102
RTVSPropertyOp29
 70
     0
102
RTVSPropertyOp30
 70
     0
102
RTVSPropertyOp31
 70
     0
102
RTVSPropertyOp32
 70
     0
102
RTVSPropertyOp33
 70
     0
102
RTVSPropertyOp34
 70
     0
102
RTVSPropertyOp35
 70
     0
102
RTVSPropertyOp36
 70
     0
102
RTVSPropertyOp37
 70
     0
102
RTVSPropertyOp38
 70
     0
102
RTVSPropertyOp39
 70
     0
102
RTVSPropertyOp40
 70
     0
102
RTVSPropertyOp41
 70
     0
102
RTVSPropertyOp42
 70
     0
102
RTVSPropertyOp43
 70
     0
102
RTVSPropertyOp44
 70
     0
102
RTVSPropertyOp45
 70
     0
102
RTVSPropertyOp46
 70
     0
102
RTVSPropertyOp47
 70
     0
102
RTVSPropertyOp48
 70
     0
102
RTVSPropertyOp49
 70
     0
102
RTVSPropertyOp50
 70
     0
102
RTVSPropertyOp51
 70
     0
102
RTVSPropertyOp52
 70
     0
102
RTVSPropertyOp53
 70
     0
102
RTVSPropertyOp54
 70
     0
102
RTVSPropertyOp55
 70
     0
102
RTVSPropertyOp56
 70
     0
102
RTVSPropertyOp57
 70
     0
102
RTVSPost2010Prop28
280
     0
102
RTVSPost2010PropOp28
 70
     0
102
RTVSPost2010Prop29
280
     1
102
RTVSPost2010PropOp29
 70
     0
102
RTVSPost2010Prop30
280
     1
102
RTVSPost2010PropOp30
 70
     0
102
RTVSPost2010Prop31
280
     0
102
RTVSPost2010PropOp31
 70
     0
102
RTVSPost2010Prop32
280
     0
102
RTVSPost2010PropOp32
 70
     0
102
RTVSPost2010Prop33
280
     0
102
RTVSPost2010PropOp33
 70
     0
102
RTVSPost2010Prop34
280
     0
102
RTVSPost2010PropOp34
 70
     0
102
RTVSPost2010Prop35
280
     0
102
RTVSPost2010PropOp35
 70
     0
102
RTVSPost2010Prop36
280
     0
102
RTVSPost2010PropOp36
 70
     0
102
RTVSPost2010Prop37
 90
       50
102
RTVSPost2010PropOp37
 70
     0
102
RTVSPost2010Prop38
140
0.0
102
RTVSPost2010PropOp38
 70
     0
102
RTVSPost2010Prop39
140
1.0
102
RTVSPost2010PropOp39
 70
     0
102
RTVSPost2010Prop40
 90
        0
102
RTVSPost2010PropOp40
 70
     0
102
RTVSPost2010Prop41ColorIndex
 90
       18
102
RTVSPost2010Prop41ColorRGB
 90
        0
102
RTVSPost2010PropOp41
 70
     0
102
RTVSPost2010Prop42
 90
       50
102
RTVSPost2010PropOp42
 70
     0
102
RTVSPost2010Prop43
 90
        3
102
RTVSPost2010PropOp43
 70
     0
102
RTVSPost2010Prop44ColorIndex
 90
        5
102
RTVSPost2010Prop44ColorRGB
 90
      255
102
RTVSPost2010PropOp44
 70
     0
102
RTVSPost2010Prop45
280
     0
102
RTVSPost2010PropOp45
 70
     0
102
RTVSPost2010Prop46
 90
       50
102
RTVSPost2010PropOp46
 70
     0
102
RTVSPost2010Prop47
 90
       50
102
RTVSPost2010PropOp47
 70
     0
102
RTVSPost2010Prop48
 90
       50
102
RTVSPost2010PropOp48
 70
     0
102
RTVSPost2010Prop49
280
     0
102
RTVSPost2010PropOp49
 70
     0
102
RTVSPost2010Prop50
 90
       50
102
RTVSPost2010PropOp50
 70
     0
102
RTVSPost2010Prop51ColorIndex
 90
      256
102
RTVSPost2010Prop51ColorRGB
 90
-16777216
102
RTVSPost2010PropOp51
 70
     0
102
RTVSPost2010Prop52
140
1.0
102
RTVSPost2010PropOp52
 70
     0
102
RTVSPost2010Prop53
 90
        2
102
RTVSPost2010PropOp53
 70
     0
102
RTVSPost2010Prop54
  1
strokes_ogs.tif
102
RTVSPost2010PropOp54
 70
     0
102
RTVSPost2010Prop55
280
     0
102
RTVSPost2010PropOp55
 70
     0
102
RTVSPost2010Prop56
140
1.0
102
RTVSPost2010PropOp56
 70
     0
102
RTVSPost2010Prop57
140
1.0
102
RTVSPost2010PropOp57
 70
     0
  0
XRECORD
  5
383
102
{ACAD_REACTORS
330
382
102
}
330
382
100
AcDbXrecord
280
     1
102
RTVSPropertyOp0
 70
     1
102
RTVSPropertyOp1
 70
     1
102
RTVSPropertyOp2
 70
     1
102
RTVSPropertyOp3
 70
     1
102
RTVSPropertyOp4
 70
     1
102
RTVSPropertyOp5
 70
     1
102
RTVSPropertyOp6
 70
     1
102
RTVSPropertyOp7
 70
     1
102
RTVSPropertyOp8
 70
     1
102
RTVSPropertyOp9
 70
     1
102
RTVSPropertyOp10
 70
     1
102
RTVSPropertyOp11
 70
     1
102
RTVSPropertyOp12
 70
     1
102
RTVSPropertyOp13
 70
     1
102
RTVSPropertyOp14
 70
     1
102
RTVSPropertyOp15
 70
     1
102
RTVSPropertyOp16
 70
     1
102
RTVSPropertyOp17
 70
     1
102
RTVSPropertyOp18
 70
     1
102
RTVSPropertyOp19
 70
     1
102
RTVSPropertyOp20
 70
     1
102
RTVSPropertyOp21
 70
     1
102
RTVSPropertyOp22
 70
     1
102
RTVSPropertyOp23
 70
     1
102
RTVSPropertyOp24
 70
     1
102
RTVSPropertyOp25
 70
     1
102
RTVSPropertyOp26
 70
     1
102
RTVSPropertyOp27
 70
     1
102
RTVSPropertyOp28
 70
     1
102
RTVSPropertyOp29
 70
     1
102
RTVSPropertyOp30
 70
     1
102
RTVSPropertyOp31
 70
     1
102
RTVSPropertyOp32
 70
     1
102
RTVSPropertyOp33
 70
     1
102
RTVSPropertyOp34
 70
     1
102
RTVSPropertyOp35
 70
     1
102
RTVSPropertyOp36
 70
     1
102
RTVSPropertyOp37
 70
     1
102
RTVSPropertyOp38
 70
     1
102
RTVSPropertyOp39
 70
     1
102
RTVSPropertyOp40
 70
     1
102
RTVSPropertyOp41
 70
     1
102
RTVSPropertyOp42
 70
     1
102
RTVSPropertyOp43
 70
     1
102
RTVSPropertyOp44
 70
     1
102
RTVSPropertyOp45
 70
     1
102
RTVSPropertyOp46
 70
     1
102
RTVSPropertyOp47
 70
     1
102
RTVSPropertyOp48
 70
     1
102
RTVSPropertyOp49
 70
     1
102
RTVSPropertyOp50
 70
     1
102
RTVSPropertyOp51
 70
     0
102
RTVSPropertyOp52
 70
     0
102
RTVSPropertyOp53
 70
     1
102
RTVSPropertyOp54
 70
     1
102
RTVSPropertyOp55
 70
     1
102
RTVSPropertyOp56
 70
     1
102
RTVSPropertyOp57
 70
     1
102
RTVSPost2010Prop28
280
     0
102
RTVSPost2010PropOp28
 70
     1
102
RTVSPost2010Prop29
280
     1
102
RTVSPost2010PropOp29
 70
     1
102
RTVSPost2010Prop30
280
     1
102
RTVSPost2010PropOp30
 70
     1
102
RTVSPost2010Prop31
280
     0
102
RTVSPost2010PropOp31
 70
     1
102
RTVSPost2010Prop32
280
     0
102
RTVSPost2010PropOp32
 70
     1
102
RTVSPost2010Prop33
280
     0
102
RTVSPost2010PropOp33
 70
     1
102
RTVSPost2010Prop34
280
     0
102
RTVSPost2010PropOp34
 70
     1
102
RTVSPost2010Prop35
280
     0
102
RTVSPost2010PropOp35
 70
     1
102
RTVSPost2010Prop36
280
     0
102
RTVSPost2010PropOp36
 70
     1
102
RTVSPost2010Prop37
 90
       50
102
RTVSPost2010PropOp37
 70
     1
102
RTVSPost2010Prop38
140
0.0
102
RTVSPost2010PropOp38
 70
     1
102
RTVSPost2010Prop39
140
1.0
102
RTVSPost2010PropOp39
 70
     1
102
RTVSPost2010Prop40
 90
        0
102
RTVSPost2010PropOp40
 70
     1
102
RTVSPost2010Prop41ColorIndex
 90
       18
102
RTVSPost2010Prop41ColorRGB
 90
        0
102
RTVSPost2010PropOp41
 70
     1
102
RTVSPost2010Prop42
 90
       50
102
RTVSPost2010PropOp42
 70
     1
102
RTVSPost2010Prop43
 90
        3
102
RTVSPost2010PropOp43
 70
     1
102
RTVSPost2010Prop44ColorIndex
 90
        5
102
RTVSPost2010Prop44ColorRGB
 90
      255
102
RTVSPost2010PropOp44
 70
     1
102
RTVSPost2010Prop45
280
     0
102
RTVSPost2010PropOp45
 70
     1
102
RTVSPost2010Prop46
 90
       50
102
RTVSPost2010PropOp46
 70
     1
102
RTVSPost2010Prop47
 90
       50
102
RTVSPost2010PropOp47
 70
     1
102
RTVSPost2010Prop48
 90
       50
102
RTVSPost2010PropOp48
 70
     1
102
RTVSPost2010Prop49
280
     0
102
RTVSPost2010PropOp49
 70
     1
102
RTVSPost2010Prop50
 90
       50
102
RTVSPost2010PropOp50
 70
     1
102
RTVSPost2010Prop51ColorIndex
 90
      256
102
RTVSPost2010Prop51ColorRGB
 90
-16777216
102
RTVSPost2010PropOp51
 70
     0
102
RTVSPost2010Prop52
140
1.0
102
RTVSPost2010PropOp52
 70
     0
102
RTVSPost2010Prop53
 90
        2
102
RTVSPost2010PropOp53
 70
     1
102
RTVSPost2010Prop54
  1
strokes_ogs.tif
102
RTVSPost2010PropOp54
 70
     1
102
RTVSPost2010Prop55
280
     0
102
RTVSPost2010PropOp55
 70
     1
102
RTVSPost2010Prop56
140
1.0
102
RTVSPost2010PropOp56
 70
     1
102
RTVSPost2010Prop57
140
1.0
102
RTVSPost2010PropOp57
 70
     1
  0
XRECORD
  5
367
102
{ACAD_REACTORS
330
366
102
}
330
366
100
AcDbXrecord
280
     1
102
RTVSPropertyOp0
 70
     1
102
RTVSPropertyOp1
 70
     1
102
RTVSPropertyOp2
 70
     1
102
RTVSPropertyOp3
 70
     1
102
RTVSPropertyOp4
 70
     1
102
RTVSPropertyOp5
 70
     1
102
RTVSPropertyOp6
 70
     1
102
RTVSPropertyOp7
 70
     1
102
RTVSPropertyOp8
 70
     1
102
RTVSPropertyOp9
 70
     1
102
RTVSPropertyOp10
 70
     1
102
RTVSPropertyOp11
 70
     1
102
RTVSPropertyOp12
 70
     1
102
RTVSPropertyOp13
 70
     1
102
RTVSPropertyOp14
 70
     1
102
RTVSPropertyOp15
 70
     1
102
RTVSPropertyOp16
 70
     1
102
RTVSPropertyOp17
 70
     1
102
RTVSPropertyOp18
 70
     1
102
RTVSPropertyOp19
 70
     1
102
RTVSPropertyOp20
 70
     1
102
RTVSPropertyOp21
 70
     1
102
RTVSPropertyOp22
 70
     1
102
RTVSPropertyOp23
 70
     1
102
RTVSPropertyOp24
 70
     1
102
RTVSPropertyOp25
 70
     1
102
RTVSPropertyOp26
 70
     1
102
RTVSPropertyOp27
 70
     1
102
RTVSPropertyOp28
 70
     1
102
RTVSPropertyOp29
 70
     1
102
RTVSPropertyOp30
 70
     1
102
RTVSPropertyOp31
 70
     1
102
RTVSPropertyOp32
 70
     1
102
RTVSPropertyOp33
 70
     1
102
RTVSPropertyOp34
 70
     1
102
RTVSPropertyOp35
 70
     1
102
RTVSPropertyOp36
 70
     1
102
RTVSPropertyOp37
 70
     1
102
RTVSPropertyOp38
 70
     1
102
RTVSPropertyOp39
 70
     1
102
RTVSPropertyOp40
 70
     1
102
RTVSPropertyOp41
 70
     1
102
RTVSPropertyOp42
 70
     1
102
RTVSPropertyOp43
 70
     1
102
RTVSPropertyOp44
 70
     1
102
RTVSPropertyOp45
 70
     1
102
RTVSPropertyOp46
 70
     1
102
RTVSPropertyOp47
 70
     1
102
RTVSPropertyOp48
 70
     1
102
RTVSPropertyOp49
 70
     1
102
RTVSPropertyOp50
 70
     1
102
RTVSPropertyOp51
 70
     0
102
RTVSPropertyOp52
 70
     0
102
RTVSPropertyOp53
 70
     1
102
RTVSPropertyOp54
 70
     1
102
RTVSPropertyOp55
 70
     1
102
RTVSPropertyOp56
 70
     1
102
RTVSPropertyOp57
 70
     1
102
RTVSPost2010Prop28
280
     0
102
RTVSPost2010PropOp28
 70
     1
102
RTVSPost2010Prop29
280
     1
102
RTVSPost2010PropOp29
 70
     1
102
RTVSPost2010Prop30
280
     1
102
RTVSPost2010PropOp30
 70
     1
102
RTVSPost2010Prop31
280
     0
102
RTVSPost2010PropOp31
 70
     1
102
RTVSPost2010Prop32
280
     0
102
RTVSPost2010PropOp32
 70
     1
102
RTVSPost2010Prop33
280
     0
102
RTVSPost2010PropOp33
 70
     1
102
RTVSPost2010Prop34
280
     0
102
RTVSPost2010PropOp34
 70
     1
102
RTVSPost2010Prop35
280
     0
102
RTVSPost2010PropOp35
 70
     1
102
RTVSPost2010Prop36
280
     0
102
RTVSPost2010PropOp36
 70
     1
102
RTVSPost2010Prop37
 90
       50
102
RTVSPost2010PropOp37
 70
     1
102
RTVSPost2010Prop38
140
0.0
102
RTVSPost2010PropOp38
 70
     1
102
RTVSPost2010Prop39
140
1.0
102
RTVSPost2010PropOp39
 70
     1
102
RTVSPost2010Prop40
 90
        0
102
RTVSPost2010PropOp40
 70
     1
102
RTVSPost2010Prop41ColorIndex
 90
       18
102
RTVSPost2010Prop41ColorRGB
 90
        0
102
RTVSPost2010PropOp41
 70
     1
102
RTVSPost2010Prop42
 90
       50
102
RTVSPost2010PropOp42
 70
     1
102
RTVSPost2010Prop43
 90
        3
102
RTVSPost2010PropOp43
 70
     1
102
RTVSPost2010Prop44ColorIndex
 90
        5
102
RTVSPost2010Prop44ColorRGB
 90
      255
102
RTVSPost2010PropOp44
 70
     1
102
RTVSPost2010Prop45
280
     0
102
RTVSPost2010PropOp45
 70
     1
102
RTVSPost2010Prop46
 90
       50
102
RTVSPost2010PropOp46
 70
     1
102
RTVSPost2010Prop47
 90
       50
102
RTVSPost2010PropOp47
 70
     1
102
RTVSPost2010Prop48
 90
       50
102
RTVSPost2010PropOp48
 70
     1
102
RTVSPost2010Prop49
280
     0
102
RTVSPost2010PropOp49
 70
     1
102
RTVSPost2010Prop50
 90
       50
102
RTVSPost2010PropOp50
 70
     1
102
RTVSPost2010Prop51ColorIndex
 90
      256
102
RTVSPost2010Prop51ColorRGB
 90
-16777216
102
RTVSPost2010PropOp51
 70
     0
102
RTVSPost2010Prop52
140
1.0
102
RTVSPost2010PropOp52
 70
     0
102
RTVSPost2010Prop53
 90
        2
102
RTVSPost2010PropOp53
 70
     1
102
RTVSPost2010Prop54
  1
strokes_ogs.tif
102
RTVSPost2010PropOp54
 70
     1
102
RTVSPost2010Prop55
280
     0
102
RTVSPost2010PropOp55
 70
     1
102
RTVSPost2010Prop56
140
1.0
102
RTVSPost2010PropOp56
 70
     1
102
RTVSPost2010Prop57
140
1.0
102
RTVSPost2010PropOp57
 70
     1
  0
XRECORD
  5
369
102
{ACAD_REACTORS
330
368
102
}
330
368
100
AcDbXrecord
280
     1
102
RTVSPropertyOp0
 70
     1
102
RTVSPropertyOp1
 70
     1
102
RTVSPropertyOp2
 70
     1
102
RTVSPropertyOp3
 70
     1
102
RTVSPropertyOp4
 70
     1
102
RTVSPropertyOp5
 70
     1
102
RTVSPropertyOp6
 70
     1
102
RTVSPropertyOp7
 70
     1
102
RTVSPropertyOp8
 70
     1
102
RTVSPropertyOp9
 70
     1
102
RTVSPropertyOp10
 70
     1
102
RTVSPropertyOp11
 70
     1
102
RTVSPropertyOp12
 70
     1
102
RTVSPropertyOp13
 70
     1
102
RTVSPropertyOp14
 70
     1
102
RTVSPropertyOp15
 70
     1
102
RTVSPropertyOp16
 70
     1
102
RTVSPropertyOp17
 70
     1
102
RTVSPropertyOp18
 70
     1
102
RTVSPropertyOp19
 70
     1
102
RTVSPropertyOp20
 70
     1
102
RTVSPropertyOp21
 70
     1
102
RTVSPropertyOp22
 70
     1
102
RTVSPropertyOp23
 70
     1
102
RTVSPropertyOp24
 70
     1
102
RTVSPropertyOp25
 70
     1
102
RTVSPropertyOp26
 70
     1
102
RTVSPropertyOp27
 70
     1
102
RTVSPropertyOp28
 70
     1
102
RTVSPropertyOp29
 70
     1
102
RTVSPropertyOp30
 70
     1
102
RTVSPropertyOp31
 70
     1
102
RTVSPropertyOp32
 70
     1
102
RTVSPropertyOp33
 70
     1
102
RTVSPropertyOp34
 70
     1
102
RTVSPropertyOp35
 70
     1
102
RTVSPropertyOp36
 70
     1
102
RTVSPropertyOp37
 70
     1
102
RTVSPropertyOp38
 70
     1
102
RTVSPropertyOp39
 70
     1
102
RTVSPropertyOp40
 70
     1
102
RTVSPropertyOp41
 70
     1
102
RTVSPropertyOp42
 70
     1
102
RTVSPropertyOp43
 70
     1
102
RTVSPropertyOp44
 70
     1
102
RTVSPropertyOp45
 70
     1
102
RTVSPropertyOp46
 70
     1
102
RTVSPropertyOp47
 70
     1
102
RTVSPropertyOp48
 70
     1
102
RTVSPropertyOp49
 70
     1
102
RTVSPropertyOp50
 70
     1
102
RTVSPropertyOp51
 70
     0
102
RTVSPropertyOp52
 70
     0
102
RTVSPropertyOp53
 70
     1
102
RTVSPropertyOp54
 70
     1
102
RTVSPropertyOp55
 70
     1
102
RTVSPropertyOp56
 70
     1
102
RTVSPropertyOp57
 70
     1
102
RTVSPost2010Prop28
280
     0
102
RTVSPost2010PropOp28
 70
     1
102
RTVSPost2010Prop29
280
     1
102
RTVSPost2010PropOp29
 70
     1
102
RTVSPost2010Prop30
280
     1
102
RTVSPost2010PropOp30
 70
     1
102
RTVSPost2010Prop31
280
     0
102
RTVSPost2010PropOp31
 70
     1
102
RTVSPost2010Prop32
280
     0
102
RTVSPost2010PropOp32
 70
     1
102
RTVSPost2010Prop33
280
     0
102
RTVSPost2010PropOp33
 70
     1
102
RTVSPost2010Prop34
280
     0
102
RTVSPost2010PropOp34
 70
     1
102
RTVSPost2010Prop35
280
     0
102
RTVSPost2010PropOp35
 70
     1
102
RTVSPost2010Prop36
280
     0
102
RTVSPost2010PropOp36
 70
     1
102
RTVSPost2010Prop37
 90
       50
102
RTVSPost2010PropOp37
 70
     1
102
RTVSPost2010Prop38
140
0.0
102
RTVSPost2010PropOp38
 70
     1
102
RTVSPost2010Prop39
140
1.0
102
RTVSPost2010PropOp39
 70
     1
102
RTVSPost2010Prop40
 90
        0
102
RTVSPost2010PropOp40
 70
     1
102
RTVSPost2010Prop41ColorIndex
 90
       18
102
RTVSPost2010Prop41ColorRGB
 90
        0
102
RTVSPost2010PropOp41
 70
     1
102
RTVSPost2010Prop42
 90
       50
102
RTVSPost2010PropOp42
 70
     1
102
RTVSPost2010Prop43
 90
        3
102
RTVSPost2010PropOp43
 70
     1
102
RTVSPost2010Prop44ColorIndex
 90
        5
102
RTVSPost2010Prop44ColorRGB
 90
      255
102
RTVSPost2010PropOp44
 70
     1
102
RTVSPost2010Prop45
280
     0
102
RTVSPost2010PropOp45
 70
     1
102
RTVSPost2010Prop46
 90
       50
102
RTVSPost2010PropOp46
 70
     1
102
RTVSPost2010Prop47
 90
       50
102
RTVSPost2010PropOp47
 70
     1
102
RTVSPost2010Prop48
 90
       50
102
RTVSPost2010PropOp48
 70
     1
102
RTVSPost2010Prop49
280
     0
102
RTVSPost2010PropOp49
 70
     1
102
RTVSPost2010Prop50
 90
       50
102
RTVSPost2010PropOp50
 70
     1
102
RTVSPost2010Prop51ColorIndex
 90
      256
102
RTVSPost2010Prop51ColorRGB
 90
-16777216
102
RTVSPost2010PropOp51
 70
     0
102
RTVSPost2010Prop52
140
1.0
102
RTVSPost2010PropOp52
 70
     0
102
RTVSPost2010Prop53
 90
        2
102
RTVSPost2010PropOp53
 70
     1
102
RTVSPost2010Prop54
  1
strokes_ogs.tif
102
RTVSPost2010PropOp54
 70
     1
102
RTVSPost2010Prop55
280
     0
102
RTVSPost2010PropOp55
 70
     1
102
RTVSPost2010Prop56
140
1.0
102
RTVSPost2010PropOp56
 70
     1
102
RTVSPost2010Prop57
140
1.0
102
RTVSPost2010PropOp57
 70
     1
  0
XRECORD
  5
36B
102
{ACAD_REACTORS
330
36A
102
}
330
36A
100
AcDbXrecord
280
     1
102
RTVSPropertyOp0
 70
     1
102
RTVSPropertyOp1
 70
     1
102
RTVSPropertyOp2
 70
     1
102
RTVSPropertyOp3
 70
     1
102
RTVSPropertyOp4
 70
     1
102
RTVSPropertyOp5
 70
     1
102
RTVSPropertyOp6
 70
     1
102
RTVSPropertyOp7
 70
     1
102
RTVSPropertyOp8
 70
     1
102
RTVSPropertyOp9
 70
     1
102
RTVSPropertyOp10
 70
     1
102
RTVSPropertyOp11
 70
     1
102
RTVSPropertyOp12
 70
     1
102
RTVSPropertyOp13
 70
     1
102
RTVSPropertyOp14
 70
     1
102
RTVSPropertyOp15
 70
     1
102
RTVSPropertyOp16
 70
     1
102
RTVSPropertyOp17
 70
     1
102
RTVSPropertyOp18
 70
     1
102
RTVSPropertyOp19
 70
     1
102
RTVSPropertyOp20
 70
     1
102
RTVSPropertyOp21
 70
     1
102
RTVSPropertyOp22
 70
     1
102
RTVSPropertyOp23
 70
     1
102
RTVSPropertyOp24
 70
     1
102
RTVSPropertyOp25
 70
     1
102
RTVSPropertyOp26
 70
     1
102
RTVSPropertyOp27
 70
     1
102
RTVSPropertyOp28
 70
     1
102
RTVSPropertyOp29
 70
     1
102
RTVSPropertyOp30
 70
     1
102
RTVSPropertyOp31
 70
     1
102
RTVSPropertyOp32
 70
     1
102
RTVSPropertyOp33
 70
     1
102
RTVSPropertyOp34
 70
     1
102
RTVSPropertyOp35
 70
     1
102
RTVSPropertyOp36
 70
     1
102
RTVSPropertyOp37
 70
     1
102
RTVSPropertyOp38
 70
     1
102
RTVSPropertyOp39
 70
     1
102
RTVSPropertyOp40
 70
     1
102
RTVSPropertyOp41
 70
     1
102
RTVSPropertyOp42
 70
     1
102
RTVSPropertyOp43
 70
     1
102
RTVSPropertyOp44
 70
     1
102
RTVSPropertyOp45
 70
     1
102
RTVSPropertyOp46
 70
     1
102
RTVSPropertyOp47
 70
     1
102
RTVSPropertyOp48
 70
     1
102
RTVSPropertyOp49
 70
     1
102
RTVSPropertyOp50
 70
     1
102
RTVSPropertyOp51
 70
     0
102
RTVSPropertyOp52
 70
     0
102
RTVSPropertyOp53
 70
     1
102
RTVSPropertyOp54
 70
     1
102
RTVSPropertyOp55
 70
     1
102
RTVSPropertyOp56
 70
     1
102
RTVSPropertyOp57
 70
     1
102
RTVSPost2010Prop28
280
     0
102
RTVSPost2010PropOp28
 70
     1
102
RTVSPost2010Prop29
280
     1
102
RTVSPost2010PropOp29
 70
     1
102
RTVSPost2010Prop30
280
     1
102
RTVSPost2010PropOp30
 70
     1
102
RTVSPost2010Prop31
280
     0
102
RTVSPost2010PropOp31
 70
     1
102
RTVSPost2010Prop32
280
     0
102
RTVSPost2010PropOp32
 70
     1
102
RTVSPost2010Prop33
280
     0
102
RTVSPost2010PropOp33
 70
     1
102
RTVSPost2010Prop34
280
     0
102
RTVSPost2010PropOp34
 70
     1
102
RTVSPost2010Prop35
280
     0
102
RTVSPost2010PropOp35
 70
     1
102
RTVSPost2010Prop36
280
     0
102
RTVSPost2010PropOp36
 70
     1
102
RTVSPost2010Prop37
 90
       50
102
RTVSPost2010PropOp37
 70
     1
102
RTVSPost2010Prop38
140
0.0
102
RTVSPost2010PropOp38
 70
     1
102
RTVSPost2010Prop39
140
1.0
102
RTVSPost2010PropOp39
 70
     1
102
RTVSPost2010Prop40
 90
        0
102
RTVSPost2010PropOp40
 70
     1
102
RTVSPost2010Prop41ColorIndex
 90
       18
102
RTVSPost2010Prop41ColorRGB
 90
        0
102
RTVSPost2010PropOp41
 70
     1
102
RTVSPost2010Prop42
 90
       50
102
RTVSPost2010PropOp42
 70
     1
102
RTVSPost2010Prop43
 90
        3
102
RTVSPost2010PropOp43
 70
     1
102
RTVSPost2010Prop44ColorIndex
 90
        5
102
RTVSPost2010Prop44ColorRGB
 90
      255
102
RTVSPost2010PropOp44
 70
     1
102
RTVSPost2010Prop45
280
     0
102
RTVSPost2010PropOp45
 70
     1
102
RTVSPost2010Prop46
 90
       50
102
RTVSPost2010PropOp46
 70
     1
102
RTVSPost2010Prop47
 90
       50
102
RTVSPost2010PropOp47
 70
     1
102
RTVSPost2010Prop48
 90
       50
102
RTVSPost2010PropOp48
 70
     1
102
RTVSPost2010Prop49
280
     0
102
RTVSPost2010PropOp49
 70
     1
102
RTVSPost2010Prop50
 90
       50
102
RTVSPost2010PropOp50
 70
     1
102
RTVSPost2010Prop51ColorIndex
 90
      256
102
RTVSPost2010Prop51ColorRGB
 90
-16777216
102
RTVSPost2010PropOp51
 70
     0
102
RTVSPost2010Prop52
140
1.0
102
RTVSPost2010PropOp52
 70
     0
102
RTVSPost2010Prop53
 90
        2
102
RTVSPost2010PropOp53
 70
     1
102
RTVSPost2010Prop54
  1
strokes_ogs.tif
102
RTVSPost2010PropOp54
 70
     1
102
RTVSPost2010Prop55
280
     0
102
RTVSPost2010PropOp55
 70
     1
102
RTVSPost2010Prop56
140
1.0
102
RTVSPost2010PropOp56
 70
     1
102
RTVSPost2010Prop57
140
1.0
102
RTVSPost2010PropOp57
 70
     1
  0
XRECORD
  5
36D
102
{ACAD_REACTORS
330
36C
102
}
330
36C
100
AcDbXrecord
280
     1
102
RTVSPropertyOp0
 70
     1
102
RTVSPropertyOp1
 70
     1
102
RTVSPropertyOp2
 70
     1
102
RTVSPropertyOp3
 70
     1
102
RTVSPropertyOp4
 70
     1
102
RTVSPropertyOp5
 70
     1
102
RTVSPropertyOp6
 70
     1
102
RTVSPropertyOp7
 70
     1
102
RTVSPropertyOp8
 70
     1
102
RTVSPropertyOp9
 70
     1
102
RTVSPropertyOp10
 70
     1
102
RTVSPropertyOp11
 70
     1
102
RTVSPropertyOp12
 70
     1
102
RTVSPropertyOp13
 70
     1
102
RTVSPropertyOp14
 70
     1
102
RTVSPropertyOp15
 70
     1
102
RTVSPropertyOp16
 70
     1
102
RTVSPropertyOp17
 70
     1
102
RTVSPropertyOp18
 70
     1
102
RTVSPropertyOp19
 70
     1
102
RTVSPropertyOp20
 70
     1
102
RTVSPropertyOp21
 70
     1
102
RTVSPropertyOp22
 70
     1
102
RTVSPropertyOp23
 70
     1
102
RTVSPropertyOp24
 70
     1
102
RTVSPropertyOp25
 70
     1
102
RTVSPropertyOp26
 70
     1
102
RTVSPropertyOp27
 70
     1
102
RTVSPropertyOp28
 70
     1
102
RTVSPropertyOp29
 70
     1
102
RTVSPropertyOp30
 70
     1
102
RTVSPropertyOp31
 70
     1
102
RTVSPropertyOp32
 70
     1
102
RTVSPropertyOp33
 70
     1
102
RTVSPropertyOp34
 70
     1
102
RTVSPropertyOp35
 70
     1
102
RTVSPropertyOp36
 70
     1
102
RTVSPropertyOp37
 70
     1
102
RTVSPropertyOp38
 70
     1
102
RTVSPropertyOp39
 70
     1
102
RTVSPropertyOp40
 70
     1
102
RTVSPropertyOp41
 70
     1
102
RTVSPropertyOp42
 70
     1
102
RTVSPropertyOp43
 70
     1
102
RTVSPropertyOp44
 70
     1
102
RTVSPropertyOp45
 70
     1
102
RTVSPropertyOp46
 70
     1
102
RTVSPropertyOp47
 70
     1
102
RTVSPropertyOp48
 70
     1
102
RTVSPropertyOp49
 70
     1
102
RTVSPropertyOp50
 70
     1
102
RTVSPropertyOp51
 70
     0
102
RTVSPropertyOp52
 70
     0
102
RTVSPropertyOp53
 70
     1
102
RTVSPropertyOp54
 70
     1
102
RTVSPropertyOp55
 70
     1
102
RTVSPropertyOp56
 70
     1
102
RTVSPropertyOp57
 70
     1
102
RTVSPost2010Prop28
280
     0
102
RTVSPost2010PropOp28
 70
     1
102
RTVSPost2010Prop29
280
     1
102
RTVSPost2010PropOp29
 70
     1
102
RTVSPost2010Prop30
280
     1
102
RTVSPost2010PropOp30
 70
     1
102
RTVSPost2010Prop31
280
     0
102
RTVSPost2010PropOp31
 70
     1
102
RTVSPost2010Prop32
280
     0
102
RTVSPost2010PropOp32
 70
     1
102
RTVSPost2010Prop33
280
     0
102
RTVSPost2010PropOp33
 70
     1
102
RTVSPost2010Prop34
280
     0
102
RTVSPost2010PropOp34
 70
     1
102
RTVSPost2010Prop35
280
     0
102
RTVSPost2010PropOp35
 70
     1
102
RTVSPost2010Prop36
280
     0
102
RTVSPost2010PropOp36
 70
     1
102
RTVSPost2010Prop37
 90
       50
102
RTVSPost2010PropOp37
 70
     1
102
RTVSPost2010Prop38
140
0.0
102
RTVSPost2010PropOp38
 70
     1
102
RTVSPost2010Prop39
140
1.0
102
RTVSPost2010PropOp39
 70
     1
102
RTVSPost2010Prop40
 90
        0
102
RTVSPost2010PropOp40
 70
     1
102
RTVSPost2010Prop41ColorIndex
 90
       18
102
RTVSPost2010Prop41ColorRGB
 90
        0
102
RTVSPost2010PropOp41
 70
     1
102
RTVSPost2010Prop42
 90
       50
102
RTVSPost2010PropOp42
 70
     1
102
RTVSPost2010Prop43
 90
        3
102
RTVSPost2010PropOp43
 70
     1
102
RTVSPost2010Prop44ColorIndex
 90
        5
102
RTVSPost2010Prop44ColorRGB
 90
      255
102
RTVSPost2010PropOp44
 70
     1
102
RTVSPost2010Prop45
280
     0
102
RTVSPost2010PropOp45
 70
     1
102
RTVSPost2010Prop46
 90
       50
102
RTVSPost2010PropOp46
 70
     1
102
RTVSPost2010Prop47
 90
       50
102
RTVSPost2010PropOp47
 70
     1
102
RTVSPost2010Prop48
 90
       50
102
RTVSPost2010PropOp48
 70
     1
102
RTVSPost2010Prop49
280
     0
102
RTVSPost2010PropOp49
 70
     1
102
RTVSPost2010Prop50
 90
       50
102
RTVSPost2010PropOp50
 70
     1
102
RTVSPost2010Prop51ColorIndex
 90
      256
102
RTVSPost2010Prop51ColorRGB
 90
-16777216
102
RTVSPost2010PropOp51
 70
     0
102
RTVSPost2010Prop52
140
1.0
102
RTVSPost2010PropOp52
 70
     0
102
RTVSPost2010Prop53
 90
        2
102
RTVSPost2010PropOp53
 70
     1
102
RTVSPost2010Prop54
  1
strokes_ogs.tif
102
RTVSPost2010PropOp54
 70
     1
102
RTVSPost2010Prop55
280
     0
102
RTVSPost2010PropOp55
 70
     1
102
RTVSPost2010Prop56
140
1.0
102
RTVSPost2010PropOp56
 70
     1
102
RTVSPost2010Prop57
140
1.0
102
RTVSPost2010PropOp57
 70
     1
  0
XRECORD
  5
373
102
{ACAD_REACTORS
330
372
102
}
330
372
100
AcDbXrecord
280
     1
102
RTVSPropertyOp0
 70
     1
102
RTVSPropertyOp1
 70
     1
102
RTVSPropertyOp2
 70
     1
102
RTVSPropertyOp3
 70
     1
102
RTVSPropertyOp4
 70
     1
102
RTVSPropertyOp5
 70
     1
102
RTVSPropertyOp6
 70
     1
102
RTVSPropertyOp7
 70
     1
102
RTVSPropertyOp8
 70
     1
102
RTVSPropertyOp9
 70
     1
102
RTVSPropertyOp10
 70
     1
102
RTVSPropertyOp11
 70
     1
102
RTVSPropertyOp12
 70
     1
102
RTVSPropertyOp13
 70
     1
102
RTVSPropertyOp14
 70
     1
102
RTVSPropertyOp15
 70
     1
102
RTVSPropertyOp16
 70
     1
102
RTVSPropertyOp17
 70
     1
102
RTVSPropertyOp18
 70
     1
102
RTVSPropertyOp19
 70
     1
102
RTVSPropertyOp20
 70
     1
102
RTVSPropertyOp21
 70
     1
102
RTVSPropertyOp22
 70
     1
102
RTVSPropertyOp23
 70
     1
102
RTVSPropertyOp24
 70
     1
102
RTVSPropertyOp25
 70
     1
102
RTVSPropertyOp26
 70
     1
102
RTVSPropertyOp27
 70
     1
102
RTVSPropertyOp28
 70
     1
102
RTVSPropertyOp29
 70
     1
102
RTVSPropertyOp30
 70
     1
102
RTVSPropertyOp31
 70
     1
102
RTVSPropertyOp32
 70
     1
102
RTVSPropertyOp33
 70
     1
102
RTVSPropertyOp34
 70
     1
102
RTVSPropertyOp35
 70
     1
102
RTVSPropertyOp36
 70
     1
102
RTVSPropertyOp37
 70
     1
102
RTVSPropertyOp38
 70
     1
102
RTVSPropertyOp39
 70
     1
102
RTVSPropertyOp40
 70
     1
102
RTVSPropertyOp41
 70
     1
102
RTVSPropertyOp42
 70
     1
102
RTVSPropertyOp43
 70
     1
102
RTVSPropertyOp44
 70
     1
102
RTVSPropertyOp45
 70
     1
102
RTVSPropertyOp46
 70
     1
102
RTVSPropertyOp47
 70
     1
102
RTVSPropertyOp48
 70
     1
102
RTVSPropertyOp49
 70
     1
102
RTVSPropertyOp50
 70
     1
102
RTVSPropertyOp51
 70
     0
102
RTVSPropertyOp52
 70
     0
102
RTVSPropertyOp53
 70
     1
102
RTVSPropertyOp54
 70
     1
102
RTVSPropertyOp55
 70
     1
102
RTVSPropertyOp56
 70
     1
102
RTVSPropertyOp57
 70
     1
102
RTVSPost2010Prop28
280
     0
102
RTVSPost2010PropOp28
 70
     1
102
RTVSPost2010Prop29
280
     1
102
RTVSPost2010PropOp29
 70
     1
102
RTVSPost2010Prop30
280
     1
102
RTVSPost2010PropOp30
 70
     1
102
RTVSPost2010Prop31
280
     0
102
RTVSPost2010PropOp31
 70
     1
102
RTVSPost2010Prop32
280
     0
102
RTVSPost2010PropOp32
 70
     1
102
RTVSPost2010Prop33
280
     0
102
RTVSPost2010PropOp33
 70
     1
102
RTVSPost2010Prop34
280
     0
102
RTVSPost2010PropOp34
 70
     1
102
RTVSPost2010Prop35
280
     0
102
RTVSPost2010PropOp35
 70
     1
102
RTVSPost2010Prop36
280
     0
102
RTVSPost2010PropOp36
 70
     1
102
RTVSPost2010Prop37
 90
       50
102
RTVSPost2010PropOp37
 70
     1
102
RTVSPost2010Prop38
140
0.0
102
RTVSPost2010PropOp38
 70
     1
102
RTVSPost2010Prop39
140
1.0
102
RTVSPost2010PropOp39
 70
     1
102
RTVSPost2010Prop40
 90
        0
102
RTVSPost2010PropOp40
 70
     1
102
RTVSPost2010Prop41ColorIndex
 90
       18
102
RTVSPost2010Prop41ColorRGB
 90
        0
102
RTVSPost2010PropOp41
 70
     1
102
RTVSPost2010Prop42
 90
       50
102
RTVSPost2010PropOp42
 70
     1
102
RTVSPost2010Prop43
 90
        3
102
RTVSPost2010PropOp43
 70
     1
102
RTVSPost2010Prop44ColorIndex
 90
        5
102
RTVSPost2010Prop44ColorRGB
 90
      255
102
RTVSPost2010PropOp44
 70
     1
102
RTVSPost2010Prop45
280
     0
102
RTVSPost2010PropOp45
 70
     1
102
RTVSPost2010Prop46
 90
       50
102
RTVSPost2010PropOp46
 70
     1
102
RTVSPost2010Prop47
 90
       50
102
RTVSPost2010PropOp47
 70
     1
102
RTVSPost2010Prop48
 90
       50
102
RTVSPost2010PropOp48
 70
     1
102
RTVSPost2010Prop49
280
     0
102
RTVSPost2010PropOp49
 70
     1
102
RTVSPost2010Prop50
 90
       50
102
RTVSPost2010PropOp50
 70
     1
102
RTVSPost2010Prop51ColorIndex
 90
      256
102
RTVSPost2010Prop51ColorRGB
 90
-16777216
102
RTVSPost2010PropOp51
 70
     0
102
RTVSPost2010Prop52
140
1.0
102
RTVSPost2010PropOp52
 70
     0
102
RTVSPost2010Prop53
 90
        2
102
RTVSPost2010PropOp53
 70
     1
102
RTVSPost2010Prop54
  1
strokes_ogs.tif
102
RTVSPost2010PropOp54
 70
     1
102
RTVSPost2010Prop55
280
     0
102
RTVSPost2010PropOp55
 70
     1
102
RTVSPost2010Prop56
140
1.0
102
RTVSPost2010PropOp56
 70
     1
102
RTVSPost2010Prop57
140
1.0
102
RTVSPost2010PropOp57
 70
     1
  0
XRECORD
  5
387
102
{ACAD_REACTORS
330
386
102
}
330
386
100
AcDbXrecord
280
     1
102
RTVSPropertyOp0
 70
     0
102
RTVSPropertyOp1
 70
     0
102
RTVSPropertyOp2
 70
     0
102
RTVSPropertyOp3
 70
     0
102
RTVSPropertyOp4
 70
     0
102
RTVSPropertyOp5
 70
     0
102
RTVSPropertyOp6
 70
     0
102
RTVSPropertyOp7
 70
     0
102
RTVSPropertyOp8
 70
     0
102
RTVSPropertyOp9
 70
     0
102
RTVSPropertyOp10
 70
     0
102
RTVSPropertyOp11
 70
     0
102
RTVSPropertyOp12
 70
     0
102
RTVSPropertyOp13
 70
     0
102
RTVSPropertyOp14
 70
     2
102
RTVSPropertyOp15
 70
     0
102
RTVSPropertyOp16
 70
     0
102
RTVSPropertyOp17
 70
     0
102
RTVSPropertyOp18
 70
     0
102
RTVSPropertyOp19
 70
     0
102
RTVSPropertyOp20
 70
     0
102
RTVSPropertyOp21
 70
     0
102
RTVSPropertyOp22
 70
     0
102
RTVSPropertyOp23
 70
     0
102
RTVSPropertyOp24
 70
     0
102
RTVSPropertyOp25
 70
     0
102
RTVSPropertyOp26
 70
     0
102
RTVSPropertyOp27
 70
     0
102
RTVSPropertyOp28
 70
     0
102
RTVSPropertyOp29
 70
     0
102
RTVSPropertyOp30
 70
     0
102
RTVSPropertyOp31
 70
     0
102
RTVSPropertyOp32
 70
     0
102
RTVSPropertyOp33
 70
     0
102
RTVSPropertyOp34
 70
     0
102
RTVSPropertyOp35
 70
     0
102
RTVSPropertyOp36
 70
     0
102
RTVSPropertyOp37
 70
     0
102
RTVSPropertyOp38
 70
     0
102
RTVSPropertyOp39
 70
     0
102
RTVSPropertyOp40
 70
     0
102
RTVSPropertyOp41
 70
     0
102
RTVSPropertyOp42
 70
     0
102
RTVSPropertyOp43
 70
     0
102
RTVSPropertyOp44
 70
     0
102
RTVSPropertyOp45
 70
     0
102
RTVSPropertyOp46
 70
     0
102
RTVSPropertyOp47
 70
     0
102
RTVSPropertyOp48
 70
     0
102
RTVSPropertyOp49
 70
     0
102
RTVSPropertyOp50
 70
     0
102
RTVSPropertyOp51
 70
     0
102
RTVSPropertyOp52
 70
     0
102
RTVSPropertyOp53
 70
     0
102
RTVSPropertyOp54
 70
     0
102
RTVSPropertyOp55
 70
     0
102
RTVSPropertyOp56
 70
     0
102
RTVSPropertyOp57
 70
     0
102
RTVSPost2010Prop28
280
     0
102
RTVSPost2010PropOp28
 70
     0
102
RTVSPost2010Prop29
280
     1
102
RTVSPost2010PropOp29
 70
     0
102
RTVSPost2010Prop30
280
     1
102
RTVSPost2010PropOp30
 70
     0
102
RTVSPost2010Prop31
280
     0
102
RTVSPost2010PropOp31
 70
     0
102
RTVSPost2010Prop32
280
     0
102
RTVSPost2010PropOp32
 70
     0
102
RTVSPost2010Prop33
280
     0
102
RTVSPost2010PropOp33
 70
     0
102
RTVSPost2010Prop34
280
     0
102
RTVSPost2010PropOp34
 70
     0
102
RTVSPost2010Prop35
280
     0
102
RTVSPost2010PropOp35
 70
     0
102
RTVSPost2010Prop36
280
     0
102
RTVSPost2010PropOp36
 70
     0
102
RTVSPost2010Prop37
 90
       50
102
RTVSPost2010PropOp37
 70
     0
102
RTVSPost2010Prop38
140
0.0
102
RTVSPost2010PropOp38
 70
     0
102
RTVSPost2010Prop39
140
1.0
102
RTVSPost2010PropOp39
 70
     0
102
RTVSPost2010Prop40
 90
        0
102
RTVSPost2010PropOp40
 70
     0
102
RTVSPost2010Prop41ColorIndex
 90
       18
102
RTVSPost2010Prop41ColorRGB
 90
        0
102
RTVSPost2010PropOp41
 70
     0
102
RTVSPost2010Prop42
 90
       50
102
RTVSPost2010PropOp42
 70
     0
102
RTVSPost2010Prop43
 90
        3
102
RTVSPost2010PropOp43
 70
     0
102
RTVSPost2010Prop44ColorIndex
 90
        5
102
RTVSPost2010Prop44ColorRGB
 90
      255
102
RTVSPost2010PropOp44
 70
     0
102
RTVSPost2010Prop45
280
     0
102
RTVSPost2010PropOp45
 70
     0
102
RTVSPost2010Prop46
 90
       50
102
RTVSPost2010PropOp46
 70
     0
102
RTVSPost2010Prop47
 90
       50
102
RTVSPost2010PropOp47
 70
     0
102
RTVSPost2010Prop48
 90
       50
102
RTVSPost2010PropOp48
 70
     0
102
RTVSPost2010Prop49
280
     0
102
RTVSPost2010PropOp49
 70
     0
102
RTVSPost2010Prop50
 90
       50
102
RTVSPost2010PropOp50
 70
     0
102
RTVSPost2010Prop51ColorIndex
 90
      256
102
RTVSPost2010Prop51ColorRGB
 90
-16777216
102
RTVSPost2010PropOp51
 70
     0
102
RTVSPost2010Prop52
140
1.0
102
RTVSPost2010PropOp52
 70
     0
102
RTVSPost2010Prop53
 90
        2
102
RTVSPost2010PropOp53
 70
     0
102
RTVSPost2010Prop54
  1
strokes_ogs.tif
102
RTVSPost2010PropOp54
 70
     0
102
RTVSPost2010Prop55
280
     0
102
RTVSPost2010PropOp55
 70
     0
102
RTVSPost2010Prop56
140
1.0
102
RTVSPost2010PropOp56
 70
     0
102
RTVSPost2010Prop57
140
1.0
102
RTVSPost2010PropOp57
 70
     0
  0
XRECORD
  5
381
102
{ACAD_REACTORS
330
380
102
}
330
380
100
AcDbXrecord
280
     1
102
RTVSPropertyOp0
 70
     1
102
RTVSPropertyOp1
 70
     1
102
RTVSPropertyOp2
 70
     1
102
RTVSPropertyOp3
 70
     1
102
RTVSPropertyOp4
 70
     1
102
RTVSPropertyOp5
 70
     1
102
RTVSPropertyOp6
 70
     1
102
RTVSPropertyOp7
 70
     1
102
RTVSPropertyOp8
 70
     1
102
RTVSPropertyOp9
 70
     1
102
RTVSPropertyOp10
 70
     1
102
RTVSPropertyOp11
 70
     1
102
RTVSPropertyOp12
 70
     1
102
RTVSPropertyOp13
 70
     1
102
RTVSPropertyOp14
 70
     1
102
RTVSPropertyOp15
 70
     1
102
RTVSPropertyOp16
 70
     1
102
RTVSPropertyOp17
 70
     1
102
RTVSPropertyOp18
 70
     1
102
RTVSPropertyOp19
 70
     1
102
RTVSPropertyOp20
 70
     1
102
RTVSPropertyOp21
 70
     1
102
RTVSPropertyOp22
 70
     1
102
RTVSPropertyOp23
 70
     1
102
RTVSPropertyOp24
 70
     1
102
RTVSPropertyOp25
 70
     1
102
RTVSPropertyOp26
 70
     1
102
RTVSPropertyOp27
 70
     1
102
RTVSPropertyOp28
 70
     1
102
RTVSPropertyOp29
 70
     1
102
RTVSPropertyOp30
 70
     1
102
RTVSPropertyOp31
 70
     1
102
RTVSPropertyOp32
 70
     1
102
RTVSPropertyOp33
 70
     1
102
RTVSPropertyOp34
 70
     1
102
RTVSPropertyOp35
 70
     1
102
RTVSPropertyOp36
 70
     1
102
RTVSPropertyOp37
 70
     1
102
RTVSPropertyOp38
 70
     1
102
RTVSPropertyOp39
 70
     1
102
RTVSPropertyOp40
 70
     1
102
RTVSPropertyOp41
 70
     1
102
RTVSPropertyOp42
 70
     1
102
RTVSPropertyOp43
 70
     1
102
RTVSPropertyOp44
 70
     1
102
RTVSPropertyOp45
 70
     1
102
RTVSPropertyOp46
 70
     1
102
RTVSPropertyOp47
 70
     1
102
RTVSPropertyOp48
 70
     1
102
RTVSPropertyOp49
 70
     1
102
RTVSPropertyOp50
 70
     1
102
RTVSPropertyOp51
 70
     0
102
RTVSPropertyOp52
 70
     0
102
RTVSPropertyOp53
 70
     1
102
RTVSPropertyOp54
 70
     1
102
RTVSPropertyOp55
 70
     1
102
RTVSPropertyOp56
 70
     1
102
RTVSPropertyOp57
 70
     1
102
RTVSPost2010Prop28
280
     0
102
RTVSPost2010PropOp28
 70
     1
102
RTVSPost2010Prop29
280
     1
102
RTVSPost2010PropOp29
 70
     1
102
RTVSPost2010Prop30
280
     1
102
RTVSPost2010PropOp30
 70
     1
102
RTVSPost2010Prop31
280
     0
102
RTVSPost2010PropOp31
 70
     1
102
RTVSPost2010Prop32
280
     0
102
RTVSPost2010PropOp32
 70
     1
102
RTVSPost2010Prop33
280
     0
102
RTVSPost2010PropOp33
 70
     1
102
RTVSPost2010Prop34
280
     0
102
RTVSPost2010PropOp34
 70
     1
102
RTVSPost2010Prop35
280
     0
102
RTVSPost2010PropOp35
 70
     1
102
RTVSPost2010Prop36
280
     0
102
RTVSPost2010PropOp36
 70
     1
102
RTVSPost2010Prop37
 90
       50
102
RTVSPost2010PropOp37
 70
     1
102
RTVSPost2010Prop38
140
0.0
102
RTVSPost2010PropOp38
 70
     1
102
RTVSPost2010Prop39
140
1.0
102
RTVSPost2010PropOp39
 70
     1
102
RTVSPost2010Prop40
 90
        0
102
RTVSPost2010PropOp40
 70
     1
102
RTVSPost2010Prop41ColorIndex
 90
       18
102
RTVSPost2010Prop41ColorRGB
 90
        0
102
RTVSPost2010PropOp41
 70
     1
102
RTVSPost2010Prop42
 90
       50
102
RTVSPost2010PropOp42
 70
     1
102
RTVSPost2010Prop43
 90
        3
102
RTVSPost2010PropOp43
 70
     1
102
RTVSPost2010Prop44ColorIndex
 90
        5
102
RTVSPost2010Prop44ColorRGB
 90
      255
102
RTVSPost2010PropOp44
 70
     1
102
RTVSPost2010Prop45
280
     0
102
RTVSPost2010PropOp45
 70
     1
102
RTVSPost2010Prop46
 90
       50
102
RTVSPost2010PropOp46
 70
     1
102
RTVSPost2010Prop47
 90
       50
102
RTVSPost2010PropOp47
 70
     1
102
RTVSPost2010Prop48
 90
       50
102
RTVSPost2010PropOp48
 70
     1
102
RTVSPost2010Prop49
280
     0
102
RTVSPost2010PropOp49
 70
     1
102
RTVSPost2010Prop50
 90
       50
102
RTVSPost2010PropOp50
 70
     1
102
RTVSPost2010Prop51ColorIndex
 90
      256
102
RTVSPost2010Prop51ColorRGB
 90
-16777216
102
RTVSPost2010PropOp51
 70
     0
102
RTVSPost2010Prop52
140
1.0
102
RTVSPost2010PropOp52
 70
     0
102
RTVSPost2010Prop53
 90
        2
102
RTVSPost2010PropOp53
 70
     1
102
RTVSPost2010Prop54
  1
strokes_ogs.tif
102
RTVSPost2010PropOp54
 70
     1
102
RTVSPost2010Prop55
280
     0
102
RTVSPost2010PropOp55
 70
     1
102
RTVSPost2010Prop56
140
1.0
102
RTVSPost2010PropOp56
 70
     1
102
RTVSPost2010Prop57
140
1.0
102
RTVSPost2010PropOp57
 70
     1
  0
XRECORD
  5
389
102
{ACAD_REACTORS
330
388
102
}
330
388
100
AcDbXrecord
280
     1
102
RTVSPropertyOp0
 70
     0
102
RTVSPropertyOp1
 70
     0
102
RTVSPropertyOp2
 70
     0
102
RTVSPropertyOp3
 70
     0
102
RTVSPropertyOp4
 70
     0
102
RTVSPropertyOp5
 70
     0
102
RTVSPropertyOp6
 70
     0
102
RTVSPropertyOp7
 70
     0
102
RTVSPropertyOp8
 70
     0
102
RTVSPropertyOp9
 70
     0
102
RTVSPropertyOp10
 70
     0
102
RTVSPropertyOp11
 70
     0
102
RTVSPropertyOp12
 70
     0
102
RTVSPropertyOp13
 70
     0
102
RTVSPropertyOp14
 70
     2
102
RTVSPropertyOp15
 70
     0
102
RTVSPropertyOp16
 70
     0
102
RTVSPropertyOp17
 70
     0
102
RTVSPropertyOp18
 70
     0
102
RTVSPropertyOp19
 70
     0
102
RTVSPropertyOp20
 70
     0
102
RTVSPropertyOp21
 70
     0
102
RTVSPropertyOp22
 70
     0
102
RTVSPropertyOp23
 70
     0
102
RTVSPropertyOp24
 70
     0
102
RTVSPropertyOp25
 70
     0
102
RTVSPropertyOp26
 70
     0
102
RTVSPropertyOp27
 70
     0
102
RTVSPropertyOp28
 70
     0
102
RTVSPropertyOp29
 70
     0
102
RTVSPropertyOp30
 70
     0
102
RTVSPropertyOp31
 70
     0
102
RTVSPropertyOp32
 70
     0
102
RTVSPropertyOp33
 70
     0
102
RTVSPropertyOp34
 70
     0
102
RTVSPropertyOp35
 70
     0
102
RTVSPropertyOp36
 70
     0
102
RTVSPropertyOp37
 70
     0
102
RTVSPropertyOp38
 70
     0
102
RTVSPropertyOp39
 70
     0
102
RTVSPropertyOp40
 70
     0
102
RTVSPropertyOp41
 70
     0
102
RTVSPropertyOp42
 70
     0
102
RTVSPropertyOp43
 70
     0
102
RTVSPropertyOp44
 70
     0
102
RTVSPropertyOp45
 70
     0
102
RTVSPropertyOp46
 70
     0
102
RTVSPropertyOp47
 70
     0
102
RTVSPropertyOp48
 70
     0
102
RTVSPropertyOp49
 70
     0
102
RTVSPropertyOp50
 70
     0
102
RTVSPropertyOp51
 70
     0
102
RTVSPropertyOp52
 70
     0
102
RTVSPropertyOp53
 70
     0
102
RTVSPropertyOp54
 70
     0
102
RTVSPropertyOp55
 70
     0
102
RTVSPropertyOp56
 70
     0
102
RTVSPropertyOp57
 70
     0
102
RTVSPost2010Prop28
280
     0
102
RTVSPost2010PropOp28
 70
     0
102
RTVSPost2010Prop29
280
     1
102
RTVSPost2010PropOp29
 70
     0
102
RTVSPost2010Prop30
280
     1
102
RTVSPost2010PropOp30
 70
     0
102
RTVSPost2010Prop31
280
     0
102
RTVSPost2010PropOp31
 70
     0
102
RTVSPost2010Prop32
280
     0
102
RTVSPost2010PropOp32
 70
     0
102
RTVSPost2010Prop33
280
     0
102
RTVSPost2010PropOp33
 70
     0
102
RTVSPost2010Prop34
280
     0
102
RTVSPost2010PropOp34
 70
     0
102
RTVSPost2010Prop35
280
     0
102
RTVSPost2010PropOp35
 70
     0
102
RTVSPost2010Prop36
280
     0
102
RTVSPost2010PropOp36
 70
     0
102
RTVSPost2010Prop37
 90
       50
102
RTVSPost2010PropOp37
 70
     0
102
RTVSPost2010Prop38
140
0.0
102
RTVSPost2010PropOp38
 70
     0
102
RTVSPost2010Prop39
140
1.0
102
RTVSPost2010PropOp39
 70
     0
102
RTVSPost2010Prop40
 90
        0
102
RTVSPost2010PropOp40
 70
     0
102
RTVSPost2010Prop41ColorIndex
 90
       18
102
RTVSPost2010Prop41ColorRGB
 90
        0
102
RTVSPost2010PropOp41
 70
     0
102
RTVSPost2010Prop42
 90
       50
102
RTVSPost2010PropOp42
 70
     0
102
RTVSPost2010Prop43
 90
        3
102
RTVSPost2010PropOp43
 70
     0
102
RTVSPost2010Prop44ColorIndex
 90
        5
102
RTVSPost2010Prop44ColorRGB
 90
      255
102
RTVSPost2010PropOp44
 70
     0
102
RTVSPost2010Prop45
280
     0
102
RTVSPost2010PropOp45
 70
     0
102
RTVSPost2010Prop46
 90
       50
102
RTVSPost2010PropOp46
 70
     0
102
RTVSPost2010Prop47
 90
       50
102
RTVSPost2010PropOp47
 70
     0
102
RTVSPost2010Prop48
 90
       50
102
RTVSPost2010PropOp48
 70
     0
102
RTVSPost2010Prop49
280
     0
102
RTVSPost2010PropOp49
 70
     0
102
RTVSPost2010Prop50
 90
       50
102
RTVSPost2010PropOp50
 70
     0
102
RTVSPost2010Prop51ColorIndex
 90
      256
102
RTVSPost2010Prop51ColorRGB
 90
-16777216
102
RTVSPost2010PropOp51
 70
     0
102
RTVSPost2010Prop52
140
1.0
102
RTVSPost2010PropOp52
 70
     0
102
RTVSPost2010Prop53
 90
        2
102
RTVSPost2010PropOp53
 70
     0
102
RTVSPost2010Prop54
  1
strokes_ogs.tif
102
RTVSPost2010PropOp54
 70
     0
102
RTVSPost2010Prop55
280
     0
102
RTVSPost2010PropOp55
 70
     0
102
RTVSPost2010Prop56
140
1.0
102
RTVSPost2010PropOp56
 70
     0
102
RTVSPost2010Prop57
140
1.0
102
RTVSPost2010PropOp57
 70
     0
  0
XRECORD
  5
377
102
{ACAD_REACTORS
330
376
102
}
330
376
100
AcDbXrecord
280
     1
102
RTVSPropertyOp0
 70
     1
102
RTVSPropertyOp1
 70
     1
102
RTVSPropertyOp2
 70
     1
102
RTVSPropertyOp3
 70
     1
102
RTVSPropertyOp4
 70
     1
102
RTVSPropertyOp5
 70
     1
102
RTVSPropertyOp6
 70
     1
102
RTVSPropertyOp7
 70
     1
102
RTVSPropertyOp8
 70
     1
102
RTVSPropertyOp9
 70
     1
102
RTVSPropertyOp10
 70
     1
102
RTVSPropertyOp11
 70
     1
102
RTVSPropertyOp12
 70
     1
102
RTVSPropertyOp13
 70
     1
102
RTVSPropertyOp14
 70
     1
102
RTVSPropertyOp15
 70
     1
102
RTVSPropertyOp16
 70
     1
102
RTVSPropertyOp17
 70
     1
102
RTVSPropertyOp18
 70
     1
102
RTVSPropertyOp19
 70
     1
102
RTVSPropertyOp20
 70
     1
102
RTVSPropertyOp21
 70
     1
102
RTVSPropertyOp22
 70
     1
102
RTVSPropertyOp23
 70
     1
102
RTVSPropertyOp24
 70
     1
102
RTVSPropertyOp25
 70
     1
102
RTVSPropertyOp26
 70
     1
102
RTVSPropertyOp27
 70
     1
102
RTVSPropertyOp28
 70
     1
102
RTVSPropertyOp29
 70
     1
102
RTVSPropertyOp30
 70
     1
102
RTVSPropertyOp31
 70
     1
102
RTVSPropertyOp32
 70
     1
102
RTVSPropertyOp33
 70
     1
102
RTVSPropertyOp34
 70
     1
102
RTVSPropertyOp35
 70
     1
102
RTVSPropertyOp36
 70
     1
102
RTVSPropertyOp37
 70
     1
102
RTVSPropertyOp38
 70
     1
102
RTVSPropertyOp39
 70
     1
102
RTVSPropertyOp40
 70
     1
102
RTVSPropertyOp41
 70
     1
102
RTVSPropertyOp42
 70
     1
102
RTVSPropertyOp43
 70
     1
102
RTVSPropertyOp44
 70
     1
102
RTVSPropertyOp45
 70
     1
102
RTVSPropertyOp46
 70
     1
102
RTVSPropertyOp47
 70
     1
102
RTVSPropertyOp48
 70
     1
102
RTVSPropertyOp49
 70
     1
102
RTVSPropertyOp50
 70
     1
102
RTVSPropertyOp51
 70
     0
102
RTVSPropertyOp52
 70
     0
102
RTVSPropertyOp53
 70
     1
102
RTVSPropertyOp54
 70
     1
102
RTVSPropertyOp55
 70
     1
102
RTVSPropertyOp56
 70
     1
102
RTVSPropertyOp57
 70
     1
102
RTVSPost2010Prop28
280
     0
102
RTVSPost2010PropOp28
 70
     1
102
RTVSPost2010Prop29
280
     1
102
RTVSPost2010PropOp29
 70
     1
102
RTVSPost2010Prop30
280
     1
102
RTVSPost2010PropOp30
 70
     1
102
RTVSPost2010Prop31
280
     0
102
RTVSPost2010PropOp31
 70
     1
102
RTVSPost2010Prop32
280
     0
102
RTVSPost2010PropOp32
 70
     1
102
RTVSPost2010Prop33
280
     0
102
RTVSPost2010PropOp33
 70
     1
102
RTVSPost2010Prop34
280
     0
102
RTVSPost2010PropOp34
 70
     1
102
RTVSPost2010Prop35
280
     0
102
RTVSPost2010PropOp35
 70
     1
102
RTVSPost2010Prop36
280
     0
102
RTVSPost2010PropOp36
 70
     1
102
RTVSPost2010Prop37
 90
       50
102
RTVSPost2010PropOp37
 70
     1
102
RTVSPost2010Prop38
140
0.0
102
RTVSPost2010PropOp38
 70
     1
102
RTVSPost2010Prop39
140
1.0
102
RTVSPost2010PropOp39
 70
     1
102
RTVSPost2010Prop40
 90
        0
102
RTVSPost2010PropOp40
 70
     1
102
RTVSPost2010Prop41ColorIndex
 90
       18
102
RTVSPost2010Prop41ColorRGB
 90
        0
102
RTVSPost2010PropOp41
 70
     1
102
RTVSPost2010Prop42
 90
       50
102
RTVSPost2010PropOp42
 70
     1
102
RTVSPost2010Prop43
 90
        3
102
RTVSPost2010PropOp43
 70
     1
102
RTVSPost2010Prop44ColorIndex
 90
        5
102
RTVSPost2010Prop44ColorRGB
 90
      255
102
RTVSPost2010PropOp44
 70
     1
102
RTVSPost2010Prop45
280
     0
102
RTVSPost2010PropOp45
 70
     1
102
RTVSPost2010Prop46
 90
       50
102
RTVSPost2010PropOp46
 70
     1
102
RTVSPost2010Prop47
 90
       50
102
RTVSPost2010PropOp47
 70
     1
102
RTVSPost2010Prop48
 90
       50
102
RTVSPost2010PropOp48
 70
     1
102
RTVSPost2010Prop49
280
     0
102
RTVSPost2010PropOp49
 70
     1
102
RTVSPost2010Prop50
 90
       50
102
RTVSPost2010PropOp50
 70
     1
102
RTVSPost2010Prop51ColorIndex
 90
      256
102
RTVSPost2010Prop51ColorRGB
 90
-16777216
102
RTVSPost2010PropOp51
 70
     0
102
RTVSPost2010Prop52
140
1.0
102
RTVSPost2010PropOp52
 70
     0
102
RTVSPost2010Prop53
 90
        2
102
RTVSPost2010PropOp53
 70
     1
102
RTVSPost2010Prop54
  1
strokes_ogs.tif
102
RTVSPost2010PropOp54
 70
     1
102
RTVSPost2010Prop55
280
     0
102
RTVSPost2010PropOp55
 70
     1
102
RTVSPost2010Prop56
140
1.0
102
RTVSPost2010PropOp56
 70
     1
102
RTVSPost2010Prop57
140
1.0
102
RTVSPost2010PropOp57
 70
     1
  0
XRECORD
  5
395
102
{ACAD_REACTORS
330
394
102
}
330
394
100
AcDbXrecord
280
     1
102
RTVSPropertyOp0
 70
     1
102
RTVSPropertyOp1
 70
     1
102
RTVSPropertyOp2
 70
     1
102
RTVSPropertyOp3
 70
     1
102
RTVSPropertyOp4
 70
     1
102
RTVSPropertyOp5
 70
     1
102
RTVSPropertyOp6
 70
     1
102
RTVSPropertyOp7
 70
     1
102
RTVSPropertyOp8
 70
     1
102
RTVSPropertyOp9
 70
     1
102
RTVSPropertyOp10
 70
     1
102
RTVSPropertyOp11
 70
     1
102
RTVSPropertyOp12
 70
     1
102
RTVSPropertyOp13
 70
     1
102
RTVSPropertyOp14
 70
     1
102
RTVSPropertyOp15
 70
     1
102
RTVSPropertyOp16
 70
     1
102
RTVSPropertyOp17
 70
     1
102
RTVSPropertyOp18
 70
     1
102
RTVSPropertyOp19
 70
     1
102
RTVSPropertyOp20
 70
     1
102
RTVSPropertyOp21
 70
     1
102
RTVSPropertyOp22
 70
     1
102
RTVSPropertyOp23
 70
     1
102
RTVSPropertyOp24
 70
     1
102
RTVSPropertyOp25
 70
     1
102
RTVSPropertyOp26
 70
     1
102
RTVSPropertyOp27
 70
     1
102
RTVSPropertyOp28
 70
     1
102
RTVSPropertyOp29
 70
     1
102
RTVSPropertyOp30
 70
     1
102
RTVSPropertyOp31
 70
     1
102
RTVSPropertyOp32
 70
     1
102
RTVSPropertyOp33
 70
     1
102
RTVSPropertyOp34
 70
     1
102
RTVSPropertyOp35
 70
     1
102
RTVSPropertyOp36
 70
     1
102
RTVSPropertyOp37
 70
     1
102
RTVSPropertyOp38
 70
     1
102
RTVSPropertyOp39
 70
     1
102
RTVSPropertyOp40
 70
     1
102
RTVSPropertyOp41
 70
     1
102
RTVSPropertyOp42
 70
     1
102
RTVSPropertyOp43
 70
     1
102
RTVSPropertyOp44
 70
     1
102
RTVSPropertyOp45
 70
     1
102
RTVSPropertyOp46
 70
     1
102
RTVSPropertyOp47
 70
     1
102
RTVSPropertyOp48
 70
     1
102
RTVSPropertyOp49
 70
     1
102
RTVSPropertyOp50
 70
     1
102
RTVSPropertyOp51
 70
     0
102
RTVSPropertyOp52
 70
     0
102
RTVSPropertyOp53
 70
     1
102
RTVSPropertyOp54
 70
     1
102
RTVSPropertyOp55
 70
     1
102
RTVSPropertyOp56
 70
     1
102
RTVSPropertyOp57
 70
     1
102
RTVSPost2010Prop28
280
     0
102
RTVSPost2010PropOp28
 70
     1
102
RTVSPost2010Prop29
280
     1
102
RTVSPost2010PropOp29
 70
     1
102
RTVSPost2010Prop30
280
     1
102
RTVSPost2010PropOp30
 70
     1
102
RTVSPost2010Prop31
280
     0
102
RTVSPost2010PropOp31
 70
     1
102
RTVSPost2010Prop32
280
     0
102
RTVSPost2010PropOp32
 70
     1
102
RTVSPost2010Prop33
280
     0
102
RTVSPost2010PropOp33
 70
     1
102
RTVSPost2010Prop34
280
     0
102
RTVSPost2010PropOp34
 70
     1
102
RTVSPost2010Prop35
280
     0
102
RTVSPost2010PropOp35
 70
     1
102
RTVSPost2010Prop36
280
     0
102
RTVSPost2010PropOp36
 70
     1
102
RTVSPost2010Prop37
 90
       50
102
RTVSPost2010PropOp37
 70
     1
102
RTVSPost2010Prop38
140
0.0
102
RTVSPost2010PropOp38
 70
     1
102
RTVSPost2010Prop39
140
1.0
102
RTVSPost2010PropOp39
 70
     1
102
RTVSPost2010Prop40
 90
        0
102
RTVSPost2010PropOp40
 70
     1
102
RTVSPost2010Prop41ColorIndex
 90
       18
102
RTVSPost2010Prop41ColorRGB
 90
        0
102
RTVSPost2010PropOp41
 70
     1
102
RTVSPost2010Prop42
 90
       50
102
RTVSPost2010PropOp42
 70
     1
102
RTVSPost2010Prop43
 90
        3
102
RTVSPost2010PropOp43
 70
     1
102
RTVSPost2010Prop44ColorIndex
 90
        5
102
RTVSPost2010Prop44ColorRGB
 90
      255
102
RTVSPost2010PropOp44
 70
     1
102
RTVSPost2010Prop45
280
     0
102
RTVSPost2010PropOp45
 70
     1
102
RTVSPost2010Prop46
 90
       50
102
RTVSPost2010PropOp46
 70
     1
102
RTVSPost2010Prop47
 90
       50
102
RTVSPost2010PropOp47
 70
     1
102
RTVSPost2010Prop48
 90
       50
102
RTVSPost2010PropOp48
 70
     1
102
RTVSPost2010Prop49
280
     0
102
RTVSPost2010PropOp49
 70
     1
102
RTVSPost2010Prop50
 90
       50
102
RTVSPost2010PropOp50
 70
     1
102
RTVSPost2010Prop51ColorIndex
 90
      256
102
RTVSPost2010Prop51ColorRGB
 90
-16777216
102
RTVSPost2010PropOp51
 70
     0
102
RTVSPost2010Prop52
140
1.0
102
RTVSPost2010PropOp52
 70
     0
102
RTVSPost2010Prop53
 90
        2
102
RTVSPost2010PropOp53
 70
     1
102
RTVSPost2010Prop54
  1
strokes_ogs.tif
102
RTVSPost2010PropOp54
 70
     1
102
RTVSPost2010Prop55
280
     0
102
RTVSPost2010PropOp55
 70
     1
102
RTVSPost2010Prop56
140
1.0
102
RTVSPost2010PropOp56
 70
     1
102
RTVSPost2010Prop57
140
1.0
102
RTVSPost2010PropOp57
 70
     1
  0
XRECORD
  5
393
102
{ACAD_REACTORS
330
392
102
}
330
392
100
AcDbXrecord
280
     1
102
RTVSPropertyOp0
 70
     1
102
RTVSPropertyOp1
 70
     1
102
RTVSPropertyOp2
 70
     1
102
RTVSPropertyOp3
 70
     1
102
RTVSPropertyOp4
 70
     1
102
RTVSPropertyOp5
 70
     1
102
RTVSPropertyOp6
 70
     1
102
RTVSPropertyOp7
 70
     1
102
RTVSPropertyOp8
 70
     1
102
RTVSPropertyOp9
 70
     1
102
RTVSPropertyOp10
 70
     1
102
RTVSPropertyOp11
 70
     1
102
RTVSPropertyOp12
 70
     1
102
RTVSPropertyOp13
 70
     1
102
RTVSPropertyOp14
 70
     1
102
RTVSPropertyOp15
 70
     1
102
RTVSPropertyOp16
 70
     1
102
RTVSPropertyOp17
 70
     1
102
RTVSPropertyOp18
 70
     1
102
RTVSPropertyOp19
 70
     1
102
RTVSPropertyOp20
 70
     1
102
RTVSPropertyOp21
 70
     1
102
RTVSPropertyOp22
 70
     1
102
RTVSPropertyOp23
 70
     1
102
RTVSPropertyOp24
 70
     1
102
RTVSPropertyOp25
 70
     1
102
RTVSPropertyOp26
 70
     1
102
RTVSPropertyOp27
 70
     1
102
RTVSPropertyOp28
 70
     1
102
RTVSPropertyOp29
 70
     1
102
RTVSPropertyOp30
 70
     1
102
RTVSPropertyOp31
 70
     1
102
RTVSPropertyOp32
 70
     1
102
RTVSPropertyOp33
 70
     1
102
RTVSPropertyOp34
 70
     1
102
RTVSPropertyOp35
 70
     1
102
RTVSPropertyOp36
 70
     1
102
RTVSPropertyOp37
 70
     1
102
RTVSPropertyOp38
 70
     1
102
RTVSPropertyOp39
 70
     1
102
RTVSPropertyOp40
 70
     1
102
RTVSPropertyOp41
 70
     1
102
RTVSPropertyOp42
 70
     1
102
RTVSPropertyOp43
 70
     1
102
RTVSPropertyOp44
 70
     1
102
RTVSPropertyOp45
 70
     1
102
RTVSPropertyOp46
 70
     1
102
RTVSPropertyOp47
 70
     1
102
RTVSPropertyOp48
 70
     1
102
RTVSPropertyOp49
 70
     1
102
RTVSPropertyOp50
 70
     1
102
RTVSPropertyOp51
 70
     0
102
RTVSPropertyOp52
 70
     0
102
RTVSPropertyOp53
 70
     1
102
RTVSPropertyOp54
 70
     1
102
RTVSPropertyOp55
 70
     1
102
RTVSPropertyOp56
 70
     1
102
RTVSPropertyOp57
 70
     1
102
RTVSPost2010Prop28
280
     0
102
RTVSPost2010PropOp28
 70
     1
102
RTVSPost2010Prop29
280
     1
102
RTVSPost2010PropOp29
 70
     1
102
RTVSPost2010Prop30
280
     1
102
RTVSPost2010PropOp30
 70
     1
102
RTVSPost2010Prop31
280
     0
102
RTVSPost2010PropOp31
 70
     1
102
RTVSPost2010Prop32
280
     0
102
RTVSPost2010PropOp32
 70
     1
102
RTVSPost2010Prop33
280
     0
102
RTVSPost2010PropOp33
 70
     1
102
RTVSPost2010Prop34
280
     0
102
RTVSPost2010PropOp34
 70
     1
102
RTVSPost2010Prop35
280
     0
102
RTVSPost2010PropOp35
 70
     1
102
RTVSPost2010Prop36
280
     0
102
RTVSPost2010PropOp36
 70
     1
102
RTVSPost2010Prop37
 90
       50
102
RTVSPost2010PropOp37
 70
     1
102
RTVSPost2010Prop38
140
0.0
102
RTVSPost2010PropOp38
 70
     1
102
RTVSPost2010Prop39
140
1.0
102
RTVSPost2010PropOp39
 70
     1
102
RTVSPost2010Prop40
 90
        0
102
RTVSPost2010PropOp40
 70
     1
102
RTVSPost2010Prop41ColorIndex
 90
       18
102
RTVSPost2010Prop41ColorRGB
 90
        0
102
RTVSPost2010PropOp41
 70
     1
102
RTVSPost2010Prop42
 90
       50
102
RTVSPost2010PropOp42
 70
     1
102
RTVSPost2010Prop43
 90
        3
102
RTVSPost2010PropOp43
 70
     1
102
RTVSPost2010Prop44ColorIndex
 90
        5
102
RTVSPost2010Prop44ColorRGB
 90
      255
102
RTVSPost2010PropOp44
 70
     1
102
RTVSPost2010Prop45
280
     0
102
RTVSPost2010PropOp45
 70
     1
102
RTVSPost2010Prop46
 90
       50
102
RTVSPost2010PropOp46
 70
     1
102
RTVSPost2010Prop47
 90
       50
102
RTVSPost2010PropOp47
 70
     1
102
RTVSPost2010Prop48
 90
       50
102
RTVSPost2010PropOp48
 70
     1
102
RTVSPost2010Prop49
280
     0
102
RTVSPost2010PropOp49
 70
     1
102
RTVSPost2010Prop50
 90
       50
102
RTVSPost2010PropOp50
 70
     1
102
RTVSPost2010Prop51ColorIndex
 90
      256
102
RTVSPost2010Prop51ColorRGB
 90
-16777216
102
RTVSPost2010PropOp51
 70
     0
102
RTVSPost2010Prop52
140
1.0
102
RTVSPost2010PropOp52
 70
     0
102
RTVSPost2010Prop53
 90
        2
102
RTVSPost2010PropOp53
 70
     1
102
RTVSPost2010Prop54
  1
strokes_ogs.tif
102
RTVSPost2010PropOp54
 70
     1
102
RTVSPost2010Prop55
280
     0
102
RTVSPost2010PropOp55
 70
     1
102
RTVSPost2010Prop56
140
1.0
102
RTVSPost2010PropOp56
 70
     1
102
RTVSPost2010Prop57
140
1.0
102
RTVSPost2010PropOp57
 70
     1
  0
XRECORD
  5
38D
102
{ACAD_REACTORS
330
38C
102
}
330
38C
100
AcDbXrecord
280
     1
102
RTVSPropertyOp0
 70
     1
102
RTVSPropertyOp1
 70
     1
102
RTVSPropertyOp2
 70
     1
102
RTVSPropertyOp3
 70
     1
102
RTVSPropertyOp4
 70
     1
102
RTVSPropertyOp5
 70
     1
102
RTVSPropertyOp6
 70
     1
102
RTVSPropertyOp7
 70
     1
102
RTVSPropertyOp8
 70
     1
102
RTVSPropertyOp9
 70
     1
102
RTVSPropertyOp10
 70
     1
102
RTVSPropertyOp11
 70
     1
102
RTVSPropertyOp12
 70
     1
102
RTVSPropertyOp13
 70
     1
102
RTVSPropertyOp14
 70
     1
102
RTVSPropertyOp15
 70
     1
102
RTVSPropertyOp16
 70
     1
102
RTVSPropertyOp17
 70
     1
102
RTVSPropertyOp18
 70
     1
102
RTVSPropertyOp19
 70
     1
102
RTVSPropertyOp20
 70
     1
102
RTVSPropertyOp21
 70
     1
102
RTVSPropertyOp22
 70
     1
102
RTVSPropertyOp23
 70
     1
102
RTVSPropertyOp24
 70
     1
102
RTVSPropertyOp25
 70
     1
102
RTVSPropertyOp26
 70
     1
102
RTVSPropertyOp27
 70
     1
102
RTVSPropertyOp28
 70
     1
102
RTVSPropertyOp29
 70
     1
102
RTVSPropertyOp30
 70
     1
102
RTVSPropertyOp31
 70
     1
102
RTVSPropertyOp32
 70
     1
102
RTVSPropertyOp33
 70
     1
102
RTVSPropertyOp34
 70
     1
102
RTVSPropertyOp35
 70
     1
102
RTVSPropertyOp36
 70
     1
102
RTVSPropertyOp37
 70
     1
102
RTVSPropertyOp38
 70
     1
102
RTVSPropertyOp39
 70
     1
102
RTVSPropertyOp40
 70
     1
102
RTVSPropertyOp41
 70
     1
102
RTVSPropertyOp42
 70
     1
102
RTVSPropertyOp43
 70
     1
102
RTVSPropertyOp44
 70
     1
102
RTVSPropertyOp45
 70
     1
102
RTVSPropertyOp46
 70
     1
102
RTVSPropertyOp47
 70
     1
102
RTVSPropertyOp48
 70
     1
102
RTVSPropertyOp49
 70
     1
102
RTVSPropertyOp50
 70
     1
102
RTVSPropertyOp51
 70
     0
102
RTVSPropertyOp52
 70
     0
102
RTVSPropertyOp53
 70
     1
102
RTVSPropertyOp54
 70
     1
102
RTVSPropertyOp55
 70
     1
102
RTVSPropertyOp56
 70
     1
102
RTVSPropertyOp57
 70
     1
102
RTVSPost2010Prop28
280
     0
102
RTVSPost2010PropOp28
 70
     1
102
RTVSPost2010Prop29
280
     1
102
RTVSPost2010PropOp29
 70
     1
102
RTVSPost2010Prop30
280
     1
102
RTVSPost2010PropOp30
 70
     1
102
RTVSPost2010Prop31
280
     0
102
RTVSPost2010PropOp31
 70
     1
102
RTVSPost2010Prop32
280
     0
102
RTVSPost2010PropOp32
 70
     1
102
RTVSPost2010Prop33
280
     0
102
RTVSPost2010PropOp33
 70
     1
102
RTVSPost2010Prop34
280
     0
102
RTVSPost2010PropOp34
 70
     1
102
RTVSPost2010Prop35
280
     0
102
RTVSPost2010PropOp35
 70
     1
102
RTVSPost2010Prop36
280
     0
102
RTVSPost2010PropOp36
 70
     1
102
RTVSPost2010Prop37
 90
       50
102
RTVSPost2010PropOp37
 70
     1
102
RTVSPost2010Prop38
140
0.0
102
RTVSPost2010PropOp38
 70
     1
102
RTVSPost2010Prop39
140
1.0
102
RTVSPost2010PropOp39
 70
     1
102
RTVSPost2010Prop40
 90
        0
102
RTVSPost2010PropOp40
 70
     1
102
RTVSPost2010Prop41ColorIndex
 90
       18
102
RTVSPost2010Prop41ColorRGB
 90
        0
102
RTVSPost2010PropOp41
 70
     1
102
RTVSPost2010Prop42
 90
       50
102
RTVSPost2010PropOp42
 70
     1
102
RTVSPost2010Prop43
 90
        3
102
RTVSPost2010PropOp43
 70
     1
102
RTVSPost2010Prop44ColorIndex
 90
        5
102
RTVSPost2010Prop44ColorRGB
 90
      255
102
RTVSPost2010PropOp44
 70
     1
102
RTVSPost2010Prop45
280
     0
102
RTVSPost2010PropOp45
 70
     1
102
RTVSPost2010Prop46
 90
       50
102
RTVSPost2010PropOp46
 70
     1
102
RTVSPost2010Prop47
 90
       50
102
RTVSPost2010PropOp47
 70
     1
102
RTVSPost2010Prop48
 90
       50
102
RTVSPost2010PropOp48
 70
     1
102
RTVSPost2010Prop49
280
     0
102
RTVSPost2010PropOp49
 70
     1
102
RTVSPost2010Prop50
 90
       50
102
RTVSPost2010PropOp50
 70
     1
102
RTVSPost2010Prop51ColorIndex
 90
      256
102
RTVSPost2010Prop51ColorRGB
 90
-16777216
102
RTVSPost2010PropOp51
 70
     0
102
RTVSPost2010Prop52
140
1.0
102
RTVSPost2010PropOp52
 70
     0
102
RTVSPost2010Prop53
 90
        2
102
RTVSPost2010PropOp53
 70
     1
102
RTVSPost2010Prop54
  1
strokes_ogs.tif
102
RTVSPost2010PropOp54
 70
     1
102
RTVSPost2010Prop55
280
     0
102
RTVSPost2010PropOp55
 70
     1
102
RTVSPost2010Prop56
140
1.0
102
RTVSPost2010PropOp56
 70
     1
102
RTVSPost2010Prop57
140
1.0
102
RTVSPost2010PropOp57
 70
     1
  0
XRECORD
  5
38F
102
{ACAD_REACTORS
330
38E
102
}
330
38E
100
AcDbXrecord
280
     1
102
RTVSPropertyOp0
 70
     1
102
RTVSPropertyOp1
 70
     1
102
RTVSPropertyOp2
 70
     1
102
RTVSPropertyOp3
 70
     1
102
RTVSPropertyOp4
 70
     1
102
RTVSPropertyOp5
 70
     1
102
RTVSPropertyOp6
 70
     1
102
RTVSPropertyOp7
 70
     1
102
RTVSPropertyOp8
 70
     1
102
RTVSPropertyOp9
 70
     1
102
RTVSPropertyOp10
 70
     1
102
RTVSPropertyOp11
 70
     1
102
RTVSPropertyOp12
 70
     1
102
RTVSPropertyOp13
 70
     1
102
RTVSPropertyOp14
 70
     1
102
RTVSPropertyOp15
 70
     1
102
RTVSPropertyOp16
 70
     1
102
RTVSPropertyOp17
 70
     1
102
RTVSPropertyOp18
 70
     1
102
RTVSPropertyOp19
 70
     1
102
RTVSPropertyOp20
 70
     1
102
RTVSPropertyOp21
 70
     1
102
RTVSPropertyOp22
 70
     1
102
RTVSPropertyOp23
 70
     1
102
RTVSPropertyOp24
 70
     1
102
RTVSPropertyOp25
 70
     1
102
RTVSPropertyOp26
 70
     1
102
RTVSPropertyOp27
 70
     1
102
RTVSPropertyOp28
 70
     1
102
RTVSPropertyOp29
 70
     1
102
RTVSPropertyOp30
 70
     1
102
RTVSPropertyOp31
 70
     1
102
RTVSPropertyOp32
 70
     1
102
RTVSPropertyOp33
 70
     1
102
RTVSPropertyOp34
 70
     1
102
RTVSPropertyOp35
 70
     1
102
RTVSPropertyOp36
 70
     1
102
RTVSPropertyOp37
 70
     1
102
RTVSPropertyOp38
 70
     1
102
RTVSPropertyOp39
 70
     1
102
RTVSPropertyOp40
 70
     1
102
RTVSPropertyOp41
 70
     1
102
RTVSPropertyOp42
 70
     1
102
RTVSPropertyOp43
 70
     1
102
RTVSPropertyOp44
 70
     1
102
RTVSPropertyOp45
 70
     1
102
RTVSPropertyOp46
 70
     1
102
RTVSPropertyOp47
 70
     1
102
RTVSPropertyOp48
 70
     1
102
RTVSPropertyOp49
 70
     1
102
RTVSPropertyOp50
 70
     1
102
RTVSPropertyOp51
 70
     0
102
RTVSPropertyOp52
 70
     0
102
RTVSPropertyOp53
 70
     1
102
RTVSPropertyOp54
 70
     1
102
RTVSPropertyOp55
 70
     1
102
RTVSPropertyOp56
 70
     1
102
RTVSPropertyOp57
 70
     1
102
RTVSPost2010Prop28
280
     0
102
RTVSPost2010PropOp28
 70
     1
102
RTVSPost2010Prop29
280
     1
102
RTVSPost2010PropOp29
 70
     1
102
RTVSPost2010Prop30
280
     1
102
RTVSPost2010PropOp30
 70
     1
102
RTVSPost2010Prop31
280
     0
102
RTVSPost2010PropOp31
 70
     1
102
RTVSPost2010Prop32
280
     0
102
RTVSPost2010PropOp32
 70
     1
102
RTVSPost2010Prop33
280
     0
102
RTVSPost2010PropOp33
 70
     1
102
RTVSPost2010Prop34
280
     0
102
RTVSPost2010PropOp34
 70
     1
102
RTVSPost2010Prop35
280
     0
102
RTVSPost2010PropOp35
 70
     1
102
RTVSPost2010Prop36
280
     0
102
RTVSPost2010PropOp36
 70
     1
102
RTVSPost2010Prop37
 90
       50
102
RTVSPost2010PropOp37
 70
     1
102
RTVSPost2010Prop38
140
0.0
102
RTVSPost2010PropOp38
 70
     1
102
RTVSPost2010Prop39
140
1.0
102
RTVSPost2010PropOp39
 70
     1
102
RTVSPost2010Prop40
 90
        0
102
RTVSPost2010PropOp40
 70
     1
102
RTVSPost2010Prop41ColorIndex
 90
       18
102
RTVSPost2010Prop41ColorRGB
 90
        0
102
RTVSPost2010PropOp41
 70
     1
102
RTVSPost2010Prop42
 90
       50
102
RTVSPost2010PropOp42
 70
     1
102
RTVSPost2010Prop43
 90
        3
102
RTVSPost2010PropOp43
 70
     1
102
RTVSPost2010Prop44ColorIndex
 90
        5
102
RTVSPost2010Prop44ColorRGB
 90
      255
102
RTVSPost2010PropOp44
 70
     1
102
RTVSPost2010Prop45
280
     0
102
RTVSPost2010PropOp45
 70
     1
102
RTVSPost2010Prop46
 90
       50
102
RTVSPost2010PropOp46
 70
     1
102
RTVSPost2010Prop47
 90
       50
102
RTVSPost2010PropOp47
 70
     1
102
RTVSPost2010Prop48
 90
       50
102
RTVSPost2010PropOp48
 70
     1
102
RTVSPost2010Prop49
280
     0
102
RTVSPost2010PropOp49
 70
     1
102
RTVSPost2010Prop50
 90
       50
102
RTVSPost2010PropOp50
 70
     1
102
RTVSPost2010Prop51ColorIndex
 90
      256
102
RTVSPost2010Prop51ColorRGB
 90
-16777216
102
RTVSPost2010PropOp51
 70
     0
102
RTVSPost2010Prop52
140
1.0
102
RTVSPost2010PropOp52
 70
     0
102
RTVSPost2010Prop53
 90
        2
102
RTVSPost2010PropOp53
 70
     1
102
RTVSPost2010Prop54
  1
strokes_ogs.tif
102
RTVSPost2010PropOp54
 70
     1
102
RTVSPost2010Prop55
280
     0
102
RTVSPost2010PropOp55
 70
     1
102
RTVSPost2010Prop56
140
1.0
102
RTVSPost2010PropOp56
 70
     1
102
RTVSPost2010Prop57
140
1.0
102
RTVSPost2010PropOp57
 70
     1
  0
XRECORD
  5
37F
102
{ACAD_REACTORS
330
37E
102
}
330
37E
100
AcDbXrecord
280
     1
102
RTVSPropertyOp0
 70
     1
102
RTVSPropertyOp1
 70
     1
102
RTVSPropertyOp2
 70
     1
102
RTVSPropertyOp3
 70
     1
102
RTVSPropertyOp4
 70
     1
102
RTVSPropertyOp5
 70
     1
102
RTVSPropertyOp6
 70
     1
102
RTVSPropertyOp7
 70
     1
102
RTVSPropertyOp8
 70
     1
102
RTVSPropertyOp9
 70
     1
102
RTVSPropertyOp10
 70
     1
102
RTVSPropertyOp11
 70
     1
102
RTVSPropertyOp12
 70
     1
102
RTVSPropertyOp13
 70
     1
102
RTVSPropertyOp14
 70
     1
102
RTVSPropertyOp15
 70
     1
102
RTVSPropertyOp16
 70
     1
102
RTVSPropertyOp17
 70
     1
102
RTVSPropertyOp18
 70
     1
102
RTVSPropertyOp19
 70
     1
102
RTVSPropertyOp20
 70
     1
102
RTVSPropertyOp21
 70
     1
102
RTVSPropertyOp22
 70
     1
102
RTVSPropertyOp23
 70
     1
102
RTVSPropertyOp24
 70
     1
102
RTVSPropertyOp25
 70
     1
102
RTVSPropertyOp26
 70
     1
102
RTVSPropertyOp27
 70
     1
102
RTVSPropertyOp28
 70
     1
102
RTVSPropertyOp29
 70
     1
102
RTVSPropertyOp30
 70
     1
102
RTVSPropertyOp31
 70
     1
102
RTVSPropertyOp32
 70
     1
102
RTVSPropertyOp33
 70
     1
102
RTVSPropertyOp34
 70
     1
102
RTVSPropertyOp35
 70
     1
102
RTVSPropertyOp36
 70
     1
102
RTVSPropertyOp37
 70
     1
102
RTVSPropertyOp38
 70
     1
102
RTVSPropertyOp39
 70
     1
102
RTVSPropertyOp40
 70
     1
102
RTVSPropertyOp41
 70
     1
102
RTVSPropertyOp42
 70
     1
102
RTVSPropertyOp43
 70
     1
102
RTVSPropertyOp44
 70
     1
102
RTVSPropertyOp45
 70
     1
102
RTVSPropertyOp46
 70
     1
102
RTVSPropertyOp47
 70
     1
102
RTVSPropertyOp48
 70
     1
102
RTVSPropertyOp49
 70
     1
102
RTVSPropertyOp50
 70
     1
102
RTVSPropertyOp51
 70
     0
102
RTVSPropertyOp52
 70
     0
102
RTVSPropertyOp53
 70
     1
102
RTVSPropertyOp54
 70
     1
102
RTVSPropertyOp55
 70
     1
102
RTVSPropertyOp56
 70
     1
102
RTVSPropertyOp57
 70
     1
102
RTVSPost2010Prop28
280
     0
102
RTVSPost2010PropOp28
 70
     1
102
RTVSPost2010Prop29
280
     1
102
RTVSPost2010PropOp29
 70
     1
102
RTVSPost2010Prop30
280
     1
102
RTVSPost2010PropOp30
 70
     1
102
RTVSPost2010Prop31
280
     0
102
RTVSPost2010PropOp31
 70
     1
102
RTVSPost2010Prop32
280
     0
102
RTVSPost2010PropOp32
 70
     1
102
RTVSPost2010Prop33
280
     0
102
RTVSPost2010PropOp33
 70
     1
102
RTVSPost2010Prop34
280
     0
102
RTVSPost2010PropOp34
 70
     1
102
RTVSPost2010Prop35
280
     0
102
RTVSPost2010PropOp35
 70
     1
102
RTVSPost2010Prop36
280
     0
102
RTVSPost2010PropOp36
 70
     1
102
RTVSPost2010Prop37
 90
       50
102
RTVSPost2010PropOp37
 70
     1
102
RTVSPost2010Prop38
140
0.0
102
RTVSPost2010PropOp38
 70
     1
102
RTVSPost2010Prop39
140
1.0
102
RTVSPost2010PropOp39
 70
     1
102
RTVSPost2010Prop40
 90
        0
102
RTVSPost2010PropOp40
 70
     1
102
RTVSPost2010Prop41ColorIndex
 90
       18
102
RTVSPost2010Prop41ColorRGB
 90
        0
102
RTVSPost2010PropOp41
 70
     1
102
RTVSPost2010Prop42
 90
       50
102
RTVSPost2010PropOp42
 70
     1
102
RTVSPost2010Prop43
 90
        3
102
RTVSPost2010PropOp43
 70
     1
102
RTVSPost2010Prop44ColorIndex
 90
        5
102
RTVSPost2010Prop44ColorRGB
 90
      255
102
RTVSPost2010PropOp44
 70
     1
102
RTVSPost2010Prop45
280
     0
102
RTVSPost2010PropOp45
 70
     1
102
RTVSPost2010Prop46
 90
       50
102
RTVSPost2010PropOp46
 70
     1
102
RTVSPost2010Prop47
 90
       50
102
RTVSPost2010PropOp47
 70
     1
102
RTVSPost2010Prop48
 90
       50
102
RTVSPost2010PropOp48
 70
     1
102
RTVSPost2010Prop49
280
     0
102
RTVSPost2010PropOp49
 70
     1
102
RTVSPost2010Prop50
 90
       50
102
RTVSPost2010PropOp50
 70
     1
102
RTVSPost2010Prop51ColorIndex
 90
      256
102
RTVSPost2010Prop51ColorRGB
 90
-16777216
102
RTVSPost2010PropOp51
 70
     0
102
RTVSPost2010Prop52
140
1.0
102
RTVSPost2010PropOp52
 70
     0
102
RTVSPost2010Prop53
 90
        2
102
RTVSPost2010PropOp53
 70
     1
102
RTVSPost2010Prop54
  1
strokes_ogs.tif
102
RTVSPost2010PropOp54
 70
     1
102
RTVSPost2010Prop55
280
     0
102
RTVSPost2010PropOp55
 70
     1
102
RTVSPost2010Prop56
140
1.0
102
RTVSPost2010PropOp56
 70
     1
102
RTVSPost2010Prop57
140
1.0
102
RTVSPost2010PropOp57
 70
     1
  0
XRECORD
  5
371
102
{ACAD_REACTORS
330
370
102
}
330
370
100
AcDbXrecord
280
     1
102
RTVSPropertyOp0
 70
     1
102
RTVSPropertyOp1
 70
     1
102
RTVSPropertyOp2
 70
     1
102
RTVSPropertyOp3
 70
     1
102
RTVSPropertyOp4
 70
     1
102
RTVSPropertyOp5
 70
     1
102
RTVSPropertyOp6
 70
     1
102
RTVSPropertyOp7
 70
     1
102
RTVSPropertyOp8
 70
     1
102
RTVSPropertyOp9
 70
     1
102
RTVSPropertyOp10
 70
     1
102
RTVSPropertyOp11
 70
     1
102
RTVSPropertyOp12
 70
     1
102
RTVSPropertyOp13
 70
     1
102
RTVSPropertyOp14
 70
     1
102
RTVSPropertyOp15
 70
     1
102
RTVSPropertyOp16
 70
     1
102
RTVSPropertyOp17
 70
     1
102
RTVSPropertyOp18
 70
     1
102
RTVSPropertyOp19
 70
     1
102
RTVSPropertyOp20
 70
     1
102
RTVSPropertyOp21
 70
     1
102
RTVSPropertyOp22
 70
     1
102
RTVSPropertyOp23
 70
     1
102
RTVSPropertyOp24
 70
     1
102
RTVSPropertyOp25
 70
     1
102
RTVSPropertyOp26
 70
     1
102
RTVSPropertyOp27
 70
     1
102
RTVSPropertyOp28
 70
     1
102
RTVSPropertyOp29
 70
     1
102
RTVSPropertyOp30
 70
     1
102
RTVSPropertyOp31
 70
     1
102
RTVSPropertyOp32
 70
     1
102
RTVSPropertyOp33
 70
     1
102
RTVSPropertyOp34
 70
     1
102
RTVSPropertyOp35
 70
     1
102
RTVSPropertyOp36
 70
     1
102
RTVSPropertyOp37
 70
     1
102
RTVSPropertyOp38
 70
     1
102
RTVSPropertyOp39
 70
     1
102
RTVSPropertyOp40
 70
     1
102
RTVSPropertyOp41
 70
     1
102
RTVSPropertyOp42
 70
     1
102
RTVSPropertyOp43
 70
     1
102
RTVSPropertyOp44
 70
     1
102
RTVSPropertyOp45
 70
     1
102
RTVSPropertyOp46
 70
     1
102
RTVSPropertyOp47
 70
     1
102
RTVSPropertyOp48
 70
     1
102
RTVSPropertyOp49
 70
     1
102
RTVSPropertyOp50
 70
     1
102
RTVSPropertyOp51
 70
     0
102
RTVSPropertyOp52
 70
     0
102
RTVSPropertyOp53
 70
     1
102
RTVSPropertyOp54
 70
     1
102
RTVSPropertyOp55
 70
     1
102
RTVSPropertyOp56
 70
     1
102
RTVSPropertyOp57
 70
     1
102
RTVSPost2010Prop28
280
     0
102
RTVSPost2010PropOp28
 70
     1
102
RTVSPost2010Prop29
280
     1
102
RTVSPost2010PropOp29
 70
     1
102
RTVSPost2010Prop30
280
     1
102
RTVSPost2010PropOp30
 70
     1
102
RTVSPost2010Prop31
280
     0
102
RTVSPost2010PropOp31
 70
     1
102
RTVSPost2010Prop32
280
     0
102
RTVSPost2010PropOp32
 70
     1
102
RTVSPost2010Prop33
280
     0
102
RTVSPost2010PropOp33
 70
     1
102
RTVSPost2010Prop34
280
     0
102
RTVSPost2010PropOp34
 70
     1
102
RTVSPost2010Prop35
280
     0
102
RTVSPost2010PropOp35
 70
     1
102
RTVSPost2010Prop36
280
     0
102
RTVSPost2010PropOp36
 70
     1
102
RTVSPost2010Prop37
 90
       50
102
RTVSPost2010PropOp37
 70
     1
102
RTVSPost2010Prop38
140
0.0
102
RTVSPost2010PropOp38
 70
     1
102
RTVSPost2010Prop39
140
1.0
102
RTVSPost2010PropOp39
 70
     1
102
RTVSPost2010Prop40
 90
        0
102
RTVSPost2010PropOp40
 70
     1
102
RTVSPost2010Prop41ColorIndex
 90
       18
102
RTVSPost2010Prop41ColorRGB
 90
        0
102
RTVSPost2010PropOp41
 70
     1
102
RTVSPost2010Prop42
 90
       50
102
RTVSPost2010PropOp42
 70
     1
102
RTVSPost2010Prop43
 90
        3
102
RTVSPost2010PropOp43
 70
     1
102
RTVSPost2010Prop44ColorIndex
 90
        5
102
RTVSPost2010Prop44ColorRGB
 90
      255
102
RTVSPost2010PropOp44
 70
     1
102
RTVSPost2010Prop45
280
     0
102
RTVSPost2010PropOp45
 70
     1
102
RTVSPost2010Prop46
 90
       50
102
RTVSPost2010PropOp46
 70
     1
102
RTVSPost2010Prop47
 90
       50
102
RTVSPost2010PropOp47
 70
     1
102
RTVSPost2010Prop48
 90
       50
102
RTVSPost2010PropOp48
 70
     1
102
RTVSPost2010Prop49
280
     0
102
RTVSPost2010PropOp49
 70
     1
102
RTVSPost2010Prop50
 90
       50
102
RTVSPost2010PropOp50
 70
     1
102
RTVSPost2010Prop51ColorIndex
 90
      256
102
RTVSPost2010Prop51ColorRGB
 90
-16777216
102
RTVSPost2010PropOp51
 70
     0
102
RTVSPost2010Prop52
140
1.0
102
RTVSPost2010PropOp52
 70
     0
102
RTVSPost2010Prop53
 90
        2
102
RTVSPost2010PropOp53
 70
     1
102
RTVSPost2010Prop54
  1
strokes_ogs.tif
102
RTVSPost2010PropOp54
 70
     1
102
RTVSPost2010Prop55
280
     0
102
RTVSPost2010PropOp55
 70
     1
102
RTVSPost2010Prop56
140
1.0
102
RTVSPost2010PropOp56
 70
     1
102
RTVSPost2010Prop57
140
1.0
102
RTVSPost2010PropOp57
 70
     1
  0
XRECORD
  5
391
102
{ACAD_REACTORS
330
390
102
}
330
390
100
AcDbXrecord
280
     1
102
RTVSPropertyOp0
 70
     1
102
RTVSPropertyOp1
 70
     1
102
RTVSPropertyOp2
 70
     1
102
RTVSPropertyOp3
 70
     1
102
RTVSPropertyOp4
 70
     1
102
RTVSPropertyOp5
 70
     1
102
RTVSPropertyOp6
 70
     1
102
RTVSPropertyOp7
 70
     1
102
RTVSPropertyOp8
 70
     1
102
RTVSPropertyOp9
 70
     1
102
RTVSPropertyOp10
 70
     1
102
RTVSPropertyOp11
 70
     1
102
RTVSPropertyOp12
 70
     1
102
RTVSPropertyOp13
 70
     1
102
RTVSPropertyOp14
 70
     1
102
RTVSPropertyOp15
 70
     1
102
RTVSPropertyOp16
 70
     1
102
RTVSPropertyOp17
 70
     1
102
RTVSPropertyOp18
 70
     1
102
RTVSPropertyOp19
 70
     1
102
RTVSPropertyOp20
 70
     1
102
RTVSPropertyOp21
 70
     1
102
RTVSPropertyOp22
 70
     1
102
RTVSPropertyOp23
 70
     1
102
RTVSPropertyOp24
 70
     1
102
RTVSPropertyOp25
 70
     1
102
RTVSPropertyOp26
 70
     1
102
RTVSPropertyOp27
 70
     1
102
RTVSPropertyOp28
 70
     1
102
RTVSPropertyOp29
 70
     1
102
RTVSPropertyOp30
 70
     1
102
RTVSPropertyOp31
 70
     1
102
RTVSPropertyOp32
 70
     1
102
RTVSPropertyOp33
 70
     1
102
RTVSPropertyOp34
 70
     1
102
RTVSPropertyOp35
 70
     1
102
RTVSPropertyOp36
 70
     1
102
RTVSPropertyOp37
 70
     1
102
RTVSPropertyOp38
 70
     1
102
RTVSPropertyOp39
 70
     1
102
RTVSPropertyOp40
 70
     1
102
RTVSPropertyOp41
 70
     1
102
RTVSPropertyOp42
 70
     1
102
RTVSPropertyOp43
 70
     1
102
RTVSPropertyOp44
 70
     1
102
RTVSPropertyOp45
 70
     1
102
RTVSPropertyOp46
 70
     1
102
RTVSPropertyOp47
 70
     1
102
RTVSPropertyOp48
 70
     1
102
RTVSPropertyOp49
 70
     1
102
RTVSPropertyOp50
 70
     1
102
RTVSPropertyOp51
 70
     0
102
RTVSPropertyOp52
 70
     0
102
RTVSPropertyOp53
 70
     1
102
RTVSPropertyOp54
 70
     1
102
RTVSPropertyOp55
 70
     1
102
RTVSPropertyOp56
 70
     1
102
RTVSPropertyOp57
 70
     1
102
RTVSPost2010Prop28
280
     0
102
RTVSPost2010PropOp28
 70
     1
102
RTVSPost2010Prop29
280
     1
102
RTVSPost2010PropOp29
 70
     1
102
RTVSPost2010Prop30
280
     1
102
RTVSPost2010PropOp30
 70
     1
102
RTVSPost2010Prop31
280
     0
102
RTVSPost2010PropOp31
 70
     1
102
RTVSPost2010Prop32
280
     0
102
RTVSPost2010PropOp32
 70
     1
102
RTVSPost2010Prop33
280
     0
102
RTVSPost2010PropOp33
 70
     1
102
RTVSPost2010Prop34
280
     0
102
RTVSPost2010PropOp34
 70
     1
102
RTVSPost2010Prop35
280
     0
102
RTVSPost2010PropOp35
 70
     1
102
RTVSPost2010Prop36
280
     0
102
RTVSPost2010PropOp36
 70
     1
102
RTVSPost2010Prop37
 90
       50
102
RTVSPost2010PropOp37
 70
     1
102
RTVSPost2010Prop38
140
0.0
102
RTVSPost2010PropOp38
 70
     1
102
RTVSPost2010Prop39
140
1.0
102
RTVSPost2010PropOp39
 70
     1
102
RTVSPost2010Prop40
 90
        0
102
RTVSPost2010PropOp40
 70
     1
102
RTVSPost2010Prop41ColorIndex
 90
       18
102
RTVSPost2010Prop41ColorRGB
 90
        0
102
RTVSPost2010PropOp41
 70
     1
102
RTVSPost2010Prop42
 90
       50
102
RTVSPost2010PropOp42
 70
     1
102
RTVSPost2010Prop43
 90
        3
102
RTVSPost2010PropOp43
 70
     1
102
RTVSPost2010Prop44ColorIndex
 90
        5
102
RTVSPost2010Prop44ColorRGB
 90
      255
102
RTVSPost2010PropOp44
 70
     1
102
RTVSPost2010Prop45
280
     0
102
RTVSPost2010PropOp45
 70
     1
102
RTVSPost2010Prop46
 90
       50
102
RTVSPost2010PropOp46
 70
     1
102
RTVSPost2010Prop47
 90
       50
102
RTVSPost2010PropOp47
 70
     1
102
RTVSPost2010Prop48
 90
       50
102
RTVSPost2010PropOp48
 70
     1
102
RTVSPost2010Prop49
280
     0
102
RTVSPost2010PropOp49
 70
     1
102
RTVSPost2010Prop50
 90
       50
102
RTVSPost2010PropOp50
 70
     1
102
RTVSPost2010Prop51ColorIndex
 90
      256
102
RTVSPost2010Prop51ColorRGB
 90
-16777216
102
RTVSPost2010PropOp51
 70
     0
102
RTVSPost2010Prop52
140
1.0
102
RTVSPost2010PropOp52
 70
     0
102
RTVSPost2010Prop53
 90
        2
102
RTVSPost2010PropOp53
 70
     1
102
RTVSPost2010Prop54
  1
strokes_ogs.tif
102
RTVSPost2010PropOp54
 70
     1
102
RTVSPost2010Prop55
280
     0
102
RTVSPost2010PropOp55
 70
     1
102
RTVSPost2010Prop56
140
1.0
102
RTVSPost2010PropOp56
 70
     1
102
RTVSPost2010Prop57
140
1.0
102
RTVSPost2010PropOp57
 70
     1
  0
ENDSEC
  0
SECTION
  2
THUMBNAILIMAGE
 90
    16364
310
28000000B40000005500000001000800000000000000000000000000000000000000000000000000FFFFFF00FF000000FFFF000000FF000000FFFF000000FF00FF00FF000000000080808000C0C0C000FF000000FF7F7F00A5000000A55252007F0000007F3F3F004C0000004C2626002600000026131300FF3F0000FF9F7F
310
00A5290000A56752007F1F00007F4F3F004C1300004C2F26002609000026171300FF7F0000FFBF7F00A5520000A57C52007F3F00007F5F3F004C2600004C39260026130000261C1300FFBF0000FFDF7F00A57C0000A59152007F5F00007F6F3F004C3900004C422600261C000026211300FFFF0000FFFF7F00A5A50000A5A5
310
52007F7F00007F7F3F004C4C00004C4C26002626000026261300BFFF0000DFFF7F007CA5000091A552005F7F00006F7F3F00394C0000424C26001C260000212613007FFF0000BFFF7F0052A500007CA552003F7F00005F7F3F00264C0000394C2600132600001C2613003FFF00009FFF7F0029A5000067A552001F7F00004F
310
7F3F00134C00002F4C2600092600001726130000FF00007FFF7F0000A5000052A55200007F00003F7F3F00004C0000264C2600002600001326130000FF3F007FFF9F0000A5290052A56700007F1F003F7F4F00004C1300264C2F00002609001326170000FF7F007FFFBF0000A5520052A57C00007F3F003F7F5F00004C2600
310
264C39000026130013261C0000FFBF007FFFDF0000A57C0052A59100007F5F003F7F6F00004C3900264C420000261C001326210000FFFF007FFFFF0000A5A50052A5A500007F7F003F7F7F00004C4C00264C4C00002626001326260000BFFF007FDFFF00007CA5005291A500005F7F003F6F7F0000394C0026424C00001C26
310
0013212600007FFF007FBFFF000052A500527CA500003F7F003F5F7F0000264C0026394C0000132600131C2600003FFF007F9FFF000029A5005267A500001F7F003F4F7F0000134C00262F4C0000092600131726000000FF007F7FFF000000A5005252A50000007F003F3F7F0000004C0026264C0000002600131326003F00
310
FF009F7FFF002900A5006752A5001F007F004F3F7F0013004C002F264C0009002600171326007F00FF00BF7FFF005200A5007C52A5003F007F005F3F7F0026004C0039264C00130026001C132600BF00FF00DF7FFF007C00A5009152A5005F007F006F3F7F0039004C0042264C001C00260021132600FF00FF00FF7FFF00A5
310
00A500A552A5007F007F007F3F7F004C004C004C264C002600260026132600FF00BF00FF7FDF00A5007C00A55291007F005F007F3F6F004C0039004C26420026001C0026132100FF007F00FF7FBF00A5005200A5527C007F003F007F3F5F004C0026004C2639002600130026131C00FF003F00FF7F9F00A5002900A5526700
310
7F001F007F3F4F004C0013004C262F002600090026131700000000002D2D2D005B5B5B0089898900B7B7B700B3B3B30000000000000000000000000000000000000000000000000000000000000000000000000000000000000000000000000000000000000000000000000000000000000000000000000000000000000000
310
00000000000000000000000000000000000000000000000000000000000000000000000000000000000000000000000000000000000000000000000000000000000000000000000000000000000000000000000000000000000000000000000000000000000000000000000000000000000000000000000000000000000000
310
00000000000000000000000000000000000000000000000000000000000000000000000000000000000000000000000000000000000000000000000000000000000000000000000000000000000000000000000000000000000000000000000000000000000000000000000000000000000000000000000000000000000000
310
00000000000000000000000000000000000000000000000000000000000000000000000000000000000000000000000000000000000000000000000000000000000000000000000000000000000000000000000000000000000000000000000000000000000000000000980000000000000000000000000000000000000000
310
00980000000000000000000000000000000000000000000000000000000000000000000000000000000000000000000000000000000000000000000000000000000000000000000000000000000000000000000000000000000000000000000000000000000000000000000000000000000000000000000000000000000000
310
00000000000000000000000000000000000000000000000000000000000000009898989898989898989898989898989898989898989898000000000000000000000000000000000000000000000000000000000000000000000000000000000000000000000000000000000000000000000000000000000000000000000000
310
00000000000000000000000000000000000000000000000000000000000000000000000000000000000000000000000000000000000000000000000000000000000000000000000000000000000000000000000000980000009898989898989898989898989898000000009800000000000000000000000000000000000000
310
00000000000000000000000000000000000000000000000000000000000000000000000000000000000000000000000000000000000000000000000000000000000000000000000000000000000000000000000000000000000000000000000000000000000000000000000000000000000000000000000000000000000000
310
00000000000000000000009800000000989898989898989898009898000000000098000000000000000000000000000000000000000000000000000000000000000000000000000000000000000000000000000000000000000000000000000000000000000000000000000000000000000000000000000000000000000000
310
00000000000000000000000000000000000000000000000000000000000000000000000000000000000000000000000000000000000000000000000000000000980000000098989898989898989800980000000000009800000000000000000000000000000000000000000000000000000000000000000000000000000000
310
00000000000000000000000000000000000000000000000000000000000000000000000000000000000000000000000000000000000000000000000000000000000000000000000000000000000000000000000000000000000000000000000000000000000000000000000000000000000000000098000000000000000000
310
00000000000000000000000098000000000000000000000000000000000000000000000000000000000000000000000000000000000000000000000000000000000000000000000000000000000000000000000000000000000000000000000000000000000000000000000000000000000000000000000000000000000000
310
00000000000000000000000000000000000000000000000000000000000000000000000000000000000000980000000000000000000000000000000000000000009800000000000000000000000000000000000000000000000000000000000000000000000000000000000000000000000000000000000000000000000000
310
00000000000000000000000000000000000000000000000000000000000000000000000000000000000000000000000000000000000000000000000000000000000000000000000000000000000000000000000000000000000000000000000098000000000000000000000000000000000000000000980000000000000000
310
00000000000000000000000000000000000000000000000000000000000000000000000000000000000000000000000000000000000000000000000000000000000000000000000000000000000000000000000000000000000000000000000000000000000000000000000000000000000000000000000000000000000000
310
00000000000000000000000000000000000000000000980000020200000202020200020000000000000202009800000000000000000000000000000000000000000000000000000000000000000000000000000000000000000000000000000000000000000000000000000000000000000000000000000000000000000000
310
00000000000000000000000000000000000000000000000000000000000000000000000000000000000000000000000000000000000000000000000000000000000000000000000000000004040404040404040404040404040404040404040404049898989898989898989898989898000000000000000000000000000000
310
00000000000000000000000000000000000000000000000000000000000000000000000000000000000000000000000000000000000000000000000000000000000000000000000000000000000000000000000000000000000000000000000000000000000000000000000000000000000000000000000000000000000000
310
00040400020202020202020002000202020202020202040400000000000000000000000098000000000000000000000000000000000000000000000000000000000000000000000000000000000000000000000000000000000000000000000000000000000000000000000000000000000000000000000000000000000000
310
00000000000000000000000000000000000000000000000000000000000000000000000000000000000000000000000000000000000004000402020000020202020202020202000200000402040000000000000000000000009800000000000000000000000000000000000000000000000000000000000000000000000000
310
00000000000000000000000000000000000000000000000000000000000000000000000000000000000000000000000000000000000000000000000000000000000000000000000000000000000000000000000000000000000000000000000000000000000000000000000400000400000000000200000000000000020004
310
00000400000000000000000098980098000000000000000000000000000000000000000000000000000000000000000000000000000000000000000000000000000000000000000000000000000000000000000000000000000000000000000000000000000000000000000000000000000000000000000000000000000000
310
00000000000000000000000000000000000000000000000000000000000000000004000000040000000000000000980000000004000000040000000000000000989898989800000000000000000000000000000000000000000000000000000000000000000000000000000000000000000000000000000000000000000000
310
00000000000000000000000000000000000000000000000000000000000000000000000000000000000000000000000000000000000000000000000000000000000000000000000000000000000000000000000000000400000000040000000000000098000000040000000004000000000000000098989898980000000000
310
00000000000000000000000000000000000000000000000000000000000000000000000000000000000000000000000000000000000000000000000000000000000000000000000000000000000000000000000000000000000000000000000000000000000000000000000000000000000000000000000000000000000000
310
00000000000000000000000004000000000004000000000098989898049898989898049800000000000000989898989800000000000000000000000000000000000000000000000000000000000000000000000000000000000000000000000000000000000000000000000000000000000000000000000000000000000000
310
00000000000000000000000000000000000000000000000000000000000000000000000000000000000000000000000000000000000000000000000000000000000400000000000004000000000098980498989898000004000000000000000098989898980000000000000000000000000000000000000000000000000000
310
00000000000000000000000000000000000000000000000000000000000000000000000000000000000000000000000000000000000000000000000000000000000000000000000000000000000000000000000000000002000200000000000000000000000000000000000000000000000000000000040000000000000004
310
00000000980498989898980000040000000000000000989898989800000000000000000000000000000000000000000000000000000000000000000000000000000000000000000000000000000000000000000000000000000000000000000000000000000000000000000000000000000000000000000000000202020202
310
02020202020202020202020202020202020202020200000000000000000000000000000000000000000000000400000000000000000400000004000000000000000004000000000000000098989898980000000000000000000000000000000000000000000000000000000000000000000000000000000000000000000000
310
00000000000000000000000000000000000000000000000000000000000000000000000000000000000000000000000000020202020200020202020202020202020002020202000000980200000000000000000000000000009800000000000000040000000000000000000400049800000000000000000400000000000000
310
00989898989800000000000000000000000000000000000000000000000000000000000000000000000000000000000000000000000000000000000000000000000000000000000000000000000000000000000000000000000000000000000000000000000000020202020002020002020202020202000202020200000098
310
98029898989898989898989898989898000000000000000400000000000000000000040098000000980000980004000000000000000098989898980000000000000000000000000000000000000000000000000000000000000000000000000000000000000000000000000000000000000000000000000000000000000000
310
00000000000000000000000000000000000000000000000000000000000000000000000000000000000000000000000000000000980000029898989898989800000000009800000000000000040000000000000000000498049898989898989898980498989898989800009898989898000000000000000000000000000000
310
00000000000000000000000000000000000000000000000000000000000000000000000000000000000000000000000000000000000000000000000000000000000000000000000000000000000000000000000000000000000000000000000000000000000000000098000002009898989898000000000000980000020202
310
02020402020202020200000400009804989800980000980004009898989800000000009898980098989898980000000000000000000000000000000000000000000000000000000000000000000000000000000000000000000000000000000000000000000000000000000000000000000000000000000000000000000000
310
00000000000000000000000000000000009898989898000000000000000000980000000298989898980000000000009800000002020202040202020202000204000000989804980098000098000400989898980000009898989898009898989898000000000000000000000000000000000000000000000000000000000000
310
00000000000000000000000000000000000000000000000000000000000000000000000000000000000000000000000000000000000000000000000000000000000000000000989898989800000000000000000098000000000200000000000000000000980000000202020204020002020000040200000098989804009800
310
00980004009898989800000000989898980098989898980000000000000000000000000000000000000000000000000000000000000000000000000000000000000000000000000000000000000000000000000000000000000000000000000000000000000000000000000000000000000000000000000000000098989898
310
98000000000000000000980000000000020000000000000000009800000002020202040202020200040002000000009800000498000098000400000000000000000000989898000098989898000000000000000000000000000000000000000000000000000000000000000000000000000000000000000000000000000000
310
00000000000000000000000000000000000000000000000000000000000000000000000000000000000000000000000000989898989800000000000000000098000000000000020000000000000000980000000000000004000000000400000002000000980000000400009800040000000000000000000000009800000000
310
00980000000000000000000000000000000000000000000000000000000000000000000000000000000000000000000000000000000000000000000000000000000000000000000000000000000000000000000000000000000000000000000000000000000000000000980000000000000000009800000000000000020000
310
00000000000600000000000000040000000400000000000200009800000098040098000400000000000000000000000098000000000098000000000000000000000000000000000000000000000000000000000000000000000000000000000000000000000000000000000000000000000000000000000000000000000000
310
000000000000000000000000000000000000000000000000000000000000000098000000000000000000980000000000000002B5B5B50000000006000000000000000400000400000000000000B5B5B59898989898049898049898989898989898989898989898989898989898989898989898989898980000000000000000
310
00000000000000000000000000000000000000000000000000000000000000000000000000000000000000000000000000000000000000000000000000000000000000000000000000000000000000000000000000980000000000000000009800000000000000B50202B50000000006000000000000060400040000000000
310
0000B50202B500000098000004000400000000000000000000000098000000000098000000000000000000980000000000000000000000000000000000000000000000000000000000000000000000000000000000000000000000000000000000000000000000000000000000000000000000000000000000000000000000
310
0000000000000000009898989898989898989898989898030303030303B5020202B5030303060303030303030604040303030300000000B5020202B598989898989804049898989898989898989898989898989898989898980000000000000098000000000000000000000000000000000000000000000000000000000000
310
00000000000000000000000000000000000000000000000000000000000000000000000000000000000000000000000000000000000000000000000000009898989898989898989898980404040404040404040404040404040404040404040404040404040404040404040404040404040404040404040404989898989898
310
98989898989898980000000098000000000000000000980000000000000000000000000000000000000000000000000000000000000000000000000000000000000000000000000000000000000000000000000000000000000000000000000000000000000000000000000000000000000000000098009898989898000000
310
04000000000000000301010300000000060000000000000600000000000000000000030101030000020202980298049898989898989800000000009800000000009800000000000000000098000000000000000000000000000000000000000000000000000000000000000000000000000000000000000000000000000000
310
00000000000000000000000000000000000000000000000000000000000000000000000000000000000000980098989898980000000400000000000000030100030000000000000000000000060000000000000000000003010003000000020102020204989898989898989898989898989800989898980000000000000000
310
00980000000000000000000000000000000000000000000000000000000000000000000000000000000000000000000000000000000000000000000000000000000000000000000000000000000000000000000000000000000000009898989898000000980098000000040000000000000003010103000000000000000000
310
00000600000000989898989898030101039800000002020202049898989898000000989898989800989898989800000000000098980098000000000000000000000000000000000000000000000000000000000000000000000000000000000000000000000000000000000000000000000000000000000000000000000000
310
00000000000000000000000000000000000098989898980098989898980000000400000000000000030101030000000000000000000000060000000000009898989803010103000000000200020204009898989800000098989898980098989898980000000000989898009800000000000000000000000000000000000000
310
00000000000000000000000000000000000000000000000000000000000000000000000000000000000000000000000000000000000000000000000000000000000000000000009898989898000000000098000000040006000000000003010003000000000000000000000005000000000098989898000301000300000000
310
00020000049898989898000000989898989800989898989800000000009898980098000000000000000000000000000000000000000000000000000000000000000000000000000000000000000000000000000000000000000000000000000000000000000000000000000000000000000000000000000000000000989898
310
98980098989898989898980406060600000000030100030000000000000000000005060500000000000000000003010003000000000002000004009898009800000098989898980098989898980000000000989898009800000000000000000000000000000000000000000000000000000000000000000000000000000000
310
00000000000000000000000000000000000000000000000000000000000000000000000000000000000000000000000000009898989898009898989898000000040606060606060606060606060606060606060606050605060506060606060606060606060606060606060602060402000000980000000000000098009898
310
98989800000000009800980098000000000000000000000000000000000000000000000000000000000000000000000000000000000000000000000000000000000000000000000000000000000000000000000000000000000000000000000000000000000000989898989800989898989800000004009800000000000301
310
00030000000000000000000005050500000000000000000003010003000000000000020004020000009800000000000000980000000000980000000000989800009800000000000000000000000000000000000000000000000000000000000000000000000000000000000000000000000000000000000000000000000000
310
00000000000000000000000000000000000000000000000000000000000000000098009898989898000000040098000000000003010003000000000101000000000006000000000000000000000301000300000000000000020400020000000000000000000098000000000098000000000000000000980000000000000000
310
00000000000000000000000000000000000000000000000000000000000000000000000000000000000000000000000000000000000000000000000000000000000000000000000000000000000000000000000000009800989898989800000004009800000000000301000300000000010100000000000600000000000000
310
00000003010003000000000000000204000200000000000000000000000000000000980000000000000000009800000000000000000000000000000000000000000000000000000000000000000000000000000000000000000000000000000000000000000000000000000000000000000000000000000000000000000000
310
00000000000000000000000098000098980098000000040098000000000603010103000006000000000000060006000000000600000000000301010300000000000000000400000200000000000000000000000000000098000000000000000000980000000000000000000000000000000000000000000000000000000000
310
00000000000000000000000000000000000000000000000000000000000000000000000000000000000000000000000000000000000000000000000000000000009800000098989898989804989898989806060601010300060606000000000606060600000006020000000000030101030000000000000000040200020000
310
00000000000000000000000000980000000000000000009800000000000000000000000000000000000000000000000000000000000000000000000000000000000000000000000000000000000000000000000000000000000000000000000000000000000000000000000000000000000000000000980000000000000000
310
00040098000000010603B5B5B50001060000000000010600060000000102020000000003B5B5B500000000000000000402000002000000000000000000000000000098000000000000000000980000000000000000000000000000000000000000000000000000000000000000000000000000000000000000000000000000
310
00000000000000000000000000000000000000000000000000000000000000000000000000000000000098989898989898989898989804040404040404040404040404040404040404040404040404040404040404040404040404040404040404040404049802980298989898000000000000000000009800000000000000
310
0000980000000000000000000000000000000000000000000000000000000000000000000000000000000000000000000000000000000000000000000000000000000000000000000000000000000000000000000000000000000000000000000000000000000000000000040098030404040404040404B503030303030303
310
0303030603030303030203030303B504040404040404049898980498029898029898989898989898989898989898989898989898989898989800000000000000000000000000000000000000000000000000000000000000000000000000000000000000000000000000000000000000000000000000000000000000000000
310
000000000000000000000000000000000000000000000000000000000000000000040098000000000202B5B5B50404040404040404009800000000000404040404040404B5B5B50000000000000000040000020002980000000000000000009800009800000000000000000098000000000000000000000000000000000000
310
00000000000000000000000000000000000000000000000000000000000000000000000000000000000000000000000000000000000000000000000000000000000000000000000000000000000000000000000000000400980000020298000098000002020000020202040404040404040098020202000000009800000000
310
00000000000400000200000200000000000000009898989898000000000000000000000000000000000000000000000000000000000000000000000000000000000000000000000000000000000000000000000000000000000000000000000000000000000000000000000000000000000000000000000000000000000000
310
00000000000000000000000004009802020000980000980004040404040404040202000202020204040404040404040098000000000000000000040000000200020000000000000000009898989800000000000000000000000000000000000000000000000000000000000000000000000000000000000000000000000000
310
00000000000000000000000000000000000000000000000000000000000000000000000000000000000000000000000000000000000000000000000000000000000402020004040404040404040002020200020202020202020202020098000202000000040404040404040400000004000000020098020000000000000098
310
98989898000000000000000000000000000000000000000000000000000000000000000000000000000000000000000000000000000000000000000000000000000000000000000000000000000000000000000000000000000000000202020202020202020202020202020202020202020202020202040404040404040404
310
04040404040404040404040404040404040404040404040404040404040404040404040404049898989802980298000000000000009898009800000000000000000000000000000000000000000000000000000000000000000000000000000000000000000000000000000000000000000000000000000000000000000000
310
00000000000000000000000000000000000000000202020202000202020200020002020202020000000000009800980000000098000098000000980000000000009800000000000098000002000000009800000000000000000098000098989802000200000000000000000000980000000000000000000000000000000000
310
00000000000000000000000000000000000000000000000000000000000000000000000000000000000000000000000000000000000000000000000000000000000000000000000000000202000200020200020002000202020202000000000000980098000000009800009800000098000000000000980000000000009800
310
00000200000098000000000000000000980098989898020002000000000000000000000000000000000000000000000000000000000000000000000000000000000000000000000000000000000000000000000000000000000000000000000000000000000000000000000000000000000000000000000000000000000000
310
00000000000000000000000000000000000000000000009800980000000098000098000000980000000000009800000000000098000000020000009800000000000000000098009898989898020002020202020202020202020202020202020202020202020202020202020002020002020202000202000202020202020200
310
02020202020202000202000000000000000000000000000000000000000000000000000000000000000000000000000000000000000000000000000000000000000000000000989898989898989898989898989898989898989898989898989898989898989898989800000000020000980000000000000000009800989898
310
98980200000002020202020202020002020202020202020002020202020202020202020202020202020202020202020200020202020202020202020202020200000000000000000000000000000000000000000000000000000000000000000000000000000000000000000000000000000000000000000000000000989898
310
98009800989898989898989898989898989898989898989898989898989898000000000200009800000000000000000098009898989898000200000202020202020202020202020202020202020202020202020202000202020002020002020202020202020202020202020202020202020202020000000000000000000000
310
00000000000000000000000000000000000000000000000000000000000000000000000000000000000000000000000000009898989800980098989898989898989898989800989898989898009898989898980000000000020000980000000000000000009800009898989800020000020202020200020202020202000202
310
02020202020202020202020202000000000202020002020002020202020202000202020202020200020200000000000000000000000000000000000000000000000000000000000000000000000000000000000000000000000000000000000000000000000000989898980098009898989898989898989898980098989898
310
98000098989898980000000000000002009800000000000000000098009898989898000002000000000000000000000000000000000000000000000000000000000200000000000000000000000000000000000000000000000000000000000000000000000000000000000000000000000000000000000000000000000000
310
00000000000000000000000000000000000000000000000000000000000000000000980000000000000000009800000000000000000000000000000000000000000000000200980000000000000000009800989898989800000200000000000000000000000000000000000000000000000000000000000000000000000000
310
00000000000000000000000000000000000000000000000000000000000000000000000000000000000000000000000000000000000000000000000000000000000000000000000000000000000000000000000000000098000000000000000000980000000000000000000000000000000000000000000000020098000000
310
00000000000098009898989898000000020202020202020202020202020202020000000000000000000000000000000000000000000000000000000000000000000000000000000000000000000000000000000000000000000000000000000000000000000000000000000000000000000000000000000000000000000000
310
98989898989898989898989898989898989898989898989898989898989898989898989898989898989898989898989802989898989898989898989800000000989800000000020202000002020202020202020200000000000000000000000000000000000000000000000000000000000000000000000000000000000000
310
00000000000000000000000000000000000000000000000000000000000000000000000000000000000000000000000000000000000000989898989898000098000098009898989898980000980000000000000000009898989898980000000000000000000298009898989898980000980098989898980000000002020200
310
00020202020202020202000000000000000000000000000000000000000000000000000000000000000000000000000000000000000000000000000000000000000000000000000000000000000000000000000000000000000000000000000000000000000000000000009898989898989800009898009800989898989898
310
00000000000000000000000098989898989800000000000000000000020098989898989800009800989898989800000000020202000000020002020202020200000000000000000000000000000000000000000000000000000000000000000000000000000000000000000000000000000000000000000000000000000000
310
00000000000000000000000000000000000000000000000000000202000002020000989898989898000098000098009898989898980000000000000000000000009898989898980000000000000000000002009898989898980000980000980098980000000000000000000000000000000000000000000000000000000000
310
00000000000000000000000000000000000000000000000000000000000000000000000000000000000000000000000000000000000000000000000000000000000000000000000000000000000000020200000202020202020202000200000202029800000000000000000000000000000000000000000000000000000000
310
00000000000000020000000000000000009800000000009800000000000000000000000000000000000000000000000000000000000000000000000000000000000000000000000000000000000000000000000000000000000000000000000000000000000000000000000000000000000000000000000000000000000000
310
00000000000202020202020200020002020202020202020298000000000000000000000000000000000000000000000000000000000000000000000000020000000000000000980000000000980000000000000000000000000000000000000000000000000000000000000000000000000000000000000000000000000000
310
00000000000000000000000000000000000000000000000000000000000000000000000000000000000000000000000000000000000000000000020200000202020202020202020002000002029800000000000000000000000000000000000000000000000000000000000000000000000002000000000000000098000000
310
00000000000000000000000000000000000000000000000000000000000000000000000000000000000000000000000000000000000000000000000000000000000000000000000000000000000000000000000000000000000000000000000000000000000000000000000000000000000000000002000000000000000200
310
00000098000000000000000000000000000000000000000000000000000000000000000000000000020000000000000000980000000000000000000000000000000000000000000000000000000000000000000000000000000000000000000000000000000000000000000000000000000000000000000000000000000000
310
00000000000000000000000000000000000000000000000000000000000000000000000000000000000000000000000000000000000000009898989898989898989898989898989898989898989898989898989898989898989898989898029898989898989898000000000000000000000000000000000000000000000000
310
00000000000000000000000000000000000000000000000000000000000000000000000000000000000000000000000000000000000000000000000000000000000000000000000000000000000000000000000000000000000000000000000000000000000000000000000000980000000000000000000000000000000000
310
00009898989898989800000000000000000000000200000000000000980000000000000000000000000000000000000000000000000000000000000000000000000000000000000000000000000000000000000000000000000000000000000000000000000000000000000000000000000000000000000000000000000000
310
00000000000000000000000000000000000000000000000000000000000000000000000000000000000000000000000000000000000098989898989898980000000000000000000000000200000000000000000000000000000000000000000000000000000000000000000000000000000000000000000000000000000000
310
00000000000000000000000000000000000000000000000000000000000000000000000000000000000000000000000000000000000000000000000000000000000000000000000000000000000000000000000000000000000000000000000000000000000000000000000000000000000000000000000000000000000000
310
02020202020202020202020202020202020200000067676767676700006767676767676767670000000000000000000000000000000000000000000000000000000000000000000000000000000000000000000000000000000000000000000000000000000000000000000000000000000000000000000000000000000000
310
00000000000000000000000000000000000000000000000000000000000000000000000000000000000000000000000000000000000002020202020200020202020202020200000000006767676767676767676767676767676767000000000000000000000000000000000000000000000000000000000000000000000000
310
00000000000000000000000000000000000000000000000000000000000000000000000000000000000000000000000000000000000000000000000000000000000000000000000000000000000000000000000000000000000000000000000000000000000000000000000202020202020202020202020202020000000000
310
67676767676767676767676767676767670000000000000000000000000000000000000000000000000000000000000000000000000000000000000000000000000000000000000000000000000000000000000000000000000000000000000000000000000000000000000000000000000000000000000000000000000000
310
00000000000000000000000000000000000000000000000000000000000000000002020002020000000002000202020000000000006767676767676767676767676767676767000000000000000000000000000000000000000000000000000000000000000000000000000000000000000000000000000000000000000000
310
00000000000000000000000000000000000000000000000000000000000000000000000000000000000000000000000000000000000000000000000000000000000000000000000000000000000000000000000000000000000000000000000000000000000000000000000000000000000000000000000000000000000000
310
00000000000000000000000000000000000000000000000000000000000000000000000000000000000000000000000000000000000000000000000000000000000000000000000000000000000000000000000000000000000000000000000000000000000000000000000000000000000000000000000000000000000000
310
00000000000000000000000000000000000000000000000000000000000000000000000000000000000000000000000000000000000000000000000000000000000000000000000000000000000000000000000000000000000000000000000000000000000000000000000000000000000000000000000000000000000000
310
00000000000000000000000000000000000000000000000000000000000000000000000000000000000000000000000000000000000000000000000000000000000000000000000000000000000000000000000000006700670067676700000000000000000000000000000000000000000000000000000000000000000000
310
00000000000000000000000000000000000000000000000000000000000000000000000000000000000000000000000000000000000000000000000000000000000000000000000000000000000000000000000000000000000000000000000000000000000000000000000000000000000000000000000000000000000000
310
00000000000000000000000067676767670067000000000000000000000000000000000000000000000000000000000000000000000000000000000000000000000000000000000000000000000000000000000000000000000000000000000000000000000000000000000000000000000000000000000000000000000000
310
00000000000000000000000000000000000000000000000000000000000000000000000000000000000000000000000000000000000000000000000000000000006767676767676700000000000000000000000000000000000000000000000000000000000000000000000000000000000000000000000000000000000000
310
00000000000000000000000000000000000000000000000000000000000000000000000000000000000000000000000000000000000000000000000000000000000000000000000000000000000000000000000000000000000000000000000000000000000000000000000000000000000000000000676700670067000000
310
00000000000000000000000000000000000000000000000000000000000000000000000000000000000000000000000000000000000000000000000000000000000000000000000000000000000000000000000000000000000000000000000000000000000000000000000000000000000000000000000000000000000000
310
000000000000000000000000000000000000000000000000000000000000000000000000000000000000000000000000000000000000000000000000000000000000000000000000000000000000000000000000000000000000000000000000000000000000000000000000
  0
ENDSEC
  0
EOF
