  0
SECTION
  2
HEADER
  9
$ACADVER
  1
AC1009
  9
$INSBASE
 10
0.0
 20
0.0
 30
0.0
  9
$EXTMIN
 10
-1168.735948
 20
-464.968417
 30
-0.001526
  9
$EXTMAX
 10
1096.40656
 20
456.787579
 30
0.0
  9
$LIMMIN
 10
148.586173
 20
-6431.472973
  9
$LIMMAX
 10
7254.124182
 20
-1870.24443
  9
$ORTHOMODE
 70
     1
  9
$REGENMODE
 70
     1
  9
$FILLMODE
 70
     1
  9
$QTEXTMODE
 70
     0
  9
$MIRRTEXT
 70
     0
  9
$DRAGMODE
 70
     2
  9
$LTSCALE
 40
20.0
  9
$OSMODE
 70
    39
  9
$ATTMODE
 70
     1
  9
$TEXTSIZE
 40
64.0
  9
$TRACEWID
 40
0.05
  9
$TEXTSTYLE
  7
STANDARD
  9
$CLAYER
  8
SIZE
  9
$CELTYPE
  6
BYLAYER
  9
$CECOLOR
 62
   256
  9
$DIMSCALE
 40
0.0
  9
$DIMASZ
 40
12.0
  9
$DIMEXO
 40
20.0
  9
$DIMDLI
 40
10.0
  9
$DIMRND
 40
0.0
  9
$DIMDLE
 40
0.0
  9
$DIMEXE
 40
30.0
  9
$DIMTP
 40
0.0
  9
$DIMTM
 40
0.0
  9
$DIMTXT
 40
50.0
  9
$DIMCEN
 40
0.0
  9
$DIMTSZ
 40
0.0
  9
$DIMTOL
 70
     0
  9
$DIMLIM
 70
     0
  9
$DIMTIH
 70
     0
  9
$DIMTOH
 70
     0
  9
$DIMSE1
 70
     0
  9
$DIMSE2
 70
     0
  9
$DIMTAD
 70
     1
  9
$DIMZIN
 70
     0
  9
$DIMBLK
  1

  9
$DIMASO
 70
     1
  9
$DIMSHO
 70
     0
  9
$DIMPOST
  1

  9
$DIMAPOST
  1

  9
$DIMALT
 70
     0
  9
$DIMALTD
 70
     2
  9
$DIMALTF
 40
25.4
  9
$DIMLFAC
 40
1.0
  9
$DIMTOFL
 70
     1
  9
$DIMTVP
 40
0.0
  9
$DIMTIX
 70
     0
  9
$DIMSOXD
 70
     0
  9
$DIMSAH
 70
     1
  9
$DIMBLK1
  1
ORIGIN
  9
$DIMBLK2
  1
ORIGIN
  9
$DIMSTYLE
  2
STANDARD
  9
$DIMCLRD
 70
     0
  9
$DIMCLRE
 70
     0
  9
$DIMCLRT
 70
     0
  9
$DIMTFAC
 40
1.0
  9
$DIMGAP
 40
20.0
  9
$LUNITS
 70
     2
  9
$LUPREC
 70
     4
  9
$SKETCHINC
 40
0.1
  9
$FILLETRAD
 40
3.0
  9
$AUNITS
 70
     1
  9
$AUPREC
 70
     3
  9
$MENU
  1
ACAD
  9
$ELEVATION
 40
0.0
  9
$PELEVATION
 40
0.0
  9
$THICKNESS
 40
0.0
  9
$LIMCHECK
 70
     0
  9
$BLIPMODE
 70
     0
  9
$CHAMFERA
 40
0.0
  9
$CHAMFERB
 40
0.0
  9
$SKPOLY
 70
     0
  9
$TDCREATE
 40
2449761.493623
  9
$TDUPDATE
 40
2454399.363748
  9
$TDINDWG
 40
5.972489
  9
$TDUSRTIMER
 40
5.972489
  9
$USRTIMER
 70
     1
  9
$ANGBASE
 50
0.0
  9
$ANGDIR
 70
     0
  9
$PDMODE
 70
    35
  9
$PDSIZE
 40
20.0
  9
$PLINEWID
 40
0.0
  9
$COORDS
 70
     1
  9
$SPLFRAME
 70
     0
  9
$SPLINETYPE
 70
     6
  9
$SPLINESEGS
 70
     8
  9
$ATTDIA
 70
     0
  9
$ATTREQ
 70
     1
  9
$HANDLING
 70
     1
  9
$HANDSEED
  5
69537
  9
$SURFTAB1
 70
     6
  9
$SURFTAB2
 70
     6
  9
$SURFTYPE
 70
     6
  9
$SURFU
 70
     6
  9
$SURFV
 70
     6
  9
$UCSNAME
  2

  9
$UCSORG
 10
0.0
 20
0.0
 30
0.0
  9
$UCSXDIR
 10
1.0
 20
0.0
 30
0.0
  9
$UCSYDIR
 10
0.0
 20
1.0
 30
0.0
  9
$PUCSNAME
  2

  9
$PUCSORG
 10
0.0
 20
0.0
 30
0.0
  9
$PUCSXDIR
 10
1.0
 20
0.0
 30
0.0
  9
$PUCSYDIR
 10
0.0
 20
1.0
 30
0.0
  9
$USERI1
 70
     0
  9
$USERI2
 70
     0
  9
$USERI3
 70
     0
  9
$USERI4
 70
     0
  9
$USERI5
 70
     0
  9
$USERR1
 40
20.0
  9
$USERR2
 40
0.0
  9
$USERR3
 40
0.0
  9
$USERR4
 40
0.0
  9
$USERR5
 40
0.0
  9
$WORLDVIEW
 70
     1
  9
$SHADEDGE
 70
     3
  9
$SHADEDIF
 70
    70
  9
$TILEMODE
 70
     1
  9
$MAXACTVP
 70
    48
  9
$PLIMCHECK
 70
     0
  9
$PEXTMIN
 10
1.000000E+020
 20
1.000000E+020
 30
1.000000E+020
  9
$PEXTMAX
 10
-1.000000E+020
 20
-1.000000E+020
 30
-1.000000E+020
  9
$PLIMMIN
 10
0.0
 20
0.0
  9
$PLIMMAX
 10
12.0
 20
9.0
  9
$UNITMODE
 70
     0
  9
$VISRETAIN
 70
     1
  9
$PLINEGEN
 70
     0
  9
$PSLTSCALE
 70
     1
  0
ENDSEC
  0
SECTION
  2
TABLES
  0
TABLE
  2
VPORT
 70
     4
  0
VPORT
  2
*ACTIVE
 70
     0
 10
0.0
 20
0.0
 11
1.0
 21
1.0
 12
3042.694117
 22
-2987.342697
 13
0.0
 23
0.0
 14
50.0
 24
50.0
 15
100.0
 25
100.0
 16
0.0
 26
0.0
 36
1.0
 17
0.0
 27
0.0
 37
0.0
 40
6941.044158
 41
1.508951
 42
50.0
 43
0.0
 44
0.0
 50
0.0
 51
0.0
 71
     0
 72
  1000
 73
     1
 74
     0
 75
     0
 76
     0
 77
     0
 78
     0
  0
ENDTAB
  0
TABLE
  2
LTYPE
 70
     4
  0
LTYPE
  2
CONTINUOUS
 70
     0
  3
実線
 72
    65
 73
     0
 40
0.0
  0
LTYPE
  2
DASHDOT
 70
     0
  3
____ _ ____ _ ____ _ ____ _ ____ _ ____ _ ____
 72
    65
 73
     4
 40
5.5
 49
4.0
 49
-0.6
 49
0.3
 49
-0.6
  0
LTYPE
  2
CENTER
 70
     0
  3
____ _ ____ _ ____ _ ____ _ ____ _ ____ _ ____
 72
    65
 73
     4
 40
0.6
 49
0.375
 49
-0.075
 49
0.075
 49
-0.075
  0
LTYPE
  2
PHANTOM
 70
     0
  3
_____ _ _ _____ _ _ _____ _ _ _____
 72
    65
 73
     6
 40
0.8
 49
0.45
 49
-0.05
 49
0.1
 49
-0.05
 49
0.1
 49
-0.05
  0
ENDTAB
  0
TABLE
  2
LAYER
 70
     9
  0
LAYER
  2
0
 70
     0
 62
     7
  6
CONTINUOUS
  0
LAYER
  2
SIZE
 70
     0
 62
    30
  6
CONTINUOUS
  0
LAYER
  2
DETAIL
 70
     0
 62
     5
  6
CONTINUOUS
  0
LAYER
  2
BASIS
 70
     0
 62
     6
  6
DASHDOT
  0
LAYER
  2
NOTE
 70
     0
 62
     4
  6
CONTINUOUS
  0
LAYER
  2
ARRANGE
 70
     0
 62
     1
  6
CONTINUOUS
  0
LAYER
  2
ETC
 70
     0
 62
    61
  6
CONTINUOUS
  0
LAYER
  2
DEFPOINTS
 70
     0
 62
     7
  6
CONTINUOUS
  0
LAYER
  2
OUTLINE
 70
     0
 62
     3
  6
CONTINUOUS
  0
ENDTAB
  0
TABLE
  2
STYLE
 70
     1
  0
STYLE
  2
STANDARD
 70
     0
 40
0.0
 41
0.9
 50
0.0
 71
     0
 42
64.0
  3
SIMPLEX
  4
BIGFONT
  0
ENDTAB
  0
TABLE
  2
VIEW
 70
     1
  0
VIEW
  2
ALL
 70
     0
 40
6056.230032
 10
0.0
 20
58.115016
 41
8400.0
 11
0.0
 21
0.0
 31
1.0
 12
0.0
 22
0.0
 32
0.0
 42
50.0
 43
0.0
 44
0.0
 50
0.0
 71
     0
  0
ENDTAB
  0
TABLE
  2
UCS
 70
     0
  0
ENDTAB
  0
TABLE
  2
APPID
 70
     1
  0
APPID
  2
ACAD
 70
     0
  0
ENDTAB
  0
TABLE
  2
DIMSTYLE
 70
     1
  0
DIMSTYLE
  2
STANDARD
 70
     0
  3

  4

  5

  6

  7

 40
1.0
 41
0.18
 42
0.0625
 43
0.38
 44
0.18
 45
0.0
 46
0.0
 47
0.0
 48
0.0
140
0.18
141
0.09
142
0.0
143
25.4
144
1.0
145
0.0
146
1.0
147
0.09
 71
     0
 72
     0
 73
     1
 74
     1
 75
     0
 76
     0
 77
     0
 78
     0
170
     0
171
     2
172
     0
173
     0
174
     0
175
     0
176
     0
177
     0
178
     0
  0
ENDTAB
  0
ENDSEC
  0
SECTION
  2
BLOCKS
  0
BLOCK
  8
0
  2
$MODEL_SPACE
 70
     0
 10
0.0
 20
0.0
 30
0.0
  3
$MODEL_SPACE
  1

  0
ENDBLK
  5
1A
  8
0
  0
BLOCK
 67
     1
  8
0
  2
$PAPER_SPACE
 70
     0
 10
0.0
 20
0.0
 30
0.0
  3
$PAPER_SPACE
  1

  0
ENDBLK
  5
17
 67
     1
  8
0
  0
BLOCK
  8
0
  2
_ORIGIN
 70
     0
 10
0.0
 20
0.0
 30
0.0
  3
_ORIGIN
  1

  0
CIRCLE
  5
24E
  8
0
  6
BYBLOCK
 62
     0
 10
0.0
 20
0.0
 30
0.0
 40
0.5
  0
LINE
  5
24F
  8
0
  6
BYBLOCK
 62
     0
 10
0.0
 20
0.0
 30
0.0
 11
-1.0
 21
0.0
 31
0.0
  0
ENDBLK
  5
250
  8
0
  0
BLOCK
  8
0
  2
A$C5B075F38
 70
     0
 10
0.0
 20
0.0
 30
0.0
  3
A$C5B075F38
  1

  0
LINE
  5
69404
  8
SIZE
 10
1567.679625
 20
30.000002
 30
0.0
 11
1579.679625
 21
30.000002
 31
0.0
  0
LINE
  5
69405
  8
SIZE
 10
1573.479026
 20
209.998815
 30
0.0
 11
1695.535444
 21
209.998815
 31
0.0
  0
LINE
  5
69406
  8
BASIS
 10
707.9767
 20
316.498815
 30
0.0
 11
1641.271351
 21
316.498815
 31
0.0
  0
LINE
  5
69407
  8
NOTE
  6
CONTINUOUS
 62
     4
 10
1513.478926
 20
209.998815
 30
0.0
 11
1715.305856
 21
584.273625
 31
0.0
  0
TEXT
  5
69408
  8
NOTE
 62
     4
 10
26.212446
 20
624.644535
 30
0.0
 40
64.0
  1
D,RL,RG%%C65
 41
0.9
  0
LINE
  5
69409
  8
NOTE
  6
CONTINUOUS
 62
     4
 10
-0.000004
 20
594.399005
 30
0.0
 11
533.739606
 21
594.399005
 31
0.0
  0
TEXT
  5
6940A
  8
SIZE
 10
1110.622482
 20
665.214905
 30
0.0
 40
50.0
  1
798
 41
0.9
  0
LINE
  5
6940B
  8
OUTLINE
 10
1567.478926
 20
464.49137
 30
0.0
 11
769.478926
 21
464.49137
 31
0.0
  0
LINE
  5
6940C
  8
OUTLINE
 10
1567.478926
 20
169.49137
 30
0.0
 11
769.478926
 21
169.49137
 31
0.0
  0
LINE
  5
6940D
  8
SIZE
 10
850.478926
 20
30.000002
 30
0.0
 11
1156.478926
 21
30.000002
 31
0.0
  0
LINE
  5
6940E
  8
SIZE
 10
781.279625
 20
645.214905
 30
0.0
 11
1555.679625
 21
645.214905
 31
0.0
  0
LINE
  5
6940F
  8
DETAIL
 10
1567.478926
 20
169.49137
 30
0.0
 11
769.478926
 21
169.49137
 31
0.0
  0
LINE
  5
69410
  8
DETAIL
  6
CENTER
 10
983.941526
 20
423.09512
 30
0.0
 11
904.141326
 21
423.09512
 31
0.0
  0
LINE
  5
69411
  8
DETAIL
  6
CONTINUOUS
 10
1047.968256
 20
443.04512
 30
0.0
 11
908.017233
 21
443.04512
 31
0.0
  0
LINE
  5
69412
  8
DETAIL
  6
CONTINUOUS
 10
904.141426
 20
173.22137
 30
0.0
 11
1433.315176
 21
173.22137
 31
0.0
  0
LINE
  5
69413
  8
DETAIL
 10
1567.478926
 20
464.49137
 30
0.0
 11
769.478926
 21
464.49137
 31
0.0
  0
CIRCLE
  5
69414
  8
SIZE
 10
658.575693
 20
168.998815
 30
0.0
 40
6.0
  0
LINE
  5
69415
  8
SIZE
 10
658.575693
 20
168.998815
 30
0.0
 11
658.575693
 21
156.998815
 31
0.0
  0
CIRCLE
  5
69416
  8
SIZE
 10
535.932914
 20
168.998815
 30
0.0
 40
6.0
  0
LINE
  5
69417
  8
SIZE
 10
769.279625
 20
30.000002
 30
0.0
 11
646.565339
 21
30.000002
 31
0.0
  0
TEXT
  5
69418
  8
SIZE
 10
666.565339
 20
50.000002
 30
0.0
 40
50.0
  1
69
 41
0.9
  0
LINE
  5
69419
  8
SIZE
 10
658.575693
 20
156.998815
 30
0.0
 11
658.575693
 21
144.998815
 31
0.0
  0
CIRCLE
  5
6941A
  8
SIZE
 10
838.478926
 20
30.000002
 30
0.0
 40
6.0
  0
CIRCLE
  5
6941B
  8
SIZE
 10
838.478926
 20
30.000002
 30
0.0
 40
6.0
  0
LINE
  5
6941C
  8
SIZE
 10
769.279625
 20
152.996378
 30
0.0
 11
769.279625
 21
0.000002
 31
0.0
  0
LINE
  5
6941D
  8
SIZE
 10
838.478926
 20
150.998715
 30
0.0
 11
838.478926
 21
0.000002
 31
0.0
  0
LINE
  5
6941E
  8
SIZE
 10
838.478926
 20
150.998715
 30
0.0
 11
838.478926
 21
0.000002
 31
0.0
  0
CIRCLE
  5
6941F
  8
SIZE
 10
769.279625
 20
30.000002
 30
0.0
 40
6.0
  0
LINE
  5
69420
  8
SIZE
 10
838.478926
 20
30.000002
 30
0.0
 11
850.478926
 21
30.000002
 31
0.0
  0
LINE
  5
69421
  8
SIZE
 10
769.279625
 20
30.000002
 30
0.0
 11
781.279625
 21
30.000002
 31
0.0
  0
LINE
  5
69422
  8
SIZE
 10
838.478926
 20
30.000002
 30
0.0
 11
826.478926
 21
30.000002
 31
0.0
  0
LINE
  5
69423
  8
SIZE
 10
826.478926
 20
30.000002
 30
0.0
 11
781.279625
 21
30.000002
 31
0.0
  0
TEXT
  5
69424
  8
SIZE
 10
638.575693
 20
254.998815
 30
0.0
 40
50.0
  1
42
 50
90.0
 41
0.9
  0
LINE
  5
69425
  8
SIZE
 10
753.277188
 20
168.998815
 30
0.0
 11
505.932914
 21
168.998815
 31
0.0
  0
LINE
  5
69426
  8
SIZE
 10
753.279625
 20
464.433815
 30
0.0
 11
505.932914
 21
464.433815
 31
0.0
  0
LINE
  5
69427
  8
NOTE
  6
CONTINUOUS
 62
     4
 10
838.478926
 20
210.998815
 30
0.0
 11
533.739606
 21
594.399005
 31
0.0
  0
LINE
  5
69428
  8
SIZE
 10
535.932914
 20
452.433815
 30
0.0
 11
535.932914
 21
180.998815
 31
0.0
  0
TEXT
  5
69429
  8
SIZE
 10
515.932914
 20
258.859172
 30
0.0
 40
50.0
  1
295
 50
90.0
 41
0.9
  0
LINE
  5
6942A
  8
SIZE
 10
535.932914
 20
168.998815
 30
0.0
 11
535.932914
 21
180.998815
 31
0.0
  0
LINE
  5
6942B
  8
SIZE
 10
535.932914
 20
464.433815
 30
0.0
 11
535.932914
 21
452.433815
 31
0.0
  0
CIRCLE
  5
6942C
  8
SIZE
 10
535.932914
 20
464.433815
 30
0.0
 40
6.0
  0
LINE
  5
6942D
  8
OUTLINE
 10
769.478926
 20
169.49137
 30
0.0
 11
769.478926
 21
464.49137
 31
0.0
  0
LINE
  5
6942E
  8
DETAIL
 10
769.478926
 20
169.49137
 30
0.0
 11
769.478926
 21
464.49137
 31
0.0
  0
LINE
  5
6942F
  8
DETAIL
  6
CONTINUOUS
 10
834.316426
 20
443.04512
 30
0.0
 11
834.316426
 21
288.33287
 31
0.0
  0
LINE
  5
69430
  8
SIZE
 10
798.478926
 20
210.998815
 30
0.0
 11
628.575693
 21
210.998815
 31
0.0
  0
LINE
  5
69431
  8
SIZE
 10
658.575693
 20
222.998815
 30
0.0
 11
658.575693
 21
347.855958
 31
0.0
  0
LINE
  5
69432
  8
SIZE
 10
753.277188
 20
168.998815
 30
0.0
 11
628.575693
 21
168.998815
 31
0.0
  0
CIRCLE
  5
69433
  8
SIZE
 10
658.575693
 20
210.998815
 30
0.0
 40
6.0
  0
LINE
  5
69434
  8
SIZE
 10
658.575693
 20
210.998815
 30
0.0
 11
658.575693
 21
222.998815
 31
0.0
  0
LINE
  5
69435
  8
SIZE
 10
658.575693
 20
168.998815
 30
0.0
 11
658.575693
 21
210.998815
 31
0.0
  0
LINE
  5
69436
  8
NOTE
  6
DASHDOT
 62
     4
 10
858.478926
 20
210.998815
 30
0.0
 11
818.478926
 21
210.998815
 31
0.0
  0
LINE
  5
69437
  8
BASIS
 10
878.479026
 20
210.998815
 30
0.0
 11
798.478826
 21
210.998815
 31
0.0
  0
ARC
  5
69438
  8
DETAIL
  6
CONTINUOUS
 10
864.141676
 20
288.33287
 30
0.0
 40
29.82525
 50
180.0
 51
270.0
  0
CIRCLE
  5
69439
  8
DETAIL
  6
CONTINUOUS
 10
839.303926
 20
212.12387
 30
0.0
 40
32.41875
  0
LINE
  5
6943A
  8
NOTE
  6
CONTINUOUS
 62
     4
 10
838.478926
 20
210.998815
 30
0.0
 11
822.690526
 21
247.751045
 31
0.0
  0
LINE
  5
6943B
  8
NOTE
  6
CONTINUOUS
 62
     4
 10
806.429656
 20
234.932975
 30
0.0
 11
838.478926
 21
210.998815
 31
0.0
  0
LINE
  5
6943C
  8
NOTE
  6
DASHDOT
 62
     4
 10
838.478926
 20
190.998815
 30
0.0
 11
838.478926
 21
230.998815
 31
0.0
  0
LINE
  5
6943D
  8
BASIS
 10
838.478926
 20
170.998715
 30
0.0
 11
838.478926
 21
250.998915
 31
0.0
  0
LINE
  5
6943E
  8
DETAIL
  6
CONTINUOUS
 10
864.141676
 20
258.50762
 30
0.0
 11
877.109176
 21
258.50762
 31
0.0
  0
LINE
  5
6943F
  8
DETAIL
  6
CONTINUOUS
 10
904.141426
 20
231.47537
 30
0.0
 11
904.141426
 21
173.22137
 31
0.0
  0
ARC
  5
69440
  8
DETAIL
  6
CONTINUOUS
 10
877.109176
 20
231.47537
 30
0.0
 40
27.03225
 50
0.0
 51
90.0
  0
LINE
  5
69441
  8
SIZE
 10
769.279625
 20
480.439141
 30
0.0
 11
769.279625
 21
675.214905
 31
0.0
  0
LINE
  5
69442
  8
DETAIL
  6
CONTINUOUS
 10
873.333119
 20
443.04512
 30
0.0
 11
834.316426
 21
443.04512
 31
0.0
  0
LINE
  5
69443
  8
DETAIL
  6
CONTINUOUS
 10
877.075029
 20
457.01012
 30
0.0
 11
873.333119
 21
443.04512
 31
0.0
  0
LINE
  5
69444
  8
DETAIL
  6
CONTINUOUS
 10
908.017233
 20
443.04512
 30
0.0
 11
904.275323
 21
457.01012
 31
0.0
  0
LINE
  5
69445
  8
DETAIL
  6
CONTINUOUS
 10
904.275323
 20
457.01012
 30
0.0
 11
877.075029
 21
457.01012
 31
0.0
  0
LINE
  5
69446
  8
SIZE
 10
769.279625
 20
645.214905
 30
0.0
 11
781.279625
 21
645.214905
 31
0.0
  0
CIRCLE
  5
69447
  8
SIZE
 10
769.279625
 20
645.214905
 30
0.0
 40
6.0
  0
LINE
  5
69448
  8
BASIS
 10
1168.478926
 20
121.998815
 30
0.0
 11
1168.478926
 21
517.663835
 31
0.0
  0
LINE
  5
69449
  8
SIZE
 10
1180.478926
 20
30.000002
 30
0.0
 11
1501.478926
 21
30.000002
 31
0.0
  0
TEXT
  5
6944A
  8
SIZE
 10
945.621783
 20
50.000002
 30
0.0
 40
50.0
  1
330
 41
0.9
  0
CIRCLE
  5
6944B
  8
SIZE
 10
1168.478926
 20
30.000002
 30
0.0
 40
6.0
  0
CIRCLE
  5
6944C
  8
SIZE
 10
1168.478926
 20
30.000002
 30
0.0
 40
6.0
  0
LINE
  5
6944D
  8
SIZE
 10
1168.478926
 20
101.998815
 30
0.0
 11
1168.478926
 21
0.000002
 31
0.0
  0
LINE
  5
6944E
  8
SIZE
 10
1168.478926
 20
101.998815
 30
0.0
 11
1168.478926
 21
0.000002
 31
0.0
  0
LINE
  5
6944F
  8
SIZE
 10
1168.478926
 20
30.000002
 30
0.0
 11
1156.478926
 21
30.000002
 31
0.0
  0
LINE
  5
69450
  8
SIZE
 10
1168.478926
 20
30.000002
 30
0.0
 11
1180.478926
 21
30.000002
 31
0.0
  0
TEXT
  5
69451
  8
SIZE
 10
1283.121783
 20
50.000002
 30
0.0
 40
50.0
  1
345
 41
0.9
  0
CIRCLE
  5
69452
  8
SIZE
 10
1567.679625
 20
30.000002
 30
0.0
 40
6.0
  0
LINE
  5
69453
  8
SIZE
 10
1567.679625
 20
152.996378
 30
0.0
 11
1567.679625
 21
0.000002
 31
0.0
  0
CIRCLE
  5
69454
  8
SIZE
 10
1513.478926
 20
30.000002
 30
0.0
 40
6.0
  0
CIRCLE
  5
69455
  8
SIZE
 10
1513.478926
 20
30.000002
 30
0.0
 40
6.0
  0
LINE
  5
69456
  8
SIZE
 10
1513.478926
 20
149.998715
 30
0.0
 11
1513.478926
 21
0.000002
 31
0.0
  0
LINE
  5
69457
  8
SIZE
 10
1513.478926
 20
149.998715
 30
0.0
 11
1513.478926
 21
0.000002
 31
0.0
  0
LINE
  5
69458
  8
SIZE
 10
1501.478926
 20
30.000002
 30
0.0
 11
1489.478926
 21
30.000002
 31
0.0
  0
LINE
  5
69459
  8
SIZE
 10
1513.478926
 20
30.000002
 30
0.0
 11
1501.478926
 21
30.000002
 31
0.0
  0
LINE
  5
6945A
  8
SIZE
 10
1513.478926
 20
30.000002
 30
0.0
 11
1501.478926
 21
30.000002
 31
0.0
  0
LINE
  5
6945B
  8
SIZE
 10
1513.478926
 20
30.000002
 30
0.0
 11
1567.679625
 21
30.000002
 31
0.0
  0
LINE
  5
6945C
  8
DETAIL
  6
CONTINUOUS
 10
1288.989596
 20
443.04512
 30
0.0
 11
1243.304096
 21
431.07512
 31
0.0
  0
LINE
  5
6945D
  8
DETAIL
  6
CONTINUOUS
 10
1288.178926
 20
180.20387
 30
0.0
 11
1048.778926
 21
180.20387
 31
0.0
  0
LINE
  5
6945E
  8
DETAIL
  6
CONTINUOUS
 10
1288.178926
 20
250.02887
 30
0.0
 11
1048.778926
 21
250.02887
 31
0.0
  0
LINE
  5
6945F
  8
DETAIL
  6
CENTER
 10
944.041426
 20
383.19502
 30
0.0
 11
944.041426
 21
462.99522
 31
0.0
  0
LINE
  5
69460
  8
DETAIL
  6
CONTINUOUS
 10
1093.653756
 20
431.07512
 30
0.0
 11
1047.968256
 21
443.04512
 31
0.0
  0
LINE
  5
69461
  8
DETAIL
  6
CONTINUOUS
 10
1159.468018
 20
459.745419
 30
0.0
 11
1151.750453
 21
431.07512
 31
0.0
  0
LINE
  5
69462
  8
DETAIL
  6
CONTINUOUS
 10
1185.207399
 20
431.07512
 30
0.0
 11
1177.489834
 21
459.745419
 31
0.0
  0
ARC
  5
69463
  8
DETAIL
  6
CONTINUOUS
 10
1048.778926
 20
215.11637
 30
0.0
 40
34.9125
 50
90.0
 51
270.0
  0
LINE
  5
69464
  8
DETAIL
  6
CONTINUOUS
 10
949.527676
 20
418.60637
 30
0.0
 11
949.527676
 21
427.58387
 31
0.0
  0
LINE
  5
69465
  8
DETAIL
  6
CONTINUOUS
 10
938.555176
 20
427.58387
 30
0.0
 11
938.555176
 21
418.60637
 31
0.0
  0
ARC
  5
69466
  8
DETAIL
  6
CONTINUOUS
 10
944.041426
 20
418.60637
 30
0.0
 40
5.48625
 50
180.0
 51
0.0
  0
ARC
  5
69467
  8
DETAIL
  6
CONTINUOUS
 10
944.041426
 20
427.58387
 30
0.0
 40
5.48625
 50
0.0
 51
180.0
  0
LINE
  5
69468
  8
DETAIL
  6
CONTINUOUS
 10
1151.750453
 20
431.07512
 30
0.0
 11
1093.653756
 21
431.07512
 31
0.0
  0
LINE
  5
69469
  8
DETAIL
  6
CONTINUOUS
 10
1243.304096
 20
431.07512
 30
0.0
 11
1185.207399
 21
431.07512
 31
0.0
  0
POINT
  5
6946A
  8
ARRANGE
 62
     1
 10
1168.478926
 20
464.49137
 30
0.0
  0
LINE
  5
6946B
  8
DETAIL
  6
CONTINUOUS
 10
1177.489834
 20
459.745419
 30
0.0
 11
1159.468018
 21
459.745419
 31
0.0
  0
LINE
  5
6946C
  8
OUTLINE
 10
1567.478926
 20
169.49137
 30
0.0
 11
1567.478926
 21
464.49137
 31
0.0
  0
LINE
  5
6946D
  8
DETAIL
 10
1567.478926
 20
169.49137
 30
0.0
 11
1567.478926
 21
464.49137
 31
0.0
  0
LINE
  5
6946E
  8
DETAIL
  6
CENTER
 10
1392.916426
 20
383.19502
 30
0.0
 11
1392.916426
 21
462.99522
 31
0.0
  0
LINE
  5
6946F
  8
DETAIL
  6
CONTINUOUS
 10
1502.641426
 20
288.33287
 30
0.0
 11
1502.641426
 21
443.04512
 31
0.0
  0
LINE
  5
69470
  8
DETAIL
  6
CENTER
 10
1432.816526
 20
423.09512
 30
0.0
 11
1353.016326
 21
423.09512
 31
0.0
  0
ARC
  5
69471
  8
DETAIL
  6
CONTINUOUS
 10
1288.178926
 20
215.11637
 30
0.0
 40
34.9125
 50
270.0
 51
90.0
  0
LINE
  5
69472
  8
DETAIL
  6
CONTINUOUS
 10
1385.435176
 20
417.60887
 30
0.0
 11
1400.397676
 21
417.60887
 31
0.0
  0
LINE
  5
69473
  8
DETAIL
  6
CONTINUOUS
 10
1400.397676
 20
428.58137
 30
0.0
 11
1385.435176
 21
428.58137
 31
0.0
  0
ARC
  5
69474
  8
DETAIL
  6
CONTINUOUS
 10
1385.435176
 20
423.09512
 30
0.0
 40
5.48625
 50
90.0
 51
270.0
  0
ARC
  5
69475
  8
DETAIL
  6
CONTINUOUS
 10
1400.397676
 20
423.09512
 30
0.0
 40
5.48625
 50
270.0
 51
90.0
  0
LINE
  5
69476
  8
NOTE
  6
DASHDOT
 62
     4
 10
1533.478926
 20
209.998815
 30
0.0
 11
1493.478926
 21
209.998815
 31
0.0
  0
LINE
  5
69477
  8
BASIS
 10
1553.479026
 20
209.998815
 30
0.0
 11
1473.478826
 21
209.998815
 31
0.0
  0
ARC
  5
69478
  8
DETAIL
  6
CONTINUOUS
 10
1472.816176
 20
288.33287
 30
0.0
 40
29.82525
 50
270.0
 51
0.0
  0
CIRCLE
  5
69479
  8
DETAIL
  6
CONTINUOUS
 10
1512.616426
 20
211.12637
 30
0.0
 40
32.41875
  0
LINE
  5
6947A
  8
DETAIL
  6
CONTINUOUS
 10
1460.347426
 20
258.50762
 30
0.0
 11
1472.816176
 21
258.50762
 31
0.0
  0
LINE
  5
6947B
  8
DETAIL
  6
CONTINUOUS
 10
1433.315176
 20
173.22137
 30
0.0
 11
1433.315176
 21
231.47537
 31
0.0
  0
ARC
  5
6947C
  8
DETAIL
  6
CONTINUOUS
 10
1460.347426
 20
231.47537
 30
0.0
 40
27.03225
 50
90.0
 51
180.0
  0
LINE
  5
6947D
  8
NOTE
  6
CONTINUOUS
 62
     4
 10
1513.478926
 20
209.998815
 30
0.0
 11
1541.345536
 21
238.694675
 31
0.0
  0
LINE
  5
6947E
  8
NOTE
  6
CONTINUOUS
 62
     4
 10
1523.264186
 20
248.783455
 30
0.0
 11
1513.478926
 21
209.998815
 31
0.0
  0
LINE
  5
6947F
  8
NOTE
  6
DASHDOT
 62
     4
 10
1513.478926
 20
189.998815
 30
0.0
 11
1513.478926
 21
229.998815
 31
0.0
  0
LINE
  5
69480
  8
BASIS
 10
1513.478926
 20
169.998715
 30
0.0
 11
1513.478926
 21
249.998915
 31
0.0
  0
LINE
  5
69481
  8
DETAIL
  6
CONTINUOUS
 10
1428.940619
 20
443.04512
 30
0.0
 11
1288.989596
 21
443.04512
 31
0.0
  0
LINE
  5
69482
  8
SIZE
 10
1567.679625
 20
480.439141
 30
0.0
 11
1567.679625
 21
675.214905
 31
0.0
  0
LINE
  5
69483
  8
DETAIL
  6
CONTINUOUS
 10
1502.641426
 20
443.04512
 30
0.0
 11
1463.624733
 21
443.04512
 31
0.0
  0
LINE
  5
69484
  8
DETAIL
  6
CONTINUOUS
 10
1463.624733
 20
443.04512
 30
0.0
 11
1459.882823
 21
457.01012
 31
0.0
  0
LINE
  5
69485
  8
DETAIL
  6
CONTINUOUS
 10
1432.682529
 20
457.01012
 30
0.0
 11
1428.940619
 21
443.04512
 31
0.0
  0
LINE
  5
69486
  8
DETAIL
  6
CONTINUOUS
 10
1459.882823
 20
457.01012
 30
0.0
 11
1432.682529
 21
457.01012
 31
0.0
  0
LINE
  5
69487
  8
SIZE
 10
1567.679625
 20
645.214905
 30
0.0
 11
1555.679625
 21
645.214905
 31
0.0
  0
CIRCLE
  5
69488
  8
SIZE
 10
1567.679625
 20
645.214905
 30
0.0
 40
6.0
  0
CIRCLE
  5
69489
  8
SIZE
 10
1665.535444
 20
168.998815
 30
0.0
 40
6.0
  0
LINE
  5
6948A
  8
SIZE
 10
1665.535444
 20
168.998815
 30
0.0
 11
1665.535444
 21
156.998815
 31
0.0
  0
LINE
  5
6948B
  8
SIZE
 10
1579.679625
 20
30.000002
 30
0.0
 11
1706.679625
 21
30.000002
 31
0.0
  0
TEXT
  5
6948C
  8
SIZE
 10
1611.679625
 20
50.000002
 30
0.0
 40
50.0
  1
54
 41
0.9
  0
LINE
  5
6948D
  8
SIZE
 10
1665.535444
 20
156.998815
 30
0.0
 11
1665.535444
 21
144.998815
 31
0.0
  0
LINE
  5
6948E
  8
NOTE
  6
CONTINUOUS
 62
     4
 10
1715.305856
 20
584.273625
 30
0.0
 11
2233.48246
 21
584.273625
 31
0.0
  0
TEXT
  5
6948F
  8
NOTE
 62
     4
 10
1727.97102
 20
606.331225
 30
0.0
 40
64.0
  1
D,RL,RG%%C65
 41
0.9
  0
TEXT
  5
69490
  8
SIZE
 10
1645.535444
 20
253.998815
 30
0.0
 40
50.0
  1
41
 50
90.0
 41
0.9
  0
LINE
  5
69491
  8
SIZE
 10
1665.535444
 20
221.998815
 30
0.0
 11
1665.535444
 21
327.570244
 31
0.0
  0
CIRCLE
  5
69492
  8
SIZE
 10
1665.535444
 20
209.998815
 30
0.0
 40
6.0
  0
LINE
  5
69493
  8
SIZE
 10
1583.682062
 20
168.998815
 30
0.0
 11
1695.535444
 21
168.998815
 31
0.0
  0
LINE
  5
69494
  8
SIZE
 10
1665.535444
 20
209.998815
 30
0.0
 11
1665.535444
 21
221.998815
 31
0.0
  0
LINE
  5
69495
  8
SIZE
 10
1665.535444
 20
168.998815
 30
0.0
 11
1665.535444
 21
209.998815
 31
0.0
  0
TEXT
  5
69496
  8
ETC
 10
1837.819976
 20
750.831636
 30
0.0
 40
64.0
  1
SMSZ4553
 41
0.886076
 72
     5
 11
2264.486646
 21
750.831636
 31
0.0
  0
TEXT
  5
69497
  8
ETC
 10
1845.236606
 20
857.068726
 30
0.0
 40
64.0
  1
RAC
 41
0.905172
 72
     5
 11
2005.236606
 21
857.068726
 31
0.0
  0
ENDBLK
  5
69499
  8
0
  0
BLOCK
  8
0
  2
A$C6AA641C9
 70
     0
 10
0.0
 20
0.0
 30
0.0
  3
A$C6AA641C9
  1

  0
LINE
  5
69531
  8
BASIS
 10
0.0
 20
-0.000001
 30
0.0
 11
0.0
 21
395.665019
 31
0.0
  0
ENDBLK
  5
69533
  8
0
  0
ENDSEC
  0
SECTION
  2
ENTITIES
  0
LINE
  5
6949B
  8
SIZE
 10
399.200699
 20
-434.491368
 30
0.0
 11
411.200699
 21
-434.491368
 31
0.0
  0
LINE
  5
6949C
  8
SIZE
 10
405.0001
 20
-254.492555
 30
0.0
 11
527.056518
 21
-254.492555
 31
0.0
  0
LINE
  5
6949D
  8
BASIS
 10
-460.502226
 20
-147.992555
 30
0.0
 11
472.792426
 21
-147.992555
 31
0.0
  0
LINE
  5
6949E
  8
NOTE
  6
CONTINUOUS
 62
     4
 10
345.0
 20
-254.492555
 30
0.0
 11
546.82693
 21
119.782255
 31
0.0
  0
TEXT
  5
6949F
  8
NOTE
 62
     4
 10
-1142.26648
 20
160.153165
 30
0.0
 40
64.0
  1
D,RL,RG%%C65
 41
0.9
  0
LINE
  5
694A0
  8
NOTE
  6
CONTINUOUS
 62
     4
 10
-1168.47893
 20
129.907635
 30
0.0
 11
-634.73932
 21
129.907635
 31
0.0
  0
TEXT
  5
694A1
  8
SIZE
 10
-57.856444
 20
200.723535
 30
0.0
 40
50.0
  1
798
 41
0.9
  0
LINE
  5
694A2
  8
OUTLINE
 10
399.0
 20
0.0
 30
0.0
 11
-399.0
 21
0.0
 31
0.0
  0
LINE
  5
694A3
  8
OUTLINE
 10
399.0
 20
-295.0
 30
0.0
 11
-399.0
 21
-295.0
 31
0.0
  0
LINE
  5
694A4
  8
SIZE
 10
-318.0
 20
-434.491368
 30
0.0
 11
-12.0
 21
-434.491368
 31
0.0
  0
LINE
  5
694A5
  8
SIZE
 10
-387.199301
 20
180.723535
 30
0.0
 11
387.200699
 21
180.723535
 31
0.0
  0
LINE
  5
694A6
  8
DETAIL
 10
399.0
 20
-295.0
 30
0.0
 11
-399.0
 21
-295.0
 31
0.0
  0
LINE
  5
694A7
  8
DETAIL
  6
CENTER
 10
-184.5374
 20
-41.39625
 30
0.0
 11
-264.3376
 21
-41.39625
 31
0.0
  0
LINE
  5
694A8
  8
DETAIL
  6
CONTINUOUS
 10
-120.51067
 20
-21.44625
 30
0.0
 11
-260.461693
 21
-21.44625
 31
0.0
  0
LINE
  5
694A9
  8
DETAIL
  6
CONTINUOUS
 10
-264.3375
 20
-291.27
 30
0.0
 11
264.83625
 21
-291.27
 31
0.0
  0
LINE
  5
694AA
  8
DETAIL
 10
399.0
 20
0.0
 30
0.0
 11
-399.0
 21
0.0
 31
0.0
  0
CIRCLE
  5
694AB
  8
SIZE
 10
-509.903233
 20
-295.492555
 30
0.0
 40
6.0
  0
LINE
  5
694AC
  8
SIZE
 10
-509.903233
 20
-295.492555
 30
0.0
 11
-509.903233
 21
-307.492555
 31
0.0
  0
CIRCLE
  5
694AD
  8
SIZE
 10
-632.546012
 20
-295.492555
 30
0.0
 40
6.0
  0
LINE
  5
694AE
  8
SIZE
 10
-399.199301
 20
-434.491368
 30
0.0
 11
-521.913587
 21
-434.491368
 31
0.0
  0
TEXT
  5
694AF
  8
SIZE
 10
-501.913587
 20
-414.491368
 30
0.0
 40
50.0
  1
69
 41
0.9
  0
LINE
  5
694B0
  8
SIZE
 10
-509.903233
 20
-307.492555
 30
0.0
 11
-509.903233
 21
-319.492555
 31
0.0
  0
CIRCLE
  5
694B1
  8
SIZE
 10
-330.0
 20
-434.491368
 30
0.0
 40
6.0
  0
CIRCLE
  5
694B2
  8
SIZE
 10
-330.0
 20
-434.491368
 30
0.0
 40
6.0
  0
LINE
  5
694B3
  8
SIZE
 10
-399.199301
 20
-311.494992
 30
0.0
 11
-399.199301
 21
-464.491368
 31
0.0
  0
LINE
  5
694B4
  8
SIZE
 10
-330.0
 20
-313.492655
 30
0.0
 11
-330.0
 21
-464.491368
 31
0.0
  0
LINE
  5
694B5
  8
SIZE
 10
-330.0
 20
-313.492655
 30
0.0
 11
-330.0
 21
-464.491368
 31
0.0
  0
CIRCLE
  5
694B6
  8
SIZE
 10
-399.199301
 20
-434.491368
 30
0.0
 40
6.0
  0
LINE
  5
694B7
  8
SIZE
 10
-330.0
 20
-434.491368
 30
0.0
 11
-318.0
 21
-434.491368
 31
0.0
  0
LINE
  5
694B8
  8
SIZE
 10
-399.199301
 20
-434.491368
 30
0.0
 11
-387.199301
 21
-434.491368
 31
0.0
  0
LINE
  5
694B9
  8
SIZE
 10
-330.0
 20
-434.491368
 30
0.0
 11
-342.0
 21
-434.491368
 31
0.0
  0
LINE
  5
694BA
  8
SIZE
 10
-342.0
 20
-434.491368
 30
0.0
 11
-387.199301
 21
-434.491368
 31
0.0
  0
TEXT
  5
694BB
  8
SIZE
 10
-529.903233
 20
-209.492555
 30
0.0
 40
50.0
  1
42
 50
90.0
 41
0.9
  0
LINE
  5
694BC
  8
SIZE
 10
-415.201738
 20
-295.492555
 30
0.0
 11
-662.546012
 21
-295.492555
 31
0.0
  0
LINE
  5
694BD
  8
SIZE
 10
-415.1993
 20
-0.057555
 30
0.0
 11
-662.546012
 21
-0.057555
 31
0.0
  0
LINE
  5
694BE
  8
NOTE
  6
CONTINUOUS
 62
     4
 10
-330.0
 20
-253.492555
 30
0.0
 11
-634.73932
 21
129.907635
 31
0.0
  0
LINE
  5
694BF
  8
SIZE
 10
-632.546012
 20
-12.057555
 30
0.0
 11
-632.546012
 21
-283.492555
 31
0.0
  0
TEXT
  5
694C0
  8
SIZE
 10
-652.546012
 20
-205.632198
 30
0.0
 40
50.0
  1
295
 50
90.0
 41
0.9
  0
LINE
  5
694C1
  8
SIZE
 10
-632.546012
 20
-295.492555
 30
0.0
 11
-632.546012
 21
-283.492555
 31
0.0
  0
LINE
  5
694C2
  8
SIZE
 10
-632.546012
 20
-0.057555
 30
0.0
 11
-632.546012
 21
-12.057555
 31
0.0
  0
CIRCLE
  5
694C3
  8
SIZE
 10
-632.546012
 20
-0.057555
 30
0.0
 40
6.0
  0
LINE
  5
694C4
  8
OUTLINE
 10
-399.0
 20
-295.0
 30
0.0
 11
-399.0
 21
0.0
 31
0.0
  0
LINE
  5
694C5
  8
DETAIL
 10
-399.0
 20
-295.0
 30
0.0
 11
-399.0
 21
0.0
 31
0.0
  0
LINE
  5
694C6
  8
DETAIL
  6
CONTINUOUS
 10
-334.1625
 20
-21.44625
 30
0.0
 11
-334.1625
 21
-176.1585
 31
0.0
  0
LINE
  5
694C7
  8
SIZE
 10
-370.0
 20
-253.492555
 30
0.0
 11
-539.903233
 21
-253.492555
 31
0.0
  0
LINE
  5
694C8
  8
SIZE
 10
-509.903233
 20
-241.492555
 30
0.0
 11
-509.903233
 21
-116.635412
 31
0.0
  0
LINE
  5
694C9
  8
SIZE
 10
-415.201738
 20
-295.492555
 30
0.0
 11
-539.903233
 21
-295.492555
 31
0.0
  0
CIRCLE
  5
694CA
  8
SIZE
 10
-509.903233
 20
-253.492555
 30
0.0
 40
6.0
  0
LINE
  5
694CB
  8
SIZE
 10
-509.903233
 20
-253.492555
 30
0.0
 11
-509.903233
 21
-241.492555
 31
0.0
  0
LINE
  5
694CC
  8
SIZE
 10
-509.903233
 20
-295.492555
 30
0.0
 11
-509.903233
 21
-253.492555
 31
0.0
  0
LINE
  5
694CD
  8
NOTE
  6
DASHDOT
 62
     4
 10
-310.0
 20
-253.492555
 30
0.0
 11
-350.0
 21
-253.492555
 31
0.0
  0
LINE
  5
694CE
  8
BASIS
 10
-289.9999
 20
-253.492555
 30
0.0
 11
-370.0001
 21
-253.492555
 31
0.0
  0
ARC
  5
694CF
  8
DETAIL
  6
CONTINUOUS
 10
-304.33725
 20
-176.1585
 30
0.0
 40
29.82525
 50
180.0
 51
270.0
  0
CIRCLE
  5
694D0
  8
DETAIL
  6
CONTINUOUS
 10
-329.175
 20
-252.3675
 30
0.0
 40
32.41875
  0
LINE
  5
694D1
  8
NOTE
  6
CONTINUOUS
 62
     4
 10
-330.0
 20
-253.492555
 30
0.0
 11
-345.7884
 21
-216.740325
 31
0.0
  0
LINE
  5
694D2
  8
NOTE
  6
CONTINUOUS
 62
     4
 10
-362.04927
 20
-229.558395
 30
0.0
 11
-330.0
 21
-253.492555
 31
0.0
  0
LINE
  5
694D3
  8
NOTE
  6
DASHDOT
 62
     4
 10
-330.0
 20
-273.492555
 30
0.0
 11
-330.0
 21
-233.492555
 31
0.0
  0
LINE
  5
694D4
  8
BASIS
 10
-330.0
 20
-293.492655
 30
0.0
 11
-330.0
 21
-213.492455
 31
0.0
  0
LINE
  5
694D5
  8
DETAIL
  6
CONTINUOUS
 10
-304.33725
 20
-205.98375
 30
0.0
 11
-291.36975
 21
-205.98375
 31
0.0
  0
LINE
  5
694D6
  8
DETAIL
  6
CONTINUOUS
 10
-264.3375
 20
-233.016
 30
0.0
 11
-264.3375
 21
-291.27
 31
0.0
  0
ARC
  5
694D7
  8
DETAIL
  6
CONTINUOUS
 10
-291.36975
 20
-233.016
 30
0.0
 40
27.03225
 50
0.0
 51
90.0
  0
LINE
  5
694D8
  8
SIZE
 10
-399.199301
 20
15.947771
 30
0.0
 11
-399.199301
 21
210.723535
 31
0.0
  0
LINE
  5
694D9
  8
DETAIL
  6
CONTINUOUS
 10
-295.145807
 20
-21.44625
 30
0.0
 11
-334.1625
 21
-21.44625
 31
0.0
  0
LINE
  5
694DA
  8
DETAIL
  6
CONTINUOUS
 10
-291.403897
 20
-7.48125
 30
0.0
 11
-295.145807
 21
-21.44625
 31
0.0
  0
LINE
  5
694DB
  8
DETAIL
  6
CONTINUOUS
 10
-260.461693
 20
-21.44625
 30
0.0
 11
-264.203603
 21
-7.48125
 31
0.0
  0
LINE
  5
694DC
  8
DETAIL
  6
CONTINUOUS
 10
-264.203603
 20
-7.48125
 30
0.0
 11
-291.403897
 21
-7.48125
 31
0.0
  0
LINE
  5
694DD
  8
SIZE
 10
-399.199301
 20
180.723535
 30
0.0
 11
-387.199301
 21
180.723535
 31
0.0
  0
CIRCLE
  5
694DE
  8
SIZE
 10
-399.199301
 20
180.723535
 30
0.0
 40
6.0
  0
LINE
  5
694DF
  8
BASIS
 10
0.0
 20
-342.492555
 30
0.0
 11
0.0
 21
53.172465
 31
0.0
  0
LINE
  5
694E0
  8
SIZE
 10
12.0
 20
-434.491368
 30
0.0
 11
333.0
 21
-434.491368
 31
0.0
  0
TEXT
  5
694E1
  8
SIZE
 10
-222.857143
 20
-414.491368
 30
0.0
 40
50.0
  1
330
 41
0.9
  0
CIRCLE
  5
694E2
  8
SIZE
 10
0.0
 20
-434.491368
 30
0.0
 40
6.0
  0
CIRCLE
  5
694E3
  8
SIZE
 10
0.0
 20
-434.491368
 30
0.0
 40
6.0
  0
LINE
  5
694E4
  8
SIZE
 10
0.0
 20
-362.492555
 30
0.0
 11
0.0
 21
-464.491368
 31
0.0
  0
LINE
  5
694E5
  8
SIZE
 10
0.0
 20
-362.492555
 30
0.0
 11
0.0
 21
-464.491368
 31
0.0
  0
LINE
  5
694E6
  8
SIZE
 10
0.0
 20
-434.491368
 30
0.0
 11
-12.0
 21
-434.491368
 31
0.0
  0
LINE
  5
694E7
  8
SIZE
 10
0.0
 20
-434.491368
 30
0.0
 11
12.0
 21
-434.491368
 31
0.0
  0
TEXT
  5
694E8
  8
SIZE
 10
114.642857
 20
-414.491368
 30
0.0
 40
50.0
  1
345
 41
0.9
  0
CIRCLE
  5
694E9
  8
SIZE
 10
399.200699
 20
-434.491368
 30
0.0
 40
6.0
  0
LINE
  5
694EA
  8
SIZE
 10
399.200699
 20
-311.494992
 30
0.0
 11
399.200699
 21
-464.491368
 31
0.0
  0
CIRCLE
  5
694EB
  8
SIZE
 10
345.0
 20
-434.491368
 30
0.0
 40
6.0
  0
CIRCLE
  5
694EC
  8
SIZE
 10
345.0
 20
-434.491368
 30
0.0
 40
6.0
  0
LINE
  5
694ED
  8
SIZE
 10
345.0
 20
-314.492655
 30
0.0
 11
345.0
 21
-464.491368
 31
0.0
  0
LINE
  5
694EE
  8
SIZE
 10
345.0
 20
-314.492655
 30
0.0
 11
345.0
 21
-464.491368
 31
0.0
  0
LINE
  5
694EF
  8
SIZE
 10
333.0
 20
-434.491368
 30
0.0
 11
321.0
 21
-434.491368
 31
0.0
  0
LINE
  5
694F0
  8
SIZE
 10
345.0
 20
-434.491368
 30
0.0
 11
333.0
 21
-434.491368
 31
0.0
  0
LINE
  5
694F1
  8
SIZE
 10
345.0
 20
-434.491368
 30
0.0
 11
333.0
 21
-434.491368
 31
0.0
  0
LINE
  5
694F2
  8
SIZE
 10
345.0
 20
-434.491368
 30
0.0
 11
399.200699
 21
-434.491368
 31
0.0
  0
LINE
  5
694F3
  8
DETAIL
  6
CONTINUOUS
 10
120.51067
 20
-21.44625
 30
0.0
 11
74.82517
 21
-33.41625
 31
0.0
  0
LINE
  5
694F4
  8
DETAIL
  6
CONTINUOUS
 10
119.7
 20
-284.2875
 30
0.0
 11
-119.7
 21
-284.2875
 31
0.0
  0
LINE
  5
694F5
  8
DETAIL
  6
CONTINUOUS
 10
119.7
 20
-214.4625
 30
0.0
 11
-119.7
 21
-214.4625
 31
0.0
  0
LINE
  5
694F6
  8
DETAIL
  6
CENTER
 10
-224.4375
 20
-81.29635
 30
0.0
 11
-224.4375
 21
-1.49615
 31
0.0
  0
LINE
  5
694F7
  8
DETAIL
  6
CONTINUOUS
 10
-74.82517
 20
-33.41625
 30
0.0
 11
-120.51067
 21
-21.44625
 31
0.0
  0
LINE
  5
694F8
  8
DETAIL
  6
CONTINUOUS
 10
-9.010908
 20
-4.745951
 30
0.0
 11
-16.728473
 21
-33.41625
 31
0.0
  0
LINE
  5
694F9
  8
DETAIL
  6
CONTINUOUS
 10
16.728473
 20
-33.41625
 30
0.0
 11
9.010908
 21
-4.745951
 31
0.0
  0
ARC
  5
694FA
  8
DETAIL
  6
CONTINUOUS
 10
-119.7
 20
-249.375
 30
0.0
 40
34.9125
 50
90.0
 51
270.0
  0
LINE
  5
694FB
  8
DETAIL
  6
CONTINUOUS
 10
-218.95125
 20
-45.885
 30
0.0
 11
-218.95125
 21
-36.9075
 31
0.0
  0
LINE
  5
694FC
  8
DETAIL
  6
CONTINUOUS
 10
-229.92375
 20
-36.9075
 30
0.0
 11
-229.92375
 21
-45.885
 31
0.0
  0
ARC
  5
694FD
  8
DETAIL
  6
CONTINUOUS
 10
-224.4375
 20
-45.885
 30
0.0
 40
5.48625
 50
180.0
 51
0.0
  0
ARC
  5
694FE
  8
DETAIL
  6
CONTINUOUS
 10
-224.4375
 20
-36.9075
 30
0.0
 40
5.48625
 50
0.0
 51
180.0
  0
LINE
  5
694FF
  8
DETAIL
  6
CONTINUOUS
 10
-16.728473
 20
-33.41625
 30
0.0
 11
-74.82517
 21
-33.41625
 31
0.0
  0
LINE
  5
69500
  8
DETAIL
  6
CONTINUOUS
 10
74.82517
 20
-33.41625
 30
0.0
 11
16.728473
 21
-33.41625
 31
0.0
  0
POINT
  5
69501
  8
ARRANGE
 62
     1
 10
0.0
 20
0.0
 30
0.0
  0
LINE
  5
69502
  8
DETAIL
  6
CONTINUOUS
 10
9.010908
 20
-4.745951
 30
0.0
 11
-9.010908
 21
-4.745951
 31
0.0
  0
LINE
  5
69503
  8
OUTLINE
 10
399.0
 20
-295.0
 30
0.0
 11
399.0
 21
0.0
 31
0.0
  0
LINE
  5
69504
  8
DETAIL
 10
399.0
 20
-295.0
 30
0.0
 11
399.0
 21
0.0
 31
0.0
  0
LINE
  5
69505
  8
DETAIL
  6
CENTER
 10
224.4375
 20
-81.29635
 30
0.0
 11
224.4375
 21
-1.49615
 31
0.0
  0
LINE
  5
69506
  8
DETAIL
  6
CONTINUOUS
 10
334.1625
 20
-176.1585
 30
0.0
 11
334.1625
 21
-21.44625
 31
0.0
  0
LINE
  5
69507
  8
DETAIL
  6
CENTER
 10
264.3376
 20
-41.39625
 30
0.0
 11
184.5374
 21
-41.39625
 31
0.0
  0
ARC
  5
69508
  8
DETAIL
  6
CONTINUOUS
 10
119.7
 20
-249.375
 30
0.0
 40
34.9125
 50
270.0
 51
90.0
  0
LINE
  5
69509
  8
DETAIL
  6
CONTINUOUS
 10
216.95625
 20
-46.8825
 30
0.0
 11
231.91875
 21
-46.8825
 31
0.0
  0
LINE
  5
6950A
  8
DETAIL
  6
CONTINUOUS
 10
231.91875
 20
-35.91
 30
0.0
 11
216.95625
 21
-35.91
 31
0.0
  0
ARC
  5
6950B
  8
DETAIL
  6
CONTINUOUS
 10
216.95625
 20
-41.39625
 30
0.0
 40
5.48625
 50
90.0
 51
270.0
  0
ARC
  5
6950C
  8
DETAIL
  6
CONTINUOUS
 10
231.91875
 20
-41.39625
 30
0.0
 40
5.48625
 50
270.0
 51
90.0
  0
LINE
  5
6950D
  8
NOTE
  6
DASHDOT
 62
     4
 10
365.0
 20
-254.492555
 30
0.0
 11
325.0
 21
-254.492555
 31
0.0
  0
LINE
  5
6950E
  8
BASIS
 10
385.0001
 20
-254.492555
 30
0.0
 11
304.9999
 21
-254.492555
 31
0.0
  0
ARC
  5
6950F
  8
DETAIL
  6
CONTINUOUS
 10
304.33725
 20
-176.1585
 30
0.0
 40
29.82525
 50
270.0
 51
0.0
  0
CIRCLE
  5
69510
  8
DETAIL
  6
CONTINUOUS
 10
344.1375
 20
-253.365
 30
0.0
 40
32.41875
  0
LINE
  5
69511
  8
DETAIL
  6
CONTINUOUS
 10
291.8685
 20
-205.98375
 30
0.0
 11
304.33725
 21
-205.98375
 31
0.0
  0
LINE
  5
69512
  8
DETAIL
  6
CONTINUOUS
 10
264.83625
 20
-291.27
 30
0.0
 11
264.83625
 21
-233.016
 31
0.0
  0
ARC
  5
69513
  8
DETAIL
  6
CONTINUOUS
 10
291.8685
 20
-233.016
 30
0.0
 40
27.03225
 50
90.0
 51
180.0
  0
LINE
  5
69514
  8
NOTE
  6
CONTINUOUS
 62
     4
 10
345.0
 20
-254.492555
 30
0.0
 11
372.86661
 21
-225.796695
 31
0.0
  0
LINE
  5
69515
  8
NOTE
  6
CONTINUOUS
 62
     4
 10
354.78526
 20
-215.707915
 30
0.0
 11
345.0
 21
-254.492555
 31
0.0
  0
LINE
  5
69516
  8
NOTE
  6
DASHDOT
 62
     4
 10
345.0
 20
-274.492555
 30
0.0
 11
345.0
 21
-234.492555
 31
0.0
  0
LINE
  5
69517
  8
BASIS
 10
345.0
 20
-294.492655
 30
0.0
 11
345.0
 21
-214.492455
 31
0.0
  0
LINE
  5
69518
  8
DETAIL
  6
CONTINUOUS
 10
260.461693
 20
-21.44625
 30
0.0
 11
120.51067
 21
-21.44625
 31
0.0
  0
LINE
  5
69519
  8
SIZE
 10
399.200699
 20
15.947771
 30
0.0
 11
399.200699
 21
210.723535
 31
0.0
  0
LINE
  5
6951A
  8
DETAIL
  6
CONTINUOUS
 10
334.1625
 20
-21.44625
 30
0.0
 11
295.145807
 21
-21.44625
 31
0.0
  0
LINE
  5
6951B
  8
DETAIL
  6
CONTINUOUS
 10
295.145807
 20
-21.44625
 30
0.0
 11
291.403897
 21
-7.48125
 31
0.0
  0
LINE
  5
6951C
  8
DETAIL
  6
CONTINUOUS
 10
264.203603
 20
-7.48125
 30
0.0
 11
260.461693
 21
-21.44625
 31
0.0
  0
LINE
  5
6951D
  8
DETAIL
  6
CONTINUOUS
 10
291.403897
 20
-7.48125
 30
0.0
 11
264.203603
 21
-7.48125
 31
0.0
  0
LINE
  5
6951E
  8
SIZE
 10
399.200699
 20
180.723535
 30
0.0
 11
387.200699
 21
180.723535
 31
0.0
  0
CIRCLE
  5
6951F
  8
SIZE
 10
399.200699
 20
180.723535
 30
0.0
 40
6.0
  0
CIRCLE
  5
69520
  8
SIZE
 10
497.056518
 20
-295.492555
 30
0.0
 40
6.0
  0
LINE
  5
69521
  8
SIZE
 10
497.056518
 20
-295.492555
 30
0.0
 11
497.056518
 21
-307.492555
 31
0.0
  0
LINE
  5
69522
  8
SIZE
 10
411.200699
 20
-434.491368
 30
0.0
 11
538.200699
 21
-434.491368
 31
0.0
  0
TEXT
  5
69523
  8
SIZE
 10
443.200699
 20
-414.491368
 30
0.0
 40
50.0
  1
54
 41
0.9
  0
LINE
  5
69524
  8
SIZE
 10
497.056518
 20
-307.492555
 30
0.0
 11
497.056518
 21
-319.492555
 31
0.0
  0
LINE
  5
69525
  8
NOTE
  6
CONTINUOUS
 62
     4
 10
546.82693
 20
119.782255
 30
0.0
 11
1065.003534
 21
119.782255
 31
0.0
  0
TEXT
  5
69526
  8
NOTE
 62
     4
 10
559.492094
 20
141.839855
 30
0.0
 40
64.0
  1
D,RL,RG%%C65
 41
0.9
  0
TEXT
  5
69527
  8
SIZE
 10
477.056518
 20
-210.492555
 30
0.0
 40
50.0
  1
41
 50
90.0
 41
0.9
  0
LINE
  5
69528
  8
SIZE
 10
497.056518
 20
-242.492555
 30
0.0
 11
497.056518
 21
-136.921126
 31
0.0
  0
CIRCLE
  5
69529
  8
SIZE
 10
497.056518
 20
-254.492555
 30
0.0
 40
6.0
  0
LINE
  5
6952A
  8
SIZE
 10
415.203136
 20
-295.492555
 30
0.0
 11
527.056518
 21
-295.492555
 31
0.0
  0
LINE
  5
6952B
  8
SIZE
 10
497.056518
 20
-254.492555
 30
0.0
 11
497.056518
 21
-242.492555
 31
0.0
  0
LINE
  5
6952C
  8
SIZE
 10
497.056518
 20
-295.492555
 30
0.0
 11
497.056518
 21
-254.492555
 31
0.0
  0
TEXT
  5
6952D
  8
ETC
 10
669.34105
 20
286.340266
 30
0.0
 40
64.0
  1
SMSZ4553
 41
0.886076
 72
     5
 11
1096.00772
 21
286.340266
 31
0.0
  0
TEXT
  5
6952E
  8
ETC
 10
676.75768
 20
392.577356
 30
0.0
 40
64.0
  1
RAC
 41
0.905172
 72
     5
 11
836.75768
 21
392.577356
 31
0.0
  0
ENDSEC
  0
EOF
