  0
SECTION
  2
HEADER
  9
$ACADVER
  1
AC1014
  9
$ACADMAINTVER
 70
     9
  9
$DWGCODEPAGE
  3
ANSI_932
  9
$INSBASE
 10
0.0
 20
0.0
 30
0.0
  9
$EXTMIN
 10
-575.4924934683713
 20
-339.1737371480289
 30
-0.0015258207003583
  9
$EXTMAX
 10
754.7533984546007
 20
538.0383032099671
 30
0.0000000349246037
  9
$LIMMIN
 10
-734.3171111088795
 20
-469.9440400570138
  9
$LIMMAX
 10
869.5012654333059
 20
602.1203002622132
  9
$ORTHOMODE
 70
     0
  9
$REGENMODE
 70
     1
  9
$FILLMODE
 70
     1
  9
$QTEXTMODE
 70
     0
  9
$MIRRTEXT
 70
     0
  9
$DRAGMODE
 70
     2
  9
$LTSCALE
 40
20.0
  9
$OSMODE
 70
    39
  9
$ATTMODE
 70
     1
  9
$TEXTSIZE
 40
64.0
  9
$TRACEWID
 40
0.05
  9
$TEXTSTYLE
  7
STANDARD
  9
$CLAYER
  8
OUTLINE
  9
$CELTYPE
  6
CONTINUOUS
  9
$CECOLOR
 62
   256
  9
$CELTSCALE
 40
1.0
  9
$DELOBJ
 70
     1
  9
$DISPSILH
 70
     0
  9
$DIMSCALE
 40
1.0
  9
$DIMASZ
 40
10.0
  9
$DIMEXO
 40
20.0
  9
$DIMDLI
 40
200.0
  9
$DIMRND
 40
0.0
  9
$DIMDLE
 40
0.0
  9
$DIMEXE
 40
20.0
  9
$DIMTP
 40
0.0
  9
$DIMTM
 40
0.0
  9
$DIMTXT
 40
50.0
  9
$DIMCEN
 40
0.082
  9
$DIMTSZ
 40
0.0
  9
$DIMTOL
 70
     0
  9
$DIMLIM
 70
     0
  9
$DIMTIH
 70
     0
  9
$DIMTOH
 70
     0
  9
$DIMSE1
 70
     0
  9
$DIMSE2
 70
     0
  9
$DIMTAD
 70
     1
  9
$DIMZIN
 70
     8
  9
$DIMBLK
  1
ORIGIN
  9
$DIMASO
 70
     1
  9
$DIMSHO
 70
     0
  9
$DIMPOST
  1

  9
$DIMAPOST
  1

  9
$DIMALT
 70
     0
  9
$DIMALTD
 70
     2
  9
$DIMALTF
 40
25.4
  9
$DIMLFAC
 40
1.0
  9
$DIMTOFL
 70
     1
  9
$DIMTVP
 40
0.0
  9
$DIMTIX
 70
     0
  9
$DIMSOXD
 70
     0
  9
$DIMSAH
 70
     0
  9
$DIMBLK1
  1

  9
$DIMBLK2
  1

  9
$DIMSTYLE
  2
STANDARD
  9
$DIMCLRD
 70
     0
  9
$DIMCLRE
 70
     0
  9
$DIMCLRT
 70
     0
  9
$DIMTFAC
 40
1.0
  9
$DIMGAP
 40
10.0
  9
$DIMJUST
 70
     0
  9
$DIMSD1
 70
     0
  9
$DIMSD2
 70
     0
  9
$DIMTOLJ
 70
     1
  9
$DIMTZIN
 70
     0
  9
$DIMALTZ
 70
     0
  9
$DIMALTTZ
 70
     0
  9
$DIMFIT
 70
     3
  9
$DIMUPT
 70
     0
  9
$DIMUNIT
 70
     2
  9
$DIMDEC
 70
     1
  9
$DIMTDEC
 70
     1
  9
$DIMALTU
 70
     2
  9
$DIMALTTD
 70
     2
  9
$DIMTXSTY
  7
STANDARD
  9
$DIMAUNIT
 70
     0
  9
$LUNITS
 70
     2
  9
$LUPREC
 70
     4
  9
$SKETCHINC
 40
0.1
  9
$FILLETRAD
 40
10.0
  9
$AUNITS
 70
     1
  9
$AUPREC
 70
     3
  9
$MENU
  1
ACAD
  9
$ELEVATION
 40
0.0
  9
$PELEVATION
 40
0.0
  9
$THICKNESS
 40
0.0
  9
$LIMCHECK
 70
     0
  9
$BLIPMODE
 70
     0
  9
$CHAMFERA
 40
0.0
  9
$CHAMFERB
 40
0.0
  9
$CHAMFERC
 40
0.0
  9
$CHAMFERD
 40
0.0
  9
$SKPOLY
 70
     0
  9
$TDCREATE
 40
2450330.393205995
  9
$TDUPDATE
 40
2454816.730752129
  9
$TDINDWG
 40
1.8652980556
  9
$TDUSRTIMER
 40
1.8652975000
  9
$USRTIMER
 70
     1
  9
$ANGBASE
 50
0.0
  9
$ANGDIR
 70
     0
  9
$PDMODE
 70
     3
  9
$PDSIZE
 40
-2.0
  9
$PLINEWID
 40
0.0
  9
$COORDS
 70
     2
  9
$SPLFRAME
 70
     0
  9
$SPLINETYPE
 70
     6
  9
$SPLINESEGS
 70
     8
  9
$ATTDIA
 70
     0
  9
$ATTREQ
 70
     1
  9
$HANDLING
 70
-16383
  9
$HANDSEED
  5
68400
  9
$SURFTAB1
 70
     6
  9
$SURFTAB2
 70
     6
  9
$SURFTYPE
 70
     6
  9
$SURFU
 70
     6
  9
$SURFV
 70
     6
  9
$UCSNAME
  2

  9
$UCSORG
 10
0.0
 20
0.0
 30
0.0
  9
$UCSXDIR
 10
1.0
 20
0.0
 30
0.0
  9
$UCSYDIR
 10
0.0
 20
1.0
 30
0.0
  9
$PUCSNAME
  2

  9
$PUCSORG
 10
0.0
 20
0.0
 30
0.0
  9
$PUCSXDIR
 10
1.0
 20
0.0
 30
0.0
  9
$PUCSYDIR
 10
0.0
 20
1.0
 30
0.0
  9
$USERI1
 70
     0
  9
$USERI2
 70
     0
  9
$USERI3
 70
     0
  9
$USERI4
 70
     0
  9
$USERI5
 70
     0
  9
$USERR1
 40
20.0
  9
$USERR2
 40
0.0
  9
$USERR3
 40
0.0
  9
$USERR4
 40
0.0
  9
$USERR5
 40
0.0
  9
$WORLDVIEW
 70
     1
  9
$SHADEDGE
 70
     3
  9
$SHADEDIF
 70
    70
  9
$TILEMODE
 70
     1
  9
$MAXACTVP
 70
    64
  9
$PINSBASE
 10
0.0
 20
0.0
 30
0.0
  9
$PLIMCHECK
 70
     0
  9
$PEXTMIN
 10
1.000000000000000E+20
 20
1.000000000000000E+20
 30
1.000000000000000E+20
  9
$PEXTMAX
 10
-1.000000000000000E+20
 20
-1.000000000000000E+20
 30
-1.000000000000000E+20
  9
$PLIMMIN
 10
0.0
 20
0.0
  9
$PLIMMAX
 10
12.0
 20
9.0
  9
$UNITMODE
 70
     0
  9
$VISRETAIN
 70
     1
  9
$PLINEGEN
 70
     0
  9
$PSLTSCALE
 70
     1
  9
$TREEDEPTH
 70
  3020
  9
$PICKSTYLE
 70
     1
  9
$CMLSTYLE
  2
STANDARD
  9
$CMLJUST
 70
     0
  9
$CMLSCALE
 40
1.0
  9
$PROXYGRAPHICS
 70
     1
  9
$MEASUREMENT
 70
     0
  0
ENDSEC
  0
SECTION
  2
CLASSES
  0
CLASS
  1
ACDBDICTIONARYWDFLT
  2
AcDbDictionaryWithDefault
  3
AutoCAD 2000
 90
        0
280
     0
281
     0
  0
CLASS
  1
ACDBPLACEHOLDER
  2
AcDbPlaceHolder
  3
AutoCAD 2000
 90
        0
280
     0
281
     0
  0
CLASS
  1
LAYOUT
  2
AcDbLayout
  3
AutoCAD 2000
 90
        0
280
     0
281
     0
  0
CLASS
  1
LONG_TRANSACTION
  2
AcDbLongTransaction
  3
AutoCAD 2000
 90
        0
280
     0
281
     0
  0
CLASS
  1
LWPOLYLINE
  2
AcDbPolyline
  3
AutoCAD 2000
 90
        0
280
     0
281
     1
  0
CLASS
  1
HATCH
  2
AcDbHatch
  3
AutoCAD 2000
 90
        0
280
     0
281
     1
  0
CLASS
  1
XRECORD
  2
AcDbXrecord
  3
AutoCAD 2000
 90
        0
280
     0
281
     0
  0
CLASS
  1
LONG_TRANSACTION
  2
AcDbLongTransaction
  3
AutoCAD 2000
 90
        0
280
     0
281
     0
  0
CLASS
  1
LWPOLYLINE
  2
AcDbPolyline
  3
AutoCAD 2000
 90
        0
280
     0
281
     1
  0
CLASS
  1
HATCH
  2
AcDbHatch
  3
AutoCAD 2000
 90
        0
280
     0
281
     1
  0
CLASS
  1
XRECORD
  2
AcDbXrecord
  3
AutoCAD 2000
 90
        0
280
     0
281
     0
  0
CLASS
  1
LONG_TRANSACTION
  2
AcDbLongTransaction
  3
AutoCAD 2000
 90
        0
280
     0
281
     0
  0
CLASS
  1
LWPOLYLINE
  2
AcDbPolyline
  3
AutoCAD 2000
 90
        0
280
     0
281
     1
  0
CLASS
  1
HATCH
  2
AcDbHatch
  3
AutoCAD 2000
 90
        0
280
     0
281
     1
  0
CLASS
  1
XRECORD
  2
AcDbXrecord
  3
AutoCAD 2000
 90
        0
280
     0
281
     0
  0
CLASS
  1
LONG_TRANSACTION
  2
AcDbLongTransaction
  3
AutoCAD 2000
 90
        0
280
     0
281
     0
  0
CLASS
  1
LWPOLYLINE
  2
AcDbPolyline
  3
AutoCAD 2000
 90
        0
280
     0
281
     1
  0
CLASS
  1
HATCH
  2
AcDbHatch
  3
AutoCAD 2000
 90
        0
280
     0
281
     1
  0
CLASS
  1
XRECORD
  2
AcDbXrecord
  3
AutoCAD 2000
 90
        0
280
     0
281
     0
  0
ENDSEC
  0
SECTION
  2
TABLES
  0
TABLE
  2
VPORT
  5
8
330
0
100
AcDbSymbolTable
 70
     3
  0
VPORT
  5
683DC
330
8
100
AcDbSymbolTableRecord
100
AcDbViewportTableRecord
  2
*ACTIVE
 70
     0
 10
0.0
 20
0.0
 11
1.0
 21
1.0
 12
67.59207716221318
 22
66.08813010259968
 13
0.0
 23
0.0
 14
50.0
 24
50.0
 15
100.0
 25
100.0
 16
0.0
 26
0.0
 36
1.0
 17
0.0
 27
0.0
 37
0.0
 40
1080.216920853974
 41
1.562182741116751
 42
50.0
 43
0.0
 44
0.0
 50
0.0
 51
0.0
 71
     0
 72
   500
 73
     1
 74
     0
 75
     0
 76
     0
 77
     0
 78
     0
  0
ENDTAB
  0
TABLE
  2
LTYPE
  5
5
330
0
100
AcDbSymbolTable
 70
     2
  0
LTYPE
  5
13
330
5
100
AcDbSymbolTableRecord
100
AcDbLinetypeTableRecord
  2
BYBLOCK
 70
     0
  3

 72
    65
 73
     0
 40
0.0
  0
LTYPE
  5
14
330
5
100
AcDbSymbolTableRecord
100
AcDbLinetypeTableRecord
  2
BYLAYER
 70
     0
  3

 72
    65
 73
     0
 40
0.0
  0
LTYPE
  5
15
330
5
100
AcDbSymbolTableRecord
100
AcDbLinetypeTableRecord
  2
CONTINUOUS
 70
     0
  3
実線
 72
    65
 73
     0
 40
0.0
  0
LTYPE
  5
23
330
5
100
AcDbSymbolTableRecord
100
AcDbLinetypeTableRecord
  2
DASHDOT
 70
     0
  3
____ _ ____ _ ____ _ ____ _ ____ _ ____ _ ____
 72
    65
 73
     4
 40
5.5
 49
4.0
 74
     0
 49
-0.6
 74
     0
 49
0.3
 74
     0
 49
-0.6
 74
     0
  0
ENDTAB
  0
TABLE
  2
LAYER
  5
2
330
0
100
AcDbSymbolTable
 70
     9
  0
LAYER
  5
10
330
2
100
AcDbSymbolTableRecord
100
AcDbLayerTableRecord
  2
0
 70
     0
 62
     7
  6
CONTINUOUS
  0
LAYER
  5
22
330
2
100
AcDbSymbolTableRecord
100
AcDbLayerTableRecord
  2
SIZE
 70
     0
 62
    32
  6
CONTINUOUS
  0
LAYER
  5
31
330
2
100
AcDbSymbolTableRecord
100
AcDbLayerTableRecord
  2
DETAIL
 70
     0
 62
     5
  6
CONTINUOUS
  0
LAYER
  5
32
330
2
100
AcDbSymbolTableRecord
100
AcDbLayerTableRecord
  2
OUTLINE
 70
     0
 62
     3
  6
CONTINUOUS
  0
LAYER
  5
33
330
2
100
AcDbSymbolTableRecord
100
AcDbLayerTableRecord
  2
BASIS
 70
     0
 62
     6
  6
CONTINUOUS
  0
LAYER
  5
34
330
2
100
AcDbSymbolTableRecord
100
AcDbLayerTableRecord
  2
NOTE
 70
     0
 62
     4
  6
CONTINUOUS
  0
LAYER
  5
35
330
2
100
AcDbSymbolTableRecord
100
AcDbLayerTableRecord
  2
ARRANGE
 70
     0
 62
     1
  6
CONTINUOUS
  0
LAYER
  5
37
330
2
100
AcDbSymbolTableRecord
100
AcDbLayerTableRecord
  2
ETC
 70
     0
 62
    83
  6
CONTINUOUS
  0
LAYER
  5
3A
330
2
100
AcDbSymbolTableRecord
100
AcDbLayerTableRecord
  2
DEFPOINTS
 70
     0
 62
     7
  6
CONTINUOUS
  0
ENDTAB
  0
TABLE
  2
STYLE
  5
3
330
0
100
AcDbSymbolTable
 70
     1
  0
STYLE
  5
11
330
3
100
AcDbSymbolTableRecord
100
AcDbTextStyleTableRecord
  2
STANDARD
 70
     0
 40
0.0
 41
0.9
 50
0.0
 71
     0
 42
64.0
  3
SIMPLEX
  4
BIGFONT
  0
ENDTAB
  0
TABLE
  2
VIEW
  5
6
330
0
100
AcDbSymbolTable
 70
     1
  0
VIEW
  5
3C
330
6
100
AcDbSymbolTableRecord
100
AcDbViewTableRecord
  2
ALL
 70
     0
 40
4282.62
 10
0.0
 20
41.30990399999999
 41
5940.0
 11
0.0
 21
0.0
 31
1.0
 12
0.0
 22
0.0
 32
0.0
 42
50.0
 43
0.0
 44
0.0
 50
0.0
 71
     0
  0
ENDTAB
  0
TABLE
  2
UCS
  5
7
330
0
100
AcDbSymbolTable
 70
     0
  0
ENDTAB
  0
TABLE
  2
APPID
  5
9
330
0
100
AcDbSymbolTable
 70
     1
  0
APPID
  5
12
330
9
100
AcDbSymbolTableRecord
100
AcDbRegAppTableRecord
  2
ACAD
 70
     0
  0
ENDTAB
  0
TABLE
  2
DIMSTYLE
  5
A
330
0
100
AcDbSymbolTable
 70
     1
  0
DIMSTYLE
105
213
330
A
100
AcDbSymbolTableRecord
100
AcDbDimStyleTableRecord
  2
STANDARD
 70
     0
  3

  4

  5

  6

  7

 40
1.0
 41
0.18
 42
0.0625
 43
0.38
 44
0.18
 45
0.0
 46
0.0
 47
0.0
 48
0.0
140
0.18
141
0.09
142
0.0
143
25.4
144
1.0
145
0.0
146
1.0
147
0.09
 71
     0
 72
     0
 73
     1
 74
     1
 75
     0
 76
     0
 77
     0
 78
     0
170
     0
171
     2
172
     0
173
     0
174
     0
175
     0
176
     0
177
     0
178
     0
270
     2
271
     4
272
     4
273
     2
274
     2
340
11
275
     0
280
     0
281
     0
282
     0
283
     1
284
     0
285
     0
286
     0
287
     3
288
     0
  0
ENDTAB
  0
TABLE
  2
BLOCK_RECORD
  5
1
330
0
100
AcDbSymbolTable
 70
     2
  0
BLOCK_RECORD
  5
1E
102
{ACAD_XDICTIONARY
360
66E76
102
}
330
1
100
AcDbSymbolTableRecord
100
AcDbBlockTableRecord
  2
*MODEL_SPACE
  0
BLOCK_RECORD
  5
1A
102
{ACAD_XDICTIONARY
360
66E74
102
}
330
1
100
AcDbSymbolTableRecord
100
AcDbBlockTableRecord
  2
*PAPER_SPACE
  0
BLOCK_RECORD
  5
46
330
1
100
AcDbSymbolTableRecord
100
AcDbBlockTableRecord
  2
_ORIGIN
  0
BLOCK_RECORD
  5
175A
330
1
100
AcDbSymbolTableRecord
100
AcDbBlockTableRecord
  2
_NONE
  0
ENDTAB
  0
ENDSEC
  0
SECTION
  2
BLOCKS
  0
BLOCK
  5
1F
330
1E
100
AcDbEntity
  8
0
100
AcDbBlockBegin
  2
*MODEL_SPACE
 70
     0
 10
0.0
 20
0.0
 30
0.0
  3
*MODEL_SPACE
  1

  0
ENDBLK
  5
20
330
1E
100
AcDbEntity
  8
0
100
AcDbBlockEnd
  0
BLOCK
  5
1B
330
1A
100
AcDbEntity
 67
     1
  8
0
100
AcDbBlockBegin
  2
*PAPER_SPACE
 70
     0
 10
0.0
 20
0.0
 30
0.0
  3
*PAPER_SPACE
  1

  0
ENDBLK
  5
1C
330
1A
100
AcDbEntity
 67
     1
  8
0
100
AcDbBlockEnd
  0
BLOCK
  5
47
330
46
100
AcDbEntity
  8
0
100
AcDbBlockBegin
  2
_ORIGIN
 70
     0
 10
0.0
 20
0.0
 30
0.0
  3
_ORIGIN
  1

  0
CIRCLE
  5
48
330
46
100
AcDbEntity
  8
0
  6
BYBLOCK
 62
     0
100
AcDbCircle
 10
0.0
 20
0.0
 30
0.0
 40
0.5
  0
LINE
  5
49
330
46
100
AcDbEntity
  8
0
  6
BYBLOCK
 62
     0
100
AcDbLine
 10
0.0
 20
0.0
 30
0.0
 11
-1.0
 21
0.0
 31
0.0
  0
ENDBLK
  5
4A
330
46
100
AcDbEntity
  8
0
100
AcDbBlockEnd
  0
BLOCK
  5
175B
330
175A
100
AcDbEntity
  8
0
100
AcDbBlockBegin
  2
_NONE
 70
     0
 10
0.0
 20
0.0
 30
0.0
  3
_NONE
  1

  0
ENDBLK
  5
175C
330
175A
100
AcDbEntity
  8
0
100
AcDbBlockEnd
  0
ENDSEC
  0
SECTION
  2
ENTITIES
  0
MTEXT
  5
38341
330
1E
100
AcDbEntity
  8
0
  6
CONTINUOUS
100
AcDbMText
 10
383.9605305094082
 20
4023.282340837186
 30
0.0
 40
64.0
 41
187.9848
 71
     1
 72
     5
  1

1001
ACAD
1000
MTEXTBEGIN
1070
    73
1070
     1
1070
    44
1040
1.0
1070
    74
1070
     0
1000
MTEXTEND
1000
MTEXTBEGIN
1070
    73
1070
     1
1070
    44
1040
1.0
1070
    74
1070
     0
1000
MTEXTEND
1000
MTEXTBEGIN
1070
    73
1070
     1
1070
    44
1040
1.0
1070
    74
1070
     0
1000
MTEXTEND
1000
MTEXTBEGIN
1070
    73
1070
     1
1070
    44
1040
1.0
1070
    74
1070
     0
1000
MTEXTEND
  0
POINT
  5
675C1
102
{ACAD_REACTORS
330
677EB
102
}
330
1E
100
AcDbEntity
  8
ARRANGE
  6
CONTINUOUS
100
AcDbPoint
 10
0.0000000000013642
 20
0.0
 30
0.0
  0
CIRCLE
  5
677EA
102
{ACAD_REACTORS
330
677EB
102
}
330
1E
100
AcDbEntity
  8
ARRANGE
  6
CONTINUOUS
100
AcDbCircle
 10
0.0000000000013642
 20
0.0
 30
0.0
 40
13.00138232471456
  0
LINE
  5
67EE8
330
1E
100
AcDbEntity
  8
SIZE
100
AcDbLine
 10
399.0000000000018
 20
15.9076064338501
 30
0.0
 11
399.0000000000018
 21
152.2262578441673
 31
0.0
  0
LINE
  5
67EE9
330
1E
100
AcDbEntity
  8
SIZE
100
AcDbLine
 10
-399.0
 20
15.9076064338501
 30
0.0
 11
-399.0
 21
152.2262578441673
 31
0.0
  0
LINE
  5
67EEA
330
1E
100
AcDbEntity
  8
DETAIL
  6
CONTINUOUS
100
AcDbLine
 10
349.9380175560127
 20
-2.188260882479653
 30
0.0
 11
-349.5390175573338
 21
-2.188260882479653
 31
0.0
  0
LINE
  5
67EEB
330
1E
100
AcDbEntity
  8
DETAIL
  6
CONTINUOUS
100
AcDbLine
 10
349.9448943567536
 20
-5.150387273477917
 30
0.0
 11
-349.682802697569
 21
-5.150387273477917
 31
0.0
  0
LINE
  5
67EEC
330
1E
100
AcDbEntity
  8
DETAIL
  6
CONTINUOUS
100
AcDbLine
 10
-349.5614294854883
 20
-11.84201796523984
 30
0.0
 11
349.9604294841669
 21
-11.84201796523984
 31
0.0
  0
LINE
  5
67EED
330
1E
100
AcDbEntity
  8
DETAIL
  6
CONTINUOUS
100
AcDbLine
 10
349.9819895625996
 20
-21.12884765884973
 30
0.0
 11
-349.582989563921
 21
-21.12884765884973
 31
0.0
  0
LINE
  5
67EEE
330
1E
100
AcDbEntity
  8
DETAIL
  6
CONTINUOUS
100
AcDbLine
 10
-384.1701670910243
 20
-27.7633301910796
 30
0.0
 11
384.1701670910243
 21
-27.7633301910796
 31
0.0
  0
LINE
  5
67EEF
330
1E
100
AcDbEntity
  8
DETAIL
  6
CONTINUOUS
100
AcDbLine
 10
384.1701670910243
 20
-28.60362648399723
 30
0.0
 11
-384.1701670910243
 21
-28.60362648399723
 31
0.0
  0
LINE
  5
67EF0
330
1E
100
AcDbEntity
  8
DETAIL
  6
CONTINUOUS
100
AcDbLine
 10
-359.0760913088597
 20
-32.14382586251827
 30
0.0
 11
359.0760913088615
 21
-32.14382586251827
 31
0.0
  0
LINE
  5
67EF1
330
1E
100
AcDbEntity
  8
DETAIL
  6
CONTINUOUS
100
AcDbLine
 10
-383.7483923425807
 20
-38.12868774999947
 30
0.0
 11
383.7483923426061
 21
-38.12868774999947
 31
0.0
  0
LINE
  5
67EF2
330
1E
100
AcDbEntity
  8
DETAIL
  6
CONTINUOUS
100
AcDbLine
 10
-383.679569183716
 20
-38.20427984679054
 30
0.0
 11
383.6795691823845
 21
-38.20427984679054
 31
0.0
  0
LINE
  5
67EF3
330
1E
100
AcDbEntity
  8
DETAIL
  6
CONTINUOUS
100
AcDbLine
 10
-383.6265963290934
 20
-38.38468302582759
 30
0.0
 11
383.6265963290934
 21
-38.38468302582759
 31
0.0
  0
LINE
  5
67EF4
330
1E
100
AcDbEntity
  8
DETAIL
  6
CONTINUOUS
100
AcDbLine
 10
-382.5040849554607
 20
-43.58196699281006
 30
0.0
 11
382.5040849541565
 21
-43.58196699281006
 31
0.0
  0
LINE
  5
67EF5
330
1E
100
AcDbEntity
  8
DETAIL
  6
CONTINUOUS
100
AcDbLine
 10
-382.5040849554607
 20
-43.84068713938813
 30
0.0
 11
382.6981726441626
 21
-43.84494704027929
 31
0.0
  0
LINE
  5
67EF6
330
1E
100
AcDbEntity
  8
DETAIL
  6
CONTINUOUS
100
AcDbLine
 10
-373.9892204134485
 20
-51.42816210473893
 30
0.0
 11
373.9892204121188
 21
-51.42816210473893
 31
0.0
  0
LINE
  5
67EF7
330
1E
100
AcDbEntity
  8
DETAIL
  6
CONTINUOUS
100
AcDbLine
 10
-373.9892204134485
 20
-51.96380033836021
 30
0.0
 11
373.9892204121188
 21
-51.96380033836021
 31
0.0
  0
LINE
  5
67EF8
330
1E
100
AcDbEntity
  8
DETAIL
  6
CONTINUOUS
100
AcDbLine
 10
-381.7623500694662
 20
-242.0342474775884
 30
0.0
 11
381.7623500694917
 21
-242.0342474775884
 31
0.0
  0
LINE
  5
67EF9
330
1E
100
AcDbEntity
  8
DETAIL
  6
CONTINUOUS
100
AcDbLine
 10
381.7623440379484
 20
-243.4799920083778
 30
0.0
 11
-381.7623440379229
 21
-243.4799920083778
 31
0.0
  0
LINE
  5
67EFA
330
1E
100
AcDbEntity
  8
DETAIL
  6
CONTINUOUS
100
AcDbLine
 10
346.1524802116309
 20
-245.2241331499885
 30
0.0
 11
-346.1524802116055
 21
-245.2241331499885
 31
0.0
  0
LINE
  5
67EFB
330
1E
100
AcDbEntity
  8
DETAIL
  6
CONTINUOUS
100
AcDbLine
 10
345.1466460982437
 20
-245.442473020269
 30
0.0
 11
-345.0246536033664
 21
-245.442473020269
 31
0.0
  0
LINE
  5
67EFC
330
1E
100
AcDbEntity
  8
DETAIL
  6
CONTINUOUS
100
AcDbLine
 10
-395.4072282810339
 20
-295.0
 30
0.0
 11
395.4072282810357
 21
-295.0
 31
0.0
  0
LINE
  5
67EFD
330
1E
100
AcDbEntity
  8
DETAIL
  6
CONTINUOUS
100
AcDbLine
 10
339.697540106381
 20
-280.8800532842988
 30
0.0
 11
1.969637674728801
 21
-280.8976878833082
 31
0.0
  0
LINE
  5
67EFE
330
1E
100
AcDbEntity
  8
DETAIL
  6
CONTINUOUS
100
AcDbLine
 10
83.90704601566676
 20
-239.4914326989585
 30
0.0
 11
382.619909022922
 21
-239.4914326989585
 31
0.0
  0
LINE
  5
67EFF
330
1E
100
AcDbEntity
  8
DETAIL
  6
CONTINUOUS
100
AcDbLine
 10
84.10297292348014
 20
-239.8324772214491
 30
0.0
 11
382.7061506624686
 21
-239.8324772214491
 31
0.0
  0
LINE
  5
67F00
330
1E
100
AcDbEntity
  8
DETAIL
  6
CONTINUOUS
100
AcDbLine
 10
382.1622074845909
 20
-240.5770648337488
 30
0.0
 11
74.36836641210357
 21
-240.5988921087998
 31
0.0
  0
LINE
  5
67F01
330
1E
100
AcDbEntity
  8
DETAIL
  6
CONTINUOUS
100
AcDbLine
 10
338.1811536749464
 20
-253.8265156939881
 30
0.0
 11
3.989999999350402
 21
-253.8264463012401
 31
0.0
  0
LINE
  5
67F02
330
1E
100
AcDbEntity
  8
DETAIL
  6
CONTINUOUS
100
AcDbLine
 10
340.1474999993443
 20
-280.4504594392683
 30
0.0
 11
1.994999999329593
 21
-280.4504594392683
 31
0.0
  0
LINE
  5
67F03
330
1E
100
AcDbEntity
  8
DETAIL
  6
CONTINUOUS
100
AcDbLine
 10
2.024629188726976
 20
-280.513519927598
 30
0.0
 11
339.2861254155523
 21
-280.5395767383103
 31
0.0
  0
LINE
  5
67F04
330
1E
100
AcDbEntity
  8
DETAIL
  6
CONTINUOUS
100
AcDbLine
 10
340.1474999993443
 20
-289.6578007984271
 30
0.0
 11
1.994999999329593
 21
-289.6578007984271
 31
0.0
  0
LINE
  5
67F05
330
1E
100
AcDbEntity
  8
DETAIL
  6
CONTINUOUS
100
AcDbLine
 10
382.236700614334
 20
-234.7466901948496
 30
0.0
 11
84.77751354510564
 21
-234.7466901948498
 31
0.0
  0
LINE
  5
67F06
330
1E
100
AcDbEntity
  8
DETAIL
  6
CONTINUOUS
100
AcDbLine
 10
382.6590509588422
 20
-235.3769312499978
 30
0.0
 11
85.14886134496919
 21
-235.3769312499978
 31
0.0
  0
LINE
  5
67F07
330
1E
100
AcDbEntity
  8
DETAIL
  6
CONTINUOUS
100
AcDbLine
 10
349.9551176130389
 20
-9.553972368690665
 30
0.0
 11
-349.5561176143603
 21
-9.553972368690665
 31
0.0
  0
LINE
  5
67F08
330
1E
100
AcDbEntity
  8
DETAIL
  6
CONTINUOUS
100
AcDbLine
 10
349.9761855856959
 20
-18.62883147290904
 30
0.0
 11
-349.577185587017
 21
-18.62883147290904
 31
0.0
  0
LINE
  5
67F09
330
1E
100
AcDbEntity
  8
DETAIL
  6
CONTINUOUS
100
AcDbLine
 10
-349.5949808105633
 20
-26.29398032420022
 30
0.0
 11
349.9939808092422
 21
-26.29398032420022
 31
0.0
  0
LINE
  5
67F0A
330
1E
100
AcDbEntity
  8
DETAIL
  6
CONTINUOUS
100
AcDbLine
 10
-349.5437851777671
 20
-4.241874886972482
 30
0.0
 11
349.9427851757241
 21
-4.241874576081045
 31
0.0
  0
LINE
  5
67F0B
330
1E
100
AcDbEntity
  8
DETAIL
  6
CONTINUOUS
100
AcDbLine
 10
-394.6200566249135
 20
0.0
 30
0.0
 11
394.6200566249162
 21
0.0
 31
0.0
  0
LINE
  5
67F0C
330
1E
100
AcDbEntity
  8
BASIS
100
AcDbLine
 10
450.6469246645565
 20
-147.7925529935091
 30
0.0
 11
-454.2320531735613
 21
-147.7925529935091
 31
0.0
  0
LINE
  5
67F0D
330
1E
100
AcDbEntity
  8
SIZE
100
AcDbLine
 10
-415.4072282810338
 20
-295.0
 30
0.0
 11
-535.1781638064721
 21
-295.0
 31
0.0
  0
LINE
  5
67F0E
330
1E
100
AcDbEntity
  8
SIZE
100
AcDbLine
 10
-414.6200566249151
 20
0.0000000000002274
 30
0.0
 11
-535.1781638064721
 21
0.0000000000002842
 31
0.0
  0
LINE
  5
67F0F
330
1E
100
AcDbEntity
  8
SIZE
100
AcDbLine
 10
-505.1781638064722
 20
-11.99999999999971
 30
0.0
 11
-505.1781638064722
 21
-283.0
 31
0.0
  0
LINE
  5
67F10
330
1E
100
AcDbEntity
  8
SIZE
  6
BYBLOCK
100
AcDbLine
 10
-505.1781638064722
 20
-295.0
 30
0.0
 11
-505.1781638064722
 21
-283.0
 31
0.0
  0
CIRCLE
  5
67F11
330
1E
100
AcDbEntity
  8
SIZE
  6
BYBLOCK
100
AcDbCircle
 10
-505.1781638064722
 20
-295.0
 30
0.0
 40
6.0
  0
TEXT
  5
67F12
330
1E
100
AcDbEntity
  8
SIZE
100
AcDbText
 10
-525.1781638064722
 20
-205.3571428571427
 30
0.0
 40
50.0
  1
295
 50
90.0
 41
0.9
100
AcDbText
  0
LINE
  5
67F13
330
1E
100
AcDbEntity
  8
SIZE
  6
BYBLOCK
100
AcDbLine
 10
-505.1781638064722
 20
0.0000000000002842
 30
0.0
 11
-505.1781638064722
 21
-11.99999999999971
 31
0.0
  0
CIRCLE
  5
67F14
330
1E
100
AcDbEntity
  8
SIZE
  6
BYBLOCK
100
AcDbCircle
 10
-505.1781638064722
 20
0.0000000000002842
 30
0.0
 40
6.0
  0
LINE
  5
67F15
330
1E
100
AcDbEntity
  8
DETAIL
  6
CONTINUOUS
100
AcDbLine
 10
-342.8477553593856
 20
-261.9077093863786
 30
0.0
 11
-343.10864545816
 21
-248.5975781260085
 31
0.0
  0
LINE
  5
67F16
330
1E
100
AcDbEntity
  8
DETAIL
100
AcDbLine
 10
-345.1035694944998
 20
-250.4201013577958
 30
0.0
 11
-344.8243478787574
 21
-263.850661923152
 31
0.0
  0
LINE
  5
67F17
330
1E
100
AcDbEntity
  8
DETAIL
100
AcDbLine
 10
-346.1524802316584
 20
-245.22413313544
 30
0.0
 11
-345.2192781120065
 21
-293.7808286353283
 31
0.0
  0
ARC
  5
67F18
330
1E
100
AcDbEntity
  8
DETAIL
100
AcDbCircle
 10
-775.5550673942694
 20
-241.9482582797286
 30
0.0
 40
393.7207629092343
100
AcDbArc
 50
352.4351628383693
 51
359.3730348709478
  0
ARC
  5
67F19
330
1E
100
AcDbEntity
  8
DETAIL
100
AcDbCircle
 10
-765.0595318932127
 20
-241.1626279523074
 30
0.0
 40
382.8102035991642
100
AcDbArc
 50
352.1407811130337
 51
359.2484096989381
  0
LINE
  5
67F1A
330
1E
100
AcDbEntity
  8
DETAIL
100
AcDbLine
 10
-399.0
 20
-291.8331087443907
 30
0.0
 11
-399.0
 21
-4.092393566130795
 31
0.0
  0
LINE
  5
67F1B
330
1E
100
AcDbEntity
  8
DETAIL
  6
CONTINUOUS
100
AcDbLine
 10
-396.1460791485114
 20
-288.0612799238802
 30
0.0
 11
-396.1460446030851
 21
-5.153513885358279
 31
0.0
  0
LINE
  5
67F1C
330
1E
100
AcDbEntity
  8
DETAIL
  6
CONTINUOUS
100
AcDbLine
 10
-396.8771125618932
 20
-288.40047657496
 30
0.0
 11
-396.8771125618932
 21
-5.153513885358279
 31
0.0
  0
LINE
  5
67F1D
330
1E
100
AcDbEntity
  8
DETAIL
  6
CONTINUOUS
100
AcDbLine
 10
-398.2019999993408
 20
-290.8130521303492
 30
0.0
 11
-398.2019999993408
 21
-4.491271999458149
 31
0.0
  0
LINE
  5
67F1E
330
1E
100
AcDbEntity
  8
DETAIL
100
AcDbLine
 10
-392.6110317185057
 20
-239.75045759775
 30
0.0
 11
-396.1460791485114
 21
-288.0612799238802
 31
0.0
  0
LINE
  5
67F1F
330
1E
100
AcDbEntity
  8
DETAIL
100
AcDbLine
 10
-392.0446226553321
 20
-240.3232962184722
 30
0.0
 11
-395.5728595078744
 21
-288.9617784500098
 31
0.0
  0
LINE
  5
67F20
330
1E
100
AcDbEntity
  8
BASIS
100
AcDbLine
 10
0.0
 20
-339.1393463559225
 30
0.0
 11
0.0
 21
45.56334539773433
 31
0.0
  0
LINE
  5
67F21
330
1E
100
AcDbEntity
  8
DETAIL
  6
CONTINUOUS
100
AcDbLine
 10
-339.3085508168514
 20
-280.5394384927895
 30
0.0
 11
-1.998389921949637
 21
-280.5111842879991
 31
0.0
  0
LINE
  5
67F22
330
1E
100
AcDbEntity
  8
DETAIL
  6
CONTINUOUS
100
AcDbLine
 10
-338.1905521478656
 20
-253.8265686492682
 30
0.0
 11
-3.990000000654617
 21
-253.8264463012401
 31
0.0
  0
LINE
  5
67F23
330
1E
100
AcDbEntity
  8
DETAIL
  6
CONTINUOUS
100
AcDbLine
 10
-340.1475000006503
 20
-280.4504594392683
 30
0.0
 11
-1.995000000659274
 21
-280.4504594392683
 31
0.0
  0
LINE
  5
67F24
330
1E
100
AcDbEntity
  8
DETAIL
  6
CONTINUOUS
100
AcDbLine
 10
-2.034185128316494
 20
-280.8927452967432
 30
0.0
 11
-339.6851941871682
 21
-280.8799993940276
 31
0.0
  0
LINE
  5
67F25
330
1E
100
AcDbEntity
  8
DETAIL
  6
CONTINUOUS
100
AcDbLine
 10
-1.995000000659274
 20
-289.6578007984271
 30
0.0
 11
-340.1475000006503
 21
-289.6578007984271
 31
0.0
  0
ARC
  5
67F26
330
1E
100
AcDbEntity
  8
DETAIL
100
AcDbCircle
 10
-392.9715174209295
 20
-288.5063401894153
 30
0.0
 40
3.907029627477257
100
AcDbArc
 50
178.4473420139677
 51
250.3900731854738
  0
ARC
  5
67F27
330
1E
100
AcDbEntity
  8
DETAIL
100
AcDbCircle
 10
-395.1444128631317
 20
-288.0561762900388
 30
0.0
 40
1.001679287169673
100
AcDbArc
 50
180.2919277140241
 51
244.6773024777618
  0
ARC
  5
67F28
330
1E
100
AcDbEntity
  8
DETAIL
100
AcDbCircle
 10
-394.0853493818658
 20
-290.8378588552272
 30
0.0
 40
4.116588910627583
100
AcDbArc
 50
179.7076259845456
 51
272.0492168148887
  0
ARC
  5
67F29
330
1E
100
AcDbEntity
  8
DETAIL
100
AcDbCircle
 10
-395.3979703408786
 20
-291.3680893463185
 30
0.0
 40
3.631922453161753
100
AcDbArc
 50
187.3561559281224
 51
269.8539502208042
  0
LINE
  5
67F2A
330
1E
100
AcDbEntity
  8
DETAIL
100
AcDbLine
 10
-398.181035545168
 20
-290.7903048058538
 30
0.0
 11
-399.0000000000009
 21
-291.8331087443909
 31
0.0
  0
LINE
  5
67F2B
330
1E
100
AcDbEntity
  8
DETAIL
100
AcDbLine
 10
-396.8771125618932
 20
-288.4004765736294
 30
0.0
 11
-398.181035545168
 21
-290.7903048058538
 31
0.0
  0
LINE
  5
67F2C
330
1E
100
AcDbEntity
  8
DETAIL
  6
CONTINUOUS
100
AcDbLine
 10
-395.5728595078744
 20
-288.9617784500098
 30
0.0
 11
-385.2610451544185
 21
-293.7808286353283
 31
0.0
  0
ARC
  5
67F2D
330
1E
100
AcDbEntity
  8
DETAIL
100
AcDbCircle
 10
-387.1707898196011
 20
-277.1243576016636
 30
0.0
 40
16.65701871990348
100
AcDbArc
 50
244.7248169923843
 51
270.4759579676011
  0
LINE
  5
67F2E
330
1E
100
AcDbEntity
  8
DETAIL
100
AcDbLine
 10
-387.0324209962357
 20
-293.7808016010271
 30
0.0
 11
-393.9766003533977
 21
-294.9759075620486
 31
0.0
  0
ARC
  5
67F2F
330
1E
100
AcDbEntity
  8
DETAIL
100
AcDbCircle
 10
-338.2153892762373
 20
-258.7759073173147
 30
0.0
 40
4.949510028017971
100
AcDbArc
 50
89.60368378000397
 51
109.5903149261758
  0
ARC
  5
67F30
330
1E
100
AcDbEntity
  8
DETAIL
100
AcDbCircle
 10
-339.4601194388333
 20
-255.7500769905475
 30
0.0
 40
1.688904029598175
100
AcDbArc
 50
104.2175648852472
 51
176.0443146816171
  0
ARC
  5
67F31
330
1E
100
AcDbEntity
  8
DETAIL
100
AcDbCircle
 10
-339.2648787425255
 20
-267.2543042965774
 30
0.0
 40
13.28528943125379
100
AcDbArc
 50
266.0929864612498
 51
269.908368935556
  0
LINE
  5
67F32
330
1E
100
AcDbEntity
  8
DETAIL
  6
CONTINUOUS
100
AcDbLine
 10
-340.6549543878209
 20
-280.3596430851785
 30
0.0
 11
-340.6549543943142
 21
-280.9923090023085
 31
0.0
  0
ARC
  5
67F33
330
1E
100
AcDbEntity
  8
DETAIL
100
AcDbCircle
 10
-339.8396184856794
 20
-283.2592603322873
 30
0.0
 40
2.383445498236418
100
AcDbArc
 50
86.58254392146341
 51
107.3525530902575
  0
LINE
  5
67F34
330
1E
100
AcDbEntity
  8
DETAIL
100
AcDbLine
 10
-344.8243478787574
 20
-263.850661923152
 30
0.0
 11
-344.0148882732669
 21
-282.9171425897268
 31
0.0
  0
LINE
  5
67F35
330
1E
100
AcDbEntity
  8
DETAIL
100
AcDbLine
 10
-342.01800048951
 20
-283.025709857568
 30
0.0
 11
-343.9880094370746
 21
-282.9340499469892
 31
0.0
  0
ARC
  5
67F36
330
1E
100
AcDbEntity
  8
DETAIL
100
AcDbCircle
 10
-339.9500035481396
 20
-282.0262138065245
 30
0.0
 40
1.204013363377594
100
AcDbArc
 50
120.4678474718699
 51
172.983471278075
  0
ARC
  5
67F37
330
1E
100
AcDbEntity
  8
DETAIL
100
AcDbCircle
 10
-340.1253283378373
 20
-279.4902218791062
 30
0.0
 40
1.019479866164084
100
AcDbArc
 50
182.3601448489953
 51
267.4827516506613
  0
ARC
  5
67F38
330
1E
100
AcDbEntity
  8
DETAIL
100
AcDbCircle
 10
-340.1466131955467
 20
-279.4497248744055
 30
0.0
 40
1.000734957784578
100
AcDbArc
 50
184.7276393014015
 51
269.9492271944738
  0
ARC
  5
67F39
330
1E
100
AcDbEntity
  8
DETAIL
100
AcDbCircle
 10
-340.6286773539243
 20
-280.4766062272399
 30
0.0
 40
0.5163717992542706
100
AcDbArc
 50
180.7905668226494
 51
277.5865249782881
  0
LINE
  5
67F3A
330
1E
100
AcDbEntity
  8
DETAIL
100
AcDbLine
 10
-342.8477553593856
 20
-261.9077093863786
 30
0.0
 11
-342.01800048951
 21
-283.025709857568
 31
0.0
  0
ARC
  5
67F3B
330
1E
100
AcDbEntity
  8
DETAIL
100
AcDbCircle
 10
-342.7732436378112
 20
-263.9603949306112
 30
0.0
 40
2.054037472918618
100
AcDbArc
 50
92.07890270290723
 51
176.9376251467792
  0
LINE
  5
67F3C
330
1E
100
AcDbEntity
  8
DETAIL
  6
CONTINUOUS
100
AcDbLine
 10
-341.1449999993292
 20
-255.6334976012795
 30
0.0
 11
-341.1449999993292
 21
-280.4837308961578
 31
0.0
  0
ARC
  5
67F3D
330
1E
100
AcDbEntity
  8
DETAIL
100
AcDbCircle
 10
-341.0661273130897
 20
-296.3986978653397
 30
0.0
 40
4.13312619308967
100
AcDbArc
 50
103.5689728802655
 51
135.9079966701661
  0
ARC
  5
67F3E
330
1E
100
AcDbEntity
  8
DETAIL
100
AcDbCircle
 10
-345.1782423686324
 20
-293.4704200523349
 30
0.0
 40
1.142832448977639
100
AcDbArc
 50
267.9422351590751
 51
357.2783357522879
  0
LINE
  5
67F3F
330
1E
100
AcDbEntity
  8
DETAIL
100
AcDbLine
 10
-345.2192781120065
 20
-294.6125155274166
 30
0.0
 11
-342.0401729261793
 21
-294.6637599349303
 31
0.0
  0
ARC
  5
67F40
330
1E
100
AcDbEntity
  8
DETAIL
  6
CONTINUOUS
100
AcDbCircle
 10
-340.1474999993424
 20
-288.6603007984297
 30
0.0
 40
0.9975000000000001
100
AcDbArc
 50
180.0
 51
270.0
  0
LINE
  5
67F41
330
1E
100
AcDbEntity
  8
DETAIL
100
AcDbLine
 10
-344.0148882732669
 20
-282.9171425897268
 30
0.0
 11
-344.0366990439924
 21
-293.5246865740482
 31
0.0
  0
LINE
  5
67F42
330
1E
100
AcDbEntity
  8
DETAIL
100
AcDbLine
 10
-342.0401729261793
 20
-294.6637599349303
 30
0.0
 11
-342.01800048951
 21
-283.025709857568
 31
0.0
  0
LINE
  5
67F43
330
1E
100
AcDbEntity
  8
DETAIL
  6
CONTINUOUS
100
AcDbLine
 10
-341.1449999993292
 20
-288.660300495188
 30
0.0
 11
-341.1449999993292
 21
-281.8791367490478
 31
0.0
  0
ARC
  5
67F44
330
1E
100
AcDbEntity
  8
DETAIL
100
AcDbCircle
 10
2.947264559410086
 20
-255.93824866051
 30
0.0
 40
1.973433275196019
100
AcDbArc
 50
98.06928543912812
 51
171.1172190034382
  0
ARC
  5
67F45
330
1E
100
AcDbEntity
  8
DETAIL
100
AcDbCircle
 10
3.962010759710665
 20
-259.1865010869948
 30
0.0
 40
5.360127834708183
100
AcDbArc
 50
89.70081448792639
 51
103.9452072787158
  0
ARC
  5
67F46
330
1E
100
AcDbEntity
  8
DETAIL
100
AcDbCircle
 10
-2.627283443620854
 20
-255.7123556636593
 30
0.0
 40
1.631990959207902
100
AcDbArc
 50
3.068695042669481
 51
75.56327640666488
  0
ARC
  5
67F47
330
1E
100
AcDbEntity
  8
DETAIL
100
AcDbCircle
 10
-3.955724645711597
 20
-258.9065430583407
 30
0.0
 40
5.080212383499377
100
AcDbArc
 50
70.02665478760177
 51
90.38656810591509
  0
ARC
  5
67F48
330
1E
100
AcDbEntity
  8
DETAIL
100
AcDbCircle
 10
-2.000034793975373
 20
-281.892697076058
 30
0.0
 40
1.002626497902002
100
AcDbArc
 50
0.7749378225263604
 51
93.03275599482072
  0
ARC
  5
67F49
330
1E
100
AcDbEntity
  8
DETAIL
100
AcDbCircle
 10
1.984069156920213
 20
-281.8841642952011
 30
0.0
 40
0.9865819676537636
100
AcDbArc
 50
90.83813868398026
 51
179.7080238316828
  0
ARC
  5
67F4A
330
1E
100
AcDbEntity
  8
DETAIL
100
AcDbCircle
 10
1.999261326920532
 20
-279.4473319363305
 30
0.0
 40
1.003136554045735
100
AcDbArc
 50
183.0004668388801
 51
269.7566065961446
  0
ARC
  5
67F4B
330
1E
100
AcDbEntity
  8
DETAIL
100
AcDbCircle
 10
2.022843097106033
 20
-279.4881112687717
 30
0.0
 40
1.025410214362753
100
AcDbArc
 50
180.6553800996474
 51
270.0997996333748
  0
ARC
  5
67F4C
330
1E
100
AcDbEntity
  8
DETAIL
100
AcDbCircle
 10
-1.995383839532223
 20
-279.4514006568688
 30
0.0
 40
0.9990588561350543
100
AcDbArc
 50
270.0220130654299
 51
357.2208473826364
  0
ARC
  5
67F4D
330
1E
100
AcDbEntity
  8
DETAIL
100
AcDbCircle
 10
-2.019556391090191
 20
-279.4892926730174
 30
0.0
 40
1.02211080230379
100
AcDbArc
 50
271.1865993816888
 51
359.4087959904341
  0
LINE
  5
67F4E
330
1E
100
AcDbEntity
  8
DETAIL
  6
CONTINUOUS
100
AcDbLine
 10
0.9974999993446544
 20
-279.4998408300491
 30
0.0
 11
0.9974999993446544
 21
-255.6334976012795
 31
0.0
  0
LINE
  5
67F4F
330
1E
100
AcDbEntity
  8
DETAIL
  6
CONTINUOUS
100
AcDbLine
 10
-0.9975000006506888
 20
-279.4998408300491
 30
0.0
 11
-0.9975000006506888
 21
-255.6334976012795
 31
0.0
  0
ARC
  5
67F50
330
1E
100
AcDbEntity
  8
DETAIL
100
AcDbCircle
 10
1.994999999319134
 20
-288.6603007984551
 30
0.0
 40
0.9974999999745319
100
AcDbArc
 50
179.9999705866602
 51
270.0000000005992
  0
ARC
  5
67F51
330
1E
100
AcDbEntity
  8
DETAIL
100
AcDbCircle
 10
-1.995000000659274
 20
-288.6603007984297
 30
0.0
 40
0.9975000000000591
100
AcDbArc
 50
270.0
 51
359.9999999999967
  0
LINE
  5
67F52
330
1E
100
AcDbEntity
  8
DETAIL
  6
CONTINUOUS
100
AcDbLine
 10
0.9974999993446544
 20
-288.6603002863789
 30
0.0
 11
0.9974999993446544
 21
-281.8791367490478
 31
0.0
  0
LINE
  5
67F53
330
1E
100
AcDbEntity
  8
DETAIL
  6
CONTINUOUS
100
AcDbLine
 10
-0.9975000006506888
 20
-281.8791367490478
 30
0.0
 11
-0.9975000006506888
 21
-288.6603002863789
 31
0.0
  0
LINE
  5
67F54
330
1E
100
AcDbEntity
  8
DETAIL
  6
CONTINUOUS
100
AcDbLine
 10
-86.55541362273515
 20
-234.7466901948496
 30
0.0
 11
-382.2367006156637
 21
-234.7466901948496
 31
0.0
  0
LINE
  5
67F55
330
1E
100
AcDbEntity
  8
DETAIL
  6
CONTINUOUS
100
AcDbLine
 10
-86.92312780452903
 20
-235.3769312499978
 30
0.0
 11
-382.6590509601483
 21
-235.3769312499978
 31
0.0
  0
LINE
  5
67F56
330
1E
100
AcDbEntity
  8
DETAIL
  6
CONTINUOUS
100
AcDbLine
 10
-85.71206463557974
 20
-239.4914326989585
 30
0.0
 11
-382.6199115459148
 21
-239.4914326989585
 31
0.0
  0
LINE
  5
67F57
330
1E
100
AcDbEntity
  8
DETAIL
  6
CONTINUOUS
100
AcDbLine
 10
-85.90870493869806
 20
-239.8324772214493
 30
0.0
 11
-382.7061506637983
 21
-239.8324772214491
 31
0.0
  0
LINE
  5
67F58
330
1E
100
AcDbEntity
  8
DETAIL
  6
CONTINUOUS
100
AcDbLine
 10
-74.36836641207992
 20
-240.5988921087998
 30
0.0
 11
-382.1622074845654
 21
-240.5770648337488
 31
0.0
  0
LINE
  5
67F59
330
1E
100
AcDbEntity
  8
DETAIL
100
AcDbLine
 10
-380.7593439160796
 20
-58.80537453319743
 30
0.0
 11
-382.2367000621295
 21
-234.7466679594449
 31
0.0
  0
LINE
  5
67F5A
330
1E
100
AcDbEntity
  8
DETAIL
100
AcDbLine
 10
-381.2059896844275
 20
-58.80354598668827
 30
0.0
 11
-382.6832863103227
 21
-234.6739470226671
 31
0.0
  0
LINE
  5
67F5B
330
1E
100
AcDbEntity
  8
DETAIL
  6
CONTINUOUS
100
AcDbLine
 10
-391.992409688999
 20
-45.56178539525899
 30
0.0
 11
-393.524398617732
 21
-228.1242446427495
 31
0.0
  0
LINE
  5
67F5C
330
1E
100
AcDbEntity
  8
DETAIL
100
AcDbLine
 10
-390.4735781790181
 20
-52.30622183063997
 30
0.0
 11
-392.0835148778424
 21
-236.4901469344195
 31
0.0
  0
LINE
  5
67F5D
330
1E
100
AcDbEntity
  8
DETAIL
100
AcDbLine
 10
-391.0169828371472
 20
-52.30048019053834
 30
0.0
 11
-392.6267691343546
 21
-235.9782739427874
 31
0.0
  0
ARC
  5
67F5E
330
1E
100
AcDbEntity
  8
DETAIL
100
AcDbCircle
 10
-382.6818734908131
 20
-238.8853576136511
 30
0.0
 40
0.9474307006523714
100
AcDbArc
 50
246.2506441859482
 51
268.5316796912309
  0
ARC
  5
67F5F
330
1E
100
AcDbEntity
  8
DETAIL
100
AcDbCircle
 10
-382.5411105436005
 20
-238.7490274401188
 30
0.0
 40
0.7465753603595681
100
AcDbArc
 50
251.3116661890703
 51
263.9413414668541
  0
ARC
  5
67F60
330
1E
100
AcDbEntity
  8
DETAIL
100
AcDbCircle
 10
-383.0726794868358
 20
-238.9954965941297
 30
0.0
 40
0.288168244933644
100
AcDbArc
 50
191.3361824966135
 51
251.8356519421739
  0
LINE
  5
67F61
330
1E
100
AcDbEntity
  8
DETAIL
100
AcDbLine
 10
-383.0634012269693
 20
-239.7525423142278
 30
0.0
 11
-383.5296170494823
 21
-239.524974367915
 31
0.0
  0
ARC
  5
67F62
330
1E
100
AcDbEntity
  8
DETAIL
100
AcDbCircle
 10
-383.7312890010853
 20
-238.8440138607393
 30
0.0
 40
0.7101949234484676
100
AcDbArc
 50
286.4970415922782
 51
323.2134044255595
  0
ARC
  5
67F63
330
1E
100
AcDbEntity
  8
DETAIL
100
AcDbCircle
 10
-383.3366439710252
 20
-237.5911636916953
 30
0.0
 40
1.46109496317851
100
AcDbArc
 50
251.4357391320697
 51
269.2713082907737
  0
ARC
  5
67F64
330
1E
100
AcDbEntity
  8
DETAIL
100
AcDbCircle
 10
-383.1685003186676
 20
-239.0039710762767
 30
0.0
 40
0.6339167231762392
100
AcDbArc
 50
177.4922230473302
 51
235.2732564508817
  0
LINE
  5
67F65
330
1E
100
AcDbEntity
  8
DETAIL
100
AcDbLine
 10
-382.7803283095781
 20
-239.456240017168
 30
0.0
 11
-383.1625141343811
 21
-239.2693043250076
 31
0.0
  0
ARC
  5
67F66
330
1E
100
AcDbEntity
  8
DETAIL
100
AcDbCircle
 10
-382.6858977645431
 20
-234.093650619558
 30
0.0
 40
1.283559531437136
100
AcDbArc
 50
218.3158486556458
 51
271.1944349965069
  0
ARC
  5
67F67
330
1E
100
AcDbEntity
  8
DETAIL
100
AcDbCircle
 10
-382.8073147172265
 20
-234.8209146648462
 30
0.0
 40
0.5754213468129938
100
AcDbArc
 50
284.9219947809269
 51
7.411319593220601
  0
ARC
  5
67F68
330
1E
100
AcDbEntity
  8
DETAIL
100
AcDbCircle
 10
-383.3178261946804
 20
-234.1742086405454
 30
0.0
 40
0.8077000157260449
100
AcDbArc
 50
242.3217773580467
 51
321.7774377419662
  0
LINE
  5
67F69
330
1E
100
AcDbEntity
  8
DETAIL
100
AcDbLine
 10
-382.2367006143322
 20
-234.7466901948496
 30
0.0
 11
-382.6832863103227
 21
-234.6739470226669
 31
0.0
  0
LINE
  5
67F6A
330
1E
100
AcDbEntity
  8
DETAIL
100
AcDbLine
 10
-383.3552257641961
 20
-239.0521404914732
 30
0.0
 11
-383.2537481895833
 21
-235.2447622619283
 31
0.0
  0
LINE
  5
67F6B
330
1E
100
AcDbEntity
  8
DETAIL
100
AcDbLine
 10
-383.8018099345808
 20
-238.9762340556294
 30
0.0
 11
-383.6930777755897
 21
-234.8894373778198
 31
0.0
  0
ARC
  5
67F6C
330
1E
100
AcDbEntity
  8
DETAIL
100
AcDbCircle
 10
-382.1609610076155
 20
-238.7822209073929
 30
0.0
 40
1.794844359180341
100
AcDbArc
 50
249.4515665880765
 51
269.960209432521
  0
ARC
  5
67F6D
330
1E
100
AcDbEntity
  8
DETAIL
100
AcDbCircle
 10
-381.8400307488689
 20
-244.8722492859212
 30
0.0
 40
1.384369144371916
100
AcDbArc
 50
251.37049385632
 51
269.2613886076821
  0
ARC
  5
67F6E
330
1E
100
AcDbEntity
  8
DETAIL
100
AcDbCircle
 10
-381.7317564074642
 20
-242.0400659142151
 30
0.0
 40
1.440250969331547
100
AcDbArc
 50
251.4448691670057
 51
268.7830157292282
  0
ARC
  5
67F6F
330
1E
100
AcDbEntity
  8
DETAIL
100
AcDbCircle
 10
-379.5254308518856
 20
-243.4843264935793
 30
0.0
 40
2.665805073979298
100
AcDbArc
 50
147.0466930701076
 51
178.3044627078624
  0
LINE
  5
67F70
330
1E
100
AcDbEntity
  8
DETAIL
100
AcDbLine
 10
-381.7623455887133
 20
-243.4799920083778
 30
0.0
 11
-381.7623455887133
 21
-242.0342474775884
 31
0.0
  0
LINE
  5
67F71
330
1E
100
AcDbEntity
  8
DETAIL
100
AcDbLine
 10
-381.7623440402376
 20
-243.4799920749589
 30
0.0
 11
-381.8578764350513
 21
-246.2565034025392
 31
0.0
  0
LINE
  5
67F72
330
1E
100
AcDbEntity
  8
DETAIL
100
AcDbLine
 10
-382.1900687504576
 20
-243.4054496151686
 30
0.0
 11
-382.2822638008965
 21
-246.184083061818
 31
0.0
  0
ARC
  5
67F73
330
1E
100
AcDbEntity
  8
DETAIL
100
AcDbCircle
 10
-391.725565937038
 20
-235.9670672431655
 30
0.0
 40
0.9021323329436665
100
AcDbArc
 50
181.6465759641308
 51
248.8792282757239
  0
LINE
  5
67F74
330
1E
100
AcDbEntity
  8
DETAIL
100
AcDbLine
 10
-391.6848782152792
 20
-237.2880028097167
 30
0.0
 11
-391.6174537814622
 21
-238.966406988414
 31
0.0
  0
LINE
  5
67F75
330
1E
100
AcDbEntity
  8
DETAIL
100
AcDbLine
 10
-392.0506204799567
 20
-236.8086036413078
 30
0.0
 11
-392.0609520128152
 21
-237.1537552802501
 31
0.0
  0
LINE
  5
67F76
330
1E
100
AcDbEntity
  8
DETAIL
100
AcDbLine
 10
-392.0836021107761
 20
-236.4901242810194
 30
0.0
 11
-392.0506204799567
 21
-236.8086036413078
 31
0.0
  0
LINE
  5
67F77
330
1E
100
AcDbEntity
  8
DETAIL
100
AcDbLine
 10
-392.6267691343118
 20
-235.9782739379029
 30
0.0
 11
-392.7379249856094
 21
-236.6302106641678
 31
0.0
  0
ARC
  5
67F78
330
1E
100
AcDbEntity
  8
DETAIL
100
AcDbCircle
 10
-391.8401681709294
 20
-236.1688165249117
 30
0.0
 40
1.009381914858862
100
AcDbArc
 50
207.2004951457746
 51
257.366273106607
  0
ARC
  5
67F79
330
1E
100
AcDbEntity
  8
DETAIL
100
AcDbCircle
 10
-391.8884817415096
 20
-235.7389407540774
 30
0.0
 40
0.7761112353599273
100
AcDbArc
 50
197.9613188973723
 51
255.4458230612218
  0
ARC
  5
67F7A
330
1E
100
AcDbEntity
  8
DETAIL
100
AcDbCircle
 10
-366.8102407258325
 20
-229.9435581152545
 30
0.0
 40
26.77603655107638
100
AcDbArc
 50
176.1040030901295
 51
194.4612547787096
  0
LINE
  5
67F7B
330
1E
100
AcDbEntity
  8
DETAIL
  6
CONTINUOUS
100
AcDbLine
 10
-392.614346093811
 20
-239.7192307325699
 30
0.0
 11
-392.7379249856094
 21
-236.630210664168
 31
0.0
  0
LINE
  5
67F7C
330
1E
100
AcDbEntity
  8
DETAIL
100
AcDbLine
 10
-392.6077173432004
 20
-239.7816844562798
 30
0.0
 11
-391.6174511597282
 21
-238.9664078045457
 31
0.0
  0
LINE
  5
67F7D
330
1E
100
AcDbEntity
  8
DETAIL
100
AcDbLine
 10
-391.6174537814622
 20
-238.966406988414
 30
0.0
 11
-392.0446226553321
 21
-240.3232962184722
 31
0.0
  0
LINE
  5
67F7E
330
1E
100
AcDbEntity
  8
DETAIL
100
AcDbLine
 10
-392.0850289997197
 20
-240.308161784894
 30
0.0
 11
-392.6077173432004
 21
-239.7816844562798
 31
0.0
  0
LINE
  5
67F7F
330
1E
100
AcDbEntity
  8
DETAIL
100
AcDbLine
 10
-392.0506358027291
 20
-236.8085969981725
 30
0.0
 11
-383.5296182326292
 21
-239.5249739862492
 31
0.0
  0
LINE
  5
67F80
330
1E
100
AcDbEntity
  8
DETAIL
100
AcDbLine
 10
-382.7909496656284
 20
-240.4628697596094
 30
0.0
 11
-392.0609520250181
 21
-237.1537556879197
 31
0.0
  0
LINE
  5
67F81
330
1E
100
AcDbEntity
  8
DETAIL
100
AcDbLine
 10
-383.8018099428859
 20
-238.9762337657523
 30
0.0
 11
-392.0835148778424
 21
-236.4901469344195
 31
0.0
  0
LINE
  5
67F82
330
1E
100
AcDbEntity
  8
DETAIL
  6
CONTINUOUS
100
AcDbLine
 10
-382.1220245284093
 20
-243.42674859319
 30
0.0
 11
-392.0850289997197
 21
-240.308161784894
 31
0.0
  0
LINE
  5
67F83
330
1E
100
AcDbEntity
  8
DETAIL
  6
CONTINUOUS
100
AcDbLine
 10
-381.7623500694899
 20
-242.0342474775884
 30
0.0
 11
-391.6174511597569
 21
-238.9664078045368
 31
0.0
  0
ARC
  5
67F84
330
1E
100
AcDbEntity
  8
DETAIL
100
AcDbCircle
 10
-355.6249465247019
 20
-249.8378453226032
 30
0.0
 40
10.53581716830249
100
AcDbArc
 50
357.0911929510244
 51
25.65010428142691
  0
ARC
  5
67F85
330
1E
100
AcDbEntity
  8
DETAIL
100
AcDbCircle
 10
-343.1632141391787
 20
-250.5451149566399
 30
0.0
 40
1.948301169638265
100
AcDbArc
 50
88.39503045576336
 51
174.2144769148242
  0
ARC
  5
67F86
330
1E
100
AcDbEntity
  8
DETAIL
100
AcDbCircle
 10
-341.7537474926202
 20
-249.9972902573899
 30
0.0
 40
5.679623315995756
100
AcDbArc
 50
126.6825492977441
 51
135.5191683718738
  0
ARC
  5
67F87
330
1E
100
AcDbEntity
  8
DETAIL
100
AcDbCircle
 10
-344.1209972423194
 20
-247.5718355763929
 30
0.0
 40
2.093756748799667
100
AcDbArc
 50
109.3100328853518
 51
140.0791456938771
  0
ARC
  5
67F88
330
1E
100
AcDbEntity
  8
DETAIL
100
AcDbCircle
 10
-346.14616548928
 20
-244.8767313682072
 30
0.0
 40
1.379774119120657
100
AcDbArc
 50
270.0990597083061
 51
287.0628120354154
  0
ARC
  5
67F89
330
1E
100
AcDbEntity
  8
DETAIL
100
AcDbCircle
 10
-346.3236088247031
 20
-248.4384804088358
 30
0.0
 40
3.218897564668205
100
AcDbArc
 50
357.1669358461029
 51
86.95250544245912
  0
LINE
  5
67F8A
330
1E
100
AcDbEntity
  8
DETAIL
100
AcDbLine
 10
-351.6693201552338
 20
0.0
 30
0.0
 11
-351.5165251385926
 21
-27.7633301910796
 31
0.0
  0
LINE
  5
67F8B
330
1E
100
AcDbEntity
  8
DETAIL
100
AcDbLine
 10
-349.5983920175544
 20
-27.7633301910796
 30
0.0
 11
-349.5339373439765
 21
0.0
 31
0.0
  0
ARC
  5
67F8C
330
1E
100
AcDbEntity
  8
DETAIL
100
AcDbCircle
 10
-460.4344207912795
 20
-30.80367979468746
 30
0.0
 40
76.32483290626524
100
AcDbArc
 50
2.282943780894798
 51
22.5023011953906
  0
ARC
  5
67F8D
330
1E
100
AcDbEntity
  8
DETAIL
100
AcDbCircle
 10
-591.9287362199411
 20
-44.59906968204904
 30
0.0
 40
200.6106134232044
100
AcDbArc
 50
0.6574703670045523
 51
10.92856163055882
  0
LINE
  5
67F8E
330
1E
100
AcDbEntity
  8
DETAIL
100
AcDbLine
 10
-383.679570675984
 20
-38.20427984679054
 30
0.0
 11
-383.7483923426043
 21
-38.12868774999947
 31
0.0
  0
LINE
  5
67F8F
330
1E
100
AcDbEntity
  8
DETAIL
100
AcDbLine
 10
-383.6265970787987
 20
-38.38468433186221
 30
0.0
 11
-383.679570675984
 21
-38.20427984679054
 31
0.0
  0
LINE
  5
67F90
330
1E
100
AcDbEntity
  8
DETAIL
100
AcDbLine
 10
-390.0225954880261
 20
-37.85283016638777
 30
0.0
 11
-390.1100019375762
 21
-40.4180523114328
 31
0.0
  0
ARC
  5
67F91
330
1E
100
AcDbEntity
  8
DETAIL
100
AcDbCircle
 10
-390.0281441708475
 20
-38.89399154531361
 30
0.0
 40
1.041176164175819
100
AcDbArc
 50
89.69465531067084
 51
153.7200903941418
  0
LINE
  5
67F92
330
1E
100
AcDbEntity
  8
DETAIL
  6
CONTINUOUS
100
AcDbLine
 10
-384.1701670910224
 20
-28.60362648399723
 30
0.0
 11
-384.1701670910224
 21
-27.7633301910796
 31
0.0
  0
ARC
  5
67F93
330
1E
100
AcDbEntity
  8
DETAIL
100
AcDbCircle
 10
-390.2740628200429
 20
-35.23247181917963
 30
0.0
 40
1.03103960654275
100
AcDbArc
 50
89.20225194250804
 51
154.3306238527203
  0
LINE
  5
67F94
330
1E
100
AcDbEntity
  8
DETAIL
100
AcDbLine
 10
-391.2033481401995
 20
-34.78586323364015
 30
0.0
 11
-390.9617058320073
 21
-38.43300885512735
 31
0.0
  0
LINE
  5
67F95
330
1E
100
AcDbEntity
  8
DETAIL
100
AcDbLine
 10
-390.2597074227371
 20
-34.20153215420032
 30
0.0
 11
-390.0225954880261
 21
-37.85283016638777
 31
0.0
  0
ARC
  5
67F96
330
1E
100
AcDbEntity
  8
DETAIL
100
AcDbCircle
 10
-383.9426845665975
 20
-34.96221678121264
 30
0.0
 40
6.362658160451689
100
AcDbArc
 50
92.04891832815814
 51
173.1336326941244
  0
LINE
  5
67F97
330
1E
100
AcDbEntity
  8
DETAIL
  6
CONTINUOUS
100
AcDbLine
 10
-373.9892204121169
 20
-51.42816210473893
 30
0.0
 11
-373.9892204121169
 21
-51.96380033836021
 31
0.0
  0
LINE
  5
67F98
330
1E
100
AcDbEntity
  8
DETAIL
100
AcDbLine
 10
-381.2059900714594
 20
-58.80311097161984
 30
0.0
 11
-390.4735748605598
 21
-52.30655633011974
 31
0.0
  0
LINE
  5
67F99
330
1E
100
AcDbEntity
  8
DETAIL
100
AcDbLine
 10
-381.2059896844275
 20
-58.80354598668827
 30
0.0
 11
-380.7593439160796
 21
-58.80537453319743
 31
0.0
  0
LINE
  5
67F9A
330
1E
100
AcDbEntity
  8
DETAIL
  6
CONTINUOUS
100
AcDbLine
 10
-390.4616708711291
 20
-51.54363271006014
 30
0.0
 11
-390.4735787933732
 21
-52.30622182447723
 31
0.0
  0
LINE
  5
67F9B
330
1E
100
AcDbEntity
  8
DETAIL
  6
CONTINUOUS
100
AcDbLine
 10
-391.0180161979442
 20
-51.56112832540043
 30
0.0
 11
-391.0169828331545
 21
-52.30048019053834
 31
0.0
  0
LINE
  5
67F9C
330
1E
100
AcDbEntity
  8
DETAIL
100
AcDbLine
 10
-390.4735787933732
 20
-52.30622182447723
 30
0.0
 11
-391.0086130759891
 21
-52.30085480897833
 31
0.0
  0
LINE
  5
67F9D
330
1E
100
AcDbEntity
  8
DETAIL
100
AcDbLine
 10
-391.0180161979442
 20
-51.56112832540043
 30
0.0
 11
-390.4616708712524
 21
-51.54363271357147
 31
0.0
  0
LINE
  5
67F9E
330
1E
100
AcDbEntity
  8
DETAIL
100
AcDbLine
 10
-382.5040849541546
 20
-43.84068713938813
 30
0.0
 11
-382.5040849541546
 21
-43.58196699281006
 31
0.0
  0
LINE
  5
67F9F
330
1E
100
AcDbEntity
  8
DETAIL
100
AcDbLine
 10
-382.6981726441609
 20
-43.84494704027929
 30
0.0
 11
-382.6915610143664
 21
-43.58086386430318
 31
0.0
  0
LINE
  5
67FA0
330
1E
100
AcDbEntity
  8
DETAIL
100
AcDbLine
 10
-382.6915596813887
 20
-43.58086383048976
 30
0.0
 11
-382.5040849541546
 21
-43.58196699281006
 31
0.0
  0
ARC
  5
67FA1
330
1E
100
AcDbEntity
  8
DETAIL
100
AcDbCircle
 10
-374.8143550238346
 20
-57.91777971097667
 30
0.0
 40
6.010883254314378
100
AcDbArc
 50
82.10989756523849
 51
188.4916123305313
  0
ARC
  5
67FA2
330
1E
100
AcDbEntity
  8
DETAIL
100
AcDbCircle
 10
-374.5709398458257
 20
-58.07738547947088
 30
0.0
 40
6.674621261662379
100
AcDbArc
 50
85.00010460856094
 51
186.2420583348374
  0
LINE
  5
67FA3
330
1E
100
AcDbEntity
  8
DETAIL
  6
CONTINUOUS
100
AcDbLine
 10
-373.9892204121169
 20
-51.42816210473893
 30
0.0
 11
-382.5040849541546
 21
-43.84068713938813
 31
0.0
  0
LINE
  5
67FA4
330
1E
100
AcDbEntity
  8
DETAIL
100
AcDbLine
 10
-382.6915589241211
 20
-43.5808638349456
 30
0.0
 11
-383.6265970787987
 21
-38.38468433186221
 31
0.0
  0
LINE
  5
67FA5
330
1E
100
AcDbEntity
  8
DETAIL
100
AcDbLine
 10
-390.9617061734604
 20
-38.43300370152064
 30
0.0
 11
-391.1346123782704
 21
-41.87088421149929
 31
0.0
  0
ARC
  5
67FA6
330
1E
100
AcDbEntity
  8
DETAIL
100
AcDbCircle
 10
-383.5132955952571
 20
-50.78673319087283
 30
0.0
 40
6.989478886350054
100
AcDbArc
 50
83.3028718446774
 51
186.2168239360493
  0
ARC
  5
67FA7
330
1E
100
AcDbEntity
  8
DETAIL
100
AcDbCircle
 10
-383.7646137661518
 20
-50.78721103551493
 30
0.0
 40
7.285996046499938
100
AcDbArc
 50
81.53117147226538
 51
186.0901135604735
  0
LINE
  5
67FA8
330
1E
100
AcDbEntity
  8
DETAIL
  6
CONTINUOUS
100
AcDbLine
 10
-391.0180161979442
 20
-51.56112832540043
 30
0.0
 11
-391.8285933099682
 21
-46.57183364662182
 31
0.0
  0
ARC
  5
67FA9
330
1E
100
AcDbEntity
  8
DETAIL
100
AcDbCircle
 10
-384.4778299510922
 20
-45.73391749172128
 30
0.0
 40
7.398366403527089
100
AcDbArc
 50
83.39309483887939
 51
186.5238826880871
  0
ARC
  5
67FAA
330
1E
100
AcDbEntity
  8
DETAIL
100
AcDbCircle
 10
-384.763649316369
 20
-45.29092182033969
 30
0.0
 40
7.233833257763222
100
AcDbArc
 50
81.93199245019249
 51
182.1458841932412
  0
ARC
  5
67FAB
330
1E
100
AcDbEntity
  8
DETAIL
100
AcDbCircle
 10
-383.9940605088854
 20
-34.97289291886704
 30
0.0
 40
7.211713267606657
100
AcDbArc
 50
91.39927457063466
 51
178.5139157918482
  0
ARC
  5
67FAC
330
1E
100
AcDbEntity
  8
DETAIL
100
AcDbCircle
 10
-359.0159926272065
 20
-32.69623438214285
 30
0.0
 40
0.5556680880618315
100
AcDbArc
 50
96.20901174999691
 51
184.4741355629679
  0
LINE
  5
67FAD
330
1E
100
AcDbEntity
  8
DETAIL
  6
CONTINUOUS
100
AcDbLine
 10
-359.5713889068429
 20
-38.12868774999947
 30
0.0
 11
-359.5699674001916
 21
-32.73958152721979
 31
0.0
  0
LINE
  5
67FAE
330
1E
100
AcDbEntity
  8
DETAIL
  6
CONTINUOUS
100
AcDbLine
 10
-359.0760913088597
 20
-32.14382586251827
 30
0.0
 11
-358.912112295844
 21
-38.12868774999947
 31
0.0
  0
LINE
  5
67FAF
330
1E
100
AcDbEntity
  8
DETAIL
  6
CONTINUOUS
100
AcDbLine
 10
-359.5699674001916
 20
-32.73958152721979
 30
0.0
 11
-359.4223114744818
 21
-38.12868774999947
 31
0.0
  0
LINE
  5
67FB0
330
1E
100
AcDbEntity
  8
DETAIL
  6
CONTINUOUS
100
AcDbLine
 10
-352.0308361353327
 20
-1.575274354899647
 30
0.0
 11
-389.9773203828262
 21
-1.575579655810543
 31
0.0
  0
LINE
  5
67FB1
330
1E
100
AcDbEntity
  8
DETAIL
100
AcDbLine
 10
-396.1460441987783
 20
-5.153513885358279
 30
0.0
 11
-394.9563311503916
 21
-6.566322487668003
 31
0.0
  0
LINE
  5
67FB2
330
1E
100
AcDbEntity
  8
DETAIL
100
AcDbLine
 10
-396.8771125618932
 20
-5.153513885342363
 30
0.0
 11
-396.1460441987783
 21
-5.153513885358279
 31
0.0
  0
LINE
  5
67FB3
330
1E
100
AcDbEntity
  8
DETAIL
100
AcDbLine
 10
-398.2019999993408
 20
-4.491272000348544
 30
0.0
 11
-396.8771125618932
 21
-5.153513885342363
 31
0.0
  0
LINE
  5
67FB4
330
1E
100
AcDbEntity
  8
DETAIL
100
AcDbLine
 10
-399.0
 20
-4.092393566135115
 30
0.0
 11
-398.2019999993408
 21
-4.491272000348544
 31
0.0
  0
LINE
  5
67FB5
330
1E
100
AcDbEntity
  8
DETAIL
100
AcDbLine
 10
-394.0124996109689
 20
-0.3036859519179416
 30
0.0
 11
-392.7703384567407
 21
-0.9245772985723306
 31
0.0
  0
LINE
  5
67FB6
330
1E
100
AcDbEntity
  8
DETAIL
100
AcDbLine
 10
-394.6200566249144
 20
0.0
 30
0.0
 11
-394.0124996109689
 21
-0.3036859519179416
 31
0.0
  0
ARC
  5
67FB7
330
1E
100
AcDbEntity
  8
DETAIL
100
AcDbCircle
 10
-391.9400770971969
 20
-5.17106928016301
 30
0.0
 40
4.206003738879847
100
AcDbArc
 50
90.93374040431232
 51
179.7608530536326
  0
ARC
  5
67FB8
330
1E
100
AcDbEntity
  8
DETAIL
100
AcDbCircle
 10
-392.6177540334288
 20
-5.181292548845931
 30
0.0
 40
4.259449110876857
100
AcDbArc
 50
81.77805502033509
 51
179.6263339649169
  0
ARC
  5
67FB9
330
1E
100
AcDbEntity
  8
DETAIL
100
AcDbCircle
 10
-394.0140617314168
 20
-4.49162394329096
 30
0.0
 40
4.18793828271202
100
AcDbArc
 50
89.97862840739307
 51
179.9951850063427
  0
ARC
  5
67FBA
330
1E
100
AcDbEntity
  8
DETAIL
100
AcDbCircle
 10
-394.9370880408037
 20
-4.050738184618694
 30
0.0
 40
4.063125491415537
100
AcDbArc
 50
85.5248627688884
 51
180.5874097096272
  0
ARC
  5
67FBB
330
1E
100
AcDbEntity
  8
DETAIL
100
AcDbCircle
 10
-389.9816960116377
 20
-6.566859170216957
 30
0.0
 40
4.974635167589033
100
AcDbArc
 50
89.29679922746363
 51
179.9938187150969
  0
LINE
  5
67FBC
330
1E
100
AcDbEntity
  8
DETAIL
100
AcDbLine
 10
-389.92064300736
 20
-1.592598664244178
 30
0.0
 11
-392.0086186516826
 21
-0.9656240591691584
 31
0.0
  0
LINE
  5
67FBD
330
1E
100
AcDbEntity
  8
DETAIL
100
AcDbLine
 10
-187.2951167744177
 20
-27.60135900722843
 30
0.0
 11
-187.2951167744177
 21
0.0
 31
0.0
  0
LINE
  5
67FBE
330
1E
100
AcDbEntity
  8
DETAIL
100
AcDbLine
 10
-188.8038339560066
 20
-27.60130235731912
 30
0.0
 11
-188.8038339560066
 21
0.0
 31
0.0
  0
LINE
  5
67FBF
330
1E
100
AcDbEntity
  8
DETAIL
100
AcDbLine
 10
-267.5938667744221
 20
-27.60135900722843
 30
0.0
 11
-267.5938667744221
 21
0.0
 31
0.0
  0
LINE
  5
67FC0
330
1E
100
AcDbEntity
  8
DETAIL
100
AcDbLine
 10
-269.1025839560111
 20
-27.60130235731912
 30
0.0
 11
-269.1025839560111
 21
0.0
 31
0.0
  0
LINE
  5
67FC1
330
1E
100
AcDbEntity
  8
DETAIL
  6
CONTINUOUS
100
AcDbLine
 10
-18.66297796685103
 20
-225.7818270819527
 30
0.0
 11
-12.46823995898012
 21
-223.9184196215901
 31
0.0
  0
ARC
  5
67FC2
330
1E
100
AcDbEntity
  8
DETAIL
100
AcDbCircle
 10
-0.0010606194873617
 20
-222.4821470119315
 30
0.0
 40
18.95138642855064
100
AcDbArc
 50
190.0270368493883
 51
210.6367413729165
  0
LINE
  5
67FC3
330
1E
100
AcDbEntity
  8
DETAIL
  6
CONTINUOUS
100
AcDbLine
 10
-16.30712446518737
 20
-232.1396455546491
 30
0.0
 11
-40.12980029207755
 21
-238.4468103414399
 31
0.0
  0
LINE
  5
67FC4
330
1E
100
AcDbEntity
  8
DETAIL
  6
CONTINUOUS
100
AcDbLine
 10
-2.561874545124737
 20
-238.4468146067483
 30
0.0
 11
-40.12980029207755
 21
-238.4468103414399
 31
0.0
  0
LINE
  5
67FC5
330
1E
100
AcDbEntity
  8
DETAIL
  6
CONTINUOUS
100
AcDbLine
 10
-11.3916646493617
 20
-218.3513655114884
 30
0.0
 11
-49.07102182622111
 21
-217.915254867288
 31
0.0
  0
LINE
  5
67FC6
330
1E
100
AcDbEntity
  8
DETAIL
100
AcDbLine
 10
-11.9660797032975
 20
-219.3243292924392
 30
0.0
 11
-52.19099059428299
 21
-219.4174161427286
 31
0.0
  0
LINE
  5
67FC7
330
1E
100
AcDbEntity
  8
DETAIL
  6
CONTINUOUS
100
AcDbLine
 10
40.12955560800401
 20
-239.3267988950081
 30
0.0
 11
-40.12955560931004
 21
-239.3267988950081
 31
0.0
  0
LINE
  5
67FC8
330
1E
100
AcDbEntity
  8
DETAIL
  6
CONTINUOUS
100
AcDbLine
 10
-74.36836641207992
 20
-240.5988921087998
 30
0.0
 11
74.36836641210357
 21
-240.5988921087998
 31
0.0
  0
LINE
  5
67FC9
330
1E
100
AcDbEntity
  8
DETAIL
  6
CONTINUOUS
100
AcDbLine
 10
-69.66675191924423
 20
-214.2030161463994
 30
0.0
 11
67.87418766474274
 21
-214.2030161463994
 31
0.0
  0
LINE
  5
67FCA
330
1E
100
AcDbEntity
  8
DETAIL
  6
CONTINUOUS
100
AcDbLine
 10
-69.66675191924423
 20
-214.6663344369715
 30
0.0
 11
67.87418766474274
 21
-214.6663344369715
 31
0.0
  0
LINE
  5
67FCB
330
1E
100
AcDbEntity
  8
DETAIL
  6
CONTINUOUS
100
AcDbLine
 10
-69.66675191924423
 20
-215.0017528348491
 30
0.0
 11
67.87418766474274
 21
-215.0017528348491
 31
0.0
  0
LINE
  5
67FCC
330
1E
100
AcDbEntity
  8
DETAIL
  6
CONTINUOUS
100
AcDbLine
 10
-69.30165253975065
 20
-215.6499188906791
 30
0.0
 11
67.50908828524917
 21
-215.6499188906791
 31
0.0
  0
LINE
  5
67FCD
330
1E
100
AcDbEntity
  8
DETAIL
  6
CONTINUOUS
100
AcDbLine
 10
-69.30157978024727
 20
-216.1493638316867
 30
0.0
 11
67.50908828524917
 21
-216.1493638316867
 31
0.0
  0
LINE
  5
67FCE
330
1E
100
AcDbEntity
  8
DETAIL
  6
CONTINUOUS
100
AcDbLine
 10
-69.25767837952299
 20
-216.9969382959255
 30
0.0
 11
67.4651141250215
 21
-216.9969382959255
 31
0.0
  0
LINE
  5
67FCF
330
1E
100
AcDbEntity
  8
DETAIL
  6
CONTINUOUS
100
AcDbLine
 10
-49.07101825515747
 20
-217.4313337980479
 30
0.0
 11
49.07101825385144
 21
-217.4313337980479
 31
0.0
  0
LINE
  5
67FD0
330
1E
100
AcDbEntity
  8
DETAIL
  6
CONTINUOUS
100
AcDbLine
 10
-49.07102182622111
 20
-217.915254867288
 30
0.0
 11
49.07102333845068
 21
-217.915254867288
 31
0.0
  0
LINE
  5
67FD1
330
1E
100
AcDbEntity
  8
DETAIL
  6
CONTINUOUS
100
AcDbLine
 10
-88.13383172344037
 20
-239.4914326989582
 30
0.0
 11
-76.15868673299519
 21
-218.749873147349
 31
0.0
  0
LINE
  5
67FD2
330
1E
100
AcDbEntity
  8
DETAIL
  6
CONTINUOUS
100
AcDbLine
 10
-86.48284920640117
 20
-239.4914326989585
 30
0.0
 11
-75.00369104627043
 21
-219.5418290947575
 31
0.0
  0
LINE
  5
67FD3
330
1E
100
AcDbEntity
  8
DETAIL
  6
CONTINUOUS
100
AcDbLine
 10
-86.74302246785282
 20
-239.4914326989585
 30
0.0
 11
-75.59574236503522
 21
-220.1566354701069
 31
0.0
  0
LINE
  5
67FD4
330
1E
100
AcDbEntity
  8
DETAIL
  6
CONTINUOUS
100
AcDbLine
 10
-87.52080679615028
 20
-239.4914326989585
 30
0.0
 11
-76.03449081475083
 21
-219.6264375570911
 31
0.0
  0
LINE
  5
67FD5
330
1E
100
AcDbEntity
  8
DETAIL
  6
CONTINUOUS
100
AcDbLine
 10
-89.32373392410136
 20
-239.4914326989585
 30
0.0
 11
-78.57708609171822
 21
-221.2496264043124
 31
0.0
  0
LINE
  5
67FD6
330
1E
100
AcDbEntity
  8
DETAIL
  6
CONTINUOUS
100
AcDbLine
 10
-88.57171705629161
 20
-239.4914326989585
 30
0.0
 11
-78.27144458468774
 21
-222.0986876629217
 31
0.0
  0
ARC
  5
67FD7
330
1E
100
AcDbEntity
  8
DETAIL
100
AcDbCircle
 10
-76.673737026053
 20
-217.955789079547
 30
0.0
 40
0.8785224487397016
100
AcDbArc
 50
243.1293936372769
 51
300.6641191326153
  0
ARC
  5
67FD8
330
1E
100
AcDbEntity
  8
DETAIL
100
AcDbCircle
 10
-74.40550874670453
 20
-219.4837637719442
 30
0.0
 40
0.6009938811898609
100
AcDbArc
 50
185.5443087727605
 51
254.6138105452619
  0
ARC
  5
67FD9
330
1E
100
AcDbEntity
  8
DETAIL
100
AcDbCircle
 10
-63.66740745127799
 20
-225.7262832823662
 30
0.0
 40
12.94961981601142
100
AcDbArc
 50
135.4881722549482
 51
151.2908589652158
  0
ARC
  5
67FDA
330
1E
100
AcDbEntity
  8
DETAIL
100
AcDbCircle
 10
-69.26637024309229
 20
-222.7703270540071
 30
0.0
 40
7.120495576351787
100
AcDbArc
 50
90.28390368909418
 51
120.7012107662132
  0
ARC
  5
67FDB
330
1E
100
AcDbEntity
  8
DETAIL
100
AcDbCircle
 10
-69.66675191957392
 20
-222.4979934586203
 30
0.0
 40
7.496240623771242
100
AcDbArc
 50
89.99999999747265
 51
150.0000000054233
  0
ARC
  5
67FDC
330
1E
100
AcDbEntity
  8
DETAIL
100
AcDbCircle
 10
-69.66254758477589
 20
-222.0120512505145
 30
0.0
 40
7.345718016722208
100
AcDbArc
 50
90.03279334073006
 51
153.3007137425721
  0
ARC
  5
67FDD
330
1E
100
AcDbEntity
  8
DETAIL
100
AcDbCircle
 10
-69.6608019311102
 20
-222.5231363151094
 30
0.0
 40
8.320122296224571
100
AcDbArc
 50
90.04097406567218
 51
152.9503485022321
  0
ARC
  5
67FDE
330
1E
100
AcDbEntity
  8
DETAIL
100
AcDbCircle
 10
-69.26811105083515
 20
-222.7647155852362
 30
0.0
 40
6.6154364163701
100
AcDbArc
 50
90.28987129506795
 51
150.4864719646353
  0
ARC
  5
67FDF
330
1E
100
AcDbEntity
  8
DETAIL
100
AcDbCircle
 10
-69.26701446351263
 20
-222.8411743472352
 30
0.0
 40
6.617789457984345
100
AcDbArc
 50
89.91916962747021
 51
150.0954842963555
  0
ARC
  5
67FE0
330
1E
100
AcDbEntity
  8
DETAIL
100
AcDbCircle
 10
-69.25791925133172
 20
-223.1227371924408
 30
0.0
 40
6.125798901250891
100
AcDbArc
 50
89.99774707947784
 51
150.0364969060237
  0
ARC
  5
67FE1
330
1E
100
AcDbEntity
  8
DETAIL
100
AcDbCircle
 10
-49.55423092830642
 20
-239.2067863879515
 30
0.0
 40
21.29701397074952
100
AcDbArc
 50
88.69990546527109
 51
94.5103099781534
  0
ARC
  5
67FE2
330
1E
100
AcDbEntity
  8
DETAIL
100
AcDbCircle
 10
-50.93480024619657
 20
-218.8827825022885
 30
0.0
 40
1.271636959861889
100
AcDbArc
 50
99.94560318902209
 51
141.5316456451689
  0
ARC
  5
67FE3
330
1E
100
AcDbEntity
  8
DETAIL
100
AcDbCircle
 10
-49.26345448400343
 20
-226.4256305590481
 30
0.0
 40
8.996355146814531
100
AcDbArc
 50
88.77432308773069
 51
102.1336840837204
  0
LINE
  5
67FE4
330
1E
100
AcDbEntity
  8
DETAIL
  6
CONTINUOUS
100
AcDbLine
 10
-51.7567288722039
 20
-234.7932244050894
 30
0.0
 11
-51.75504603382797
 21
-219.2998428207088
 31
0.0
  0
LINE
  5
67FE5
330
1E
100
AcDbEntity
  8
DETAIL
  6
CONTINUOUS
100
AcDbLine
 10
-52.18958849100818
 20
-234.82603101235
 30
0.0
 11
-52.19063119504608
 21
-219.3230116042475
 31
0.0
  0
ARC
  5
67FE6
330
1E
100
AcDbEntity
  8
DETAIL
100
AcDbCircle
 10
-37.55843988989591
 20
-218.9554589160465
 30
0.0
 40
14.20455047217638
100
AcDbArc
 50
178.4479760532018
 51
181.8594933026227
  0
ARC
  5
67FE7
330
1E
100
AcDbEntity
  8
DETAIL
100
AcDbCircle
 10
-48.4365207513415
 20
-234.900991462234
 30
0.0
 40
3.753822536769707
100
AcDbArc
 50
178.8557667709437
 51
201.9075827746406
  0
ARC
  5
67FE8
330
1E
100
AcDbEntity
  8
DETAIL
100
AcDbCircle
 10
-48.24879555343887
 20
-234.8954053096724
 30
0.0
 40
3.508795563951068
100
AcDbArc
 50
178.3265143853708
 51
200.1873612505495
  0
ARC
  5
67FE9
330
1E
100
AcDbEntity
  8
DETAIL
100
AcDbCircle
 10
-47.87929139017523
 20
-234.065277272236
 30
0.0
 40
4.61762621557682
100
AcDbArc
 50
208.9664601216894
 51
258.6630826508654
  0
ARC
  5
67FEA
330
1E
100
AcDbEntity
  8
DETAIL
100
AcDbCircle
 10
-48.30461056108697
 20
-234.4832114017376
 30
0.0
 40
3.618073571227474
100
AcDbArc
 50
206.0874388919986
 51
265.8065686637359
  0
ARC
  5
67FEB
330
1E
100
AcDbEntity
  8
DETAIL
100
AcDbCircle
 10
-41.29689022041975
 20
-202.2520573551398
 30
0.0
 40
37.09311432524066
100
AcDbArc
 50
258.1380487754504
 51
271.8034180401678
  0
ARC
  5
67FEC
330
1E
100
AcDbEntity
  8
DETAIL
100
AcDbCircle
 10
-42.7417956582085
 20
-200.0722167146288
 30
0.0
 40
38.46338269263511
100
AcDbArc
 50
261.285865081821
 51
273.8938823131001
  0
ARC
  5
67FED
330
1E
100
AcDbEntity
  8
DETAIL
100
AcDbCircle
 10
-49.42036263774025
 20
-219.2683025760707
 30
0.0
 40
2.773840023612071
100
AcDbArc
 50
155.1567330429716
 51
182.905793518267
  0
ARC
  5
67FEE
330
1E
100
AcDbEntity
  8
DETAIL
100
AcDbCircle
 10
-51.23281869063385
 20
-218.5006533998855
 30
0.0
 40
0.5296177839384586
100
AcDbArc
 50
86.90978891026086
 51
187.6038629078273
  0
LINE
  5
67FEF
330
1E
100
AcDbEntity
  8
DETAIL
  6
CONTINUOUS
100
AcDbLine
 10
-18.66297799837775
 20
-225.7818270914301
 30
0.0
 11
-51.7567288722039
 21
-234.7932244050894
 31
0.0
  0
LINE
  5
67FF0
330
1E
100
AcDbEntity
  8
DETAIL
  6
CONTINUOUS
100
AcDbLine
 10
-73.00169136785007
 20
-215.7862376213133
 30
0.0
 11
-75.02512450934318
 21
-219.5057594613226
 31
0.0
  0
LINE
  5
67FF1
330
1E
100
AcDbEntity
  8
DETAIL
  6
CONTINUOUS
100
AcDbLine
 10
-72.25911750166506
 20
-215.4663860006762
 30
0.0
 11
-72.90183303094181
 21
-216.6478568207662
 31
0.0
  0
LINE
  5
67FF2
330
1E
100
AcDbEntity
  8
DETAIL
  6
CONTINUOUS
100
AcDbLine
 10
-74.85001755106168
 20
-219.1982415819615
 30
0.0
 11
-75.02512450934318
 21
-219.5057594613226
 31
0.0
  0
LINE
  5
67FF3
330
1E
100
AcDbEntity
  8
DETAIL
  6
CONTINUOUS
100
AcDbLine
 10
-85.90870493869806
 20
-239.8324772214493
 30
0.0
 11
-74.5649666817917
 21
-220.0632176632639
 31
0.0
  0
LINE
  5
67FF4
330
1E
100
AcDbEntity
  8
DETAIL
  6
CONTINUOUS
100
AcDbLine
 10
-75.59574236503522
 20
-220.1566354701069
 30
0.0
 11
-73.13717087269925
 21
-215.8552838865182
 31
0.0
  0
LINE
  5
67FF5
330
1E
100
AcDbEntity
  8
DETAIL
  6
CONTINUOUS
100
AcDbLine
 10
-76.03449081475083
 20
-219.6264375570911
 30
0.0
 11
-74.30753421653117
 21
-216.6134788080539
 31
0.0
  0
LINE
  5
67FF6
330
1E
100
AcDbEntity
  8
DETAIL
  6
CONTINUOUS
100
AcDbLine
 10
-75.00369464978303
 20
-219.5418352372705
 30
0.0
 11
-74.91907044627442
 21
-219.3975856333127
 31
0.0
  0
LINE
  5
67FF7
330
1E
100
AcDbEntity
  8
DETAIL
  6
CONTINUOUS
100
AcDbLine
 10
-74.85682025282767
 20
-219.2238193933212
 30
0.0
 11
-75.02512450934318
 21
-219.5057594613226
 31
0.0
  0
LINE
  5
67FF8
330
1E
100
AcDbEntity
  8
DETAIL
  6
CONTINUOUS
100
AcDbLine
 10
-78.57708609171822
 20
-221.2496264043124
 30
0.0
 11
-77.07075229752809
 21
-218.7393964934058
 31
0.0
  0
LINE
  5
67FF9
330
1E
100
AcDbEntity
  8
DETAIL
  6
CONTINUOUS
100
AcDbLine
 10
-78.27144458468774
 20
-222.0986876629217
 30
0.0
 11
-76.23273890772907
 21
-218.71736874835
 31
0.0
  0
LINE
  5
67FFA
330
1E
100
AcDbEntity
  8
DETAIL
  6
CONTINUOUS
100
AcDbLine
 10
-69.66675191924423
 20
-215.0017528348489
 30
0.0
 11
-69.66675191924423
 21
-214.2030161463994
 31
0.0
  0
LINE
  5
67FFB
330
1E
100
AcDbEntity
  8
DETAIL
  6
CONTINUOUS
100
AcDbLine
 10
-69.30165253975065
 20
-215.6499188906791
 30
0.0
 11
-69.30165253975065
 21
-216.1493638316867
 31
0.0
  0
LINE
  5
67FFC
330
1E
100
AcDbEntity
  8
DETAIL
  6
CONTINUOUS
100
AcDbLine
 10
-69.25767837952299
 20
-216.2233914747207
 30
0.0
 11
-69.25767837952299
 21
-216.9969382959255
 31
0.0
  0
LINE
  5
67FFD
330
1E
100
AcDbEntity
  8
DETAIL
  6
CONTINUOUS
100
AcDbLine
 10
-71.99814714133481
 20
-216.1906713359146
 30
0.0
 11
-72.45536099728451
 21
-216.4019050779029
 31
0.0
  0
LINE
  5
67FFE
330
1E
100
AcDbEntity
  8
DETAIL
  6
CONTINUOUS
100
AcDbLine
 10
-72.90185571290203
 20
-216.6478682950119
 30
0.0
 11
-72.64474781687295
 21
-217.0759476766134
 31
0.0
  0
LINE
  5
67FFF
330
1E
100
AcDbEntity
  8
DETAIL
  6
CONTINUOUS
100
AcDbLine
 10
-75.00369464978303
 20
-219.5418352372705
 30
0.0
 11
-75.02512450934318
 21
-219.5057594613226
 31
0.0
  0
LINE
  5
68000
330
1E
100
AcDbEntity
  8
DETAIL
  6
CONTINUOUS
100
AcDbLine
 10
-69.30157978024727
 20
-216.1493638316867
 30
0.0
 11
-69.25767837952299
 21
-216.2233914747207
 31
0.0
  0
LINE
  5
68001
330
1E
100
AcDbEntity
  8
DETAIL
  6
CONTINUOUS
100
AcDbLine
 10
-76.22503883065928
 20
-218.7115647457333
 30
0.0
 11
-76.15868673299519
 21
-218.749873147349
 31
0.0
  0
LINE
  5
68002
330
1E
100
AcDbEntity
  8
DETAIL
  6
CONTINUOUS
100
AcDbLine
 10
-69.30157978158058
 20
-216.1493638303536
 30
0.0
 11
-69.67445254537324
 21
-216.1600468514707
 31
0.0
  0
ARC
  5
68003
330
1E
100
AcDbEntity
  8
DETAIL
100
AcDbCircle
 10
50.93480024619839
 20
-218.8827825022885
 30
0.0
 40
1.271636959861889
100
AcDbArc
 50
38.46835435483102
 51
80.05439681097792
  0
ARC
  5
68004
330
1E
100
AcDbEntity
  8
DETAIL
100
AcDbCircle
 10
48.30461056108879
 20
-234.4832114017376
 30
0.0
 40
3.618073571227474
100
AcDbArc
 50
274.193431336264
 51
333.9125611080012
  0
ARC
  5
68005
330
1E
100
AcDbEntity
  8
DETAIL
100
AcDbCircle
 10
47.87929139017705
 20
-234.065277272236
 30
0.0
 40
4.61762621557682
100
AcDbArc
 50
281.3369173491345
 51
331.0335398783105
  0
ARC
  5
68006
330
1E
100
AcDbEntity
  8
DETAIL
100
AcDbCircle
 10
48.24879555344068
 20
-234.8954053096724
 30
0.0
 40
3.508795563951068
100
AcDbArc
 50
339.8126387494504
 51
1.673485614629182
  0
LINE
  5
68007
330
1E
100
AcDbEntity
  8
DETAIL
100
AcDbLine
 10
51.75609455131416
 20
-234.7929355623393
 30
0.0
 11
52.18959475131669
 21
-234.826030217006
 31
0.0
  0
ARC
  5
68008
330
1E
100
AcDbEntity
  8
DETAIL
100
AcDbCircle
 10
51.23281869063567
 20
-218.5006533998855
 30
0.0
 40
0.5296177839384586
100
AcDbArc
 50
352.3961370921726
 51
93.09021108973915
  0
LINE
  5
68009
330
1E
100
AcDbEntity
  8
DETAIL
100
AcDbLine
 10
52.19057118545243
 20
-219.4174502638777
 30
0.0
 11
11.96485575884253
 21
-219.3181663517398
 31
0.0
  0
LINE
  5
6800A
330
1E
100
AcDbEntity
  8
DETAIL
  6
CONTINUOUS
100
AcDbLine
 10
49.07101825385144
 20
-217.431333812678
 30
0.0
 11
49.07102041110192
 21
-217.9152546225682
 31
0.0
  0
ARC
  5
6800B
330
1E
100
AcDbEntity
  8
DETAIL
100
AcDbCircle
 10
49.26345448400525
 20
-226.4256305590481
 30
0.0
 40
8.996355146814531
100
AcDbArc
 50
77.86631591627956
 51
91.22567691226931
  0
ARC
  5
6800C
330
1E
100
AcDbEntity
  8
DETAIL
100
AcDbCircle
 10
49.55423092830824
 20
-239.2067863879515
 30
0.0
 40
21.29701397074952
100
AcDbArc
 50
85.4896900218466
 51
91.30009453472892
  0
LINE
  5
6800D
330
1E
100
AcDbEntity
  8
DETAIL
  6
CONTINUOUS
100
AcDbLine
 10
51.75550817426847
 20
-219.3890130989693
 30
0.0
 11
51.75672280209801
 21
-234.7932227651997
 31
0.0
  0
ARC
  5
6800E
330
1E
100
AcDbEntity
  8
DETAIL
100
AcDbCircle
 10
37.55843988989772
 20
-218.9554589160465
 30
0.0
 40
14.20455047217638
100
AcDbArc
 50
358.1405066973772
 51
1.552023946798196
  0
LINE
  5
6800F
330
1E
100
AcDbEntity
  8
DETAIL
  6
CONTINUOUS
100
AcDbLine
 10
40.12955560800401
 20
-239.3267988950081
 30
0.0
 11
40.12955702046201
 21
-238.446809540778
 31
0.0
  0
ARC
  5
68010
330
1E
100
AcDbEntity
  8
DETAIL
100
AcDbCircle
 10
0.0010606194891807
 20
-222.4821470119315
 30
0.0
 40
18.95138642855064
100
AcDbArc
 50
329.3632586270835
 51
349.9729631506117
  0
LINE
  5
68011
330
1E
100
AcDbEntity
  8
DETAIL
  6
CONTINUOUS
100
AcDbLine
 10
16.30712446521283
 20
-232.1396455546491
 30
0.0
 11
40.12979940897821
 21
-238.4468103999586
 31
0.0
  0
LINE
  5
68012
330
1E
100
AcDbEntity
  8
DETAIL
  6
CONTINUOUS
100
AcDbLine
 10
18.66297799840322
 20
-225.7818270914301
 30
0.0
 11
51.75672280209801
 21
-234.7932227651997
 31
0.0
  0
ARC
  5
68013
330
1E
100
AcDbEntity
  8
DETAIL
100
AcDbCircle
 10
42.74179565821031
 20
-200.0722167146288
 30
0.0
 40
38.46338269263511
100
AcDbArc
 50
266.1061176868999
 51
278.714134918179
  0
ARC
  5
68014
330
1E
100
AcDbEntity
  8
DETAIL
100
AcDbCircle
 10
41.29689022042157
 20
-202.2520573551398
 30
0.0
 40
37.09311432524066
100
AcDbArc
 50
268.1965819598321
 51
281.8619512245495
  0
LINE
  5
68015
330
1E
100
AcDbEntity
  8
DETAIL
  6
CONTINUOUS
100
AcDbLine
 10
4.203125394489688
 20
-222.0724769988696
 30
0.0
 11
6.164925560749907
 21
-221.8110827649291
 31
0.0
  0
LINE
  5
68016
330
1E
100
AcDbEntity
  8
DETAIL
  6
CONTINUOUS
100
AcDbLine
 10
2.906380236825953
 20
-221.5167109357202
 30
0.0
 11
5.195765578477221
 21
-221.1339000886177
 31
0.0
  0
LINE
  5
68017
330
1E
100
AcDbEntity
  8
DETAIL
  6
CONTINUOUS
100
AcDbLine
 10
2.906379442994875
 20
-221.516711069268
 30
0.0
 11
0.0000000000009095
 21
-221.516711069268
 31
0.0
  0
LINE
  5
68018
330
1E
100
AcDbEntity
  8
DETAIL
  6
CONTINUOUS
100
AcDbLine
 10
0.0000000000009095
 20
-230.4120374727988
 30
0.0
 11
3.732639467883927
 21
-230.4120374727988
 31
0.0
  0
LINE
  5
68019
330
1E
100
AcDbEntity
  8
DETAIL
  6
CONTINUOUS
100
AcDbLine
 10
2.176288064614709
 20
-235.249749999999
 30
0.0
 11
-0.0000000013296813
 21
-235.249749999999
 31
0.0
  0
LINE
  5
6801A
330
1E
100
AcDbEntity
  8
DETAIL
  6
CONTINUOUS
100
AcDbLine
 10
4.224771782881362
 20
-229.6187055107898
 30
0.0
 11
5.572733660303128
 21
-232.0579474917001
 31
0.0
  0
LINE
  5
6801B
330
1E
100
AcDbEntity
  8
DETAIL
  6
CONTINUOUS
100
AcDbLine
 10
3.704532585854394
 20
-230.4120374727988
 30
0.0
 11
4.970858218732246
 21
-232.7035523118395
 31
0.0
  0
LINE
  5
6801C
330
1E
100
AcDbEntity
  8
DETAIL
  6
CONTINUOUS
100
AcDbLine
 10
4.224357393446553
 20
-229.9205056740674
 30
0.0
 11
4.224656427992158
 21
-222.3852454819584
 31
0.0
  0
LINE
  5
6801D
330
1E
100
AcDbEntity
  8
DETAIL
  6
CONTINUOUS
100
AcDbLine
 10
1.865324999340373
 20
-235.249749999999
 30
0.0
 11
1.865324999340373
 21
-235.5058129568701
 31
0.0
  0
ARC
  5
6801E
330
1E
100
AcDbEntity
  8
DETAIL
100
AcDbCircle
 10
0.0587311714457428
 20
-251.2092328352764
 30
0.0
 40
30.98345113608063
100
AcDbArc
 50
80.03896926598194
 51
90.10860798721251
  0
ARC
  5
6801F
330
1E
100
AcDbEntity
  8
DETAIL
100
AcDbCircle
 10
5.199279611145811
 20
-222.1665361738628
 30
0.0
 40
1.4898699195312
100
AcDbArc
 50
19.67788891970559
 51
81.55053100143767
  0
ARC
  5
68020
330
1E
100
AcDbEntity
  8
DETAIL
100
AcDbCircle
 10
3.728102903436592
 20
-229.9157812297021
 30
0.0
 40
0.4962769783391999
100
AcDbArc
 50
270.5237591662664
 51
359.4545489247507
  0
ARC
  5
68021
330
1E
100
AcDbEntity
  8
DETAIL
100
AcDbCircle
 10
0.0000000000127329
 20
-224.0254078642328
 30
0.0
 40
10.00098107608129
100
AcDbArc
 50
269.9999999999348
 51
299.8041662280387
  0
ARC
  5
68022
330
1E
100
AcDbEntity
  8
DETAIL
100
AcDbCircle
 10
0.0215773811255531
 20
-224.0758379154065
 30
0.0
 40
10.35474483836179
100
AcDbArc
 50
269.880606061719
 51
299.9235667864081
  0
ARC
  5
68023
330
1E
100
AcDbEntity
  8
DETAIL
100
AcDbCircle
 10
-5.481950291271914
 20
-226.2785264877024
 30
0.0
 40
12.47428332252629
100
AcDbArc
 50
332.3993003066403
 51
20.98553742924895
  0
ARC
  5
68024
330
1E
100
AcDbEntity
  8
DETAIL
100
AcDbCircle
 10
4.228313424615407
 20
-231.4079466019234
 30
0.0
 40
1.493307378551647
100
AcDbArc
 50
299.8181259244485
 51
334.197141352772
  0
LINE
  5
68025
330
1E
100
AcDbEntity
  8
DETAIL
100
AcDbLine
 10
4.970858218732701
 20
-232.7035523118393
 30
0.0
 11
5.186982488560261
 21
-233.0502086868684
 31
0.0
  0
ARC
  5
68026
330
1E
100
AcDbEntity
  8
DETAIL
100
AcDbCircle
 10
-5.470000221725513
 20
-226.3605063764612
 30
0.0
 40
12.95321624815363
100
AcDbArc
 50
356.9115958919227
 51
21.25435999629706
  0
ARC
  5
68027
330
1E
100
AcDbEntity
  8
DETAIL
100
AcDbCircle
 10
-0.019032223384329
 20
-227.6427084896595
 30
0.0
 40
7.506213052652507
100
AcDbArc
 50
313.912480097945
 51
4.464738605949569
  0
ARC
  5
68028
330
1E
100
AcDbEntity
  8
DETAIL
100
AcDbCircle
 10
7.764600927825995
 20
-237.5292917329648
 30
0.0
 40
11.56957411564515
100
AcDbArc
 50
93.67400387227334
 51
107.8159408185263
  0
ARC
  5
68029
330
1E
100
AcDbEntity
  8
DETAIL
100
AcDbCircle
 10
13.72069136701202
 20
-211.3228631986423
 30
0.0
 40
17.91078363553561
100
AcDbArc
 50
238.0476329939411
 51
247.5261307144692
  0
LINE
  5
6802A
330
1E
100
AcDbEntity
  8
DETAIL
100
AcDbLine
 10
7.023228063992064
 20
-225.9834954635784
 30
0.0
 11
7.477051957823732
 21
-225.960942825246
 31
0.0
  0
LINE
  5
6802B
330
1E
100
AcDbEntity
  8
DETAIL
100
AcDbLine
 10
6.874078647632359
 20
-227.8733938460204
 30
0.0
 11
7.483494985669494
 21
-227.8779102524385
 31
0.0
  0
LINE
  5
6802C
330
1E
100
AcDbEntity
  8
DETAIL
100
AcDbLine
 10
7.285457693621992
 20
-224.1057105092772
 30
0.0
 11
11.95359553036132
 21
-224.1057113959773
 31
0.0
  0
ARC
  5
6802D
330
1E
100
AcDbEntity
  8
DETAIL
100
AcDbCircle
 10
0.0000080946206253
 20
-211.1160824445278
 30
0.0
 40
27.45053878699408
100
AcDbArc
 50
264.6449506728072
 51
275.3550154080648
  0
ARC
  5
6802E
330
1E
100
AcDbEntity
  8
DETAIL
100
AcDbCircle
 10
0.0000000000009095
 20
-223.5191077631089
 30
0.0
 40
14.25108790112972
100
AcDbArc
 50
260.2594584490179
 51
279.740541550982
  0
LINE
  5
6802F
330
1E
100
AcDbEntity
  8
DETAIL
100
AcDbLine
 10
2.411096766303671
 20
-237.5647552072687
 30
0.0
 11
2.561874623605035
 21
-238.446815738579
 31
0.0
  0
LINE
  5
68030
330
1E
100
AcDbEntity
  8
DETAIL
100
AcDbLine
 10
-2.411096028138672
 20
-237.5647520099498
 30
0.0
 11
-2.561698599051396
 21
-238.4468295713786
 31
0.0
  0
ARC
  5
68031
330
1E
100
AcDbEntity
  8
DETAIL
100
AcDbCircle
 10
2.117332498663927
 20
-231.0444727133685
 30
0.0
 40
6.526893527297107
100
AcDbArc
 50
272.5796495980393
 51
344.4783971692659
  0
ARC
  5
68032
330
1E
100
AcDbEntity
  8
DETAIL
100
AcDbCircle
 10
2.214912503098275
 20
-231.5176613998792
 30
0.0
 40
6.937835581980199
100
AcDbArc
 50
272.8665656213615
 51
355.1192526091075
  0
ARC
  5
68033
330
1E
100
AcDbEntity
  8
DETAIL
100
AcDbCircle
 10
3.715735970171408
 20
-222.0586225179633
 30
0.0
 40
0.4875862975703986
100
AcDbArc
 50
358.3717546150057
 51
92.38240838580626
  0
ARC
  5
68034
330
1E
100
AcDbEntity
  8
DETAIL
100
AcDbCircle
 10
2.914951983075297
 20
-227.1072569530947
 30
0.0
 40
5.590552588717562
100
AcDbArc
 50
81.97452906074083
 51
90.08873728944353
  0
ARC
  5
68035
330
1E
100
AcDbEntity
  8
DETAIL
100
AcDbCircle
 10
1.854138370900727
 20
-222.3913069910272
 30
0.0
 40
2.370525806838938
100
AcDbArc
 50
0.1465072704898527
 51
7.72956857750669
  0
ARC
  5
68036
330
1E
100
AcDbEntity
  8
DETAIL
100
AcDbCircle
 10
-0.0013200496459831
 20
-249.8174366444484
 30
0.0
 40
29.15055872150276
100
AcDbArc
 50
79.73016145750055
 51
89.99962494525957
  0
ARC
  5
68037
330
1E
100
AcDbEntity
  8
DETAIL
100
AcDbCircle
 10
-1.861681036988557
 20
-223.0923465573655
 30
0.0
 40
14.35595898913316
100
AcDbArc
 50
329.7099857062482
 51
16.91653164285739
  0
ARC
  5
68038
330
1E
100
AcDbEntity
  8
DETAIL
100
AcDbCircle
 10
0.7413523233030901
 20
-223.8942715168741
 30
0.0
 40
11.72024502117768
100
AcDbArc
 50
266.3733921326822
 51
326.675368612977
  0
LINE
  5
68039
330
1E
100
AcDbEntity
  8
DETAIL
100
AcDbLine
 10
7.285457855796266
 20
-224.1057113959773
 30
0.0
 11
6.821005591222274
 21
-224.2181816223794
 31
0.0
  0
LINE
  5
6803A
330
1E
100
AcDbEntity
  8
DETAIL
100
AcDbLine
 10
5.418196789423745
 20
-220.6928375458596
 30
0.0
 11
5.197299074818147
 21
-221.1326112109099
 31
0.0
  0
LINE
  5
6803B
330
1E
100
AcDbEntity
  8
DETAIL
100
AcDbLine
 10
6.602141966952331
 20
-221.6648494311791
 30
0.0
 11
6.164929566099544
 21
-221.8110961302579
 31
0.0
  0
ARC
  5
6803C
330
1E
100
AcDbEntity
  8
DETAIL
100
AcDbCircle
 10
5.141770288588304
 20
-222.2412660284853
 30
0.0
 40
1.11004457146238
100
AcDbArc
 50
22.80296835860126
 51
87.72655379812244
  0
LINE
  5
6803D
330
1E
100
AcDbEntity
  8
DETAIL
100
AcDbLine
 10
5.572733660304038
 20
-232.0579474916985
 30
0.0
 11
5.912703381884057
 21
-232.234233163638
 31
0.0
  0
ARC
  5
6803E
330
1E
100
AcDbEntity
  8
DETAIL
100
AcDbCircle
 10
427.2251024072816
 20
-244.9687822895975
 30
0.0
 40
415.7952526793919
100
AcDbArc
 50
176.5686956530594
 51
177.1239015857394
  0
LINE
  5
6803F
330
1E
100
AcDbEntity
  8
DETAIL
  6
CONTINUOUS
100
AcDbLine
 10
-2.906379442993056
 20
-221.516711069268
 30
0.0
 11
0.0000000000009095
 21
-221.516711069268
 31
0.0
  0
LINE
  5
68040
330
1E
100
AcDbEntity
  8
DETAIL
  6
CONTINUOUS
100
AcDbLine
 10
-1.865324999338554
 20
-235.249749999999
 30
0.0
 11
-1.865324999338554
 21
-235.5058129568701
 31
0.0
  0
LINE
  5
68041
330
1E
100
AcDbEntity
  8
DETAIL
  6
CONTINUOUS
100
AcDbLine
 10
-2.17628806461289
 20
-235.249749999999
 30
0.0
 11
0.0000000013315002
 21
-235.249749999999
 31
0.0
  0
ARC
  5
68042
330
1E
100
AcDbEntity
  8
DETAIL
100
AcDbCircle
 10
-427.2251024072797
 20
-244.9687822895975
 30
0.0
 40
415.7952526793919
100
AcDbArc
 50
2.876098414260573
 51
3.431304346940573
  0
ARC
  5
68043
330
1E
100
AcDbEntity
  8
DETAIL
100
AcDbCircle
 10
1.861681036990376
 20
-223.0923465573655
 30
0.0
 40
14.35595898913316
100
AcDbArc
 50
163.0834683571426
 51
210.2900142937516
  0
LINE
  5
68044
330
1E
100
AcDbEntity
  8
DETAIL
  6
CONTINUOUS
100
AcDbLine
 10
-16.3071245057099
 20
-232.1396455653714
 30
0.0
 11
-10.53445189227204
 21
-230.3331646078193
 31
0.0
  0
LINE
  5
68045
330
1E
100
AcDbEntity
  8
DETAIL
100
AcDbLine
 10
-5.572733660302219
 20
-232.0579474916985
 30
0.0
 11
-5.912703381882238
 21
-232.234233163638
 31
0.0
  0
LINE
  5
68046
330
1E
100
AcDbEntity
  8
DETAIL
100
AcDbLine
 10
-6.87407864763054
 20
-227.8733938460204
 30
0.0
 11
-7.483494985667675
 21
-227.8779102524385
 31
0.0
  0
ARC
  5
68047
330
1E
100
AcDbEntity
  8
DETAIL
100
AcDbCircle
 10
-13.7206913670102
 20
-211.3228631986423
 30
0.0
 40
17.91078363553561
100
AcDbArc
 50
292.4738692855306
 51
301.9523670060588
  0
ARC
  5
68048
330
1E
100
AcDbEntity
  8
DETAIL
100
AcDbCircle
 10
0.019032223386148
 20
-227.6427084896595
 30
0.0
 40
7.506213052652507
100
AcDbArc
 50
175.5352613940504
 51
226.0875199020549
  0
LINE
  5
68049
330
1E
100
AcDbEntity
  8
DETAIL
100
AcDbLine
 10
-4.970858218730882
 20
-232.7035523118393
 30
0.0
 11
-5.186982488558442
 21
-233.0502086868684
 31
0.0
  0
ARC
  5
6804A
330
1E
100
AcDbEntity
  8
DETAIL
100
AcDbCircle
 10
-4.228313424613588
 20
-231.4079466019234
 30
0.0
 40
1.493307378551647
100
AcDbArc
 50
205.802858647228
 51
240.1818740755514
  0
ARC
  5
6804B
330
1E
100
AcDbEntity
  8
DETAIL
100
AcDbCircle
 10
5.481950291273733
 20
-226.2785264877024
 30
0.0
 40
12.47428332252629
100
AcDbArc
 50
159.014462570751
 51
207.6006996933595
  0
ARC
  5
6804C
330
1E
100
AcDbEntity
  8
DETAIL
100
AcDbCircle
 10
-3.728102903434773
 20
-229.9157812297021
 30
0.0
 40
0.4962769783391999
100
AcDbArc
 50
180.5454510752493
 51
269.4762408337205
  0
LINE
  5
6804D
330
1E
100
AcDbEntity
  8
DETAIL
  6
CONTINUOUS
100
AcDbLine
 10
-3.704532585852575
 20
-230.4120374727988
 30
0.0
 11
-4.970858218730427
 21
-232.7035523118395
 31
0.0
  0
LINE
  5
6804E
330
1E
100
AcDbEntity
  8
DETAIL
  6
CONTINUOUS
100
AcDbLine
 10
-4.224771782879543
 20
-229.6187055107898
 30
0.0
 11
-5.57273366030131
 21
-232.0579474917001
 31
0.0
  0
LINE
  5
6804F
330
1E
100
AcDbEntity
  8
DETAIL
  6
CONTINUOUS
100
AcDbLine
 10
-4.224357393444734
 20
-229.9205056740674
 30
0.0
 11
-4.224656427990339
 21
-222.3852454819584
 31
0.0
  0
LINE
  5
68050
330
1E
100
AcDbEntity
  8
DETAIL
100
AcDbLine
 10
-5.418196789421926
 20
-220.6928375458596
 30
0.0
 11
-5.197299074816328
 21
-221.1326112109099
 31
0.0
  0
ARC
  5
68051
330
1E
100
AcDbEntity
  8
DETAIL
100
AcDbCircle
 10
-5.141770288586485
 20
-222.2412660284853
 30
0.0
 40
1.11004457146238
100
AcDbArc
 50
92.27344620187755
 51
157.1970316413987
  0
LINE
  5
68052
330
1E
100
AcDbEntity
  8
DETAIL
100
AcDbLine
 10
-6.602141966950512
 20
-221.6648494311791
 30
0.0
 11
-6.164929566097725
 21
-221.8110961302579
 31
0.0
  0
LINE
  5
68053
330
1E
100
AcDbEntity
  8
DETAIL
100
AcDbLine
 10
-7.285457855794447
 20
-224.1057113959773
 30
0.0
 11
-6.821005591220455
 21
-224.2181816223794
 31
0.0
  0
LINE
  5
68054
330
1E
100
AcDbEntity
  8
DETAIL
  6
CONTINUOUS
100
AcDbLine
 10
-4.203125394487869
 20
-222.0724769988696
 30
0.0
 11
-6.164925560748088
 21
-221.8110827649291
 31
0.0
  0
ARC
  5
68055
330
1E
100
AcDbEntity
  8
DETAIL
100
AcDbCircle
 10
-1.854138370898908
 20
-222.3913069910272
 30
0.0
 40
2.370525806838938
100
AcDbArc
 50
172.2704314224932
 51
179.8534927295101
  0
ARC
  5
68056
330
1E
100
AcDbEntity
  8
DETAIL
100
AcDbCircle
 10
-3.715735970169589
 20
-222.0586225179633
 30
0.0
 40
0.4875862975703986
100
AcDbArc
 50
87.61759161419375
 51
181.6282453849942
  0
LINE
  5
68057
330
1E
100
AcDbEntity
  8
DETAIL
100
AcDbLine
 10
-7.285457693620173
 20
-224.1057105092772
 30
0.0
 11
-11.9535955303595
 21
-224.1057113959773
 31
0.0
  0
ARC
  5
68058
330
1E
100
AcDbEntity
  8
DETAIL
100
AcDbCircle
 10
5.470000221727332
 20
-226.3605063764612
 30
0.0
 40
12.95321624815363
100
AcDbArc
 50
158.7456400037029
 51
183.0884041080772
  0
ARC
  5
68059
330
1E
100
AcDbEntity
  8
DETAIL
100
AcDbCircle
 10
-5.199279611143992
 20
-222.1665361738628
 30
0.0
 40
1.4898699195312
100
AcDbArc
 50
98.44946899854896
 51
160.3221110802944
  0
LINE
  5
6805A
330
1E
100
AcDbEntity
  8
DETAIL
100
AcDbLine
 10
-7.023228063990245
 20
-225.9834954635784
 30
0.0
 11
-7.477051957821913
 21
-225.960942825246
 31
0.0
  0
ARC
  5
6805B
330
1E
100
AcDbEntity
  8
DETAIL
100
AcDbCircle
 10
-7.764600927824176
 20
-237.5292917329648
 30
0.0
 40
11.56957411564515
100
AcDbArc
 50
72.18405918147367
 51
86.32599612772665
  0
ARC
  5
6805C
330
1E
100
AcDbEntity
  8
DETAIL
100
AcDbCircle
 10
-2.301656687522608
 20
-231.2708116827148
 30
0.0
 40
6.294891723617462
100
AcDbArc
 50
193.9871144548976
 51
269.0038385847949
  0
ARC
  5
6805D
330
1E
100
AcDbEntity
  8
DETAIL
100
AcDbCircle
 10
-2.153467140585235
 20
-231.4540324658969
 30
0.0
 40
7.004703011699688
100
AcDbArc
 50
185.3562153422201
 51
266.6589303520979
  0
ARC
  5
6805E
330
1E
100
AcDbEntity
  8
DETAIL
100
AcDbCircle
 10
0.0000000006657501
 20
-223.4792499999993
 30
0.0
 40
11.97000000000001
100
AcDbArc
 50
183.0000000000021
 51
259.5246861567908
  0
ARC
  5
6805F
330
1E
100
AcDbEntity
  8
DETAIL
100
AcDbCircle
 10
-0.7413523233012711
 20
-223.8942715168741
 30
0.0
 40
11.72024502117768
100
AcDbArc
 50
213.3246313870229
 51
273.6266078673177
  0
LINE
  5
68060
330
1E
100
AcDbEntity
  8
DETAIL
  6
CONTINUOUS
100
AcDbLine
 10
0.0000000000009095
 20
-230.4120374727988
 30
0.0
 11
-3.732639467882108
 21
-230.4120374727988
 31
0.0
  0
ARC
  5
68061
330
1E
100
AcDbEntity
  8
DETAIL
100
AcDbCircle
 10
-0.0215773811237341
 20
-224.0758379154065
 30
0.0
 40
10.35474483836179
100
AcDbArc
 50
240.0764332135918
 51
270.1193939382809
  0
ARC
  5
68062
330
1E
100
AcDbEntity
  8
DETAIL
100
AcDbCircle
 10
-0.0000000000109139
 20
-224.0254078642328
 30
0.0
 40
10.00098107608129
100
AcDbArc
 50
240.1958337719611
 51
270.0000000000651
  0
ARC
  5
68063
330
1E
100
AcDbEntity
  8
DETAIL
100
AcDbCircle
 10
0.0013200496478021
 20
-249.8174366444484
 30
0.0
 40
29.15055872150276
100
AcDbArc
 50
90.00037505474042
 51
100.2698385424994
  0
LINE
  5
68064
330
1E
100
AcDbEntity
  8
DETAIL
  6
CONTINUOUS
100
AcDbLine
 10
-2.906380236824134
 20
-221.5167109357202
 30
0.0
 11
-5.195765578475402
 21
-221.1339000886177
 31
0.0
  0
ARC
  5
68065
330
1E
100
AcDbEntity
  8
DETAIL
100
AcDbCircle
 10
-2.914951983073478
 20
-227.1072569530947
 30
0.0
 40
5.590552588717562
100
AcDbArc
 50
89.91126271055646
 51
98.02547093925916
  0
ARC
  5
68066
330
1E
100
AcDbEntity
  8
DETAIL
100
AcDbCircle
 10
-0.0587311714439238
 20
-251.2092328352764
 30
0.0
 40
30.98345113608063
100
AcDbArc
 50
89.89139201278748
 51
99.96103073401805
  0
ARC
  5
68067
330
1E
100
AcDbEntity
  8
DETAIL
100
AcDbCircle
 10
1.151190636054252
 20
-397.8184596172937
 30
0.0
 40
179.7590197305209
100
AcDbArc
 50
86.73421804260513
 51
90.36692910218397
  0
ARC
  5
68068
330
1E
100
AcDbEntity
  8
DETAIL
100
AcDbCircle
 10
11.24034630786309
 20
-218.975916596054
 30
0.0
 40
0.635662937666564
100
AcDbArc
 50
5.492421262736407
 51
80.7082080452607
  0
ARC
  5
68069
330
1E
100
AcDbEntity
  8
DETAIL
100
AcDbCircle
 10
-11.24034630786127
 20
-218.975916596054
 30
0.0
 40
0.635662937666564
100
AcDbArc
 50
99.29179195473929
 51
174.5075787372636
  0
ARC
  5
6806A
330
1E
100
AcDbEntity
  8
DETAIL
100
AcDbCircle
 10
-1.151190636052433
 20
-397.8184596172937
 30
0.0
 40
179.7590197305209
100
AcDbArc
 50
89.63307089781606
 51
93.26578195739486
  0
LINE
  5
6806B
330
1E
100
AcDbEntity
  8
DETAIL
  6
CONTINUOUS
100
AcDbLine
 10
40.12979940897821
 20
-238.4468103999586
 30
0.0
 11
2.561874565084508
 21
-238.4468146027595
 31
0.0
  0
LINE
  5
6806C
330
1E
100
AcDbEntity
  8
DETAIL
  6
CONTINUOUS
100
AcDbLine
 10
11.39166464803202
 20
-218.3513655114884
 30
0.0
 11
49.07102333845068
 21
-217.915254867288
 31
0.0
  0
LINE
  5
6806D
330
1E
100
AcDbEntity
  8
DETAIL
  6
CONTINUOUS
100
AcDbLine
 10
16.30712450571172
 20
-232.1396455653714
 30
0.0
 11
10.53445189227386
 21
-230.3331646078193
 31
0.0
  0
LINE
  5
6806E
330
1E
100
AcDbEntity
  8
DETAIL
  6
CONTINUOUS
100
AcDbLine
 10
18.66297796685285
 20
-225.7818270819527
 30
0.0
 11
12.46823995898194
 21
-223.9184196215901
 31
0.0
  0
ARC
  5
6806F
330
1E
100
AcDbEntity
  8
DETAIL
100
AcDbCircle
 10
-0.0000000006639311
 20
-223.4792499999993
 30
0.0
 40
11.97000000000001
100
AcDbArc
 50
280.4753138432091
 51
356.9999999999978
  0
ARC
  5
68070
330
1E
100
AcDbEntity
  8
DETAIL
100
AcDbCircle
 10
67.86808091853391
 20
-222.5085706545526
 30
0.0
 40
7.506820303601665
100
AcDbArc
 50
30.0466097240727
 51
89.95339027594059
  0
ARC
  5
68071
330
1E
100
AcDbEntity
  8
DETAIL
100
AcDbCircle
 10
67.87741547162841
 20
-222.0000018707662
 30
0.0
 40
7.333668144130799
100
AcDbArc
 50
26.6412743940512
 51
90.02521790104424
  0
ARC
  5
68072
330
1E
100
AcDbEntity
  8
DETAIL
100
AcDbCircle
 10
67.86197471515925
 20
-222.5267178187391
 30
0.0
 40
8.323710632058737
100
AcDbArc
 50
28.63430642338046
 51
89.91593283951337
  0
ARC
  5
68073
330
1E
100
AcDbEntity
  8
DETAIL
100
AcDbCircle
 10
63.00553967174256
 20
-224.7437302690282
 30
0.0
 40
11.45485896748808
100
AcDbArc
 50
27.00840904382544
 51
44.9723755492072
  0
ARC
  5
68074
330
1E
100
AcDbEntity
  8
DETAIL
100
AcDbCircle
 10
67.50417435124018
 20
-222.660771053258
 30
0.0
 40
7.010853884676564
100
AcDbArc
 50
59.055078985168
 51
89.95984116810701
  0
ARC
  5
68075
330
1E
100
AcDbEntity
  8
DETAIL
100
AcDbCircle
 10
67.52528680527257
 20
-222.6103489910495
 30
0.0
 40
6.461005649459267
100
AcDbArc
 50
28.35467494363181
 51
90.14429779237406
  0
ARC
  5
68076
330
1E
100
AcDbEntity
  8
DETAIL
100
AcDbCircle
 10
67.46317814164877
 20
-222.8606925011368
 30
0.0
 40
6.637301308762081
100
AcDbArc
 50
30.00205946886052
 51
89.98328783449151
  0
ARC
  5
68077
330
1E
100
AcDbEntity
  8
DETAIL
100
AcDbCircle
 10
67.46279651457825
 20
-223.1271655593248
 30
0.0
 40
6.130227701500367
100
AcDbArc
 50
29.98741742464471
 51
89.97833860231379
  0
LINE
  5
68078
330
1E
100
AcDbEntity
  8
DETAIL
  6
CONTINUOUS
100
AcDbLine
 10
52.19063615860978
 20
-219.4089194177777
 30
0.0
 11
52.18959475131669
 21
-234.8260302170074
 31
0.0
  0
ARC
  5
68079
330
1E
100
AcDbEntity
  8
DETAIL
100
AcDbCircle
 10
48.43652075134333
 20
-234.900991462234
 30
0.0
 40
3.753822536769707
100
AcDbArc
 50
338.0924172253593
 51
1.144233229056217
  0
ARC
  5
6807A
330
1E
100
AcDbEntity
  8
DETAIL
100
AcDbCircle
 10
49.42036263774207
 20
-219.2683025760707
 30
0.0
 40
2.773840023612071
100
AcDbArc
 50
357.094206481733
 51
24.84326695702836
  0
LINE
  5
6807B
330
1E
100
AcDbEntity
  8
DETAIL
  6
CONTINUOUS
100
AcDbLine
 10
74.43247870875712
 20
-218.7115623615941
 30
0.0
 11
78.00923197007069
 21
-224.6504221312373
 31
0.0
  0
LINE
  5
6807C
330
1E
100
AcDbEntity
  8
DETAIL
  6
CONTINUOUS
100
AcDbLine
 10
78.00923197007069
 20
-224.6504221312373
 30
0.0
 11
86.80183292649099
 21
-239.4914326989585
 31
0.0
  0
LINE
  5
6807D
330
1E
100
AcDbEntity
  8
DETAIL
  6
CONTINUOUS
100
AcDbLine
 10
75.16766387771304
 20
-218.5378502417952
 30
0.0
 11
87.57318938283015
 21
-239.4914326989587
 31
0.0
  0
LINE
  5
6807E
330
1E
100
AcDbEntity
  8
DETAIL
  6
CONTINUOUS
100
AcDbLine
 10
74.2419265642493
 20
-219.6264375624209
 30
0.0
 11
85.71246283235177
 21
-239.4914326989585
 31
0.0
  0
LINE
  5
6807F
330
1E
100
AcDbEntity
  8
DETAIL
  6
CONTINUOUS
100
AcDbLine
 10
86.34126747027222
 20
-239.4914326989587
 30
0.0
 11
74.36612247982703
 21
-218.749873147349
 31
0.0
  0
LINE
  5
68080
330
1E
100
AcDbEntity
  8
DETAIL
  6
CONTINUOUS
100
AcDbLine
 10
73.80317811053465
 20
-220.1566354701069
 30
0.0
 11
84.93576576108853
 21
-239.4914326989582
 31
0.0
  0
LINE
  5
68081
330
1E
100
AcDbEntity
  8
DETAIL
  6
CONTINUOUS
100
AcDbLine
 10
73.21113039661941
 20
-219.5418352372775
 30
0.0
 11
84.67688252413427
 21
-239.4914326989585
 31
0.0
  0
LINE
  5
68082
330
1E
100
AcDbEntity
  8
DETAIL
  6
CONTINUOUS
100
AcDbLine
 10
72.514969963363
 20
-216.6134788080539
 30
0.0
 11
74.2419265642493
 21
-219.6264375624209
 31
0.0
  0
LINE
  5
68083
330
1E
100
AcDbEntity
  8
DETAIL
  6
CONTINUOUS
100
AcDbLine
 10
71.34460661819776
 20
-215.8552838865182
 30
0.0
 11
73.80317811053465
 21
-220.1566354701069
 31
0.0
  0
LINE
  5
68084
330
1E
100
AcDbEntity
  8
DETAIL
  6
CONTINUOUS
100
AcDbLine
 10
72.77240242862354
 20
-220.0632176632639
 30
0.0
 11
84.10297292348014
 21
-239.8324772214491
 31
0.0
  0
LINE
  5
68085
330
1E
100
AcDbEntity
  8
DETAIL
  6
CONTINUOUS
100
AcDbLine
 10
73.23273887193955
 20
-219.5060877966591
 30
0.0
 11
71.20912704405509
 21
-215.7862375879972
 31
0.0
  0
LINE
  5
68086
330
1E
100
AcDbEntity
  8
DETAIL
  6
CONTINUOUS
100
AcDbLine
 10
67.4651141250215
 20
-216.2233914747207
 30
0.0
 11
67.4651141250215
 21
-216.9969382959255
 31
0.0
  0
LINE
  5
68087
330
1E
100
AcDbEntity
  8
DETAIL
  6
CONTINUOUS
100
AcDbLine
 10
67.50908828524917
 20
-215.6499188906791
 30
0.0
 11
67.50908828524917
 21
-216.1493638316867
 31
0.0
  0
LINE
  5
68088
330
1E
100
AcDbEntity
  8
DETAIL
  6
CONTINUOUS
100
AcDbLine
 10
67.87418766474274
 20
-215.0017528348489
 30
0.0
 11
67.87418766474274
 21
-214.2030161463994
 31
0.0
  0
LINE
  5
68089
330
1E
100
AcDbEntity
  8
DETAIL
  6
CONTINUOUS
100
AcDbLine
 10
67.4651141250215
 20
-216.2233914747207
 30
0.0
 11
67.50901496336519
 21
-216.1493638316867
 31
0.0
  0
ARC
  5
6808A
330
1E
100
AcDbEntity
  8
DETAIL
  6
CONTINUOUS
100
AcDbCircle
 10
67.87418766474274
 20
-222.4979934598491
 30
0.0
 40
7.496240625
100
AcDbArc
 50
30.00000000001367
 51
90.0
  0
LINE
  5
6808B
330
1E
100
AcDbEntity
  8
DETAIL
100
AcDbLine
 10
-21.71011677443221
 20
-27.60135900722843
 30
0.0
 11
-21.71011677443221
 21
0.0
 31
0.0
  0
LINE
  5
6808C
330
1E
100
AcDbEntity
  8
DETAIL
100
AcDbLine
 10
-23.21883395602117
 20
-27.60130235731912
 30
0.0
 11
-23.21883395602117
 21
0.0
 31
0.0
  0
LINE
  5
6808D
330
1E
100
AcDbEntity
  8
DETAIL
100
AcDbLine
 10
-106.996366774425
 20
-27.60135900722843
 30
0.0
 11
-106.996366774425
 21
0.0
 31
0.0
  0
LINE
  5
6808E
330
1E
100
AcDbEntity
  8
DETAIL
100
AcDbLine
 10
-108.505083956014
 20
-27.60130235731912
 30
0.0
 11
-108.505083956014
 21
0.0
 31
0.0
  0
LINE
  5
6808F
330
1E
100
AcDbEntity
  8
DETAIL
100
AcDbLine
 10
62.57863322557568
 20
-27.60135900722843
 30
0.0
 11
62.57863322557568
 21
0.0
 31
0.0
  0
LINE
  5
68090
330
1E
100
AcDbEntity
  8
DETAIL
100
AcDbLine
 10
61.06991604398672
 20
-27.60130235731912
 30
0.0
 11
61.06991604398672
 21
0.0
 31
0.0
  0
LINE
  5
68092
330
1E
100
AcDbEntity
  8
DETAIL
  6
CONTINUOUS
100
AcDbLine
 10
342.8477553593875
 20
-261.9077093863786
 30
0.0
 11
343.1086454581618
 21
-248.5975781260085
 31
0.0
  0
LINE
  5
68093
330
1E
100
AcDbEntity
  8
DETAIL
100
AcDbLine
 10
345.1035694945017
 20
-250.4201013577958
 30
0.0
 11
344.824347878759
 21
-263.850661923152
 31
0.0
  0
LINE
  5
68094
330
1E
100
AcDbEntity
  8
DETAIL
  6
CONTINUOUS
100
AcDbLine
 10
398.2019999993426
 20
-290.8130521303492
 30
0.0
 11
398.2019999993426
 21
-4.491271999458149
 31
0.0
  0
LINE
  5
68095
330
1E
100
AcDbEntity
  8
DETAIL
  6
CONTINUOUS
100
AcDbLine
 10
396.877112561895
 20
-288.40047657496
 30
0.0
 11
396.877112561895
 21
-5.153513885358279
 31
0.0
  0
LINE
  5
68096
330
1E
100
AcDbEntity
  8
DETAIL
  6
CONTINUOUS
100
AcDbLine
 10
396.1460791485133
 20
-288.0612799238802
 30
0.0
 11
396.1460446030869
 21
-5.153513885358279
 31
0.0
  0
LINE
  5
68097
330
1E
100
AcDbEntity
  8
DETAIL
100
AcDbLine
 10
399.0000000000018
 20
-291.8331087443907
 30
0.0
 11
399.0000000000018
 21
-4.092393566130795
 31
0.0
  0
LINE
  5
68098
330
1E
100
AcDbEntity
  8
DETAIL
100
AcDbLine
 10
392.044622655334
 20
-240.3232962184722
 30
0.0
 11
395.5728595078762
 21
-288.9617784500098
 31
0.0
  0
LINE
  5
68099
330
1E
100
AcDbEntity
  8
DETAIL
100
AcDbLine
 10
392.6110317185075
 20
-239.75045759775
 30
0.0
 11
396.1460791485133
 21
-288.0612799238802
 31
0.0
  0
ARC
  5
6809A
330
1E
100
AcDbEntity
  8
DETAIL
100
AcDbCircle
 10
765.0595318932146
 20
-241.1626279523074
 30
0.0
 40
382.8102035991642
100
AcDbArc
 50
180.7515903010618
 51
187.8592188869662
  0
ARC
  5
6809B
330
1E
100
AcDbEntity
  8
DETAIL
100
AcDbCircle
 10
775.5550673942711
 20
-241.9482582797286
 30
0.0
 40
393.7207629092343
100
AcDbArc
 50
180.6269651290522
 51
187.5648371616306
  0
LINE
  5
6809C
330
1E
100
AcDbEntity
  8
DETAIL
100
AcDbLine
 10
346.1524802316603
 20
-245.22413313544
 30
0.0
 11
345.2192781120083
 21
-293.7808286353283
 31
0.0
  0
ARC
  5
6809D
330
1E
100
AcDbEntity
  8
DETAIL
100
AcDbCircle
 10
395.3979703408804
 20
-291.3680893463185
 30
0.0
 40
3.631922453161753
100
AcDbArc
 50
270.1460497791957
 51
352.6438440718775
  0
ARC
  5
6809E
330
1E
100
AcDbEntity
  8
DETAIL
100
AcDbCircle
 10
394.0853493818676
 20
-290.8378588552272
 30
0.0
 40
4.116588910627583
100
AcDbArc
 50
267.9507831851112
 51
0.2923740154543544
  0
ARC
  5
6809F
330
1E
100
AcDbEntity
  8
DETAIL
100
AcDbCircle
 10
392.9715174209313
 20
-288.5063401894153
 30
0.0
 40
3.907029627477257
100
AcDbArc
 50
289.6099268145261
 51
1.5526579860322
  0
ARC
  5
680A0
330
1E
100
AcDbEntity
  8
DETAIL
100
AcDbCircle
 10
395.1444128631337
 20
-288.0561762900388
 30
0.0
 40
1.001679287169673
100
AcDbArc
 50
295.3226975222381
 51
359.7080722859757
  0
ARC
  5
680A1
330
1E
100
AcDbEntity
  8
DETAIL
100
AcDbCircle
 10
339.4601194388351
 20
-255.7500769905475
 30
0.0
 40
1.688904029598175
100
AcDbArc
 50
3.955685318382848
 51
75.78243511475273
  0
ARC
  5
680A2
330
1E
100
AcDbEntity
  8
DETAIL
100
AcDbCircle
 10
338.2153892762389
 20
-258.7759073173147
 30
0.0
 40
4.949510028017971
100
AcDbArc
 50
70.40968507382419
 51
90.39631621999602
  0
LINE
  5
680A3
330
1E
100
AcDbEntity
  8
DETAIL
  6
CONTINUOUS
100
AcDbLine
 10
340.6549543878227
 20
-280.3596430851785
 30
0.0
 11
340.654954394316
 21
-280.9923090023085
 31
0.0
  0
LINE
  5
680A4
330
1E
100
AcDbEntity
  8
DETAIL
100
AcDbLine
 10
342.0180004895119
 20
-283.025709857568
 30
0.0
 11
343.9880094370764
 21
-282.9340499469892
 31
0.0
  0
ARC
  5
680A5
330
1E
100
AcDbEntity
  8
DETAIL
100
AcDbCircle
 10
339.9500035481414
 20
-282.0262138065245
 30
0.0
 40
1.204013363377594
100
AcDbArc
 50
7.016528721924953
 51
59.53215252813009
  0
ARC
  5
680A6
330
1E
100
AcDbEntity
  8
DETAIL
100
AcDbCircle
 10
339.839618485681
 20
-283.2592603322873
 30
0.0
 40
2.383445498236418
100
AcDbArc
 50
72.64744690974244
 51
93.41745607852358
  0
ARC
  5
680A7
330
1E
100
AcDbEntity
  8
DETAIL
100
AcDbCircle
 10
340.6286773539259
 20
-280.4766062272399
 30
0.0
 40
0.5163717992542706
100
AcDbArc
 50
262.4134750217117
 51
359.2094331773505
  0
LINE
  5
680A8
330
1E
100
AcDbEntity
  8
DETAIL
100
AcDbLine
 10
344.824347878759
 20
-263.850661923152
 30
0.0
 11
344.0148882732687
 21
-282.9171425897268
 31
0.0
  0
ARC
  5
680A9
330
1E
100
AcDbEntity
  8
DETAIL
100
AcDbCircle
 10
340.1466131955485
 20
-279.4497248744055
 30
0.0
 40
1.000734957784578
100
AcDbArc
 50
270.0507728055262
 51
355.2723606985983
  0
ARC
  5
680AA
330
1E
100
AcDbEntity
  8
DETAIL
100
AcDbCircle
 10
339.2648787425273
 20
-267.2543042965774
 30
0.0
 40
13.28528943125379
100
AcDbArc
 50
270.0916310644439
 51
273.9070135387501
  0
ARC
  5
680AB
330
1E
100
AcDbEntity
  8
DETAIL
100
AcDbCircle
 10
340.1253283378391
 20
-279.4902218791062
 30
0.0
 40
1.019479866164084
100
AcDbArc
 50
272.5172483493386
 51
357.6398551510046
  0
LINE
  5
680AC
330
1E
100
AcDbEntity
  8
DETAIL
  6
CONTINUOUS
100
AcDbLine
 10
341.144999999331
 20
-255.6334976012795
 30
0.0
 11
341.144999999331
 21
-280.4837308961578
 31
0.0
  0
ARC
  5
680AD
330
1E
100
AcDbEntity
  8
DETAIL
100
AcDbCircle
 10
342.7732436378128
 20
-263.9603949306112
 30
0.0
 40
2.054037472918618
100
AcDbArc
 50
3.06237485322074
 51
87.92109729709277
  0
LINE
  5
680AE
330
1E
100
AcDbEntity
  8
DETAIL
100
AcDbLine
 10
342.8477553593875
 20
-261.9077093863786
 30
0.0
 11
342.0180004895119
 21
-283.025709857568
 31
0.0
  0
LINE
  5
680AF
330
1E
100
AcDbEntity
  8
DETAIL
  6
CONTINUOUS
100
AcDbLine
 10
395.5728595078762
 20
-288.9617784500098
 30
0.0
 11
385.2610451544205
 21
-293.7808286353283
 31
0.0
  0
LINE
  5
680B0
330
1E
100
AcDbEntity
  8
DETAIL
100
AcDbLine
 10
387.0324209962373
 20
-293.7808016010271
 30
0.0
 11
393.9766003533995
 21
-294.9759075620486
 31
0.0
  0
ARC
  5
680B1
330
1E
100
AcDbEntity
  8
DETAIL
100
AcDbCircle
 10
387.1707898196027
 20
-277.1243576016636
 30
0.0
 40
16.65701871990348
100
AcDbArc
 50
269.5240420323989
 51
295.2751830076156
  0
ARC
  5
680B2
330
1E
100
AcDbEntity
  8
DETAIL
  6
CONTINUOUS
100
AcDbCircle
 10
340.1474999993443
 20
-288.6603007984297
 30
0.0
 40
0.9975000000000001
100
AcDbArc
 50
270.0
 51
0.0
  0
LINE
  5
680B3
330
1E
100
AcDbEntity
  8
DETAIL
100
AcDbLine
 10
345.2192781120083
 20
-293.7808286353283
 30
0.0
 11
345.2192781120083
 21
-294.6125155274166
 31
0.0
  0
LINE
  5
680B4
330
1E
100
AcDbEntity
  8
DETAIL
100
AcDbLine
 10
345.2192781120083
 20
-294.6125155274166
 30
0.0
 11
342.0401729261811
 21
-294.6637599349303
 31
0.0
  0
ARC
  5
680B5
330
1E
100
AcDbEntity
  8
DETAIL
100
AcDbCircle
 10
341.0661273130918
 20
-296.3986978653397
 30
0.0
 40
4.13312619308967
100
AcDbArc
 50
44.0920033298338
 51
76.4310271197344
  0
ARC
  5
680B6
330
1E
100
AcDbEntity
  8
DETAIL
100
AcDbCircle
 10
345.1782423686345
 20
-293.4704200523349
 30
0.0
 40
1.142832448977639
100
AcDbArc
 50
182.7216642477121
 51
272.0577648409248
  0
LINE
  5
680B7
330
1E
100
AcDbEntity
  8
DETAIL
  6
CONTINUOUS
100
AcDbLine
 10
345.2192781120083
 20
-293.7808286353283
 30
0.0
 11
387.0311184894471
 21
-293.7808286353283
 31
0.0
  0
LINE
  5
680B8
330
1E
100
AcDbEntity
  8
DETAIL
  6
CONTINUOUS
100
AcDbLine
 10
341.144999999331
 20
-288.660300495188
 30
0.0
 11
341.144999999331
 21
-281.8791367490478
 31
0.0
  0
LINE
  5
680B9
330
1E
100
AcDbEntity
  8
DETAIL
100
AcDbLine
 10
342.0401729261811
 20
-294.6637599349303
 30
0.0
 11
342.0180004895119
 21
-283.025709857568
 31
0.0
  0
LINE
  5
680BA
330
1E
100
AcDbEntity
  8
DETAIL
100
AcDbLine
 10
344.0148882732687
 20
-282.9171425897268
 30
0.0
 11
344.0366990439942
 21
-293.5246865740482
 31
0.0
  0
LINE
  5
680BB
330
1E
100
AcDbEntity
  8
DETAIL
100
AcDbLine
 10
396.877112561895
 20
-288.4004765736294
 30
0.0
 11
398.1810355451698
 21
-290.7903048058538
 31
0.0
  0
LINE
  5
680BC
330
1E
100
AcDbEntity
  8
DETAIL
100
AcDbLine
 10
398.1810355451698
 20
-290.7903048058538
 30
0.0
 11
399.0000000000027
 21
-291.8331087443909
 31
0.0
  0
ARC
  5
680BD
330
1E
100
AcDbEntity
  8
DETAIL
100
AcDbCircle
 10
394.9370880408055
 20
-4.050738184618694
 30
0.0
 40
4.063125491415537
100
AcDbArc
 50
359.4125902903728
 51
94.47513723111162
  0
ARC
  5
680BE
330
1E
100
AcDbEntity
  8
DETAIL
100
AcDbCircle
 10
394.0140617314186
 20
-4.49162394329096
 30
0.0
 40
4.18793828271202
100
AcDbArc
 50
0.0048149936573117
 51
90.02137159260692
  0
ARC
  5
680BF
330
1E
100
AcDbEntity
  8
DETAIL
100
AcDbCircle
 10
392.6177540334306
 20
-5.181292548845931
 30
0.0
 40
4.259449110876857
100
AcDbArc
 50
0.3736660350830379
 51
98.22194497966492
  0
ARC
  5
680C0
330
1E
100
AcDbEntity
  8
DETAIL
100
AcDbCircle
 10
391.9400770971988
 20
-5.17106928016301
 30
0.0
 40
4.206003738879847
100
AcDbArc
 50
0.239146946367322
 51
89.06625959568769
  0
LINE
  5
680C1
330
1E
100
AcDbEntity
  8
DETAIL
100
AcDbLine
 10
396.877112561895
 20
-5.153513885342363
 30
0.0
 11
396.1460441987801
 21
-5.153513885358279
 31
0.0
  0
LINE
  5
680C2
330
1E
100
AcDbEntity
  8
DETAIL
  6
CONTINUOUS
100
AcDbLine
 10
391.9924096890008
 20
-45.56178539525899
 30
0.0
 11
393.5243986177338
 21
-228.1242446427495
 31
0.0
  0
LINE
  5
680C3
330
1E
100
AcDbEntity
  8
DETAIL
100
AcDbLine
 10
381.2059896844293
 20
-58.80354598668827
 30
0.0
 11
382.6832863103245
 21
-234.6739470226671
 31
0.0
  0
LINE
  5
680C4
330
1E
100
AcDbEntity
  8
DETAIL
100
AcDbLine
 10
380.7593439160814
 20
-58.80537453319743
 30
0.0
 11
382.2367000621316
 21
-234.7466679594449
 31
0.0
  0
LINE
  5
680C5
330
1E
100
AcDbEntity
  8
DETAIL
100
AcDbLine
 10
391.016982837149
 20
-52.30048019053834
 30
0.0
 11
392.6267691343564
 21
-235.9782739427874
 31
0.0
  0
LINE
  5
680C6
330
1E
100
AcDbEntity
  8
DETAIL
100
AcDbLine
 10
390.47357817902
 20
-52.30622183063997
 30
0.0
 11
392.0835148778442
 21
-236.4901469344195
 31
0.0
  0
LINE
  5
680C7
330
1E
100
AcDbEntity
  8
DETAIL
  6
CONTINUOUS
100
AcDbLine
 10
392.6143460938128
 20
-239.7192307325699
 30
0.0
 11
392.7379249856112
 21
-236.630210664168
 31
0.0
  0
LINE
  5
680C8
330
1E
100
AcDbEntity
  8
DETAIL
100
AcDbLine
 10
392.0850289997215
 20
-240.308161784894
 30
0.0
 11
392.6077173432022
 21
-239.7816844562798
 31
0.0
  0
LINE
  5
680C9
330
1E
100
AcDbEntity
  8
DETAIL
100
AcDbLine
 10
391.617453781464
 20
-238.966406988414
 30
0.0
 11
392.044622655334
 21
-240.3232962184722
 31
0.0
  0
LINE
  5
680CA
330
1E
100
AcDbEntity
  8
DETAIL
100
AcDbLine
 10
392.6077173432022
 20
-239.7816844562798
 30
0.0
 11
391.61745115973
 21
-238.9664078045457
 31
0.0
  0
LINE
  5
680CB
330
1E
100
AcDbEntity
  8
DETAIL
100
AcDbLine
 10
391.684878215281
 20
-237.2880028097167
 30
0.0
 11
391.617453781464
 21
-238.966406988414
 31
0.0
  0
ARC
  5
680CC
330
1E
100
AcDbEntity
  8
DETAIL
100
AcDbCircle
 10
366.8102407258343
 20
-229.9435581152545
 30
0.0
 40
26.77603655107638
100
AcDbArc
 50
345.5387452212903
 51
3.895996909870505
  0
ARC
  5
680CD
330
1E
100
AcDbEntity
  8
DETAIL
100
AcDbCircle
 10
391.8884817415114
 20
-235.7389407540774
 30
0.0
 40
0.7761112353599273
100
AcDbArc
 50
284.554176938778
 51
342.0386811026276
  0
ARC
  5
680CE
330
1E
100
AcDbEntity
  8
DETAIL
100
AcDbCircle
 10
391.840168170931
 20
-236.1688165249117
 30
0.0
 40
1.009381914858862
100
AcDbArc
 50
282.6337268933929
 51
332.7995048542253
  0
LINE
  5
680CF
330
1E
100
AcDbEntity
  8
DETAIL
100
AcDbLine
 10
392.6267691343137
 20
-235.9782739379029
 30
0.0
 11
392.7379249856112
 21
-236.6302106641678
 31
0.0
  0
LINE
  5
680D0
330
1E
100
AcDbEntity
  8
DETAIL
100
AcDbLine
 10
392.0836021107779
 20
-236.4901242810194
 30
0.0
 11
392.0506204799585
 21
-236.8086036413078
 31
0.0
  0
LINE
  5
680D1
330
1E
100
AcDbEntity
  8
DETAIL
100
AcDbLine
 10
392.0506204799585
 20
-236.8086036413078
 30
0.0
 11
392.0609520128173
 21
-237.1537552802501
 31
0.0
  0
ARC
  5
680D2
330
1E
100
AcDbEntity
  8
DETAIL
100
AcDbCircle
 10
391.7255659370398
 20
-235.9670672431655
 30
0.0
 40
0.9021323329436665
100
AcDbArc
 50
291.120771724276
 51
358.3534240358691
  0
LINE
  5
680D3
330
1E
100
AcDbEntity
  8
DETAIL
100
AcDbLine
 10
383.8018099345827
 20
-238.9762340556294
 30
0.0
 11
383.6930777755915
 21
-234.8894373778198
 31
0.0
  0
LINE
  5
680D4
330
1E
100
AcDbEntity
  8
DETAIL
100
AcDbLine
 10
383.3552257641977
 20
-239.0521404914732
 30
0.0
 11
383.2537481895851
 21
-235.2447622619283
 31
0.0
  0
LINE
  5
680D5
330
1E
100
AcDbEntity
  8
DETAIL
100
AcDbLine
 10
382.236700614334
 20
-234.7466901948496
 30
0.0
 11
382.6832863103245
 21
-234.6739470226669
 31
0.0
  0
ARC
  5
680D6
330
1E
100
AcDbEntity
  8
DETAIL
100
AcDbCircle
 10
383.3178261946823
 20
-234.1742086405454
 30
0.0
 40
0.8077000157260449
100
AcDbArc
 50
218.2225622580337
 51
297.6782226419532
  0
ARC
  5
680D7
330
1E
100
AcDbEntity
  8
DETAIL
100
AcDbCircle
 10
382.8073147172281
 20
-234.8209146648462
 30
0.0
 40
0.5754213468129938
100
AcDbArc
 50
172.5886804067794
 51
255.078005219073
  0
ARC
  5
680D8
330
1E
100
AcDbEntity
  8
DETAIL
100
AcDbCircle
 10
382.6858977645451
 20
-234.093650619558
 30
0.0
 40
1.283559531437136
100
AcDbArc
 50
268.8055650034931
 51
321.6841513443541
  0
LINE
  5
680D9
330
1E
100
AcDbEntity
  8
DETAIL
100
AcDbLine
 10
382.78032830958
 20
-239.456240017168
 30
0.0
 11
383.1625141343829
 21
-239.2693043250076
 31
0.0
  0
LINE
  5
680DA
330
1E
100
AcDbEntity
  8
DETAIL
100
AcDbLine
 10
383.0634012269711
 20
-239.7525423142278
 30
0.0
 11
383.5296170494839
 21
-239.524974367915
 31
0.0
  0
ARC
  5
680DB
330
1E
100
AcDbEntity
  8
DETAIL
100
AcDbCircle
 10
383.1685003186694
 20
-239.0039710762767
 30
0.0
 40
0.6339167231762392
100
AcDbArc
 50
304.7267435491182
 51
2.507776952669723
  0
ARC
  5
680DC
330
1E
100
AcDbEntity
  8
DETAIL
100
AcDbCircle
 10
383.3366439710271
 20
-237.5911636916953
 30
0.0
 40
1.46109496317851
100
AcDbArc
 50
270.7286917092261
 51
288.5642608679302
  0
ARC
  5
680DD
330
1E
100
AcDbEntity
  8
DETAIL
100
AcDbCircle
 10
383.7312890010871
 20
-238.8440138607393
 30
0.0
 40
0.7101949234484676
100
AcDbArc
 50
216.7865955744404
 51
253.5029584077217
  0
ARC
  5
680DE
330
1E
100
AcDbEntity
  8
DETAIL
100
AcDbCircle
 10
383.0726794868378
 20
-238.9954965941297
 30
0.0
 40
0.288168244933644
100
AcDbArc
 50
288.1643480578261
 51
348.6638175033864
  0
ARC
  5
680DF
330
1E
100
AcDbEntity
  8
DETAIL
100
AcDbCircle
 10
382.5411105436023
 20
-238.7490274401188
 30
0.0
 40
0.7465753603595681
100
AcDbArc
 50
276.0586585331458
 51
288.6883338109296
  0
ARC
  5
680E0
330
1E
100
AcDbEntity
  8
DETAIL
100
AcDbCircle
 10
382.6818734908147
 20
-238.8853576136511
 30
0.0
 40
0.9474307006523714
100
AcDbArc
 50
271.468320308769
 51
293.7493558140518
  0
LINE
  5
680E1
330
1E
100
AcDbEntity
  8
DETAIL
100
AcDbLine
 10
383.8018099428877
 20
-238.9762337657523
 30
0.0
 11
392.0835148778442
 21
-236.4901469344195
 31
0.0
  0
LINE
  5
680E2
330
1E
100
AcDbEntity
  8
DETAIL
100
AcDbLine
 10
392.050635802731
 20
-236.8085969981725
 30
0.0
 11
383.529618232631
 21
-239.5249739862492
 31
0.0
  0
ARC
  5
680E3
330
1E
100
AcDbEntity
  8
DETAIL
100
AcDbCircle
 10
382.1609610076175
 20
-238.7822209073929
 30
0.0
 40
1.794844359180341
100
AcDbArc
 50
270.0397905674789
 51
290.5484334119234
  0
LINE
  5
680E4
330
1E
100
AcDbEntity
  8
DETAIL
100
AcDbLine
 10
382.1900687504594
 20
-243.4054496151686
 30
0.0
 11
382.2822638008983
 21
-246.184083061818
 31
0.0
  0
LINE
  5
680E5
330
1E
100
AcDbEntity
  8
DETAIL
100
AcDbLine
 10
381.7623440402394
 20
-243.4799920749589
 30
0.0
 11
381.8578764350531
 21
-246.2565034025392
 31
0.0
  0
LINE
  5
680E6
330
1E
100
AcDbEntity
  8
DETAIL
100
AcDbLine
 10
381.7623455887151
 20
-243.4799920083778
 30
0.0
 11
381.7623455887151
 21
-242.0342474775884
 31
0.0
  0
ARC
  5
680E7
330
1E
100
AcDbEntity
  8
DETAIL
100
AcDbCircle
 10
379.5254308518874
 20
-243.4843264935793
 30
0.0
 40
2.665805073979298
100
AcDbArc
 50
1.695537292137513
 51
32.95330692989235
  0
ARC
  5
680E8
330
1E
100
AcDbEntity
  8
DETAIL
100
AcDbCircle
 10
381.731756407466
 20
-242.0400659142151
 30
0.0
 40
1.440250969331547
100
AcDbArc
 50
271.2169842707587
 51
288.5551308329942
  0
ARC
  5
680E9
330
1E
100
AcDbEntity
  8
DETAIL
100
AcDbCircle
 10
381.8400307488709
 20
-244.8722492859212
 30
0.0
 40
1.384369144371916
100
AcDbArc
 50
270.7386113923178
 51
288.6295061436799
  0
LINE
  5
680EA
330
1E
100
AcDbEntity
  8
DETAIL
  6
CONTINUOUS
100
AcDbLine
 10
381.7623500694917
 20
-242.0342474775884
 30
0.0
 11
391.6174511597587
 21
-238.9664078045368
 31
0.0
  0
LINE
  5
680EB
330
1E
100
AcDbEntity
  8
DETAIL
  6
CONTINUOUS
100
AcDbLine
 10
382.1220245284111
 20
-243.42674859319
 30
0.0
 11
392.0850289997215
 21
-240.308161784894
 31
0.0
  0
LINE
  5
680EC
330
1E
100
AcDbEntity
  8
DETAIL
100
AcDbLine
 10
382.7909496656302
 20
-240.4628697596094
 30
0.0
 11
392.06095202502
 21
-237.1537556879197
 31
0.0
  0
ARC
  5
680ED
330
1E
100
AcDbEntity
  8
DETAIL
100
AcDbCircle
 10
343.1632141391805
 20
-250.5451149566399
 30
0.0
 40
1.948301169638265
100
AcDbArc
 50
5.785523085175708
 51
91.60496954423662
  0
ARC
  5
680EE
330
1E
100
AcDbEntity
  8
DETAIL
100
AcDbCircle
 10
346.3236088247049
 20
-248.4384804088358
 30
0.0
 40
3.218897564668205
100
AcDbArc
 50
93.04749455754089
 51
182.833064153897
  0
ARC
  5
680EF
330
1E
100
AcDbEntity
  8
DETAIL
100
AcDbCircle
 10
355.6249465247037
 20
-249.8378453226032
 30
0.0
 40
10.53581716830249
100
AcDbArc
 50
154.349895718573
 51
182.9088070489756
  0
ARC
  5
680F0
330
1E
100
AcDbEntity
  8
DETAIL
100
AcDbCircle
 10
341.753747492622
 20
-249.9972902573899
 30
0.0
 40
5.679623315995756
100
AcDbArc
 50
44.48083162812617
 51
53.3174507022558
  0
ARC
  5
680F1
330
1E
100
AcDbEntity
  8
DETAIL
100
AcDbCircle
 10
344.1209972423212
 20
-247.5718355763929
 30
0.0
 40
2.093756748799667
100
AcDbArc
 50
39.92085430612286
 51
70.68996711464816
  0
ARC
  5
680F2
330
1E
100
AcDbEntity
  8
DETAIL
100
AcDbCircle
 10
346.1461654892818
 20
-244.8767313682072
 30
0.0
 40
1.379774119120657
100
AcDbArc
 50
252.9371879645845
 51
269.9009402916938
  0
LINE
  5
680F3
330
1E
100
AcDbEntity
  8
DETAIL
  6
CONTINUOUS
100
AcDbLine
 10
346.1437799740688
 20
-246.2565034251472
 30
0.0
 11
381.8578764350531
 21
-246.2565034251472
 31
0.0
  0
LINE
  5
680F4
330
1E
100
AcDbEntity
  8
DETAIL
100
AcDbLine
 10
224.1736332255823
 20
-27.60135900722843
 30
0.0
 11
224.1736332255823
 21
0.0
 31
0.0
  0
LINE
  5
680F5
330
1E
100
AcDbEntity
  8
DETAIL
100
AcDbLine
 10
222.6649160439933
 20
-27.60130235731912
 30
0.0
 11
222.6649160439933
 21
0.0
 31
0.0
  0
LINE
  5
680F6
330
1E
100
AcDbEntity
  8
DETAIL
100
AcDbLine
 10
143.3761332255726
 20
-27.60135900722843
 30
0.0
 11
143.3761332255726
 21
0.0
 31
0.0
  0
LINE
  5
680F7
330
1E
100
AcDbEntity
  8
DETAIL
100
AcDbLine
 10
141.8674160439836
 20
-27.60130235731912
 30
0.0
 11
141.8674160439836
 21
0.0
 31
0.0
  0
ARC
  5
680F8
330
1E
100
AcDbEntity
  8
DETAIL
100
AcDbCircle
 10
460.4344207912813
 20
-30.80367979468746
 30
0.0
 40
76.32483290626524
100
AcDbArc
 50
157.4976988046094
 51
177.7170562191052
  0
ARC
  5
680F9
330
1E
100
AcDbEntity
  8
DETAIL
100
AcDbCircle
 10
591.9287362199429
 20
-44.59906968204904
 30
0.0
 40
200.6106134232044
100
AcDbArc
 50
169.0714383694411
 51
179.3425296329954
  0
LINE
  5
680FA
330
1E
100
AcDbEntity
  8
DETAIL
100
AcDbLine
 10
303.4831428936536
 20
-27.60130235731912
 30
0.0
 11
303.4831428936536
 21
0.0
 31
0.0
  0
LINE
  5
680FB
330
1E
100
AcDbEntity
  8
DETAIL
100
AcDbLine
 10
304.9918600752425
 20
-27.60135900722843
 30
0.0
 11
304.9918600752425
 21
0.0
 31
0.0
  0
LINE
  5
680FC
330
1E
100
AcDbEntity
  8
DETAIL
100
AcDbLine
 10
351.963945211075
 20
-27.7633301910796
 30
0.0
 11
352.0651486676852
 21
0.0
 31
0.0
  0
LINE
  5
680FD
330
1E
100
AcDbEntity
  8
DETAIL
100
AcDbLine
 10
349.9973920162333
 20
-27.7633301910796
 30
0.0
 11
349.9329373426553
 21
0.0
 31
0.0
  0
ARC
  5
680FE
330
1E
100
AcDbEntity
  8
DETAIL
100
AcDbCircle
 10
390.2740628200445
 20
-35.23247181917963
 30
0.0
 40
1.03103960654275
100
AcDbArc
 50
25.66937614727961
 51
90.79774805749194
  0
LINE
  5
680FF
330
1E
100
AcDbEntity
  8
DETAIL
100
AcDbLine
 10
390.2597074227387
 20
-34.20153215420032
 30
0.0
 11
390.0225954880279
 21
-37.85283016638777
 31
0.0
  0
LINE
  5
68100
330
1E
100
AcDbEntity
  8
DETAIL
100
AcDbLine
 10
391.2033481402013
 20
-34.78586323364015
 30
0.0
 11
390.9617058320091
 21
-38.43300885512735
 31
0.0
  0
ARC
  5
68101
330
1E
100
AcDbEntity
  8
DETAIL
100
AcDbCircle
 10
390.0281441708493
 20
-38.89399154531361
 30
0.0
 40
1.041176164175819
100
AcDbArc
 50
26.27990960585818
 51
90.30534468932915
  0
LINE
  5
68102
330
1E
100
AcDbEntity
  8
DETAIL
100
AcDbLine
 10
390.0225954880279
 20
-37.85283016638777
 30
0.0
 11
390.110001937578
 21
-40.4180523114328
 31
0.0
  0
LINE
  5
68103
330
1E
100
AcDbEntity
  8
DETAIL
  6
CONTINUOUS
100
AcDbLine
 10
391.018016197946
 20
-51.56112832540043
 30
0.0
 11
391.0169828331563
 21
-52.30048019053834
 31
0.0
  0
LINE
  5
68104
330
1E
100
AcDbEntity
  8
DETAIL
  6
CONTINUOUS
100
AcDbLine
 10
390.4616708711309
 20
-51.54363271006014
 30
0.0
 11
390.473578793375
 21
-52.30622182447723
 31
0.0
  0
LINE
  5
68105
330
1E
100
AcDbEntity
  8
DETAIL
  6
CONTINUOUS
100
AcDbLine
 10
391.018016197946
 20
-51.56112832540043
 30
0.0
 11
391.82859330997
 21
-46.57183364662182
 31
0.0
  0
LINE
  5
68106
330
1E
100
AcDbEntity
  8
DETAIL
100
AcDbLine
 10
391.018016197946
 20
-51.56112832540043
 30
0.0
 11
390.4616708712542
 21
-51.54363271357147
 31
0.0
  0
LINE
  5
68107
330
1E
100
AcDbEntity
  8
DETAIL
100
AcDbLine
 10
390.473578793375
 20
-52.30622182447723
 30
0.0
 11
391.0086130759909
 21
-52.30085480897833
 31
0.0
  0
LINE
  5
68108
330
1E
100
AcDbEntity
  8
DETAIL
100
AcDbLine
 10
390.9617061734625
 20
-38.43300370152064
 30
0.0
 11
391.1346123782723
 21
-41.87088421149929
 31
0.0
  0
LINE
  5
68109
330
1E
100
AcDbEntity
  8
DETAIL
  6
CONTINUOUS
100
AcDbLine
 10
384.1701670910243
 20
-28.60362648399723
 30
0.0
 11
384.1701670910243
 21
-27.7633301910796
 31
0.0
  0
LINE
  5
6810A
330
1E
100
AcDbEntity
  8
DETAIL
100
AcDbLine
 10
383.6265970788008
 20
-38.38468433186221
 30
0.0
 11
383.6795706759858
 21
-38.20427984679054
 31
0.0
  0
LINE
  5
6810B
330
1E
100
AcDbEntity
  8
DETAIL
100
AcDbLine
 10
383.6795706759858
 20
-38.20427984679054
 30
0.0
 11
383.7483923426061
 21
-38.12868774999947
 31
0.0
  0
LINE
  5
6810C
330
1E
100
AcDbEntity
  8
DETAIL
  6
CONTINUOUS
100
AcDbLine
 10
359.5699674001934
 20
-32.73958152721979
 30
0.0
 11
359.4223114744836
 21
-38.12868774999947
 31
0.0
  0
LINE
  5
6810D
330
1E
100
AcDbEntity
  8
DETAIL
  6
CONTINUOUS
100
AcDbLine
 10
359.0760913088615
 20
-32.14382586251827
 30
0.0
 11
358.9121122958458
 21
-38.12868774999947
 31
0.0
  0
LINE
  5
6810E
330
1E
100
AcDbEntity
  8
DETAIL
  6
CONTINUOUS
100
AcDbLine
 10
359.5713889068447
 20
-38.12868774999947
 30
0.0
 11
359.5699674001934
 21
-32.73958152721979
 31
0.0
  0
ARC
  5
6810F
330
1E
100
AcDbEntity
  8
DETAIL
100
AcDbCircle
 10
359.0159926272081
 20
-32.69623438214285
 30
0.0
 40
0.5556680880618315
100
AcDbArc
 50
355.525864437032
 51
83.7909882500031
  0
LINE
  5
68110
330
1E
100
AcDbEntity
  8
DETAIL
  6
CONTINUOUS
100
AcDbLine
 10
373.9892204121188
 20
-51.42816210473893
 30
0.0
 11
373.9892204121188
 21
-51.96380033836021
 31
0.0
  0
LINE
  5
68111
330
1E
100
AcDbEntity
  8
DETAIL
  6
CONTINUOUS
100
AcDbLine
 10
373.9892204121188
 20
-51.42816210473893
 30
0.0
 11
382.5040849541565
 21
-43.84068713938813
 31
0.0
  0
LINE
  5
68112
330
1E
100
AcDbEntity
  8
DETAIL
100
AcDbLine
 10
382.6915596813906
 20
-43.58086383048976
 30
0.0
 11
382.5040849541565
 21
-43.58196699281006
 31
0.0
  0
LINE
  5
68113
330
1E
100
AcDbEntity
  8
DETAIL
100
AcDbLine
 10
382.6981726441626
 20
-43.84494704027929
 30
0.0
 11
382.6915610143682
 21
-43.58086386430318
 31
0.0
  0
LINE
  5
68114
330
1E
100
AcDbEntity
  8
DETAIL
100
AcDbLine
 10
382.5040849541565
 20
-43.84068713938813
 30
0.0
 11
382.5040849541565
 21
-43.58196699281006
 31
0.0
  0
LINE
  5
68115
330
1E
100
AcDbEntity
  8
DETAIL
100
AcDbLine
 10
381.2059896844293
 20
-58.80354598668827
 30
0.0
 11
380.7593439160814
 21
-58.80537453319743
 31
0.0
  0
ARC
  5
68116
330
1E
100
AcDbEntity
  8
DETAIL
100
AcDbCircle
 10
374.5709398458275
 20
-58.07738547947088
 30
0.0
 40
6.674621261662379
100
AcDbArc
 50
353.7579416651625
 51
94.99989539143907
  0
ARC
  5
68117
330
1E
100
AcDbEntity
  8
DETAIL
100
AcDbCircle
 10
374.8143550238364
 20
-57.91777971097667
 30
0.0
 40
6.010883254314378
100
AcDbArc
 50
351.5083876694686
 51
97.8901024347615
  0
LINE
  5
68118
330
1E
100
AcDbEntity
  8
DETAIL
100
AcDbLine
 10
382.691558924123
 20
-43.5808638349456
 30
0.0
 11
383.6265970788008
 21
-38.38468433186221
 31
0.0
  0
ARC
  5
68119
330
1E
100
AcDbEntity
  8
DETAIL
100
AcDbCircle
 10
383.9940605088873
 20
-34.97289291886704
 30
0.0
 40
7.211713267606657
100
AcDbArc
 50
1.48608420815172
 51
88.60072542936533
  0
ARC
  5
6811A
330
1E
100
AcDbEntity
  8
DETAIL
100
AcDbCircle
 10
383.9426845665993
 20
-34.96221678121264
 30
0.0
 40
6.362658160451689
100
AcDbArc
 50
6.866367305875535
 51
87.95108167184185
  0
ARC
  5
6811B
330
1E
100
AcDbEntity
  8
DETAIL
100
AcDbCircle
 10
384.7636493163708
 20
-45.29092182033969
 30
0.0
 40
7.233833257763222
100
AcDbArc
 50
357.8541158067587
 51
98.0680075498075
  0
ARC
  5
6811C
330
1E
100
AcDbEntity
  8
DETAIL
100
AcDbCircle
 10
384.477829951094
 20
-45.73391749172128
 30
0.0
 40
7.398366403527089
100
AcDbArc
 50
353.4761173119128
 51
96.60690516112062
  0
LINE
  5
6811D
330
1E
100
AcDbEntity
  8
DETAIL
100
AcDbLine
 10
381.2059900714611
 20
-58.80311097161984
 30
0.0
 11
390.4735748605617
 21
-52.30655633011974
 31
0.0
  0
ARC
  5
6811E
330
1E
100
AcDbEntity
  8
DETAIL
100
AcDbCircle
 10
383.7646137661536
 20
-50.78721103551493
 30
0.0
 40
7.285996046499938
100
AcDbArc
 50
353.9098864395264
 51
98.46882852773461
  0
ARC
  5
6811F
330
1E
100
AcDbEntity
  8
DETAIL
100
AcDbCircle
 10
383.513295595259
 20
-50.78673319087283
 30
0.0
 40
6.989478886350054
100
AcDbArc
 50
353.7831760639506
 51
96.6971281553226
  0
ARC
  5
68120
330
1E
100
AcDbEntity
  8
DETAIL
100
AcDbCircle
 10
389.9816960116395
 20
-6.566859170216957
 30
0.0
 40
4.974635167589033
100
AcDbArc
 50
0.0061812849030644
 51
90.70320077253638
  0
LINE
  5
68121
330
1E
100
AcDbEntity
  8
DETAIL
100
AcDbLine
 10
389.9206430073618
 20
-1.592598664244178
 30
0.0
 11
392.0086186516846
 21
-0.9656240591691584
 31
0.0
  0
LINE
  5
68122
330
1E
100
AcDbEntity
  8
DETAIL
100
AcDbLine
 10
394.6200566249162
 20
0.0
 30
0.0
 11
394.0124996109707
 21
-0.3036859519179416
 31
0.0
  0
LINE
  5
68123
330
1E
100
AcDbEntity
  8
DETAIL
100
AcDbLine
 10
394.0124996109707
 20
-0.3036859519179416
 30
0.0
 11
392.7703384567426
 21
-0.9245772985723306
 31
0.0
  0
LINE
  5
68124
330
1E
100
AcDbEntity
  8
DETAIL
100
AcDbLine
 10
396.1460441987801
 20
-5.153513885358279
 30
0.0
 11
394.9563311503934
 21
-6.566322487668003
 31
0.0
  0
LINE
  5
68125
330
1E
100
AcDbEntity
  8
DETAIL
  6
CONTINUOUS
100
AcDbLine
 10
352.0308361353345
 20
-1.575274354899647
 30
0.0
 11
389.9773203828281
 21
-1.575579655810543
 31
0.0
  0
LINE
  5
68126
330
1E
100
AcDbEntity
  8
DETAIL
100
AcDbLine
 10
399.0000000000018
 20
-4.092393566135115
 30
0.0
 11
398.2019999993426
 21
-4.491272000348544
 31
0.0
  0
LINE
  5
68127
330
1E
100
AcDbEntity
  8
DETAIL
100
AcDbLine
 10
398.2019999993426
 20
-4.491272000348544
 30
0.0
 11
396.877112561895
 21
-5.153513885342363
 31
0.0
  0
LINE
  5
6812B
330
1E
100
AcDbEntity
  8
SIZE
100
AcDbLine
 10
-387.0
 20
122.2262578441673
 30
0.0
 11
387.0000000000018
 21
122.2262578441673
 31
0.0
  0
LINE
  5
6812C
330
1E
100
AcDbEntity
  8
SIZE
  6
BYBLOCK
100
AcDbLine
 10
-399.0
 20
122.2262578441673
 30
0.0
 11
-387.0
 21
122.2262578441673
 31
0.0
  0
CIRCLE
  5
6812D
330
1E
100
AcDbEntity
  8
SIZE
  6
BYBLOCK
100
AcDbCircle
 10
-399.0
 20
122.2262578441673
 30
0.0
 40
6.0
  0
TEXT
  5
6812E
330
1E
100
AcDbEntity
  8
SIZE
100
AcDbText
 10
-57.85714285714175
 20
142.2262578441673
 30
0.0
 40
50.0
  1
798
 41
0.9
100
AcDbText
  0
TEXT
  5
6812F
330
1E
100
AcDbEntity
  8
ETC
100
AcDbText
 10
327.9441276765073
 20
345.9278080293068
 30
0.0
 40
64.0
  1
SMSZ4962
 41
0.8860759562895619
 72
     5
 11
754.6107976765097
 21
345.9278080293068
 31
0.0
100
AcDbText
  0
LINE
  5
68130
330
1E
100
AcDbEntity
  8
SIZE
  6
BYBLOCK
100
AcDbLine
 10
399.0000000000018
 20
122.2262578441673
 30
0.0
 11
387.0000000000018
 21
122.2262578441673
 31
0.0
  0
CIRCLE
  5
68131
330
1E
100
AcDbEntity
  8
SIZE
  6
BYBLOCK
100
AcDbCircle
 10
399.0000000000018
 20
122.2262578441673
 30
0.0
 40
6.0
  0
TEXT
  5
68132
330
1E
100
AcDbEntity
  8
ETC
100
AcDbText
 10
416.7094142908149
 20
474.0068125406906
 30
0.0
 40
64.0
  1
室内機
 41
0.75
 72
     5
 11
576.7094142908149
 21
474.0068125406906
 31
0.0
100
AcDbText
  0
LINE
  5
6816E
330
1E
100
AcDbEntity
  8
OUTLINE
  6
CONTINUOUS
100
AcDbLine
 10
-394.6200566249133
 20
0.0000000000289901
 30
0.0
 11
394.6200566249165
 21
0.0000000000289901
 31
0.0
  0
LINE
  5
68178
330
1E
100
AcDbEntity
  8
OUTLINE
  6
CONTINUOUS
100
AcDbLine
 10
-395.4072282810336
 20
-294.999999999971
 30
0.0
 11
395.4072282810359
 21
-294.999999999971
 31
0.0
  0
LINE
  5
68190
330
1E
100
AcDbEntity
  8
OUTLINE
100
AcDbLine
 10
-398.9999999999998
 20
-291.8331087443617
 30
0.0
 11
-398.9999999999998
 21
-4.092393566101804
 31
0.0
  0
ARC
  5
681AC
330
1E
100
AcDbEntity
  8
OUTLINE
100
AcDbCircle
 10
-395.3979703408784
 20
-291.3680893462895
 30
0.0
 40
3.631922453161753
100
AcDbArc
 50
187.3561559281224
 51
269.8539502208042
  0
ARC
  5
682FC
330
1E
100
AcDbEntity
  8
OUTLINE
100
AcDbCircle
 10
-394.9370880408034
 20
-4.050738184589704
 30
0.0
 40
4.063125491415537
100
AcDbArc
 50
85.5248627688884
 51
180.5874097096272
  0
LINE
  5
68306
330
1E
100
AcDbEntity
  8
OUTLINE
100
AcDbLine
 10
399.000000000002
 20
-291.8331087443617
 30
0.0
 11
399.000000000002
 21
-4.092393566101804
 31
0.0
  0
ARC
  5
68320
330
1E
100
AcDbEntity
  8
OUTLINE
100
AcDbCircle
 10
395.3979703408806
 20
-291.3680893462895
 30
0.0
 40
3.631922453161753
100
AcDbArc
 50
270.1460497791957
 51
352.6438440718775
  0
ARC
  5
68383
330
1E
100
AcDbEntity
  8
OUTLINE
100
AcDbCircle
 10
394.9370880408057
 20
-4.050738184589704
 30
0.0
 40
4.063125491415537
100
AcDbArc
 50
359.4125902903728
 51
94.47513723111162
  0
ENDSEC
  0
SECTION
  2
OBJECTS
  0
DICTIONARY
  5
C
330
0
100
AcDbDictionary
  3
ACAD_GROUP
350
D
  3
ACAD_LAYOUT
350
19
  3
ACAD_MLINESTYLE
350
16
  3
ACAD_PLOTSETTINGS
350
18
  3
ACAD_PLOTSTYLENAME
350
E
  3
ACDBHEADERROUNDTRIPXREC
350
683DD
  0
DICTIONARY
  5
66E76
330
1E
100
AcDbDictionary
280
     1
  3
ACAD_LAYOUTSELFREF
360
683FF
  0
DICTIONARY
  5
66E74
330
1A
100
AcDbDictionary
280
     1
  3
ACAD_LAYOUTSELFREF
360
683FE
  0
DICTIONARY
  5
D
102
{ACAD_REACTORS
330
C
102
}
330
C
100
AcDbDictionary
  3
*A1
350
677EB
  0
DICTIONARY
  5
19
102
{ACAD_REACTORS
330
C
102
}
330
C
100
AcDbDictionary
  0
DICTIONARY
  5
16
102
{ACAD_REACTORS
330
C
102
}
330
C
100
AcDbDictionary
  3
STANDARD
350
17
  0
DICTIONARY
  5
18
102
{ACAD_REACTORS
330
C
102
}
330
C
100
AcDbDictionary
  0
ACDBDICTIONARYWDFLT
  5
E
102
{ACAD_REACTORS
330
C
102
}
330
C
100
AcDbDictionary
281
     1
  3
Normal
350
F
100
AcDbDictionaryWithDefault
340
F
  0
DICTIONARY
  5
683DD
102
{ACAD_REACTORS
330
C
102
}
330
C
100
AcDbDictionary
  3
CEPSNTYPE
350
683E7
  3
DIMSTYLEDATA
350
683EB
  3
FINGERPRINTGUID
350
683E8
  3
HYPERLINKBASE
350
683E0
  3
INSUNITS
350
683E6
  3
LAYOUTDICT
350
683E2
  3
LWETCUNION
350
683E5
  3
PLOTSETDICT
350
683E3
  3
PLOTSTYLNAMDICT
350
683E4
  3
PSVPSCALE
350
683EA
  3
PUCSBASE
350
683EE
  3
PUCSORGBACK
350
683F4
  3
PUCSORGBOTTOM
350
683F0
  3
PUCSORGFRONT
350
683F3
  3
PUCSORGLEFT
350
683F1
  3
PUCSORGRIGHT
350
683F2
  3
PUCSORGTOP
350
683EF
  3
PUCSORTHOREF
350
683EC
  3
PUCSORTHOVIEW
350
683ED
  3
STYLESHEET
350
683E1
  3
TSTACKALIGN
350
683DE
  3
TSTACKSIZE
350
683DF
  3
UCSBASE
350
683F7
  3
UCSORGBACK
350
683FD
  3
UCSORGBOTTOM
350
683F9
  3
UCSORGFRONT
350
683FC
  3
UCSORGLEFT
350
683FA
  3
UCSORGRIGHT
350
683FB
  3
UCSORGTOP
350
683F8
  3
UCSORTHOREF
350
683F5
  3
UCSORTHOVIEW
350
683F6
  3
VERSIONGUID
350
683E9
  0
XRECORD
  5
683FF
102
{ACAD_REACTORS
330
66E76
102
}
330
66E76
100
AcDbXrecord
340
1E
  0
XRECORD
  5
683FE
102
{ACAD_REACTORS
330
66E74
102
}
330
66E74
100
AcDbXrecord
340
1A
  0
GROUP
  5
677EB
102
{ACAD_REACTORS
330
D
102
}
330
D
100
AcDbGroup
300

 70
     1
 71
     1
340
677EA
340
675C1
  0
MLINESTYLE
  5
17
102
{ACAD_REACTORS
330
16
102
}
330
16
100
AcDbMlineStyle
  2
STANDARD
 70
     0
  3

 62
   256
 51
90.0
 52
90.0
 71
     2
 49
0.5
 62
   256
  6
BYLAYER
 49
-0.5
 62
   256
  6
BYLAYER
  0
ACDBPLACEHOLDER
  5
F
102
{ACAD_REACTORS
330
E
102
}
330
E
100
AcDbPlaceHolder
280
     0
  0
XRECORD
  5
683E7
102
{ACAD_REACTORS
330
683DD
102
}
330
683DD
100
AcDbXrecord
 90
        0
  0
XRECORD
  5
683EB
102
{ACAD_REACTORS
330
683DD
102
}
330
683DD
100
AcDbXrecord
1000
DSTYLE
1002
{
1070
   341
340
46
1070
   342
340
46
1002
}
  0
XRECORD
  5
683E8
102
{ACAD_REACTORS
330
683DD
102
}
330
683DD
100
AcDbXrecord
  1
{97DA8DB6-C4F0-4C3D-ABEB-53C4FBBC7EFF}
  0
XRECORD
  5
683E0
102
{ACAD_REACTORS
330
683DD
102
}
330
683DD
100
AcDbXrecord
  1

  0
XRECORD
  5
683E6
102
{ACAD_REACTORS
330
683DD
102
}
330
683DD
100
AcDbXrecord
 90
        0
  0
XRECORD
  5
683E2
102
{ACAD_REACTORS
330
683DD
102
}
330
683DD
100
AcDbXrecord
340
19
  0
XRECORD
  5
683E5
102
{ACAD_REACTORS
330
683DD
102
}
330
683DD
100
AcDbXrecord
 90
    10781
  0
XRECORD
  5
683E3
102
{ACAD_REACTORS
330
683DD
102
}
330
683DD
100
AcDbXrecord
340
18
  0
XRECORD
  5
683E4
102
{ACAD_REACTORS
330
683DD
102
}
330
683DD
100
AcDbXrecord
340
E
  0
XRECORD
  5
683EA
102
{ACAD_REACTORS
330
683DD
102
}
330
683DD
100
AcDbXrecord
 40
0.0
  0
XRECORD
  5
683EE
102
{ACAD_REACTORS
330
683DD
102
}
330
683DD
100
AcDbXrecord
340
0
  0
XRECORD
  5
683F4
102
{ACAD_REACTORS
330
683DD
102
}
330
683DD
100
AcDbXrecord
 10
0.0
 20
0.0
 30
0.0
  0
XRECORD
  5
683F0
102
{ACAD_REACTORS
330
683DD
102
}
330
683DD
100
AcDbXrecord
 10
0.0
 20
0.0
 30
0.0
  0
XRECORD
  5
683F3
102
{ACAD_REACTORS
330
683DD
102
}
330
683DD
100
AcDbXrecord
 10
0.0
 20
0.0
 30
0.0
  0
XRECORD
  5
683F1
102
{ACAD_REACTORS
330
683DD
102
}
330
683DD
100
AcDbXrecord
 10
0.0
 20
0.0
 30
0.0
  0
XRECORD
  5
683F2
102
{ACAD_REACTORS
330
683DD
102
}
330
683DD
100
AcDbXrecord
 10
0.0
 20
0.0
 30
0.0
  0
XRECORD
  5
683EF
102
{ACAD_REACTORS
330
683DD
102
}
330
683DD
100
AcDbXrecord
 10
0.0
 20
0.0
 30
0.0
  0
XRECORD
  5
683EC
102
{ACAD_REACTORS
330
683DD
102
}
330
683DD
100
AcDbXrecord
340
0
  0
XRECORD
  5
683ED
102
{ACAD_REACTORS
330
683DD
102
}
330
683DD
100
AcDbXrecord
 70
     0
  0
XRECORD
  5
683E1
102
{ACAD_REACTORS
330
683DD
102
}
330
683DD
100
AcDbXrecord
  1
u.ctb
  0
XRECORD
  5
683DE
102
{ACAD_REACTORS
330
683DD
102
}
330
683DD
100
AcDbXrecord
 90
        1
  0
XRECORD
  5
683DF
102
{ACAD_REACTORS
330
683DD
102
}
330
683DD
100
AcDbXrecord
 90
       70
  0
XRECORD
  5
683F7
102
{ACAD_REACTORS
330
683DD
102
}
330
683DD
100
AcDbXrecord
340
0
  0
XRECORD
  5
683FD
102
{ACAD_REACTORS
330
683DD
102
}
330
683DD
100
AcDbXrecord
 10
0.0
 20
0.0
 30
0.0
  0
XRECORD
  5
683F9
102
{ACAD_REACTORS
330
683DD
102
}
330
683DD
100
AcDbXrecord
 10
0.0
 20
0.0
 30
0.0
  0
XRECORD
  5
683FC
102
{ACAD_REACTORS
330
683DD
102
}
330
683DD
100
AcDbXrecord
 10
0.0
 20
0.0
 30
0.0
  0
XRECORD
  5
683FA
102
{ACAD_REACTORS
330
683DD
102
}
330
683DD
100
AcDbXrecord
 10
0.0
 20
0.0
 30
0.0
  0
XRECORD
  5
683FB
102
{ACAD_REACTORS
330
683DD
102
}
330
683DD
100
AcDbXrecord
 10
0.0
 20
0.0
 30
0.0
  0
XRECORD
  5
683F8
102
{ACAD_REACTORS
330
683DD
102
}
330
683DD
100
AcDbXrecord
 10
0.0
 20
0.0
 30
0.0
  0
XRECORD
  5
683F5
102
{ACAD_REACTORS
330
683DD
102
}
330
683DD
100
AcDbXrecord
340
0
  0
XRECORD
  5
683F6
102
{ACAD_REACTORS
330
683DD
102
}
330
683DD
100
AcDbXrecord
 70
     0
  0
XRECORD
  5
683E9
102
{ACAD_REACTORS
330
683DD
102
}
330
683DD
100
AcDbXrecord
  1
{603C17B2-7C0D-4DB8-82A0-9DCB08A1F53B}
  0
ENDSEC
  0
EOF
