  0
SECTION
  2
HEADER
  9
$ACADVER
  1
AC1014
  9
$ACADMAINTVER
 70
     9
  9
$DWGCODEPAGE
  3
ANSI_932
  9
$INSBASE
 10
0.0
 20
0.0
 30
0.0
  9
$EXTMIN
 10
-1168.862815971282
 20
-464.611764606932
 30
-0.0015258207003583
  9
$EXTMAX
 10
1096.233503930547
 20
537.9162817824781
 30
0.0000000349246037
  9
$LIMMIN
 10
-1256.521539375828
 20
-735.1436645616486
  9
$LIMMAX
 10
1241.963350449692
 20
669.2654416813602
  9
$ORTHOMODE
 70
     0
  9
$REGENMODE
 70
     1
  9
$FILLMODE
 70
     1
  9
$QTEXTMODE
 70
     0
  9
$MIRRTEXT
 70
     0
  9
$DRAGMODE
 70
     2
  9
$LTSCALE
 40
20.0
  9
$OSMODE
 70
    39
  9
$ATTMODE
 70
     1
  9
$TEXTSIZE
 40
64.0
  9
$TRACEWID
 40
0.05
  9
$TEXTSTYLE
  7
STANDARD
  9
$CLAYER
  8
OUTLINE
  9
$CELTYPE
  6
CONTINUOUS
  9
$CECOLOR
 62
   256
  9
$CELTSCALE
 40
1.0
  9
$DELOBJ
 70
     1
  9
$DISPSILH
 70
     0
  9
$DIMSCALE
 40
1.0
  9
$DIMASZ
 40
10.0
  9
$DIMEXO
 40
20.0
  9
$DIMDLI
 40
200.0
  9
$DIMRND
 40
0.0
  9
$DIMDLE
 40
0.0
  9
$DIMEXE
 40
20.0
  9
$DIMTP
 40
0.0
  9
$DIMTM
 40
0.0
  9
$DIMTXT
 40
50.0
  9
$DIMCEN
 40
0.082
  9
$DIMTSZ
 40
0.0
  9
$DIMTOL
 70
     0
  9
$DIMLIM
 70
     0
  9
$DIMTIH
 70
     0
  9
$DIMTOH
 70
     0
  9
$DIMSE1
 70
     0
  9
$DIMSE2
 70
     0
  9
$DIMTAD
 70
     1
  9
$DIMZIN
 70
     8
  9
$DIMBLK
  1
ORIGIN
  9
$DIMASO
 70
     1
  9
$DIMSHO
 70
     0
  9
$DIMPOST
  1

  9
$DIMAPOST
  1

  9
$DIMALT
 70
     0
  9
$DIMALTD
 70
     2
  9
$DIMALTF
 40
25.4
  9
$DIMLFAC
 40
1.0
  9
$DIMTOFL
 70
     1
  9
$DIMTVP
 40
0.0
  9
$DIMTIX
 70
     0
  9
$DIMSOXD
 70
     0
  9
$DIMSAH
 70
     0
  9
$DIMBLK1
  1

  9
$DIMBLK2
  1

  9
$DIMSTYLE
  2
STANDARD
  9
$DIMCLRD
 70
     0
  9
$DIMCLRE
 70
     0
  9
$DIMCLRT
 70
     0
  9
$DIMTFAC
 40
1.0
  9
$DIMGAP
 40
10.0
  9
$DIMJUST
 70
     0
  9
$DIMSD1
 70
     0
  9
$DIMSD2
 70
     0
  9
$DIMTOLJ
 70
     1
  9
$DIMTZIN
 70
     0
  9
$DIMALTZ
 70
     0
  9
$DIMALTTZ
 70
     0
  9
$DIMFIT
 70
     3
  9
$DIMUPT
 70
     0
  9
$DIMUNIT
 70
     2
  9
$DIMDEC
 70
     1
  9
$DIMTDEC
 70
     1
  9
$DIMALTU
 70
     2
  9
$DIMALTTD
 70
     2
  9
$DIMTXSTY
  7
STANDARD
  9
$DIMAUNIT
 70
     0
  9
$LUNITS
 70
     2
  9
$LUPREC
 70
     4
  9
$SKETCHINC
 40
0.1
  9
$FILLETRAD
 40
10.0
  9
$AUNITS
 70
     1
  9
$AUPREC
 70
     3
  9
$MENU
  1
ACAD
  9
$ELEVATION
 40
0.0
  9
$PELEVATION
 40
0.0
  9
$THICKNESS
 40
0.0
  9
$LIMCHECK
 70
     0
  9
$BLIPMODE
 70
     0
  9
$CHAMFERA
 40
0.0
  9
$CHAMFERB
 40
0.0
  9
$CHAMFERC
 40
0.0
  9
$CHAMFERD
 40
0.0
  9
$SKPOLY
 70
     0
  9
$TDCREATE
 40
2450330.393205995
  9
$TDUPDATE
 40
2454816.731142940
  9
$TDINDWG
 40
1.8679667824
  9
$TDUSRTIMER
 40
1.8679662269
  9
$USRTIMER
 70
     1
  9
$ANGBASE
 50
0.0
  9
$ANGDIR
 70
     0
  9
$PDMODE
 70
     3
  9
$PDSIZE
 40
-2.0
  9
$PLINEWID
 40
0.0
  9
$COORDS
 70
     2
  9
$SPLFRAME
 70
     0
  9
$SPLINETYPE
 70
     6
  9
$SPLINESEGS
 70
     8
  9
$ATTDIA
 70
     0
  9
$ATTREQ
 70
     1
  9
$HANDLING
 70
-16383
  9
$HANDSEED
  5
685AE
  9
$SURFTAB1
 70
     6
  9
$SURFTAB2
 70
     6
  9
$SURFTYPE
 70
     6
  9
$SURFU
 70
     6
  9
$SURFV
 70
     6
  9
$UCSNAME
  2

  9
$UCSORG
 10
0.0
 20
0.0
 30
0.0
  9
$UCSXDIR
 10
1.0
 20
0.0
 30
0.0
  9
$UCSYDIR
 10
0.0
 20
1.0
 30
0.0
  9
$PUCSNAME
  2

  9
$PUCSORG
 10
0.0
 20
0.0
 30
0.0
  9
$PUCSXDIR
 10
1.0
 20
0.0
 30
0.0
  9
$PUCSYDIR
 10
0.0
 20
1.0
 30
0.0
  9
$USERI1
 70
     0
  9
$USERI2
 70
     0
  9
$USERI3
 70
     0
  9
$USERI4
 70
     0
  9
$USERI5
 70
     0
  9
$USERR1
 40
20.0
  9
$USERR2
 40
0.0
  9
$USERR3
 40
0.0
  9
$USERR4
 40
0.0
  9
$USERR5
 40
0.0
  9
$WORLDVIEW
 70
     1
  9
$SHADEDGE
 70
     3
  9
$SHADEDIF
 70
    70
  9
$TILEMODE
 70
     1
  9
$MAXACTVP
 70
    64
  9
$PINSBASE
 10
0.0
 20
0.0
 30
0.0
  9
$PLIMCHECK
 70
     0
  9
$PEXTMIN
 10
1.000000000000000E+20
 20
1.000000000000000E+20
 30
1.000000000000000E+20
  9
$PEXTMAX
 10
-1.000000000000000E+20
 20
-1.000000000000000E+20
 30
-1.000000000000000E+20
  9
$PLIMMIN
 10
0.0
 20
0.0
  9
$PLIMMAX
 10
12.0
 20
9.0
  9
$UNITMODE
 70
     0
  9
$VISRETAIN
 70
     1
  9
$PLINEGEN
 70
     0
  9
$PSLTSCALE
 70
     1
  9
$TREEDEPTH
 70
  3020
  9
$PICKSTYLE
 70
     1
  9
$CMLSTYLE
  2
STANDARD
  9
$CMLJUST
 70
     0
  9
$CMLSCALE
 40
1.0
  9
$PROXYGRAPHICS
 70
     1
  9
$MEASUREMENT
 70
     0
  0
ENDSEC
  0
SECTION
  2
CLASSES
  0
CLASS
  1
ACDBDICTIONARYWDFLT
  2
AcDbDictionaryWithDefault
  3
AutoCAD 2000
 90
        0
280
     0
281
     0
  0
CLASS
  1
ACDBPLACEHOLDER
  2
AcDbPlaceHolder
  3
AutoCAD 2000
 90
        0
280
     0
281
     0
  0
CLASS
  1
LAYOUT
  2
AcDbLayout
  3
AutoCAD 2000
 90
        0
280
     0
281
     0
  0
CLASS
  1
LONG_TRANSACTION
  2
AcDbLongTransaction
  3
AutoCAD 2000
 90
        0
280
     0
281
     0
  0
CLASS
  1
LWPOLYLINE
  2
AcDbPolyline
  3
AutoCAD 2000
 90
        0
280
     0
281
     1
  0
CLASS
  1
HATCH
  2
AcDbHatch
  3
AutoCAD 2000
 90
        0
280
     0
281
     1
  0
CLASS
  1
XRECORD
  2
AcDbXrecord
  3
AutoCAD 2000
 90
        0
280
     0
281
     0
  0
CLASS
  1
LONG_TRANSACTION
  2
AcDbLongTransaction
  3
AutoCAD 2000
 90
        0
280
     0
281
     0
  0
CLASS
  1
LWPOLYLINE
  2
AcDbPolyline
  3
AutoCAD 2000
 90
        0
280
     0
281
     1
  0
CLASS
  1
HATCH
  2
AcDbHatch
  3
AutoCAD 2000
 90
        0
280
     0
281
     1
  0
CLASS
  1
XRECORD
  2
AcDbXrecord
  3
AutoCAD 2000
 90
        0
280
     0
281
     0
  0
CLASS
  1
LONG_TRANSACTION
  2
AcDbLongTransaction
  3
AutoCAD 2000
 90
        0
280
     0
281
     0
  0
CLASS
  1
LWPOLYLINE
  2
AcDbPolyline
  3
AutoCAD 2000
 90
        0
280
     0
281
     1
  0
CLASS
  1
HATCH
  2
AcDbHatch
  3
AutoCAD 2000
 90
        0
280
     0
281
     1
  0
CLASS
  1
XRECORD
  2
AcDbXrecord
  3
AutoCAD 2000
 90
        0
280
     0
281
     0
  0
CLASS
  1
LONG_TRANSACTION
  2
AcDbLongTransaction
  3
AutoCAD 2000
 90
        0
280
     0
281
     0
  0
CLASS
  1
LWPOLYLINE
  2
AcDbPolyline
  3
AutoCAD 2000
 90
        0
280
     0
281
     1
  0
CLASS
  1
HATCH
  2
AcDbHatch
  3
AutoCAD 2000
 90
        0
280
     0
281
     1
  0
CLASS
  1
XRECORD
  2
AcDbXrecord
  3
AutoCAD 2000
 90
        0
280
     0
281
     0
  0
ENDSEC
  0
SECTION
  2
TABLES
  0
TABLE
  2
VPORT
  5
8
330
0
100
AcDbSymbolTable
 70
     3
  0
VPORT
  5
6858A
330
8
100
AcDbSymbolTableRecord
100
AcDbViewportTableRecord
  2
*ACTIVE
 70
     0
 10
0.0
 20
0.0
 11
1.0
 21
1.0
 12
-7.279094463067849
 22
-32.93911144014419
 13
0.0
 23
0.0
 14
50.0
 24
50.0
 15
100.0
 25
100.0
 16
0.0
 26
0.0
 36
1.0
 17
0.0
 27
0.0
 37
0.0
 40
1607.140585878421
 41
1.562182741116751
 42
50.0
 43
0.0
 44
0.0
 50
0.0
 51
0.0
 71
     0
 72
   500
 73
     1
 74
     0
 75
     0
 76
     0
 77
     0
 78
     0
  0
ENDTAB
  0
TABLE
  2
LTYPE
  5
5
330
0
100
AcDbSymbolTable
 70
     3
  0
LTYPE
  5
13
330
5
100
AcDbSymbolTableRecord
100
AcDbLinetypeTableRecord
  2
BYBLOCK
 70
     0
  3

 72
    65
 73
     0
 40
0.0
  0
LTYPE
  5
14
330
5
100
AcDbSymbolTableRecord
100
AcDbLinetypeTableRecord
  2
BYLAYER
 70
     0
  3

 72
    65
 73
     0
 40
0.0
  0
LTYPE
  5
15
330
5
100
AcDbSymbolTableRecord
100
AcDbLinetypeTableRecord
  2
CONTINUOUS
 70
     0
  3
実線
 72
    65
 73
     0
 40
0.0
  0
LTYPE
  5
23
330
5
100
AcDbSymbolTableRecord
100
AcDbLinetypeTableRecord
  2
DASHDOT
 70
     0
  3
____ _ ____ _ ____ _ ____ _ ____ _ ____ _ ____
 72
    65
 73
     4
 40
5.5
 49
4.0
 74
     0
 49
-0.6
 74
     0
 49
0.3
 74
     0
 49
-0.6
 74
     0
  0
LTYPE
  5
683DB
330
5
100
AcDbSymbolTableRecord
100
AcDbLinetypeTableRecord
  2
CENTER
 70
     0
  3
____ _ ____ _ ____ _ ____ _ ____ _ ____ _ ____
 72
    65
 73
     4
 40
0.6
 49
0.375
 74
     0
 49
-0.075
 74
     0
 49
0.075
 74
     0
 49
-0.075
 74
     0
  0
ENDTAB
  0
TABLE
  2
LAYER
  5
2
330
0
100
AcDbSymbolTable
 70
     9
  0
LAYER
  5
10
330
2
100
AcDbSymbolTableRecord
100
AcDbLayerTableRecord
  2
0
 70
     0
 62
     7
  6
CONTINUOUS
  0
LAYER
  5
22
330
2
100
AcDbSymbolTableRecord
100
AcDbLayerTableRecord
  2
SIZE
 70
     0
 62
    32
  6
CONTINUOUS
  0
LAYER
  5
31
330
2
100
AcDbSymbolTableRecord
100
AcDbLayerTableRecord
  2
DETAIL
 70
     0
 62
     5
  6
CONTINUOUS
  0
LAYER
  5
32
330
2
100
AcDbSymbolTableRecord
100
AcDbLayerTableRecord
  2
OUTLINE
 70
     0
 62
     3
  6
CONTINUOUS
  0
LAYER
  5
33
330
2
100
AcDbSymbolTableRecord
100
AcDbLayerTableRecord
  2
BASIS
 70
     0
 62
     6
  6
CONTINUOUS
  0
LAYER
  5
34
330
2
100
AcDbSymbolTableRecord
100
AcDbLayerTableRecord
  2
NOTE
 70
     0
 62
     4
  6
CONTINUOUS
  0
LAYER
  5
35
330
2
100
AcDbSymbolTableRecord
100
AcDbLayerTableRecord
  2
ARRANGE
 70
     0
 62
     1
  6
CONTINUOUS
  0
LAYER
  5
37
330
2
100
AcDbSymbolTableRecord
100
AcDbLayerTableRecord
  2
ETC
 70
     0
 62
    83
  6
CONTINUOUS
  0
LAYER
  5
3A
330
2
100
AcDbSymbolTableRecord
100
AcDbLayerTableRecord
  2
DEFPOINTS
 70
     0
 62
     7
  6
CONTINUOUS
  0
ENDTAB
  0
TABLE
  2
STYLE
  5
3
330
0
100
AcDbSymbolTable
 70
     1
  0
STYLE
  5
11
330
3
100
AcDbSymbolTableRecord
100
AcDbTextStyleTableRecord
  2
STANDARD
 70
     0
 40
0.0
 41
0.9
 50
0.0
 71
     0
 42
64.0
  3
SIMPLEX
  4
BIGFONT
  0
ENDTAB
  0
TABLE
  2
VIEW
  5
6
330
0
100
AcDbSymbolTable
 70
     1
  0
VIEW
  5
3C
330
6
100
AcDbSymbolTableRecord
100
AcDbViewTableRecord
  2
ALL
 70
     0
 40
4282.62
 10
0.0
 20
41.30990399999999
 41
5940.0
 11
0.0
 21
0.0
 31
1.0
 12
0.0
 22
0.0
 32
0.0
 42
50.0
 43
0.0
 44
0.0
 50
0.0
 71
     0
  0
ENDTAB
  0
TABLE
  2
UCS
  5
7
330
0
100
AcDbSymbolTable
 70
     0
  0
ENDTAB
  0
TABLE
  2
APPID
  5
9
330
0
100
AcDbSymbolTable
 70
     1
  0
APPID
  5
12
330
9
100
AcDbSymbolTableRecord
100
AcDbRegAppTableRecord
  2
ACAD
 70
     0
  0
ENDTAB
  0
TABLE
  2
DIMSTYLE
  5
A
330
0
100
AcDbSymbolTable
 70
     1
  0
DIMSTYLE
105
213
330
A
100
AcDbSymbolTableRecord
100
AcDbDimStyleTableRecord
  2
STANDARD
 70
     0
  3

  4

  5

  6

  7

 40
1.0
 41
0.18
 42
0.0625
 43
0.38
 44
0.18
 45
0.0
 46
0.0
 47
0.0
 48
0.0
140
0.18
141
0.09
142
0.0
143
25.4
144
1.0
145
0.0
146
1.0
147
0.09
 71
     0
 72
     0
 73
     1
 74
     1
 75
     0
 76
     0
 77
     0
 78
     0
170
     0
171
     2
172
     0
173
     0
174
     0
175
     0
176
     0
177
     0
178
     0
270
     2
271
     4
272
     4
273
     2
274
     2
340
11
275
     0
280
     0
281
     0
282
     0
283
     1
284
     0
285
     0
286
     0
287
     3
288
     0
  0
ENDTAB
  0
TABLE
  2
BLOCK_RECORD
  5
1
330
0
100
AcDbSymbolTable
 70
     2
  0
BLOCK_RECORD
  5
1E
102
{ACAD_XDICTIONARY
360
66E76
102
}
330
1
100
AcDbSymbolTableRecord
100
AcDbBlockTableRecord
  2
*MODEL_SPACE
  0
BLOCK_RECORD
  5
1A
102
{ACAD_XDICTIONARY
360
66E74
102
}
330
1
100
AcDbSymbolTableRecord
100
AcDbBlockTableRecord
  2
*PAPER_SPACE
  0
BLOCK_RECORD
  5
46
330
1
100
AcDbSymbolTableRecord
100
AcDbBlockTableRecord
  2
_ORIGIN
  0
BLOCK_RECORD
  5
175A
330
1
100
AcDbSymbolTableRecord
100
AcDbBlockTableRecord
  2
_NONE
  0
ENDTAB
  0
ENDSEC
  0
SECTION
  2
BLOCKS
  0
BLOCK
  5
1F
330
1E
100
AcDbEntity
  8
0
100
AcDbBlockBegin
  2
*MODEL_SPACE
 70
     0
 10
0.0
 20
0.0
 30
0.0
  3
*MODEL_SPACE
  1

  0
ENDBLK
  5
20
330
1E
100
AcDbEntity
  8
0
100
AcDbBlockEnd
  0
BLOCK
  5
1B
330
1A
100
AcDbEntity
 67
     1
  8
0
100
AcDbBlockBegin
  2
*PAPER_SPACE
 70
     0
 10
0.0
 20
0.0
 30
0.0
  3
*PAPER_SPACE
  1

  0
ENDBLK
  5
1C
330
1A
100
AcDbEntity
 67
     1
  8
0
100
AcDbBlockEnd
  0
BLOCK
  5
47
330
46
100
AcDbEntity
  8
0
100
AcDbBlockBegin
  2
_ORIGIN
 70
     0
 10
0.0
 20
0.0
 30
0.0
  3
_ORIGIN
  1

  0
CIRCLE
  5
48
330
46
100
AcDbEntity
  8
0
  6
BYBLOCK
 62
     0
100
AcDbCircle
 10
0.0
 20
0.0
 30
0.0
 40
0.5
  0
LINE
  5
49
330
46
100
AcDbEntity
  8
0
  6
BYBLOCK
 62
     0
100
AcDbLine
 10
0.0
 20
0.0
 30
0.0
 11
-1.0
 21
0.0
 31
0.0
  0
ENDBLK
  5
4A
330
46
100
AcDbEntity
  8
0
100
AcDbBlockEnd
  0
BLOCK
  5
175B
330
175A
100
AcDbEntity
  8
0
100
AcDbBlockBegin
  2
_NONE
 70
     0
 10
0.0
 20
0.0
 30
0.0
  3
_NONE
  1

  0
ENDBLK
  5
175C
330
175A
100
AcDbEntity
  8
0
100
AcDbBlockEnd
  0
ENDSEC
  0
SECTION
  2
ENTITIES
  0
MTEXT
  5
38341
330
1E
100
AcDbEntity
  8
0
  6
CONTINUOUS
100
AcDbMText
 10
383.9605305094082
 20
4023.282340837186
 30
0.0
 40
64.0
 41
187.9848
 71
     1
 72
     5
  1

1001
ACAD
1000
MTEXTBEGIN
1070
    73
1070
     1
1070
    44
1040
1.0
1070
    74
1070
     0
1000
MTEXTEND
1000
MTEXTBEGIN
1070
    73
1070
     1
1070
    44
1040
1.0
1070
    74
1070
     0
1000
MTEXTEND
1000
MTEXTBEGIN
1070
    73
1070
     1
1070
    44
1040
1.0
1070
    74
1070
     0
1000
MTEXTEND
1000
MTEXTBEGIN
1070
    73
1070
     1
1070
    44
1040
1.0
1070
    74
1070
     0
1000
MTEXTEND
  0
POINT
  5
675C1
102
{ACAD_REACTORS
330
677EB
102
}
330
1E
100
AcDbEntity
  8
ARRANGE
  6
CONTINUOUS
100
AcDbPoint
 10
0.0
 20
0.0
 30
0.0
  0
CIRCLE
  5
677EA
102
{ACAD_REACTORS
330
677EB
102
}
330
1E
100
AcDbEntity
  8
ARRANGE
  6
CONTINUOUS
100
AcDbCircle
 10
0.0
 20
0.0
 30
0.0
 40
13.00138232471456
  0
LINE
  5
68476
330
1E
100
AcDbEntity
  8
BASIS
100
AcDbLine
 10
-460.5022263473292
 20
-147.9925550037929
 30
0.0
 11
472.7924255429607
 21
-147.9925550037929
 31
0.0
  0
LINE
  5
68477
330
1E
100
AcDbEntity
  8
SIZE
100
AcDbLine
 10
-317.9999999174979
 20
-434.4913684433063
 30
0.0
 11
-12.0
 21
-434.4913684433063
 31
0.0
  0
TEXT
  5
68478
330
1E
100
AcDbEntity
  8
SIZE
100
AcDbText
 10
-57.85644376559321
 20
200.7235352877278
 30
0.0
 40
50.0
  1
798
 41
0.9
100
AcDbText
  0
LINE
  5
68479
330
1E
100
AcDbEntity
  8
SIZE
100
AcDbLine
 10
-387.1993008079807
 20
180.7235352877278
 30
0.0
 11
387.2006989910805
 21
180.7235352877278
 31
0.0
  0
LINE
  5
6847A
330
1E
100
AcDbEntity
  8
DETAIL
100
AcDbLine
 10
399.0000000000018
 20
-295.0
 30
0.0
 11
-399.0
 21
-295.0
 31
0.0
  0
LINE
  5
6847B
330
1E
100
AcDbEntity
  8
DETAIL
  6
CONTINUOUS
100
AcDbLine
 10
-16.72847273119623
 20
-33.41625000000067
 30
0.0
 11
-74.82517020643536
 21
-33.41625000000067
 31
0.0
  0
LINE
  5
6847C
330
1E
100
AcDbEntity
  8
DETAIL
  6
CONTINUOUS
100
AcDbLine
 10
119.7000000000007
 20
-284.2874999999999
 30
0.0
 11
-119.6999999999989
 21
-284.2874999999999
 31
0.0
  0
LINE
  5
6847D
330
1E
100
AcDbEntity
  8
DETAIL
  6
CONTINUOUS
100
AcDbLine
 10
119.7000000000007
 20
-214.4625
 30
0.0
 11
-119.6999999999989
 21
-214.4625
 31
0.0
  0
LINE
  5
6847E
330
1E
100
AcDbEntity
  8
DETAIL
  6
CONTINUOUS
100
AcDbLine
 10
-264.3374999999996
 20
-291.2699999999981
 30
0.0
 11
264.8362499999802
 21
-291.2699999999981
 31
0.0
  0
LINE
  5
6847F
330
1E
100
AcDbEntity
  8
DETAIL
100
AcDbLine
 10
399.0
 20
0.0
 30
0.0
 11
-399.0
 21
0.0
 31
0.0
  0
LINE
  5
68481
330
1E
100
AcDbEntity
  8
NOTE
  6
CONTINUOUS
 62
     4
100
AcDbLine
 10
-329.9999999174979
 20
-253.4925549405449
 30
0.0
 11
-634.7393199174985
 21
129.9076350594541
 31
0.0
  0
LINE
  5
68482
330
1E
100
AcDbEntity
  8
SIZE
100
AcDbLine
 10
-632.5460118658375
 20
-12.05755488184218
 30
0.0
 11
-632.5460118658375
 21
-283.4925549426504
 31
0.0
  0
LINE
  5
68483
330
1E
100
AcDbEntity
  8
DETAIL
100
AcDbLine
 10
-399.0
 20
-295.0
 30
0.0
 11
-399.0
 21
0.0
 31
0.0
  0
LINE
  5
68484
330
1E
100
AcDbEntity
  8
DETAIL
  6
CONTINUOUS
100
AcDbLine
 10
-334.1625000000003
 20
-21.44624999999928
 30
0.0
 11
-334.1625000000003
 21
-176.1584999999985
 31
0.0
  0
LINE
  5
68485
330
1E
100
AcDbEntity
  8
DETAIL
  6
CONTINUOUS
100
AcDbLine
 10
-218.9512500000182
 20
-45.88500000000067
 30
0.0
 11
-218.9512500000182
 21
-36.90749999999821
 31
0.0
  0
LINE
  5
68486
330
1E
100
AcDbEntity
  8
DETAIL
  6
CONTINUOUS
100
AcDbLine
 10
-229.9237500000035
 20
-36.90749999999821
 30
0.0
 11
-229.9237500000035
 21
-45.88500000000067
 31
0.0
  0
LINE
  5
68487
330
1E
100
AcDbEntity
  8
DETAIL
  6
CENTER
100
AcDbLine
 10
-224.4375
 20
-81.29634975
 30
0.0
 11
-224.4375
 21
-1.496150249998891
 31
0.0
  0
LINE
  5
68488
330
1E
100
AcDbEntity
  8
SIZE
100
AcDbLine
 10
-415.2017375023206
 20
-295.4925549426505
 30
0.0
 11
-539.9032327503009
 21
-295.4925549426505
 31
0.0
  0
LINE
  5
68489
330
1E
100
AcDbEntity
  8
SIZE
100
AcDbLine
 10
-415.2017375023206
 20
-295.4925549426505
 30
0.0
 11
-662.5460118658375
 21
-295.4925549426505
 31
0.0
  0
LINE
  5
6848A
330
1E
100
AcDbEntity
  8
SIZE
100
AcDbLine
 10
-369.9999999174979
 20
-253.4925549405449
 30
0.0
 11
-539.9032327503009
 21
-253.4925549405449
 31
0.0
  0
LINE
  5
6848B
330
1E
100
AcDbEntity
  8
SIZE
100
AcDbLine
 10
-399.1993008079807
 20
-434.4913684433063
 30
0.0
 11
-521.913586522267
 21
-434.4913684433063
 31
0.0
  0
LINE
  5
6848C
330
1E
100
AcDbEntity
  8
SIZE
100
AcDbLine
 10
-509.9032327503009
 20
-295.4925549426505
 30
0.0
 11
-509.9032327503009
 21
-307.4925549426505
 31
0.0
  0
TEXT
  5
6848D
330
1E
100
AcDbEntity
  8
SIZE
100
AcDbText
 10
-501.9135865222669
 20
-414.4913684433062
 30
0.0
 40
50.0
  1
69
 41
0.9
100
AcDbText
  0
LINE
  5
6848E
330
1E
100
AcDbEntity
  8
SIZE
100
AcDbLine
 10
-509.9032327503009
 20
-307.4925549426505
 30
0.0
 11
-509.9032327503009
 21
-319.4925549426503
 31
0.0
  0
TEXT
  5
6848F
330
1E
100
AcDbEntity
  8
SIZE
100
AcDbText
 10
-652.5460118658375
 20
-205.6321977693892
 30
0.0
 40
50.0
  1
295
 50
90.0
 41
0.9
100
AcDbText
  0
LINE
  5
68490
330
1E
100
AcDbEntity
  8
SIZE
100
AcDbLine
 10
-632.5460118658375
 20
-295.4925549426505
 30
0.0
 11
-632.5460118658375
 21
-283.4925549426504
 31
0.0
  0
CIRCLE
  5
68491
330
1E
100
AcDbEntity
  8
SIZE
100
AcDbCircle
 10
-632.5460118658375
 20
-295.4925549426505
 30
0.0
 40
6.0
  0
TEXT
  5
68492
330
1E
100
AcDbEntity
  8
SIZE
100
AcDbText
 10
-529.903232750301
 20
-209.4925549405449
 30
0.0
 40
50.0
  1
42
 50
90.0
 41
0.9
100
AcDbText
  0
LINE
  5
68493
330
1E
100
AcDbEntity
  8
SIZE
100
AcDbLine
 10
-509.9032327503009
 20
-241.492554940545
 30
0.0
 11
-509.9032327503009
 21
-116.6354120834021
 31
0.0
  0
LINE
  5
68494
330
1E
100
AcDbEntity
  8
SIZE
100
AcDbLine
 10
-509.9032327503009
 20
-295.4925549426505
 30
0.0
 11
-509.9032327503009
 21
-253.4925549405449
 31
0.0
  0
CIRCLE
  5
68495
330
1E
100
AcDbEntity
  8
SIZE
100
AcDbCircle
 10
-509.9032327503009
 20
-295.4925549426505
 30
0.0
 40
6.0
  0
CIRCLE
  5
68496
330
1E
100
AcDbEntity
  8
SIZE
100
AcDbCircle
 10
-509.9032327503009
 20
-253.4925549405449
 30
0.0
 40
6.0
  0
LINE
  5
68497
330
1E
100
AcDbEntity
  8
SIZE
100
AcDbLine
 10
-509.9032327503009
 20
-253.4925549405449
 30
0.0
 11
-509.9032327503009
 21
-241.492554940545
 31
0.0
  0
CIRCLE
  5
68498
330
1E
100
AcDbEntity
  8
SIZE
100
AcDbCircle
 10
-329.9999999174979
 20
-434.4913684433063
 30
0.0
 40
6.0
  0
CIRCLE
  5
68499
330
1E
100
AcDbEntity
  8
SIZE
100
AcDbCircle
 10
-329.9999999174979
 20
-434.4913684433063
 30
0.0
 40
6.0
  0
LINE
  5
6849A
330
1E
100
AcDbEntity
  8
SIZE
100
AcDbLine
 10
-399.1993008079807
 20
-311.4949916356497
 30
0.0
 11
-399.1993008079807
 21
-464.4913684433062
 31
0.0
  0
LINE
  5
6849B
330
1E
100
AcDbEntity
  8
SIZE
100
AcDbLine
 10
-329.9999999174979
 20
-313.4926549305453
 30
0.0
 11
-329.9999999174979
 21
-464.4913684433062
 31
0.0
  0
LINE
  5
6849C
330
1E
100
AcDbEntity
  8
SIZE
100
AcDbLine
 10
-329.9999999174979
 20
-313.4926549305453
 30
0.0
 11
-329.9999999174979
 21
-464.4913684433062
 31
0.0
  0
CIRCLE
  5
6849D
330
1E
100
AcDbEntity
  8
SIZE
100
AcDbCircle
 10
-399.1993008079807
 20
-434.4913684433063
 30
0.0
 40
6.0
  0
LINE
  5
6849E
330
1E
100
AcDbEntity
  8
SIZE
100
AcDbLine
 10
-329.9999999174979
 20
-434.4913684433063
 30
0.0
 11
-317.9999999174979
 21
-434.4913684433063
 31
0.0
  0
LINE
  5
6849F
330
1E
100
AcDbEntity
  8
SIZE
100
AcDbLine
 10
-341.9999999174979
 20
-434.4913684433063
 30
0.0
 11
-387.1993008079807
 21
-434.4913684433063
 31
0.0
  0
LINE
  5
684A0
330
1E
100
AcDbEntity
  8
SIZE
100
AcDbLine
 10
-399.1993008079807
 20
-434.4913684433063
 30
0.0
 11
-387.1993008079807
 21
-434.4913684433063
 31
0.0
  0
LINE
  5
684A1
330
1E
100
AcDbEntity
  8
SIZE
100
AcDbLine
 10
-329.9999999174979
 20
-434.4913684433063
 30
0.0
 11
-341.9999999174979
 21
-434.4913684433063
 31
0.0
  0
TEXT
  5
684A2
330
1E
100
AcDbEntity
  8
SIZE
100
AcDbText
 10
-222.857142815892
 20
-414.4913684433062
 30
0.0
 40
50.0
  1
330
 41
0.9
100
AcDbText
  0
LINE
  5
684A3
330
1E
100
AcDbEntity
  8
DETAIL
  6
CENTER
100
AcDbLine
 10
-184.5374002500138
 20
-41.39624999999933
 30
0.0
 11
-264.3375997500097
 21
-41.39624999999933
 31
0.0
  0
LINE
  5
684A4
330
1E
100
AcDbEntity
  8
NOTE
  6
DASHDOT
 62
     4
100
AcDbLine
 10
-309.9999999174979
 20
-253.4925549405449
 30
0.0
 11
-349.9999999174979
 21
-253.4925549405449
 31
0.0
  0
LINE
  5
684A5
330
1E
100
AcDbEntity
  8
BASIS
100
AcDbLine
 10
-289.9998999275012
 20
-253.4925549405449
 30
0.0
 11
-370.0000999074982
 21
-253.4925549405449
 31
0.0
  0
ARC
  5
684A6
330
1E
100
AcDbEntity
  8
DETAIL
  6
CONTINUOUS
100
AcDbCircle
 10
-304.3372500000204
 20
-176.1584999999985
 30
0.0
 40
29.82525
100
AcDbArc
 50
180.0
 51
270.0
  0
CIRCLE
  5
684A7
330
1E
100
AcDbEntity
  8
DETAIL
  6
CONTINUOUS
100
AcDbCircle
 10
-329.1749999999992
 20
-252.3674999999987
 30
0.0
 40
32.41875
  0
LINE
  5
684A8
330
1E
100
AcDbEntity
  8
NOTE
  6
CONTINUOUS
 62
     4
100
AcDbLine
 10
-329.9999999174979
 20
-253.4925549405449
 30
0.0
 11
-345.7883999174991
 21
-216.7403249405448
 31
0.0
  0
LINE
  5
684A9
330
1E
100
AcDbEntity
  8
NOTE
  6
CONTINUOUS
 62
     4
100
AcDbLine
 10
-362.049269917501
 20
-229.558394940545
 30
0.0
 11
-329.9999999174979
 21
-253.4925549405449
 31
0.0
  0
LINE
  5
684AA
330
1E
100
AcDbEntity
  8
NOTE
  6
DASHDOT
 62
     4
100
AcDbLine
 10
-329.9999999174979
 20
-273.492554940545
 30
0.0
 11
-329.9999999174979
 21
-233.492554940545
 31
0.0
  0
LINE
  5
684AB
330
1E
100
AcDbEntity
  8
BASIS
100
AcDbLine
 10
-329.9999999174979
 20
-293.4926549305453
 30
0.0
 11
-329.9999999174979
 21
-213.4924549505436
 31
0.0
  0
LINE
  5
684AC
330
1E
100
AcDbEntity
  8
DETAIL
  6
CONTINUOUS
100
AcDbLine
 10
-264.3374999999996
 20
-233.0159999999998
 30
0.0
 11
-264.3374999999996
 21
-291.2699999999981
 31
0.0
  0
ARC
  5
684AD
330
1E
100
AcDbEntity
  8
DETAIL
  6
CONTINUOUS
100
AcDbCircle
 10
-291.3697500000143
 20
-233.0159999999998
 30
0.0
 40
27.03225
100
AcDbArc
 50
0.0
 51
90.0
  0
LINE
  5
684AE
330
1E
100
AcDbEntity
  8
DETAIL
  6
CONTINUOUS
100
AcDbLine
 10
-304.3372500000204
 20
-205.9837499999992
 30
0.0
 11
-291.3697500000143
 21
-205.9837499999992
 31
0.0
  0
ARC
  5
684AF
330
1E
100
AcDbEntity
  8
DETAIL
  6
CONTINUOUS
100
AcDbCircle
 10
-119.6999999999989
 20
-249.3749999999999
 30
0.0
 40
34.9125
100
AcDbArc
 50
90.0
 51
270.0
  0
ARC
  5
684B0
330
1E
100
AcDbEntity
  8
DETAIL
  6
CONTINUOUS
100
AcDbCircle
 10
-224.4375
 20
-45.88500000000067
 30
0.0
 40
5.48625
100
AcDbArc
 50
180.0
 51
0.0
  0
TEXT
  5
684B1
330
1E
100
AcDbEntity
  8
NOTE
 62
     4
100
AcDbText
 10
-1142.266479917498
 20
160.1531650594544
 30
0.0
 40
64.0
  1
D,RL,RG%%C65
 41
0.9
100
AcDbText
  0
LINE
  5
684B2
330
1E
100
AcDbEntity
  8
NOTE
  6
CONTINUOUS
 62
     4
100
AcDbLine
 10
-1168.478929917499
 20
129.9076350594541
 30
0.0
 11
-634.7393199174985
 21
129.9076350594541
 31
0.0
  0
LINE
  5
684B3
330
1E
100
AcDbEntity
  8
SIZE
100
AcDbLine
 10
-415.1993004383148
 20
-0.0575548818421794
 30
0.0
 11
-662.5460118658375
 21
-0.0575548818421794
 31
0.0
  0
LINE
  5
684B4
330
1E
100
AcDbEntity
  8
SIZE
100
AcDbLine
 10
-632.5460118658375
 20
-0.0575548818421794
 30
0.0
 11
-632.5460118658375
 21
-12.05755488184218
 31
0.0
  0
CIRCLE
  5
684B5
330
1E
100
AcDbEntity
  8
SIZE
100
AcDbCircle
 10
-632.5460118658375
 20
-0.0575548818421794
 30
0.0
 40
6.0
  0
LINE
  5
684B6
330
1E
100
AcDbEntity
  8
DETAIL
  6
CONTINUOUS
100
AcDbLine
 10
-120.5106702064513
 20
-21.44624999999928
 30
0.0
 11
-260.4616927732513
 21
-21.44624999999928
 31
0.0
  0
LINE
  5
684B7
330
1E
100
AcDbEntity
  8
SIZE
100
AcDbLine
 10
-399.1993008079807
 20
15.94777110715836
 30
0.0
 11
-399.1993008079807
 21
210.7235352877278
 31
0.0
  0
LINE
  5
684B8
330
1E
100
AcDbEntity
  8
DETAIL
  6
CONTINUOUS
100
AcDbLine
 10
-295.1458072254372
 20
-21.44624999999928
 30
0.0
 11
-334.1625000000003
 21
-21.44624999999928
 31
0.0
  0
LINE
  5
684B9
330
1E
100
AcDbEntity
  8
DETAIL
  6
CONTINUOUS
100
AcDbLine
 10
-264.203603244854
 20
-7.481250000000045
 30
0.0
 11
-291.4038967538345
 21
-7.481250000000045
 31
0.0
  0
LINE
  5
684BA
330
1E
100
AcDbEntity
  8
DETAIL
  6
CONTINUOUS
100
AcDbLine
 10
-291.4038967538345
 20
-7.481250000000045
 30
0.0
 11
-295.1458072254372
 21
-21.44624999999928
 31
0.0
  0
LINE
  5
684BB
330
1E
100
AcDbEntity
  8
DETAIL
  6
CONTINUOUS
100
AcDbLine
 10
-260.4616927732513
 20
-21.44624999999928
 30
0.0
 11
-264.203603244854
 21
-7.481250000000045
 31
0.0
  0
CIRCLE
  5
684BC
330
1E
100
AcDbEntity
  8
SIZE
100
AcDbCircle
 10
-399.1993008079807
 20
180.7235352877278
 30
0.0
 40
6.0
  0
LINE
  5
684BD
330
1E
100
AcDbEntity
  8
SIZE
100
AcDbLine
 10
-399.1993008079807
 20
180.7235352877278
 30
0.0
 11
-387.1993008079807
 21
180.7235352877278
 31
0.0
  0
ARC
  5
684BE
330
1E
100
AcDbEntity
  8
DETAIL
  6
CONTINUOUS
100
AcDbCircle
 10
-224.4375
 20
-36.90749999999821
 30
0.0
 40
5.48625
100
AcDbArc
 50
0.0
 51
180.0
  0
LINE
  5
684BF
330
1E
100
AcDbEntity
  8
DETAIL
  6
CONTINUOUS
100
AcDbLine
 10
-74.82517020643536
 20
-33.41625000000067
 30
0.0
 11
-120.5106702064513
 21
-21.44624999999928
 31
0.0
  0
LINE
  5
684C1
330
1E
100
AcDbEntity
  8
BASIS
100
AcDbLine
 10
0.0
 20
-342.4925549182941
 30
0.0
 11
0.0
 21
53.17246475777051
 31
0.0
  0
LINE
  5
684C2
330
1E
100
AcDbEntity
  8
NOTE
  6
CONTINUOUS
 62
     4
100
AcDbLine
 10
344.9999999137507
 20
-254.4925549402935
 30
0.0
 11
546.8269299137464
 21
119.7822550597054
 31
0.0
  0
LINE
  5
684C3
330
1E
100
AcDbEntity
  8
DETAIL
100
AcDbLine
 10
399.0000000000018
 20
-295.0
 30
0.0
 11
399.0
 21
0.0
 31
0.0
  0
ARC
  5
684C4
330
1E
100
AcDbEntity
  8
DETAIL
  6
CONTINUOUS
100
AcDbCircle
 10
216.9562500000011
 20
-41.39624999999933
 30
0.0
 40
5.48625
100
AcDbArc
 50
90.0
 51
270.0
  0
ARC
  5
684C5
330
1E
100
AcDbEntity
  8
DETAIL
  6
CONTINUOUS
100
AcDbCircle
 10
231.9187500000007
 20
-41.39624999999933
 30
0.0
 40
5.48625
100
AcDbArc
 50
270.0
 51
90.0
  0
LINE
  5
684C6
330
1E
100
AcDbEntity
  8
DETAIL
  6
CENTER
100
AcDbLine
 10
224.4375
 20
-81.29634975
 30
0.0
 11
224.4375
 21
-1.496150249998891
 31
0.0
  0
LINE
  5
684C7
330
1E
100
AcDbEntity
  8
DETAIL
  6
CONTINUOUS
100
AcDbLine
 10
334.1625000000003
 20
-176.1584999999985
 30
0.0
 11
334.1625000000003
 21
-21.44624999999928
 31
0.0
  0
LINE
  5
684C8
330
1E
100
AcDbEntity
  8
NOTE
  6
CONTINUOUS
 62
     4
100
AcDbLine
 10
344.9999999137507
 20
-254.4925549402935
 30
0.0
 11
372.866609913748
 21
-225.7966949402935
 31
0.0
  0
LINE
  5
684C9
330
1E
100
AcDbEntity
  8
NOTE
  6
CONTINUOUS
 62
     4
100
AcDbLine
 10
354.7852599137477
 20
-215.7079149402935
 30
0.0
 11
344.9999999137507
 21
-254.4925549402935
 31
0.0
  0
LINE
  5
684CA
330
1E
100
AcDbEntity
  8
NOTE
  6
DASHDOT
 62
     4
100
AcDbLine
 10
364.9999999137508
 20
-254.4925549402935
 30
0.0
 11
324.9999999137508
 21
-254.4925549402935
 31
0.0
  0
LINE
  5
684CB
330
1E
100
AcDbEntity
  8
BASIS
100
AcDbLine
 10
385.0000999037474
 20
-254.4925549402949
 30
0.0
 11
304.9998999237505
 21
-254.4925549402949
 31
0.0
  0
CIRCLE
  5
684CC
330
1E
100
AcDbEntity
  8
SIZE
100
AcDbCircle
 10
344.9999999137507
 20
-434.4913684433063
 30
0.0
 40
6.0
  0
CIRCLE
  5
684CD
330
1E
100
AcDbEntity
  8
SIZE
100
AcDbCircle
 10
344.9999999137507
 20
-434.4913684433063
 30
0.0
 40
6.0
  0
LINE
  5
684CE
330
1E
100
AcDbEntity
  8
SIZE
100
AcDbLine
 10
344.9999999137507
 20
-434.4913684433063
 30
0.0
 11
399.2006989910805
 21
-434.4913684433063
 31
0.0
  0
CIRCLE
  5
684CF
330
1E
100
AcDbEntity
  8
DETAIL
  6
CONTINUOUS
100
AcDbCircle
 10
344.1375000000007
 20
-253.3649999999993
 30
0.0
 40
32.41875
  0
LINE
  5
684D0
330
1E
100
AcDbEntity
  8
SIZE
100
AcDbLine
 10
12.0
 20
-434.4913684433063
 30
0.0
 11
332.9999999137508
 21
-434.4913684433063
 31
0.0
  0
TEXT
  5
684D1
330
1E
100
AcDbEntity
  8
SIZE
100
AcDbText
 10
114.6428570997322
 20
-414.4913684433062
 30
0.0
 40
50.0
  1
345
 41
0.9
100
AcDbText
  0
CIRCLE
  5
684D2
330
1E
100
AcDbEntity
  8
SIZE
100
AcDbCircle
 10
0.0
 20
-434.4913684433063
 30
0.0
 40
6.0
  0
CIRCLE
  5
684D3
330
1E
100
AcDbEntity
  8
SIZE
100
AcDbCircle
 10
0.0
 20
-434.4913684433063
 30
0.0
 40
6.0
  0
LINE
  5
684D4
330
1E
100
AcDbEntity
  8
SIZE
100
AcDbLine
 10
0.0
 20
-362.4925549182942
 30
0.0
 11
0.0
 21
-464.4913684433062
 31
0.0
  0
LINE
  5
684D5
330
1E
100
AcDbEntity
  8
SIZE
100
AcDbLine
 10
0.0
 20
-362.4925549182942
 30
0.0
 11
0.0
 21
-464.4913684433062
 31
0.0
  0
LINE
  5
684D6
330
1E
100
AcDbEntity
  8
SIZE
100
AcDbLine
 10
0.0
 20
-434.4913684433063
 30
0.0
 11
12.0
 21
-434.4913684433063
 31
0.0
  0
LINE
  5
684D7
330
1E
100
AcDbEntity
  8
SIZE
100
AcDbLine
 10
0.0
 20
-434.4913684433063
 30
0.0
 11
-12.0
 21
-434.4913684433063
 31
0.0
  0
LINE
  5
684D8
330
1E
100
AcDbEntity
  8
SIZE
100
AcDbLine
 10
344.9999999137507
 20
-314.4926549302923
 30
0.0
 11
344.9999999137507
 21
-464.4913684433062
 31
0.0
  0
LINE
  5
684D9
330
1E
100
AcDbEntity
  8
SIZE
100
AcDbLine
 10
344.9999999137507
 20
-314.4926549302923
 30
0.0
 11
344.9999999137507
 21
-464.4913684433062
 31
0.0
  0
LINE
  5
684DA
330
1E
100
AcDbEntity
  8
SIZE
100
AcDbLine
 10
332.9999999137508
 20
-434.4913684433063
 30
0.0
 11
320.9999999137508
 21
-434.4913684433063
 31
0.0
  0
LINE
  5
684DB
330
1E
100
AcDbEntity
  8
SIZE
100
AcDbLine
 10
344.9999999137507
 20
-434.4913684433063
 30
0.0
 11
332.9999999137508
 21
-434.4913684433063
 31
0.0
  0
LINE
  5
684DC
330
1E
100
AcDbEntity
  8
SIZE
100
AcDbLine
 10
344.9999999137507
 20
-434.4913684433063
 30
0.0
 11
332.9999999137508
 21
-434.4913684433063
 31
0.0
  0
ARC
  5
684DD
330
1E
100
AcDbEntity
  8
DETAIL
  6
CONTINUOUS
100
AcDbCircle
 10
119.7000000000007
 20
-249.3749999999999
 30
0.0
 40
34.9125
100
AcDbArc
 50
270.0
 51
90.0
  0
LINE
  5
684DE
330
1E
100
AcDbEntity
  8
NOTE
  6
DASHDOT
 62
     4
100
AcDbLine
 10
344.9999999137507
 20
-274.4925549402935
 30
0.0
 11
344.9999999137507
 21
-234.4925549402935
 31
0.0
  0
LINE
  5
684DF
330
1E
100
AcDbEntity
  8
BASIS
100
AcDbLine
 10
344.9999999137507
 20
-294.4926549302923
 30
0.0
 11
344.9999999137507
 21
-214.4924549502944
 31
0.0
  0
LINE
  5
684E0
330
1E
100
AcDbEntity
  8
DETAIL
  6
CONTINUOUS
100
AcDbLine
 10
264.8362499999802
 20
-291.2699999999981
 30
0.0
 11
264.8362499999802
 21
-233.0159999999998
 31
0.0
  0
LINE
  5
684E1
330
1E
100
AcDbEntity
  8
DETAIL
  6
CONTINUOUS
100
AcDbLine
 10
291.8684999999968
 20
-205.9837499999992
 30
0.0
 11
304.3372499999968
 21
-205.9837499999992
 31
0.0
  0
ARC
  5
684E2
330
1E
100
AcDbEntity
  8
DETAIL
  6
CONTINUOUS
100
AcDbCircle
 10
291.8684999999968
 20
-233.0159999999998
 30
0.0
 40
27.03225
100
AcDbArc
 50
90.0
 51
180.0
  0
ARC
  5
684E3
330
1E
100
AcDbEntity
  8
DETAIL
  6
CONTINUOUS
100
AcDbCircle
 10
304.3372499999968
 20
-176.1584999999985
 30
0.0
 40
29.82525
100
AcDbArc
 50
270.0
 51
0.0
  0
LINE
  5
684E4
330
1E
100
AcDbEntity
  8
DETAIL
  6
CENTER
100
AcDbLine
 10
264.3375997499861
 20
-41.39624999999933
 30
0.0
 11
184.5374002499902
 21
-41.39624999999933
 31
0.0
  0
LINE
  5
684E5
330
1E
100
AcDbEntity
  8
DETAIL
  6
CONTINUOUS
100
AcDbLine
 10
216.9562500000011
 20
-46.88249999999811
 30
0.0
 11
231.9187500000007
 21
-46.88249999999811
 31
0.0
  0
LINE
  5
684E6
330
1E
100
AcDbEntity
  8
SIZE
100
AcDbLine
 10
497.0565181706697
 20
-295.4925549426505
 30
0.0
 11
497.0565181706697
 21
-307.4925549426505
 31
0.0
  0
CIRCLE
  5
684E7
330
1E
100
AcDbEntity
  8
SIZE
100
AcDbCircle
 10
399.2006989910805
 20
-434.4913684433063
 30
0.0
 40
6.0
  0
LINE
  5
684E8
330
1E
100
AcDbEntity
  8
SIZE
100
AcDbLine
 10
399.2006989910805
 20
-311.4949916356497
 30
0.0
 11
399.2006989910805
 21
-464.4913684433062
 31
0.0
  0
LINE
  5
684E9
330
1E
100
AcDbEntity
  8
SIZE
100
AcDbLine
 10
411.2006989910805
 20
-434.4913684433063
 30
0.0
 11
538.2006989910805
 21
-434.4913684433063
 31
0.0
  0
TEXT
  5
684EA
330
1E
100
AcDbEntity
  8
SIZE
100
AcDbText
 10
443.2006989910806
 20
-414.4913684433062
 30
0.0
 40
50.0
  1
54
 41
0.9
100
AcDbText
  0
LINE
  5
684EB
330
1E
100
AcDbEntity
  8
SIZE
100
AcDbLine
 10
399.2006989910805
 20
-434.4913684433063
 30
0.0
 11
411.2006989910805
 21
-434.4913684433063
 31
0.0
  0
LINE
  5
684EC
330
1E
100
AcDbEntity
  8
SIZE
100
AcDbLine
 10
497.0565181706697
 20
-307.4925549426505
 30
0.0
 11
497.0565181706697
 21
-319.4925549426503
 31
0.0
  0
TEXT
  5
684ED
330
1E
100
AcDbEntity
  8
SIZE
100
AcDbText
 10
477.0565181706697
 20
-210.4925549402949
 30
0.0
 40
50.0
  1
41
 50
90.0
 41
0.9
100
AcDbText
  0
LINE
  5
684EE
330
1E
100
AcDbEntity
  8
SIZE
100
AcDbLine
 10
497.0565181706697
 20
-242.4925549402948
 30
0.0
 11
497.0565181706697
 21
-136.9211263688662
 31
0.0
  0
LINE
  5
684EF
330
1E
100
AcDbEntity
  8
SIZE
100
AcDbLine
 10
405.0000999037474
 20
-254.4925549402949
 30
0.0
 11
527.0565181706697
 21
-254.4925549402949
 31
0.0
  0
LINE
  5
684F0
330
1E
100
AcDbEntity
  8
SIZE
100
AcDbLine
 10
415.2031356854203
 20
-295.4925549426505
 30
0.0
 11
527.0565181706697
 21
-295.4925549426505
 31
0.0
  0
CIRCLE
  5
684F1
330
1E
100
AcDbEntity
  8
SIZE
100
AcDbCircle
 10
497.0565181706697
 20
-254.4925549402949
 30
0.0
 40
6.0
  0
CIRCLE
  5
684F2
330
1E
100
AcDbEntity
  8
SIZE
100
AcDbCircle
 10
497.0565181706697
 20
-295.4925549426505
 30
0.0
 40
6.0
  0
LINE
  5
684F3
330
1E
100
AcDbEntity
  8
SIZE
100
AcDbLine
 10
497.0565181706697
 20
-295.4925549426505
 30
0.0
 11
497.0565181706697
 21
-254.4925549402949
 31
0.0
  0
LINE
  5
684F4
330
1E
100
AcDbEntity
  8
SIZE
100
AcDbLine
 10
497.0565181706697
 20
-254.4925549402949
 30
0.0
 11
497.0565181706697
 21
-242.4925549402948
 31
0.0
  0
TEXT
  5
684F5
330
1E
100
AcDbEntity
  8
ETC
100
AcDbText
 10
677.4432626707007
 20
473.8068105304066
 30
0.0
 40
64.0
  1
室内機
 41
0.7499999999999978
 72
     5
 11
837.4432626707003
 21
473.8068105304066
 31
0.0
100
AcDbText
  0
LINE
  5
684F6
330
1E
100
AcDbEntity
  8
NOTE
  6
CONTINUOUS
 62
     4
100
AcDbLine
 10
546.8269299137464
 20
119.7822550597054
 30
0.0
 11
1065.003533862072
 21
119.7822550597054
 31
0.0
  0
TEXT
  5
684F7
330
1E
100
AcDbEntity
  8
NOTE
 62
     4
100
AcDbText
 10
559.4920938620707
 20
141.8398550597055
 30
0.0
 40
64.0
  1
D,RL,RG%%C65
 41
0.9
100
AcDbText
  0
TEXT
  5
684F8
330
1E
100
AcDbEntity
  8
ETC
100
AcDbText
 10
669.3410496914712
 20
286.340266211499
 30
0.0
 40
64.0
  1
SMSZ4963
 41
0.886075956289558
 72
     5
 11
1096.007719691471
 21
286.340266211499
 31
0.0
100
AcDbText
  0
LINE
  5
684F9
330
1E
100
AcDbEntity
  8
DETAIL
  6
CONTINUOUS
100
AcDbLine
 10
260.4616927745591
 20
-21.44624999999928
 30
0.0
 11
120.5106702077591
 21
-21.44624999999928
 31
0.0
  0
LINE
  5
684FA
330
1E
100
AcDbEntity
  8
DETAIL
  6
CONTINUOUS
100
AcDbLine
 10
74.82517020774139
 20
-33.41625000000067
 30
0.0
 11
16.72847273250226
 21
-33.41625000000067
 31
0.0
  0
LINE
  5
684FC
330
1E
100
AcDbEntity
  8
DETAIL
  6
CONTINUOUS
100
AcDbLine
 10
9.010908166255831
 20
-4.745950779849636
 30
0.0
 11
-9.010908164947977
 21
-4.745950779849636
 31
0.0
  0
LINE
  5
684FD
330
1E
100
AcDbEntity
  8
DETAIL
  6
CONTINUOUS
100
AcDbLine
 10
-9.010908164947977
 20
-4.745950779849636
 30
0.0
 11
-16.72847273119623
 21
-33.41625000000067
 31
0.0
  0
LINE
  5
684FE
330
1E
100
AcDbEntity
  8
DETAIL
  6
CONTINUOUS
100
AcDbLine
 10
16.72847273250226
 20
-33.41625000000067
 30
0.0
 11
9.010908166255831
 21
-4.745950779849636
 31
0.0
  0
LINE
  5
684FF
330
1E
100
AcDbEntity
  8
DETAIL
  6
CONTINUOUS
100
AcDbLine
 10
120.5106702077591
 20
-21.44624999999928
 30
0.0
 11
74.82517020774139
 21
-33.41625000000067
 31
0.0
  0
LINE
  5
68500
330
1E
100
AcDbEntity
  8
DETAIL
  6
CONTINUOUS
100
AcDbLine
 10
231.9187500000007
 20
-35.91000000000053
 30
0.0
 11
216.9562500000011
 21
-35.91000000000053
 31
0.0
  0
LINE
  5
68501
330
1E
100
AcDbEntity
  8
DETAIL
  6
CONTINUOUS
100
AcDbLine
 10
334.1625000000003
 20
-21.44624999999928
 30
0.0
 11
295.1458072267432
 21
-21.44624999999928
 31
0.0
  0
LINE
  5
68502
330
1E
100
AcDbEntity
  8
DETAIL
  6
CONTINUOUS
100
AcDbLine
 10
291.4038967551405
 20
-7.481250000000045
 30
0.0
 11
264.2036032461601
 21
-7.481250000000045
 31
0.0
  0
LINE
  5
68503
330
1E
100
AcDbEntity
  8
DETAIL
  6
CONTINUOUS
100
AcDbLine
 10
264.2036032461601
 20
-7.481250000000045
 30
0.0
 11
260.4616927745591
 21
-21.44624999999928
 31
0.0
  0
LINE
  5
68504
330
1E
100
AcDbEntity
  8
DETAIL
  6
CONTINUOUS
100
AcDbLine
 10
295.1458072267432
 20
-21.44624999999928
 30
0.0
 11
291.4038967551405
 21
-7.481250000000045
 31
0.0
  0
LINE
  5
68505
330
1E
100
AcDbEntity
  8
SIZE
100
AcDbLine
 10
399.2006989910805
 20
15.94777110724612
 30
0.0
 11
399.2006989910805
 21
210.7235352877278
 31
0.0
  0
LINE
  5
68506
330
1E
100
AcDbEntity
  8
SIZE
100
AcDbLine
 10
399.2006989910805
 20
180.7235352877278
 30
0.0
 11
387.2006989910805
 21
180.7235352877278
 31
0.0
  0
CIRCLE
  5
68507
330
1E
100
AcDbEntity
  8
SIZE
100
AcDbCircle
 10
399.2006989910805
 20
180.7235352877278
 30
0.0
 40
6.0
  0
LINE
  5
68535
330
1E
100
AcDbEntity
  8
OUTLINE
100
AcDbLine
 10
-399.0
 20
-295.0
 30
0.0
 11
-399.0
 21
0.0
 31
0.0
  0
LINE
  5
68537
330
1E
100
AcDbEntity
  8
OUTLINE
100
AcDbLine
 10
399.0000000000018
 20
-295.0
 30
0.0
 11
399.0
 21
0.0
 31
0.0
  0
LINE
  5
6853A
330
1E
100
AcDbEntity
  8
OUTLINE
100
AcDbLine
 10
399.0000000000018
 20
-295.0
 30
0.0
 11
-399.0
 21
-295.0
 31
0.0
  0
LINE
  5
68555
330
1E
100
AcDbEntity
  8
OUTLINE
100
AcDbLine
 10
399.0
 20
0.0
 30
0.0
 11
-399.0
 21
0.0
 31
0.0
  0
ENDSEC
  0
SECTION
  2
OBJECTS
  0
DICTIONARY
  5
C
330
0
100
AcDbDictionary
  3
ACAD_GROUP
350
D
  3
ACAD_LAYOUT
350
19
  3
ACAD_MLINESTYLE
350
16
  3
ACAD_PLOTSETTINGS
350
18
  3
ACAD_PLOTSTYLENAME
350
E
  3
ACDBHEADERROUNDTRIPXREC
350
6858B
  0
DICTIONARY
  5
66E76
330
1E
100
AcDbDictionary
280
     1
  3
ACAD_LAYOUTSELFREF
360
685AD
  0
DICTIONARY
  5
66E74
330
1A
100
AcDbDictionary
280
     1
  3
ACAD_LAYOUTSELFREF
360
685AC
  0
DICTIONARY
  5
D
102
{ACAD_REACTORS
330
C
102
}
330
C
100
AcDbDictionary
  3
*A1
350
677EB
  0
DICTIONARY
  5
19
102
{ACAD_REACTORS
330
C
102
}
330
C
100
AcDbDictionary
  0
DICTIONARY
  5
16
102
{ACAD_REACTORS
330
C
102
}
330
C
100
AcDbDictionary
  3
STANDARD
350
17
  0
DICTIONARY
  5
18
102
{ACAD_REACTORS
330
C
102
}
330
C
100
AcDbDictionary
  0
ACDBDICTIONARYWDFLT
  5
E
102
{ACAD_REACTORS
330
C
102
}
330
C
100
AcDbDictionary
281
     1
  3
Normal
350
F
100
AcDbDictionaryWithDefault
340
F
  0
DICTIONARY
  5
6858B
102
{ACAD_REACTORS
330
C
102
}
330
C
100
AcDbDictionary
  3
CEPSNTYPE
350
68595
  3
DIMSTYLEDATA
350
68599
  3
FINGERPRINTGUID
350
68596
  3
HYPERLINKBASE
350
6858E
  3
INSUNITS
350
68594
  3
LAYOUTDICT
350
68590
  3
LWETCUNION
350
68593
  3
PLOTSETDICT
350
68591
  3
PLOTSTYLNAMDICT
350
68592
  3
PSVPSCALE
350
68598
  3
PUCSBASE
350
6859C
  3
PUCSORGBACK
350
685A2
  3
PUCSORGBOTTOM
350
6859E
  3
PUCSORGFRONT
350
685A1
  3
PUCSORGLEFT
350
6859F
  3
PUCSORGRIGHT
350
685A0
  3
PUCSORGTOP
350
6859D
  3
PUCSORTHOREF
350
6859A
  3
PUCSORTHOVIEW
350
6859B
  3
STYLESHEET
350
6858F
  3
TSTACKALIGN
350
6858C
  3
TSTACKSIZE
350
6858D
  3
UCSBASE
350
685A5
  3
UCSORGBACK
350
685AB
  3
UCSORGBOTTOM
350
685A7
  3
UCSORGFRONT
350
685AA
  3
UCSORGLEFT
350
685A8
  3
UCSORGRIGHT
350
685A9
  3
UCSORGTOP
350
685A6
  3
UCSORTHOREF
350
685A3
  3
UCSORTHOVIEW
350
685A4
  3
VERSIONGUID
350
68597
  0
XRECORD
  5
685AD
102
{ACAD_REACTORS
330
66E76
102
}
330
66E76
100
AcDbXrecord
340
1E
  0
XRECORD
  5
685AC
102
{ACAD_REACTORS
330
66E74
102
}
330
66E74
100
AcDbXrecord
340
1A
  0
GROUP
  5
677EB
102
{ACAD_REACTORS
330
D
102
}
330
D
100
AcDbGroup
300

 70
     1
 71
     1
340
677EA
340
675C1
  0
MLINESTYLE
  5
17
102
{ACAD_REACTORS
330
16
102
}
330
16
100
AcDbMlineStyle
  2
STANDARD
 70
     0
  3

 62
   256
 51
90.0
 52
90.0
 71
     2
 49
0.5
 62
   256
  6
BYLAYER
 49
-0.5
 62
   256
  6
BYLAYER
  0
ACDBPLACEHOLDER
  5
F
102
{ACAD_REACTORS
330
E
102
}
330
E
100
AcDbPlaceHolder
280
     0
  0
XRECORD
  5
68595
102
{ACAD_REACTORS
330
6858B
102
}
330
6858B
100
AcDbXrecord
 90
        0
  0
XRECORD
  5
68599
102
{ACAD_REACTORS
330
6858B
102
}
330
6858B
100
AcDbXrecord
1000
DSTYLE
1002
{
1070
   341
340
46
1070
   342
340
46
1002
}
  0
XRECORD
  5
68596
102
{ACAD_REACTORS
330
6858B
102
}
330
6858B
100
AcDbXrecord
  1
{97DA8DB6-C4F0-4C3D-ABEB-53C4FBBC7EFF}
  0
XRECORD
  5
6858E
102
{ACAD_REACTORS
330
6858B
102
}
330
6858B
100
AcDbXrecord
  1

  0
XRECORD
  5
68594
102
{ACAD_REACTORS
330
6858B
102
}
330
6858B
100
AcDbXrecord
 90
        0
  0
XRECORD
  5
68590
102
{ACAD_REACTORS
330
6858B
102
}
330
6858B
100
AcDbXrecord
340
19
  0
XRECORD
  5
68593
102
{ACAD_REACTORS
330
6858B
102
}
330
6858B
100
AcDbXrecord
 90
    10781
  0
XRECORD
  5
68591
102
{ACAD_REACTORS
330
6858B
102
}
330
6858B
100
AcDbXrecord
340
18
  0
XRECORD
  5
68592
102
{ACAD_REACTORS
330
6858B
102
}
330
6858B
100
AcDbXrecord
340
E
  0
XRECORD
  5
68598
102
{ACAD_REACTORS
330
6858B
102
}
330
6858B
100
AcDbXrecord
 40
0.0
  0
XRECORD
  5
6859C
102
{ACAD_REACTORS
330
6858B
102
}
330
6858B
100
AcDbXrecord
340
0
  0
XRECORD
  5
685A2
102
{ACAD_REACTORS
330
6858B
102
}
330
6858B
100
AcDbXrecord
 10
0.0
 20
0.0
 30
0.0
  0
XRECORD
  5
6859E
102
{ACAD_REACTORS
330
6858B
102
}
330
6858B
100
AcDbXrecord
 10
0.0
 20
0.0
 30
0.0
  0
XRECORD
  5
685A1
102
{ACAD_REACTORS
330
6858B
102
}
330
6858B
100
AcDbXrecord
 10
0.0
 20
0.0
 30
0.0
  0
XRECORD
  5
6859F
102
{ACAD_REACTORS
330
6858B
102
}
330
6858B
100
AcDbXrecord
 10
0.0
 20
0.0
 30
0.0
  0
XRECORD
  5
685A0
102
{ACAD_REACTORS
330
6858B
102
}
330
6858B
100
AcDbXrecord
 10
0.0
 20
0.0
 30
0.0
  0
XRECORD
  5
6859D
102
{ACAD_REACTORS
330
6858B
102
}
330
6858B
100
AcDbXrecord
 10
0.0
 20
0.0
 30
0.0
  0
XRECORD
  5
6859A
102
{ACAD_REACTORS
330
6858B
102
}
330
6858B
100
AcDbXrecord
340
0
  0
XRECORD
  5
6859B
102
{ACAD_REACTORS
330
6858B
102
}
330
6858B
100
AcDbXrecord
 70
     0
  0
XRECORD
  5
6858F
102
{ACAD_REACTORS
330
6858B
102
}
330
6858B
100
AcDbXrecord
  1
u.ctb
  0
XRECORD
  5
6858C
102
{ACAD_REACTORS
330
6858B
102
}
330
6858B
100
AcDbXrecord
 90
        1
  0
XRECORD
  5
6858D
102
{ACAD_REACTORS
330
6858B
102
}
330
6858B
100
AcDbXrecord
 90
       70
  0
XRECORD
  5
685A5
102
{ACAD_REACTORS
330
6858B
102
}
330
6858B
100
AcDbXrecord
340
0
  0
XRECORD
  5
685AB
102
{ACAD_REACTORS
330
6858B
102
}
330
6858B
100
AcDbXrecord
 10
0.0
 20
0.0
 30
0.0
  0
XRECORD
  5
685A7
102
{ACAD_REACTORS
330
6858B
102
}
330
6858B
100
AcDbXrecord
 10
0.0
 20
0.0
 30
0.0
  0
XRECORD
  5
685AA
102
{ACAD_REACTORS
330
6858B
102
}
330
6858B
100
AcDbXrecord
 10
0.0
 20
0.0
 30
0.0
  0
XRECORD
  5
685A8
102
{ACAD_REACTORS
330
6858B
102
}
330
6858B
100
AcDbXrecord
 10
0.0
 20
0.0
 30
0.0
  0
XRECORD
  5
685A9
102
{ACAD_REACTORS
330
6858B
102
}
330
6858B
100
AcDbXrecord
 10
0.0
 20
0.0
 30
0.0
  0
XRECORD
  5
685A6
102
{ACAD_REACTORS
330
6858B
102
}
330
6858B
100
AcDbXrecord
 10
0.0
 20
0.0
 30
0.0
  0
XRECORD
  5
685A3
102
{ACAD_REACTORS
330
6858B
102
}
330
6858B
100
AcDbXrecord
340
0
  0
XRECORD
  5
685A4
102
{ACAD_REACTORS
330
6858B
102
}
330
6858B
100
AcDbXrecord
 70
     0
  0
XRECORD
  5
68597
102
{ACAD_REACTORS
330
6858B
102
}
330
6858B
100
AcDbXrecord
  1
{37C1B17F-56FD-43A1-AB9B-9B13799E8291}
  0
ENDSEC
  0
EOF
