  0
SECTION
  2
HEADER
  9
$ACADVER
  1
AC1014
  9
$ACADMAINTVER
 70
     9
  9
$DWGCODEPAGE
  3
ANSI_932
  9
$INSBASE
 10
0.0
 20
0.0
 30
0.0
  9
$EXTMIN
 10
-806.1609493226169
 20
-462.1713360571479
 30
-0.0015258207003583
  9
$EXTMAX
 10
602.5208585040273
 20
538.4043674924341
 30
0.0000000349246037
  9
$LIMMIN
 10
-1000.87992633044
 20
-646.657038408779
  9
$LIMMAX
 10
708.8127848018793
 20
714.4240491300461
  9
$ORTHOMODE
 70
     0
  9
$REGENMODE
 70
     1
  9
$FILLMODE
 70
     1
  9
$QTEXTMODE
 70
     0
  9
$MIRRTEXT
 70
     0
  9
$DRAGMODE
 70
     2
  9
$LTSCALE
 40
20.0
  9
$OSMODE
 70
    39
  9
$ATTMODE
 70
     1
  9
$TEXTSIZE
 40
64.0
  9
$TRACEWID
 40
0.05
  9
$TEXTSTYLE
  7
STANDARD
  9
$CLAYER
  8
OUTLINE
  9
$CELTYPE
  6
CONTINUOUS
  9
$CECOLOR
 62
   256
  9
$CELTSCALE
 40
1.0
  9
$DELOBJ
 70
     1
  9
$DISPSILH
 70
     0
  9
$DIMSCALE
 40
1.0
  9
$DIMASZ
 40
10.0
  9
$DIMEXO
 40
20.0
  9
$DIMDLI
 40
200.0
  9
$DIMRND
 40
0.0
  9
$DIMDLE
 40
0.0
  9
$DIMEXE
 40
20.0
  9
$DIMTP
 40
0.0
  9
$DIMTM
 40
0.0
  9
$DIMTXT
 40
50.0
  9
$DIMCEN
 40
0.082
  9
$DIMTSZ
 40
0.0
  9
$DIMTOL
 70
     0
  9
$DIMLIM
 70
     0
  9
$DIMTIH
 70
     0
  9
$DIMTOH
 70
     0
  9
$DIMSE1
 70
     0
  9
$DIMSE2
 70
     0
  9
$DIMTAD
 70
     1
  9
$DIMZIN
 70
     8
  9
$DIMBLK
  1
ORIGIN
  9
$DIMASO
 70
     1
  9
$DIMSHO
 70
     0
  9
$DIMPOST
  1

  9
$DIMAPOST
  1

  9
$DIMALT
 70
     0
  9
$DIMALTD
 70
     2
  9
$DIMALTF
 40
25.4
  9
$DIMLFAC
 40
1.0
  9
$DIMTOFL
 70
     1
  9
$DIMTVP
 40
0.0
  9
$DIMTIX
 70
     0
  9
$DIMSOXD
 70
     0
  9
$DIMSAH
 70
     0
  9
$DIMBLK1
  1

  9
$DIMBLK2
  1

  9
$DIMSTYLE
  2
STANDARD
  9
$DIMCLRD
 70
     0
  9
$DIMCLRE
 70
     0
  9
$DIMCLRT
 70
     0
  9
$DIMTFAC
 40
1.0
  9
$DIMGAP
 40
10.0
  9
$DIMJUST
 70
     0
  9
$DIMSD1
 70
     0
  9
$DIMSD2
 70
     0
  9
$DIMTOLJ
 70
     1
  9
$DIMTZIN
 70
     0
  9
$DIMALTZ
 70
     0
  9
$DIMALTTZ
 70
     0
  9
$DIMFIT
 70
     3
  9
$DIMUPT
 70
     0
  9
$DIMUNIT
 70
     2
  9
$DIMDEC
 70
     1
  9
$DIMTDEC
 70
     1
  9
$DIMALTU
 70
     2
  9
$DIMALTTD
 70
     2
  9
$DIMTXSTY
  7
STANDARD
  9
$DIMAUNIT
 70
     0
  9
$LUNITS
 70
     2
  9
$LUPREC
 70
     4
  9
$SKETCHINC
 40
0.1
  9
$FILLETRAD
 40
10.0
  9
$AUNITS
 70
     1
  9
$AUPREC
 70
     3
  9
$MENU
  1
ACAD
  9
$ELEVATION
 40
0.0
  9
$PELEVATION
 40
0.0
  9
$THICKNESS
 40
0.0
  9
$LIMCHECK
 70
     0
  9
$BLIPMODE
 70
     0
  9
$CHAMFERA
 40
0.0
  9
$CHAMFERB
 40
0.0
  9
$CHAMFERC
 40
0.0
  9
$CHAMFERD
 40
0.0
  9
$SKPOLY
 70
     0
  9
$TDCREATE
 40
2450330.393205995
  9
$TDUPDATE
 40
2454816.731800844
  9
$TDINDWG
 40
1.8878797801
  9
$TDUSRTIMER
 40
1.8878792245
  9
$USRTIMER
 70
     1
  9
$ANGBASE
 50
0.0
  9
$ANGDIR
 70
     0
  9
$PDMODE
 70
     3
  9
$PDSIZE
 40
-2.0
  9
$PLINEWID
 40
0.0
  9
$COORDS
 70
     2
  9
$SPLFRAME
 70
     0
  9
$SPLINETYPE
 70
     6
  9
$SPLINESEGS
 70
     8
  9
$ATTDIA
 70
     0
  9
$ATTREQ
 70
     1
  9
$HANDLING
 70
-16383
  9
$HANDSEED
  5
6915D
  9
$SURFTAB1
 70
     6
  9
$SURFTAB2
 70
     6
  9
$SURFTYPE
 70
     6
  9
$SURFU
 70
     6
  9
$SURFV
 70
     6
  9
$UCSNAME
  2

  9
$UCSORG
 10
0.0
 20
0.0
 30
0.0
  9
$UCSXDIR
 10
1.0
 20
0.0
 30
0.0
  9
$UCSYDIR
 10
0.0
 20
1.0
 30
0.0
  9
$PUCSNAME
  2

  9
$PUCSORG
 10
0.0
 20
0.0
 30
0.0
  9
$PUCSXDIR
 10
1.0
 20
0.0
 30
0.0
  9
$PUCSYDIR
 10
0.0
 20
1.0
 30
0.0
  9
$USERI1
 70
     0
  9
$USERI2
 70
     0
  9
$USERI3
 70
     0
  9
$USERI4
 70
     0
  9
$USERI5
 70
     0
  9
$USERR1
 40
20.0
  9
$USERR2
 40
0.0
  9
$USERR3
 40
0.0
  9
$USERR4
 40
0.0
  9
$USERR5
 40
0.0
  9
$WORLDVIEW
 70
     1
  9
$SHADEDGE
 70
     3
  9
$SHADEDIF
 70
    70
  9
$TILEMODE
 70
     1
  9
$MAXACTVP
 70
    64
  9
$PINSBASE
 10
0.0
 20
0.0
 30
0.0
  9
$PLIMCHECK
 70
     0
  9
$PEXTMIN
 10
1.000000000000000E+20
 20
1.000000000000000E+20
 30
1.000000000000000E+20
  9
$PEXTMAX
 10
-1.000000000000000E+20
 20
-1.000000000000000E+20
 30
-1.000000000000000E+20
  9
$PLIMMIN
 10
0.0
 20
0.0
  9
$PLIMMAX
 10
12.0
 20
9.0
  9
$UNITMODE
 70
     0
  9
$VISRETAIN
 70
     1
  9
$PLINEGEN
 70
     0
  9
$PSLTSCALE
 70
     1
  9
$TREEDEPTH
 70
  3020
  9
$PICKSTYLE
 70
     1
  9
$CMLSTYLE
  2
STANDARD
  9
$CMLJUST
 70
     0
  9
$CMLSCALE
 40
1.0
  9
$PROXYGRAPHICS
 70
     1
  9
$MEASUREMENT
 70
     0
  0
ENDSEC
  0
SECTION
  2
CLASSES
  0
CLASS
  1
ACDBDICTIONARYWDFLT
  2
AcDbDictionaryWithDefault
  3
AutoCAD 2000
 90
        0
280
     0
281
     0
  0
CLASS
  1
ACDBPLACEHOLDER
  2
AcDbPlaceHolder
  3
AutoCAD 2000
 90
        0
280
     0
281
     0
  0
CLASS
  1
LAYOUT
  2
AcDbLayout
  3
AutoCAD 2000
 90
        0
280
     0
281
     0
  0
CLASS
  1
LONG_TRANSACTION
  2
AcDbLongTransaction
  3
AutoCAD 2000
 90
        0
280
     0
281
     0
  0
CLASS
  1
LWPOLYLINE
  2
AcDbPolyline
  3
AutoCAD 2000
 90
        0
280
     0
281
     1
  0
CLASS
  1
HATCH
  2
AcDbHatch
  3
AutoCAD 2000
 90
        0
280
     0
281
     1
  0
CLASS
  1
XRECORD
  2
AcDbXrecord
  3
AutoCAD 2000
 90
        0
280
     0
281
     0
  0
CLASS
  1
LONG_TRANSACTION
  2
AcDbLongTransaction
  3
AutoCAD 2000
 90
        0
280
     0
281
     0
  0
CLASS
  1
LWPOLYLINE
  2
AcDbPolyline
  3
AutoCAD 2000
 90
        0
280
     0
281
     1
  0
CLASS
  1
HATCH
  2
AcDbHatch
  3
AutoCAD 2000
 90
        0
280
     0
281
     1
  0
CLASS
  1
XRECORD
  2
AcDbXrecord
  3
AutoCAD 2000
 90
        0
280
     0
281
     0
  0
CLASS
  1
LONG_TRANSACTION
  2
AcDbLongTransaction
  3
AutoCAD 2000
 90
        0
280
     0
281
     0
  0
CLASS
  1
LWPOLYLINE
  2
AcDbPolyline
  3
AutoCAD 2000
 90
        0
280
     0
281
     1
  0
CLASS
  1
HATCH
  2
AcDbHatch
  3
AutoCAD 2000
 90
        0
280
     0
281
     1
  0
CLASS
  1
XRECORD
  2
AcDbXrecord
  3
AutoCAD 2000
 90
        0
280
     0
281
     0
  0
CLASS
  1
LONG_TRANSACTION
  2
AcDbLongTransaction
  3
AutoCAD 2000
 90
        0
280
     0
281
     0
  0
CLASS
  1
LWPOLYLINE
  2
AcDbPolyline
  3
AutoCAD 2000
 90
        0
280
     0
281
     1
  0
CLASS
  1
HATCH
  2
AcDbHatch
  3
AutoCAD 2000
 90
        0
280
     0
281
     1
  0
CLASS
  1
XRECORD
  2
AcDbXrecord
  3
AutoCAD 2000
 90
        0
280
     0
281
     0
  0
ENDSEC
  0
SECTION
  2
TABLES
  0
TABLE
  2
VPORT
  5
8
330
0
100
AcDbSymbolTable
 70
     3
  0
VPORT
  5
69139
330
8
100
AcDbSymbolTableRecord
100
AcDbViewportTableRecord
  2
*ACTIVE
 70
     0
 10
0.0
 20
0.0
 11
1.0
 21
1.0
 12
-146.0335707642808
 22
33.88350536063353
 13
0.0
 23
0.0
 14
50.0
 24
50.0
 15
100.0
 25
100.0
 16
0.0
 26
0.0
 36
1.0
 17
0.0
 27
0.0
 37
0.0
 40
1371.431514060033
 41
1.562182741116751
 42
50.0
 43
0.0
 44
0.0
 50
0.0
 51
0.0
 71
     0
 72
   500
 73
     1
 74
     0
 75
     0
 76
     0
 77
     0
 78
     0
  0
ENDTAB
  0
TABLE
  2
LTYPE
  5
5
330
0
100
AcDbSymbolTable
 70
     3
  0
LTYPE
  5
13
330
5
100
AcDbSymbolTableRecord
100
AcDbLinetypeTableRecord
  2
BYBLOCK
 70
     0
  3

 72
    65
 73
     0
 40
0.0
  0
LTYPE
  5
14
330
5
100
AcDbSymbolTableRecord
100
AcDbLinetypeTableRecord
  2
BYLAYER
 70
     0
  3

 72
    65
 73
     0
 40
0.0
  0
LTYPE
  5
15
330
5
100
AcDbSymbolTableRecord
100
AcDbLinetypeTableRecord
  2
CONTINUOUS
 70
     0
  3
実線
 72
    65
 73
     0
 40
0.0
  0
LTYPE
  5
23
330
5
100
AcDbSymbolTableRecord
100
AcDbLinetypeTableRecord
  2
DASHDOT
 70
     0
  3
____ _ ____ _ ____ _ ____ _ ____ _ ____ _ ____
 72
    65
 73
     4
 40
5.5
 49
4.0
 74
     0
 49
-0.6
 74
     0
 49
0.3
 74
     0
 49
-0.6
 74
     0
  0
LTYPE
  5
683DB
330
5
100
AcDbSymbolTableRecord
100
AcDbLinetypeTableRecord
  2
CENTER
 70
     0
  3
____ _ ____ _ ____ _ ____ _ ____ _ ____ _ ____
 72
    65
 73
     4
 40
0.6
 49
0.375
 74
     0
 49
-0.075
 74
     0
 49
0.075
 74
     0
 49
-0.075
 74
     0
  0
ENDTAB
  0
TABLE
  2
LAYER
  5
2
330
0
100
AcDbSymbolTable
 70
     9
  0
LAYER
  5
10
330
2
100
AcDbSymbolTableRecord
100
AcDbLayerTableRecord
  2
0
 70
     0
 62
     7
  6
CONTINUOUS
  0
LAYER
  5
22
330
2
100
AcDbSymbolTableRecord
100
AcDbLayerTableRecord
  2
SIZE
 70
     0
 62
    32
  6
CONTINUOUS
  0
LAYER
  5
31
330
2
100
AcDbSymbolTableRecord
100
AcDbLayerTableRecord
  2
DETAIL
 70
     0
 62
     5
  6
CONTINUOUS
  0
LAYER
  5
32
330
2
100
AcDbSymbolTableRecord
100
AcDbLayerTableRecord
  2
OUTLINE
 70
     0
 62
     3
  6
CONTINUOUS
  0
LAYER
  5
33
330
2
100
AcDbSymbolTableRecord
100
AcDbLayerTableRecord
  2
BASIS
 70
     0
 62
     6
  6
CONTINUOUS
  0
LAYER
  5
34
330
2
100
AcDbSymbolTableRecord
100
AcDbLayerTableRecord
  2
NOTE
 70
     0
 62
     4
  6
CONTINUOUS
  0
LAYER
  5
35
330
2
100
AcDbSymbolTableRecord
100
AcDbLayerTableRecord
  2
ARRANGE
 70
     0
 62
     1
  6
CONTINUOUS
  0
LAYER
  5
37
330
2
100
AcDbSymbolTableRecord
100
AcDbLayerTableRecord
  2
ETC
 70
     0
 62
    83
  6
CONTINUOUS
  0
LAYER
  5
3A
330
2
100
AcDbSymbolTableRecord
100
AcDbLayerTableRecord
  2
DEFPOINTS
 70
     0
 62
     7
  6
CONTINUOUS
  0
ENDTAB
  0
TABLE
  2
STYLE
  5
3
330
0
100
AcDbSymbolTable
 70
     1
  0
STYLE
  5
11
330
3
100
AcDbSymbolTableRecord
100
AcDbTextStyleTableRecord
  2
STANDARD
 70
     0
 40
0.0
 41
0.9
 50
0.0
 71
     0
 42
64.0
  3
SIMPLEX
  4
BIGFONT
  0
ENDTAB
  0
TABLE
  2
VIEW
  5
6
330
0
100
AcDbSymbolTable
 70
     1
  0
VIEW
  5
3C
330
6
100
AcDbSymbolTableRecord
100
AcDbViewTableRecord
  2
ALL
 70
     0
 40
4282.62
 10
0.0
 20
41.30990399999999
 41
5940.0
 11
0.0
 21
0.0
 31
1.0
 12
0.0
 22
0.0
 32
0.0
 42
50.0
 43
0.0
 44
0.0
 50
0.0
 71
     0
  0
ENDTAB
  0
TABLE
  2
UCS
  5
7
330
0
100
AcDbSymbolTable
 70
     0
  0
ENDTAB
  0
TABLE
  2
APPID
  5
9
330
0
100
AcDbSymbolTable
 70
     1
  0
APPID
  5
12
330
9
100
AcDbSymbolTableRecord
100
AcDbRegAppTableRecord
  2
ACAD
 70
     0
  0
ENDTAB
  0
TABLE
  2
DIMSTYLE
  5
A
330
0
100
AcDbSymbolTable
 70
     1
  0
DIMSTYLE
105
213
330
A
100
AcDbSymbolTableRecord
100
AcDbDimStyleTableRecord
  2
STANDARD
 70
     0
  3

  4

  5

  6

  7

 40
1.0
 41
0.18
 42
0.0625
 43
0.38
 44
0.18
 45
0.0
 46
0.0
 47
0.0
 48
0.0
140
0.18
141
0.09
142
0.0
143
25.4
144
1.0
145
0.0
146
1.0
147
0.09
 71
     0
 72
     0
 73
     1
 74
     1
 75
     0
 76
     0
 77
     0
 78
     0
170
     0
171
     2
172
     0
173
     0
174
     0
175
     0
176
     0
177
     0
178
     0
270
     2
271
     4
272
     4
273
     2
274
     2
340
11
275
     0
280
     0
281
     0
282
     0
283
     1
284
     0
285
     0
286
     0
287
     3
288
     0
  0
ENDTAB
  0
TABLE
  2
BLOCK_RECORD
  5
1
330
0
100
AcDbSymbolTable
 70
     2
  0
BLOCK_RECORD
  5
1E
102
{ACAD_XDICTIONARY
360
66E76
102
}
330
1
100
AcDbSymbolTableRecord
100
AcDbBlockTableRecord
  2
*MODEL_SPACE
  0
BLOCK_RECORD
  5
1A
102
{ACAD_XDICTIONARY
360
66E74
102
}
330
1
100
AcDbSymbolTableRecord
100
AcDbBlockTableRecord
  2
*PAPER_SPACE
  0
BLOCK_RECORD
  5
46
330
1
100
AcDbSymbolTableRecord
100
AcDbBlockTableRecord
  2
_ORIGIN
  0
BLOCK_RECORD
  5
175A
330
1
100
AcDbSymbolTableRecord
100
AcDbBlockTableRecord
  2
_NONE
  0
ENDTAB
  0
ENDSEC
  0
SECTION
  2
BLOCKS
  0
BLOCK
  5
1F
330
1E
100
AcDbEntity
  8
0
100
AcDbBlockBegin
  2
*MODEL_SPACE
 70
     0
 10
0.0
 20
0.0
 30
0.0
  3
*MODEL_SPACE
  1

  0
ENDBLK
  5
20
330
1E
100
AcDbEntity
  8
0
100
AcDbBlockEnd
  0
BLOCK
  5
1B
330
1A
100
AcDbEntity
 67
     1
  8
0
100
AcDbBlockBegin
  2
*PAPER_SPACE
 70
     0
 10
0.0
 20
0.0
 30
0.0
  3
*PAPER_SPACE
  1

  0
ENDBLK
  5
1C
330
1A
100
AcDbEntity
 67
     1
  8
0
100
AcDbBlockEnd
  0
BLOCK
  5
47
330
46
100
AcDbEntity
  8
0
100
AcDbBlockBegin
  2
_ORIGIN
 70
     0
 10
0.0
 20
0.0
 30
0.0
  3
_ORIGIN
  1

  0
CIRCLE
  5
48
330
46
100
AcDbEntity
  8
0
  6
BYBLOCK
 62
     0
100
AcDbCircle
 10
0.0
 20
0.0
 30
0.0
 40
0.5
  0
LINE
  5
49
330
46
100
AcDbEntity
  8
0
  6
BYBLOCK
 62
     0
100
AcDbLine
 10
0.0
 20
0.0
 30
0.0
 11
-1.0
 21
0.0
 31
0.0
  0
ENDBLK
  5
4A
330
46
100
AcDbEntity
  8
0
100
AcDbBlockEnd
  0
BLOCK
  5
175B
330
175A
100
AcDbEntity
  8
0
100
AcDbBlockBegin
  2
_NONE
 70
     0
 10
0.0
 20
0.0
 30
0.0
  3
_NONE
  1

  0
ENDBLK
  5
175C
330
175A
100
AcDbEntity
  8
0
100
AcDbBlockEnd
  0
ENDSEC
  0
SECTION
  2
ENTITIES
  0
MTEXT
  5
38341
330
1E
100
AcDbEntity
  8
0
  6
CONTINUOUS
100
AcDbMText
 10
383.9605305094082
 20
4023.282340837186
 30
0.0
 40
64.0
 41
187.9848
 71
     1
 72
     5
  1

1001
ACAD
1000
MTEXTBEGIN
1070
    73
1070
     1
1070
    44
1040
1.0
1070
    74
1070
     0
1000
MTEXTEND
1000
MTEXTBEGIN
1070
    73
1070
     1
1070
    44
1040
1.0
1070
    74
1070
     0
1000
MTEXTEND
1000
MTEXTBEGIN
1070
    73
1070
     1
1070
    44
1040
1.0
1070
    74
1070
     0
1000
MTEXTEND
1000
MTEXTBEGIN
1070
    73
1070
     1
1070
    44
1040
1.0
1070
    74
1070
     0
1000
MTEXTEND
  0
POINT
  5
675C1
102
{ACAD_REACTORS
330
677EB
102
}
330
1E
100
AcDbEntity
  8
ARRANGE
  6
CONTINUOUS
100
AcDbPoint
 10
0.0
 20
0.0
 30
0.0
  0
CIRCLE
  5
677EA
102
{ACAD_REACTORS
330
677EB
102
}
330
1E
100
AcDbEntity
  8
ARRANGE
  6
CONTINUOUS
100
AcDbCircle
 10
0.0
 20
0.0
 30
0.0
 40
13.00138232471456
  0
LINE
  5
68DA4
330
1E
100
AcDbEntity
  8
NOTE
  6
CONTINUOUS
 62
     4
100
AcDbLine
 10
-0.000000000003638
 20
-253.9999999365018
 30
0.0
 11
-263.2260939861007
 21
-462.12464
 31
0.0
  0
LINE
  5
68DA5
330
1E
100
AcDbEntity
  8
SIZE
100
AcDbLine
 10
-20.00000000000363
 20
-295.0
 30
0.0
 11
-311.8009476184815
 21
-295.0
 31
0.0
  0
LINE
  5
68DA6
330
1E
100
AcDbEntity
  8
SIZE
100
AcDbLine
 10
-40.00000000000364
 20
-252.9999999367519
 30
0.0
 11
-311.8009476184815
 21
-252.9999999367519
 31
0.0
  0
LINE
  5
68DA7
330
1E
100
AcDbEntity
  8
SIZE
100
AcDbLine
 10
-20.00000000000363
 20
-295.0
 30
0.0
 11
-216.6962245642935
 21
-295.0
 31
0.0
  0
LINE
  5
68DA8
330
1E
100
AcDbEntity
  8
SIZE
100
AcDbLine
 10
-40.00000000000364
 20
-253.9999999365018
 30
0.0
 11
-216.6962245642935
 21
-253.9999999365018
 31
0.0
  0
LINE
  5
68DA9
330
1E
100
AcDbEntity
  8
NOTE
  6
CONTINUOUS
 62
     4
100
AcDbLine
 10
-0.000000000003638
 20
-252.9999999367519
 30
0.0
 11
-288.3621088557047
 21
60.10428999999977
 31
0.0
  0
LINE
  5
68DAA
330
1E
100
AcDbEntity
  8
SIZE
100
AcDbLine
 10
-20.00000000000363
 20
-295.0
 30
0.0
 11
-427.2865846231725
 21
-295.0
 31
0.0
  0
LINE
  5
68DAB
330
1E
100
AcDbEntity
  8
SIZE
100
AcDbLine
 10
-20.0
 20
0.0
 30
0.0
 11
-427.2865846231725
 21
0.0
 31
0.0
  0
LINE
  5
68DAC
330
1E
100
AcDbEntity
  8
SIZE
100
AcDbLine
 10
-397.2865846231725
 20
-283.0
 30
0.0
 11
-397.2865846231725
 21
-12.0
 31
0.0
  0
TEXT
  5
68DAD
330
1E
100
AcDbEntity
  8
NOTE
 62
     4
100
AcDbText
 10
-773.0432100000034
 20
-440.9295700000001
 30
0.0
 40
64.0
  1
D,RL,RG%%C65
 41
0.9
100
AcDbText
  0
LINE
  5
68DAE
330
1E
100
AcDbEntity
  8
NOTE
  6
CONTINUOUS
 62
     4
100
AcDbLine
 10
-263.2260939861007
 20
-462.12464
 30
0.0
 11
-781.7722100000028
 21
-462.12464
 31
0.0
  0
TEXT
  5
68DAF
330
1E
100
AcDbEntity
  8
SIZE
100
AcDbText
 10
-411.6937538545753
 20
-205.3571428571428
 30
0.0
 40
50.0
  1
295
 50
90.0
 41
0.9
100
AcDbText
  0
LINE
  5
68DB0
330
1E
100
AcDbEntity
  8
SIZE
100
AcDbLine
 10
-186.6962245642935
 20
-295.0
 30
0.0
 11
-186.6962245642935
 21
-253.9999999365018
 31
0.0
  0
LINE
  5
68DB1
330
1E
100
AcDbEntity
  8
SIZE
100
AcDbLine
 10
-281.8009476184816
 20
-295.0
 30
0.0
 11
-281.8009476184816
 21
-252.9999999367519
 31
0.0
  0
CIRCLE
  5
68DB2
330
1E
100
AcDbEntity
  8
SIZE
100
AcDbCircle
 10
-397.2865846231725
 20
-295.0
 30
0.0
 40
6.0
  0
LINE
  5
68DB3
330
1E
100
AcDbEntity
  8
SIZE
100
AcDbLine
 10
-397.2865846231725
 20
-295.0
 30
0.0
 11
-397.2865846231725
 21
-283.0
 31
0.0
  0
LINE
  5
68DB4
330
1E
100
AcDbEntity
  8
SIZE
100
AcDbLine
 10
-281.8009476184816
 20
-307.0
 30
0.0
 11
-281.8009476184816
 21
-319.0
 31
0.0
  0
CIRCLE
  5
68DB5
330
1E
100
AcDbEntity
  8
SIZE
100
AcDbCircle
 10
-281.8009476184816
 20
-295.0
 30
0.0
 40
6.0
  0
LINE
  5
68DB6
330
1E
100
AcDbEntity
  8
SIZE
100
AcDbLine
 10
-281.8009476184816
 20
-295.0
 30
0.0
 11
-281.8009476184816
 21
-307.0
 31
0.0
  0
LINE
  5
68DB7
330
1E
100
AcDbEntity
  8
SIZE
100
AcDbLine
 10
-186.6962245642935
 20
-307.0
 30
0.0
 11
-186.6962245642935
 21
-319.0
 31
0.0
  0
CIRCLE
  5
68DB8
330
1E
100
AcDbEntity
  8
SIZE
100
AcDbCircle
 10
-186.6962245642935
 20
-295.0
 30
0.0
 40
6.0
  0
LINE
  5
68DB9
330
1E
100
AcDbEntity
  8
SIZE
100
AcDbLine
 10
-186.6962245642935
 20
-295.0
 30
0.0
 11
-186.6962245642935
 21
-307.0
 31
0.0
  0
TEXT
  5
68DBA
330
1E
100
AcDbEntity
  8
SIZE
100
AcDbText
 10
-201.1033937956963
 20
-209.9999999365018
 30
0.0
 40
50.0
  1
41
 50
90.0
 41
0.9
100
AcDbText
  0
LINE
  5
68DBB
330
1E
100
AcDbEntity
  8
SIZE
100
AcDbLine
 10
-281.8009476184816
 20
-240.9999999367518
 30
0.0
 11
-281.8009476184816
 21
-116.1428570796089
 31
0.0
  0
TEXT
  5
68DBC
330
1E
100
AcDbEntity
  8
SIZE
100
AcDbText
 10
-296.2081168498844
 20
-208.9999999367519
 30
0.0
 40
50.0
  1
42
 50
90.0
 41
0.9
100
AcDbText
  0
CIRCLE
  5
68DBD
330
1E
100
AcDbEntity
  8
SIZE
100
AcDbCircle
 10
-281.8009476184816
 20
-252.9999999367519
 30
0.0
 40
6.0
  0
LINE
  5
68DBE
330
1E
100
AcDbEntity
  8
SIZE
100
AcDbLine
 10
-281.8009476184816
 20
-252.9999999367519
 30
0.0
 11
-281.8009476184816
 21
-240.9999999367518
 31
0.0
  0
LINE
  5
68DBF
330
1E
100
AcDbEntity
  8
SIZE
100
AcDbLine
 10
-186.6962245642935
 20
-241.9999999365018
 30
0.0
 11
-186.6962245642935
 21
-136.428571365073
 31
0.0
  0
LINE
  5
68DC0
330
1E
100
AcDbEntity
  8
SIZE
100
AcDbLine
 10
-186.6962245642935
 20
-253.9999999365018
 30
0.0
 11
-186.6962245642935
 21
-241.9999999365018
 31
0.0
  0
CIRCLE
  5
68DC1
330
1E
100
AcDbEntity
  8
SIZE
100
AcDbCircle
 10
-186.6962245642935
 20
-253.9999999365018
 30
0.0
 40
6.0
  0
TEXT
  5
68DC2
330
1E
100
AcDbEntity
  8
NOTE
 62
     4
100
AcDbText
 10
-797.0863600000048
 20
81.29934999999932
 30
0.0
 40
64.0
  1
D,RL,RG%%C65
 41
0.9
100
AcDbText
  0
LINE
  5
68DC3
330
1E
100
AcDbEntity
  8
NOTE
  6
CONTINUOUS
 62
     4
100
AcDbLine
 10
-288.3621088557047
 20
60.10428999999977
 30
0.0
 11
-805.8153600000041
 21
60.1042899999993
 31
0.0
  0
CIRCLE
  5
68DC4
330
1E
100
AcDbEntity
  8
SIZE
100
AcDbCircle
 10
-397.2865846231725
 20
0.0
 30
0.0
 40
6.0
  0
LINE
  5
68DC5
330
1E
100
AcDbEntity
  8
SIZE
100
AcDbLine
 10
-397.2865846231725
 20
0.0
 30
0.0
 11
-397.2865846231725
 21
-12.0
 31
0.0
  0
LINE
  5
68DC8
330
1E
100
AcDbEntity
  8
SIZE
100
AcDbLine
 10
299.8375097121034
 20
-38.51275658184954
 30
0.0
 11
299.8375097121034
 21
149.5635972424618
 31
0.0
  0
ARC
  5
68DC9
330
1E
100
AcDbEntity
  8
DETAIL
100
AcDbCircle
 10
156.8809711111653
 20
-230.1369109969503
 30
0.0
 40
229.1000788153203
100
AcDbArc
 50
57.90781321069232
 51
89.00000000023275
  0
ARC
  5
68DCA
330
1E
100
AcDbEntity
  8
DETAIL
100
AcDbCircle
 10
157.0499566912985
 20
-230.178650619851
 30
0.0
 40
223.9446353096754
100
AcDbArc
 50
57.91079816104454
 51
88.99701412883082
  0
LINE
  5
68DCB
330
1E
100
AcDbEntity
  8
DETAIL
  6
CONTINUOUS
100
AcDbLine
 10
1.894421489056185
 20
-23.29162499999733
 30
0.0
 11
1.894421489056185
 21
-87.48718948094733
 31
0.0
  0
LINE
  5
68DCC
330
1E
100
AcDbEntity
  8
DETAIL
  6
CONTINUOUS
100
AcDbLine
 10
4.17126536543401
 20
-111.2427689438094
 30
0.0
 11
4.17126536543401
 21
-21.77733981828805
 31
0.0
  0
LINE
  5
68DCD
330
1E
100
AcDbEntity
  8
DETAIL
  6
CONTINUOUS
100
AcDbLine
 10
3.689921489058178
 20
-111.2427689438094
 30
0.0
 11
3.689921489058178
 21
-13.00874526041889
 31
0.0
  0
LINE
  5
68DCE
330
1E
100
AcDbEntity
  8
DETAIL
  6
CONTINUOUS
100
AcDbLine
 10
76.00867148905854
 20
-294.8111249999998
 30
0.0
 11
76.00867148905854
 21
-0.1148109519178888
 31
0.0
  0
LINE
  5
68DCF
330
1E
100
AcDbEntity
  8
DETAIL
  6
CONTINUOUS
100
AcDbLine
 10
52.77968081481595
 20
-208.8266249999981
 30
0.0
 11
52.77968081481595
 21
-4.33912499999792
 31
0.0
  0
LINE
  5
68DD0
330
1E
100
AcDbEntity
  8
DETAIL
  6
CONTINUOUS
100
AcDbLine
 10
60.25671835102912
 20
-4.263260036418841
 30
0.0
 11
60.25641941756112
 21
-208.8266249999981
 31
0.0
  0
LINE
  5
68DD1
330
1E
100
AcDbEntity
  8
DETAIL
  6
CONTINUOUS
100
AcDbLine
 10
61.32855309108163
 20
-208.8266249999981
 30
0.0
 11
61.32897368230079
 21
-4.187414590589014
 31
0.0
  0
LINE
  5
68DD2
330
1E
100
AcDbEntity
  8
DETAIL
  6
CONTINUOUS
100
AcDbLine
 10
74.51242148906749
 20
-208.8266249999981
 30
0.0
 11
74.51242148906749
 21
-0.3491249999985939
 31
0.0
  0
LINE
  5
68DD3
330
1E
100
AcDbEntity
  8
DETAIL
  6
CONTINUOUS
100
AcDbLine
 10
0.6974214890778967
 20
-286.7749717216988
 30
0.0
 11
0.6974214890778967
 21
-23.29162499999733
 31
0.0
  0
LINE
  5
68DD4
330
1E
100
AcDbEntity
  8
DETAIL
  6
CONTINUOUS
100
AcDbLine
 10
5.684921489077169
 20
-9.608879638887401
 30
0.0
 11
5.684921489077169
 21
-232.7666249999972
 31
0.0
  0
LINE
  5
68DD5
330
1E
100
AcDbEntity
  8
DETAIL
100
AcDbLine
 10
-0.000000000003638
 20
-286.7749717216988
 30
0.0
 11
0.0
 21
0.0
 31
0.0
  0
LINE
  5
68DD6
330
1E
100
AcDbEntity
  8
DETAIL
  6
CONTINUOUS
100
AcDbLine
 10
113.9539612224916
 20
-294.3719572660528
 30
0.0
 11
113.9484837376512
 21
-4.964638885358226
 31
0.0
  0
LINE
  5
68DD7
330
1E
100
AcDbEntity
  8
DETAIL
  6
CONTINUOUS
100
AcDbLine
 10
114.9109405999329
 20
-293.3190555255313
 30
0.0
 11
114.8749492888528
 21
-4.719393391719449
 31
0.0
  0
LINE
  5
68DD9
330
1E
100
AcDbEntity
  8
DETAIL
  6
CONTINUOUS
100
AcDbLine
 10
284.8920155950472
 20
-52.08728496788308
 30
0.0
 11
114.8801655195875
 21
-46.15092020242014
 31
0.0
  0
LINE
  5
68DDA
330
1E
100
AcDbEntity
  8
DETAIL
  6
CONTINUOUS
100
AcDbLine
 10
284.8920153565032
 20
-53.08617484190199
 30
0.0
 11
114.8802912074079
 21
-47.14923461236184
 31
0.0
  0
LINE
  5
68DDB
330
1E
100
AcDbEntity
  8
BASIS
100
AcDbLine
 10
323.4205045705039
 20
-147.5
 30
0.0
 11
-53.46545936608163
 21
-147.5
 31
0.0
  0
ARC
  5
68DDC
330
1E
100
AcDbEntity
  8
DETAIL
100
AcDbCircle
 10
116.4936877680838
 20
-104.1826622932662
 30
0.0
 40
188.2222327727441
100
AcDbArc
 50
281.0059602263276
 51
313.3548682263275
  0
ARC
  5
68DDD
330
1E
100
AcDbEntity
  8
DETAIL
100
AcDbCircle
 10
120.8054331063604
 20
-109.8387701593169
 30
0.0
 40
168.1696963887761
100
AcDbArc
 50
281.5650254867648
 51
316.2383021602607
  0
ARC
  5
68DDE
330
1E
100
AcDbEntity
  8
DETAIL
100
AcDbCircle
 10
120.7711742907822
 20
-109.839876106588
 30
0.0
 40
169.1679650701811
100
AcDbArc
 50
281.5626588527133
 51
316.2365462395205
  0
ARC
  5
68DDF
330
1E
100
AcDbEntity
  8
DETAIL
100
AcDbCircle
 10
116.5752160862707
 20
-104.4777684463692
 30
0.0
 40
189.9028127277454
100
AcDbArc
 50
271.9997774023972
 51
313.4043113874569
  0
ARC
  5
68DE0
330
1E
100
AcDbEntity
  8
DETAIL
  6
CONTINUOUS
100
AcDbCircle
 10
155.2221368738573
 20
-278.3201695299561
 30
0.0
 40
2.798596499999998
100
AcDbArc
 50
101.1879448561214
 51
180.0005905041995
  0
ARC
  5
68DE1
330
1E
100
AcDbEntity
  8
DETAIL
100
AcDbCircle
 10
155.2639087986481
 20
-278.3258104190829
 30
0.0
 40
3.804969993958662
100
AcDbArc
 50
101.2732416653917
 51
179.9187662854073
  0
LINE
  5
68DE2
330
1E
100
AcDbEntity
  8
DETAIL
  6
CONTINUOUS
100
AcDbLine
 10
10.68112720357021
 20
-282.6506345623081
 30
0.0
 11
10.68112720357021
 21
-274.6526154390183
 31
0.0
  0
ARC
  5
68DE3
330
1E
100
AcDbEntity
  8
DETAIL
  6
CONTINUOUS
100
AcDbCircle
 10
26.63242148906283
 20
-268.676624999998
 30
0.0
 40
18.753
100
AcDbArc
 50
270.0
 51
0.0
  0
ARC
  5
68DE4
330
1E
100
AcDbEntity
  8
DETAIL
  6
CONTINUOUS
100
AcDbCircle
 10
26.63242148906283
 20
-268.676624999998
 30
0.0
 40
19.95
100
AcDbArc
 50
270.0
 51
0.0
  0
ARC
  5
68DE5
330
1E
100
AcDbEntity
  8
DETAIL
  6
CONTINUOUS
100
AcDbCircle
 10
26.63242148906283
 20
-268.676624999998
 30
0.0
 40
19.81930810061999
100
AcDbArc
 50
270.3778208852197
 51
359.6221791147932
  0
ARC
  5
68DE6
330
1E
100
AcDbEntity
  8
DETAIL
  6
CONTINUOUS
100
AcDbCircle
 10
26.63242148906283
 20
-268.676624999998
 30
0.0
 40
18.88369189938
100
AcDbArc
 50
270.3965407867301
 51
359.6034592132959
  0
LINE
  5
68DE7
330
1E
100
AcDbEntity
  8
DETAIL
  6
CONTINUOUS
100
AcDbLine
 10
52.77968081481595
 20
-209.0261249999989
 30
0.0
 11
52.77968081481595
 21
-290.6216249999991
 31
0.0
  0
LINE
  5
68DE8
330
1E
100
AcDbEntity
  8
DETAIL
  6
CONTINUOUS
100
AcDbLine
 10
60.25671835102912
 20
-290.6974899662393
 30
0.0
 11
60.25641941756112
 21
-209.0261249999989
 31
0.0
  0
LINE
  5
68DE9
330
1E
100
AcDbEntity
  8
DETAIL
  6
CONTINUOUS
100
AcDbLine
 10
61.32897368230079
 20
-290.7733354133998
 30
0.0
 11
61.32855309108163
 21
-209.0261249999989
 31
0.0
  0
LINE
  5
68DEA
330
1E
100
AcDbEntity
  8
DETAIL
  6
CONTINUOUS
100
AcDbLine
 10
74.51242148906749
 20
-295.0
 30
0.0
 11
74.51242148906749
 21
-209.0261249999989
 31
0.0
  0
LINE
  5
68DEB
330
1E
100
AcDbEntity
  8
NOTE
  6
CONTINUOUS
 62
     4
100
AcDbLine
 10
-0.000000000003638
 20
-253.9999999365018
 30
0.0
 11
-23.92113000000244
 21
-286.058999936502
 31
0.0
  0
LINE
  5
68DEC
330
1E
100
AcDbEntity
  8
DETAIL
  6
CONTINUOUS
100
AcDbLine
 10
1.894421489056185
 20
-105.6416894809502
 30
0.0
 11
1.894421489056185
 21
-286.7749717216988
 31
0.0
  0
LINE
  5
68DEE
330
1E
100
AcDbEntity
  8
DETAIL
  6
CONTINUOUS
100
AcDbLine
 10
74.51242148906749
 20
-290.6216249999991
 30
0.0
 11
3.98917148907094
 21
-290.6216249999991
 31
0.0
  0
LINE
  5
68DEF
330
1E
100
AcDbEntity
  8
DETAIL
  6
CONTINUOUS
100
AcDbLine
 10
74.51242148906749
 20
-294.6116249999986
 30
0.0
 11
3.689921489058178
 21
-294.6116249999986
 31
0.0
  0
LINE
  5
68DF0
330
1E
100
AcDbEntity
  8
DETAIL
100
AcDbLine
 10
74.51242148906749
 20
-295.0
 30
0.0
 11
3.689921489058178
 21
-295.0
 31
0.0
  0
LINE
  5
68DF1
330
1E
100
AcDbEntity
  8
DETAIL
  6
CONTINUOUS
100
AcDbLine
 10
4.627571489056208
 20
-287.429624999999
 30
0.0
 11
26.63242148906283
 21
-287.429624999999
 31
0.0
  0
LINE
  5
68DF2
330
1E
100
AcDbEntity
  8
DETAIL
  6
CONTINUOUS
100
AcDbLine
 10
4.546616441264632
 20
-287.8344002417086
 30
0.0
 11
26.65855987000213
 21
-287.8344002417086
 31
0.0
  0
LINE
  5
68DF3
330
1E
100
AcDbEntity
  8
DETAIL
  6
CONTINUOUS
100
AcDbLine
 10
26.65855987000213
 20
-288.2218497582885
 30
0.0
 11
4.469126538200725
 21
-288.2218497582885
 31
0.0
  0
LINE
  5
68DF4
330
1E
100
AcDbEntity
  8
DETAIL
  6
CONTINUOUS
100
AcDbLine
 10
26.63242148906283
 20
-288.6203029420888
 30
0.0
 11
4.389435901446631
 21
-288.6203029420888
 31
0.0
  0
LINE
  5
68DF5
330
1E
100
AcDbEntity
  8
DETAIL
  6
CONTINUOUS
100
AcDbLine
 10
4.388171489055821
 20
-288.626624999998
 30
0.0
 11
26.63242148906283
 21
-288.626624999998
 31
0.0
  0
LINE
  5
68DF6
330
1E
100
AcDbEntity
  8
DETAIL
  6
CONTINUOUS
100
AcDbLine
 10
5.820148886623428
 20
-284.6453307131692
 30
0.0
 11
8.68643105137562
 21
-284.6453307131692
 31
0.0
  0
ARC
  5
68DFC
330
1E
100
AcDbEntity
  8
DETAIL
  6
CONTINUOUS
100
AcDbCircle
 10
2.293421489064712
 20
-286.7749717216988
 30
0.0
 40
0.399
100
AcDbArc
 50
180.0
 51
236.3099324739786
  0
ARC
  5
68DFD
330
1E
100
AcDbEntity
  8
DETAIL
  6
CONTINUOUS
100
AcDbCircle
 10
2.293421489064712
 20
-286.7749717216988
 30
0.0
 40
1.595999999999999
100
AcDbArc
 50
180.0
 51
236.3099324739786
  0
ARC
  5
68DFE
330
1E
100
AcDbEntity
  8
DETAIL
  6
CONTINUOUS
100
AcDbCircle
 10
5.378438218900555
 20
-285.22785779488
 30
0.0
 40
0.4987500000000001
100
AcDbArc
 50
90.99999999997569
 51
165.0685828217917
  0
ARC
  5
68DFF
330
1E
100
AcDbEntity
  8
DETAIL
  6
CONTINUOUS
100
AcDbCircle
 10
4.487921489075233
 20
-289.7169413455798
 30
0.0
 40
0.7980000000000002
100
AcDbArc
 50
101.6902624266376
 51
180.0
  0
LINE
  5
68E00
330
1E
100
AcDbEntity
  8
DETAIL
  6
CONTINUOUS
100
AcDbLine
 10
4.627571489056208
 20
-287.429624999999
 30
0.0
 11
5.027507411403348
 21
-285.4299453883476
 31
0.0
  0
LINE
  5
68E01
330
1E
100
AcDbEntity
  8
DETAIL
  6
CONTINUOUS
100
AcDbLine
 10
4.389435901446631
 20
-288.6203029420888
 30
0.0
 11
4.626307078020545
 21
-287.4359470579081
 31
0.0
  0
LINE
  5
68E02
330
1E
100
AcDbEntity
  8
DETAIL
  6
CONTINUOUS
100
AcDbLine
 10
3.689921489058178
 20
-292.1178749999985
 30
0.0
 11
4.388171489055821
 21
-288.626624999998
 31
0.0
  0
LINE
  5
68E03
330
1E
100
AcDbEntity
  8
DETAIL
  6
CONTINUOUS
100
AcDbLine
 10
4.896528543235035
 20
-285.0993485491898
 30
0.0
 11
4.50423184299143
 21
-286.5704611727983
 31
0.0
  0
LINE
  5
68E04
330
1E
100
AcDbEntity
  8
DETAIL
  6
CONTINUOUS
100
AcDbLine
 10
1.408119976511443
 20
-288.1029239911896
 30
0.0
 11
2.072096110605343
 21
-287.1069597887396
 31
0.0
  0
LINE
  5
68E05
330
1E
100
AcDbEntity
  8
DETAIL
  6
CONTINUOUS
100
AcDbLine
 10
5.369733831732446
 20
-284.7291837578293
 30
0.0
 11
5.575801298593432
 21
-284.7255868366671
 31
0.0
  0
LINE
  5
68E06
330
1E
100
AcDbEntity
  8
DETAIL
  6
CONTINUOUS
100
AcDbLine
 10
-0.000000000003638
 20
-286.7749717216988
 30
0.0
 11
1.894421489056185
 21
-286.7749717216988
 31
0.0
  0
LINE
  5
68E07
330
1E
100
AcDbEntity
  8
DETAIL
  6
CONTINUOUS
100
AcDbLine
 10
3.689921489058178
 20
-295.0
 30
0.0
 11
3.689921489058178
 21
-289.7169413455798
 31
0.0
  0
LINE
  5
68E08
330
1E
100
AcDbEntity
  8
DETAIL
  6
CONTINUOUS
100
AcDbLine
 10
1.408119976511443
 20
-288.1029239911896
 30
0.0
 11
3.695528731823287
 21
-289.6278631618386
 31
0.0
  0
LINE
  5
68E09
330
1E
100
AcDbEntity
  8
DETAIL
  6
CONTINUOUS
100
AcDbLine
 10
2.072096110605343
 20
-287.1069597887396
 30
0.0
 11
4.374874344572162
 21
-288.6421452780575
 31
0.0
  0
LINE
  5
68E0A
330
1E
100
AcDbEntity
  8
DETAIL
  6
CONTINUOUS
100
AcDbLine
 10
1.894421489056185
 20
-285.5328552129881
 30
0.0
 11
4.640748510611956
 21
-287.3637398935801
 31
0.0
  0
LINE
  5
68E0B
330
1E
100
AcDbEntity
  8
DETAIL
  6
CONTINUOUS
100
AcDbLine
 10
1.894421489056185
 20
-284.8305876035185
 30
0.0
 11
4.764678088842629
 21
-286.7440920024785
 31
0.0
  0
ARC
  5
68E0C
330
1E
100
AcDbEntity
  8
DETAIL
100
AcDbCircle
 10
6.009347610411623
 20
-285.6291475194634
 30
0.0
 40
1.001844132302862
100
AcDbArc
 50
100.8857058786316
 51
168.5311322867793
  0
ARC
  5
68E0D
330
1E
100
AcDbEntity
  8
DETAIL
100
AcDbCircle
 10
8.68655574072136
 20
-282.6507592503205
 30
0.0
 40
1.9945714667463
100
AcDbArc
 50
269.996418191387
 51
0.003581770315158
  0
LINE
  5
68E0E
330
1E
100
AcDbEntity
  8
DETAIL
  6
CONTINUOUS
100
AcDbLine
 10
26.76311338843698
 20
-287.5598646421883
 30
0.0
 11
26.76311338843698
 21
-288.4955021939181
 31
0.0
  0
LINE
  5
68E0F
330
1E
100
AcDbEntity
  8
DETAIL
  6
CONTINUOUS
100
AcDbLine
 10
26.76311338843698
 20
-287.5598646421883
 30
0.0
 11
26.63874267183382
 21
-287.435945117438
 31
0.0
  0
LINE
  5
68E10
330
1E
100
AcDbEntity
  8
DETAIL
100
AcDbLine
 10
26.63242148906283
 20
-287.4296249999978
 30
0.0
 11
26.63242148906283
 21
-288.6203029420888
 31
0.0
  0
LINE
  5
68E11
330
1E
100
AcDbEntity
  8
DETAIL
100
AcDbLine
 10
26.76311338843698
 20
-288.4955021939181
 30
0.0
 11
26.63242148906283
 21
-288.6203029420888
 31
0.0
  0
ARC
  5
68E12
330
1E
100
AcDbEntity
  8
DETAIL
100
AcDbCircle
 10
70.74690972848521
 20
-291.3103789113248
 30
0.0
 40
9.433235663794432
100
AcDbArc
 50
176.7363296066501
 51
200.4848097853875
  0
ARC
  5
68E13
330
1E
100
AcDbEntity
  8
DETAIL
100
AcDbCircle
 10
64.41367126262503
 20
-291.2543053276237
 30
0.0
 40
4.194079261995311
100
AcDbArc
 50
172.3707590382682
 51
233.1600762250354
  0
ARC
  5
68E14
330
1E
100
AcDbEntity
  8
DETAIL
100
AcDbCircle
 10
125.1335228338075
 20
-104.5545280236483
 30
0.0
 40
185.7203629167784
100
AcDbArc
 50
273.1729376538336
 51
278.1489862337766
  0
LINE
  5
68E16
330
1E
100
AcDbEntity
  8
DETAIL
  6
CONTINUOUS
100
AcDbLine
 10
123.2019913382673
 20
-294.2649232584606
 30
0.0
 11
76.00867148905854
 21
-294.8111249999998
 31
0.0
  0
ARC
  5
68E17
330
1E
100
AcDbEntity
  8
DETAIL
100
AcDbCircle
 10
-24.0361834075411
 20
1636.208478981188
 30
0.0
 40
1929.428168564231
100
AcDbArc
 50
272.9722379745612
 51
274.129079564495
  0
ARC
  5
68E1C
330
1E
100
AcDbEntity
  8
DETAIL
  6
CONTINUOUS
100
AcDbCircle
 10
75.0111714890736
 20
-294.1617171552477
 30
0.0
 40
0.9975000000000001
100
AcDbArc
 50
0.0
 51
86.99999999999441
  0
LINE
  5
68E1D
330
1E
100
AcDbEntity
  8
DETAIL
  6
CONTINUOUS
100
AcDbLine
 10
74.51242148906749
 20
-293.1367098598391
 30
0.0
 11
75.06337660517238
 21
-293.1655841944173
 31
0.0
  0
LINE
  5
68E1E
330
1E
100
AcDbEntity
  8
DETAIL
  6
CONTINUOUS
100
AcDbLine
 10
114.91087640565
 20
-290.0816364760551
 30
0.0
 11
135.4131278738223
 21
-289.9901851183971
 31
0.0
  0
LINE
  5
68E1F
330
1E
100
AcDbEntity
  8
DETAIL
100
AcDbLine
 10
110.9104883871014
 20
-294.4071815344098
 30
0.0
 11
110.9104883871014
 21
-288.4947327947658
 31
0.0
  0
ARC
  5
68E20
330
1E
100
AcDbEntity
  8
DETAIL
  6
CONTINUOUS
100
AcDbCircle
 10
113.912975995976
 20
-293.3733571326208
 30
0.0
 40
0.9994408513179202
100
AcDbArc
 50
272.3502533130308
 51
3.114527145877298
  0
LINE
  5
68E21
330
1E
100
AcDbEntity
  8
DETAIL
  6
CONTINUOUS
100
AcDbLine
 10
152.4235593749981
 20
-288.3996407545883
 30
0.0
 11
151.4589426289585
 21
-288.3996407545883
 31
0.0
  0
LINE
  5
68E22
330
1E
100
AcDbEntity
  8
DETAIL
  6
CONTINUOUS
100
AcDbLine
 10
151.4589426289585
 20
-288.3996407532549
 30
0.0
 11
151.4589426289585
 21
-278.3204157504774
 31
0.0
  0
LINE
  5
68E23
330
1E
100
AcDbEntity
  8
DETAIL
  6
CONTINUOUS
100
AcDbLine
 10
152.4235593749981
 20
-288.7448229479068
 30
0.0
 11
152.4235593749981
 21
-278.3204445933455
 31
0.0
  0
LINE
  5
68E24
330
1E
100
AcDbEntity
  8
DETAIL
100
AcDbLine
 10
151.6084312761922
 20
-291.1208112624963
 30
0.0
 11
151.4589426194061
 21
-288.3996407545883
 31
0.0
  0
ARC
  5
68E25
330
1E
100
AcDbEntity
  8
DETAIL
100
AcDbCircle
 10
151.232059627102
 20
-290.1472781141158
 30
0.0
 40
1.061476175276827
100
AcDbArc
 50
296.4320974041107
 51
353.0833969812982
  0
ARC
  5
68E26
330
1E
100
AcDbEntity
  8
DETAIL
100
AcDbCircle
 10
144.0890708652186
 20
-288.7302834806476
 30
0.0
 40
8.341044498858867
100
AcDbArc
 50
349.3267809505809
 51
2.271825510632901
  0
LINE
  5
68E27
330
1E
100
AcDbEntity
  8
DETAIL
100
AcDbLine
 10
151.4589426289585
 20
-278.3204157504774
 30
0.0
 11
152.4235593749981
 21
-278.3204445933455
 31
0.0
  0
LINE
  5
68E28
330
1E
100
AcDbEntity
  8
DETAIL
  6
CONTINUOUS
100
AcDbLine
 10
74.51242148906749
 20
-208.8266249999981
 30
0.0
 11
5.684921489077169
 21
-208.8266249999981
 31
0.0
  0
LINE
  5
68E29
330
1E
100
AcDbEntity
  8
DETAIL
  6
CONTINUOUS
100
AcDbLine
 10
74.51242148906749
 20
-209.0261249999989
 30
0.0
 11
5.684921489077169
 21
-209.0261249999989
 31
0.0
  0
LINE
  5
68E2A
330
1E
100
AcDbEntity
  8
DETAIL
  6
CONTINUOUS
100
AcDbLine
 10
62.3132242103311
 20
-213.7143749999988
 30
0.0
 11
65.76411876779639
 21
-213.7143749999988
 31
0.0
  0
LINE
  5
68E2B
330
1E
100
AcDbEntity
  8
DETAIL
  6
CONTINUOUS
100
AcDbLine
 10
62.31594335543377
 20
-213.7195984286996
 30
0.0
 11
65.7613996240234
 21
-213.7195984286996
 31
0.0
  0
LINE
  5
68E2C
330
1E
100
AcDbEntity
  8
DETAIL
  6
CONTINUOUS
100
AcDbLine
 10
65.96362176161711
 20
-214.008401572629
 30
0.0
 11
62.11372121650857
 21
-214.008401572629
 31
0.0
  0
LINE
  5
68E2D
330
1E
100
AcDbEntity
  8
DETAIL
  6
CONTINUOUS
100
AcDbLine
 10
65.97365587348758
 20
-214.0136249999993
 30
0.0
 11
62.10368710466354
 21
-214.0136249999993
 31
0.0
  0
LINE
  5
68E2E
330
1E
100
AcDbEntity
  8
DETAIL
  6
CONTINUOUS
100
AcDbLine
 10
61.75445859475622
 20
-214.5123749999981
 30
0.0
 11
66.32288438339492
 21
-214.5123749999981
 31
0.0
  0
LINE
  5
68E2F
330
1E
100
AcDbEntity
  8
DETAIL
  6
CONTINUOUS
100
AcDbLine
 10
61.75717773983342
 20
-214.5175984286991
 30
0.0
 11
66.32016523962374
 21
-214.5175984286991
 31
0.0
  0
LINE
  5
68E30
330
1E
100
AcDbEntity
  8
DETAIL
  6
CONTINUOUS
100
AcDbLine
 10
66.52238737721564
 20
-214.8064015726283
 30
0.0
 11
61.55495560224153
 21
-214.8064015726283
 31
0.0
  0
LINE
  5
68E31
330
1E
100
AcDbEntity
  8
DETAIL
  6
CONTINUOUS
100
AcDbLine
 10
61.5449214890632
 20
-214.8116249999985
 30
0.0
 11
66.53242148906429
 21
-214.8116249999985
 31
0.0
  0
LINE
  5
68E32
330
1E
100
AcDbEntity
  8
NOTE
  6
DASHDOT
 62
     4
100
AcDbLine
 10
-20.00000000000363
 20
-253.9999999365018
 30
0.0
 11
19.99999999999636
 21
-253.9999999365018
 31
0.0
  0
LINE
  5
68E33
330
1E
100
AcDbEntity
  8
NOTE
  6
DASHDOT
 62
     4
100
AcDbLine
 10
-20.00000000000363
 20
-252.9999999367519
 30
0.0
 11
19.99999999999636
 21
-252.9999999367519
 31
0.0
  0
LINE
  5
68E34
330
1E
100
AcDbEntity
  8
NOTE
  6
DASHDOT
 62
     4
100
AcDbLine
 10
-20.00000000000363
 20
-252.9999999367519
 30
0.0
 11
19.99999999999636
 21
-252.9999999367519
 31
0.0
  0
LINE
  5
68E35
330
1E
100
AcDbEntity
  8
NOTE
  6
CONTINUOUS
 62
     4
100
AcDbLine
 10
-36.74581000000398
 20
-269.8033499365019
 30
0.0
 11
-0.000000000003638
 21
-253.9999999365018
 31
0.0
  0
LINE
  5
68E36
330
1E
100
AcDbEntity
  8
NOTE
  6
CONTINUOUS
 62
     4
100
AcDbLine
 10
-17.62796000000162
 20
-217.0937999367523
 30
0.0
 11
-0.000000000003638
 21
-252.9999999367519
 31
0.0
  0
LINE
  5
68E37
330
1E
100
AcDbEntity
  8
NOTE
  6
CONTINUOUS
 62
     4
100
AcDbLine
 10
-0.000000000003638
 20
-252.9999999367519
 30
0.0
 11
-33.21936000000277
 21
-230.7182999367523
 31
0.0
  0
LINE
  5
68E38
330
1E
100
AcDbEntity
  8
DETAIL
  6
CONTINUOUS
100
AcDbLine
 10
5.684921489077169
 20
-242.7416249999974
 30
0.0
 11
26.63242148906283
 21
-242.7416249999974
 31
0.0
  0
LINE
  5
68E39
330
1E
100
AcDbEntity
  8
DETAIL
  6
CONTINUOUS
100
AcDbLine
 10
5.684921489077169
 20
-242.7479470579092
 30
0.0
 11
26.63242148906283
 21
-242.7479470579092
 31
0.0
  0
LINE
  5
68E3A
330
1E
100
AcDbEntity
  8
DETAIL
  6
CONTINUOUS
100
AcDbLine
 10
5.684921489077169
 20
-243.1464002417099
 30
0.0
 11
26.63242148906283
 21
-243.1464002417099
 31
0.0
  0
LINE
  5
68E3B
330
1E
100
AcDbEntity
  8
DETAIL
  6
CONTINUOUS
100
AcDbLine
 10
26.63242148906283
 20
-243.5338497582898
 30
0.0
 11
5.684921489077169
 21
-243.5338497582898
 31
0.0
  0
LINE
  5
68E3C
330
1E
100
AcDbEntity
  8
DETAIL
  6
CONTINUOUS
100
AcDbLine
 10
26.63242148906283
 20
-243.932302942087
 30
0.0
 11
5.684921489077169
 21
-243.932302942087
 31
0.0
  0
LINE
  5
68E3D
330
1E
100
AcDbEntity
  8
DETAIL
  6
CONTINUOUS
100
AcDbLine
 10
5.684921489077169
 20
-243.9386249999993
 30
0.0
 11
26.63242148906283
 21
-243.9386249999993
 31
0.0
  0
LINE
  5
68E3E
330
1E
100
AcDbEntity
  8
DETAIL
  6
CONTINUOUS
100
AcDbLine
 10
5.684921489077169
 20
-232.7666249999972
 30
0.0
 11
26.63242148906283
 21
-232.7666249999972
 31
0.0
  0
LINE
  5
68E3F
330
1E
100
AcDbEntity
  8
DETAIL
  6
CONTINUOUS
100
AcDbLine
 10
5.684921489077169
 20
-232.7729470579094
 30
0.0
 11
26.63242148906283
 21
-232.7729470579094
 31
0.0
  0
LINE
  5
68E40
330
1E
100
AcDbEntity
  8
DETAIL
  6
CONTINUOUS
100
AcDbLine
 10
5.684921489077169
 20
-233.17140024171
 30
0.0
 11
26.65855987000213
 21
-233.17140024171
 31
0.0
  0
LINE
  5
68E41
330
1E
100
AcDbEntity
  8
DETAIL
  6
CONTINUOUS
100
AcDbLine
 10
26.65855987000213
 20
-233.5588497582896
 30
0.0
 11
5.684921489077169
 21
-233.5588497582896
 31
0.0
  0
LINE
  5
68E42
330
1E
100
AcDbEntity
  8
DETAIL
  6
CONTINUOUS
100
AcDbLine
 10
5.684921489077169
 20
-233.963624999999
 30
0.0
 11
26.63242148906283
 21
-233.963624999999
 31
0.0
  0
LINE
  5
68E43
330
1E
100
AcDbEntity
  8
DETAIL
  6
CONTINUOUS
100
AcDbLine
 10
1.967891757061806
 20
-257.7788115503294
 30
0.0
 11
1.967891757061806
 21
-231.694438450998
 31
0.0
  0
LINE
  5
68E44
330
1E
100
AcDbEntity
  8
DETAIL
  6
CONTINUOUS
100
AcDbLine
 10
3.200336827621867
 20
-256.5463664784279
 30
0.0
 11
3.200336827621867
 21
-232.9268835215693
 31
0.0
  0
LINE
  5
68E45
330
1E
100
AcDbEntity
  8
DETAIL
  6
CONTINUOUS
100
AcDbLine
 10
3.98917148907094
 20
-254.6419511398701
 30
0.0
 11
3.98917148907094
 21
-234.8312988601299
 31
0.0
  0
LINE
  5
68E46
330
1E
100
AcDbEntity
  8
DETAIL
  6
CONTINUOUS
100
AcDbLine
 10
5.686785145591784
 20
-271.7207621402733
 30
0.0
 11
5.684921489077169
 21
-243.9386249999993
 31
0.0
  0
LINE
  5
68E47
330
1E
100
AcDbEntity
  8
NOTE
  6
DASHDOT
 62
     4
100
AcDbLine
 10
-0.000000000003638
 20
-233.9999999365018
 30
0.0
 11
-0.000000000003638
 21
-273.9999999365017
 31
0.0
  0
LINE
  5
68E48
330
1E
100
AcDbEntity
  8
NOTE
  6
DASHDOT
 62
     4
100
AcDbLine
 10
-0.000000000003638
 20
-232.9999999367518
 30
0.0
 11
-0.000000000003638
 21
-272.9999999367519
 31
0.0
  0
ARC
  5
68E49
330
1E
100
AcDbEntity
  8
DETAIL
100
AcDbCircle
 10
6.683124546957515
 20
-271.6782186615323
 30
0.0
 40
0.9972472864327883
100
AcDbArc
 50
182.4450322320619
 51
259.2360345526049
  0
ARC
  5
68E4A
330
1E
100
AcDbEntity
  8
DETAIL
  6
CONTINUOUS
100
AcDbCircle
 10
3.590171489062413
 20
-259.4010912823386
 30
0.0
 40
2.294249999999999
100
AcDbArc
 50
135.0000000000092
 51
137.7037267642842
  0
ARC
  5
68E4B
330
1E
100
AcDbEntity
  8
DETAIL
  6
CONTINUOUS
100
AcDbCircle
 10
3.590171489062413
 20
-258.4035912823379
 30
0.0
 40
2.294249999999999
100
AcDbArc
 50
135.0000000000092
 51
137.7037267642842
  0
ARC
  5
68E4C
330
1E
100
AcDbEntity
  8
DETAIL
  6
CONTINUOUS
100
AcDbCircle
 10
1.295921489054308
 20
-253.6444511398697
 30
0.0
 40
2.693249999999998
100
AcDbArc
 50
315.000000000304
 51
0.0
  0
ARC
  5
68E4D
330
1E
100
AcDbEntity
  8
DETAIL
  6
CONTINUOUS
100
AcDbCircle
 10
1.295921489054308
 20
-254.6419511398701
 30
0.0
 40
2.693249999999998
100
AcDbArc
 50
315.000000000304
 51
0.0
  0
LINE
  5
68E4E
330
1E
100
AcDbEntity
  8
DETAIL
  6
CONTINUOUS
100
AcDbLine
 10
1.967891757061806
 20
-256.7813115503288
 30
0.0
 11
3.200336827621867
 21
-255.5488664784271
 31
0.0
  0
LINE
  5
68E4F
330
1E
100
AcDbEntity
  8
DETAIL
  6
CONTINUOUS
100
AcDbLine
 10
1.967891757061806
 20
-257.7788115503294
 30
0.0
 11
3.200336827621867
 21
-256.5463664784279
 31
0.0
  0
LINE
  5
68E50
330
1E
100
AcDbEntity
  8
DETAIL
  6
CONTINUOUS
100
AcDbLine
 10
3.98917148907094
 20
-252.7166249999975
 30
0.0
 11
1.894421489056185
 21
-252.7166249999975
 31
0.0
  0
LINE
  5
68E51
330
1E
100
AcDbEntity
  8
DETAIL
  6
CONTINUOUS
100
AcDbLine
 10
3.98917148907094
 20
-253.7141249999979
 30
0.0
 11
3.986890602916901
 21
-253.7141249999979
 31
0.0
  0
LINE
  5
68E52
330
1E
100
AcDbEntity
  8
DETAIL
  6
CONTINUOUS
100
AcDbLine
 10
6.496875157456088
 20
-272.6579192868296
 30
0.0
 11
8.68643105137562
 21
-272.6579192868296
 31
0.0
  0
LINE
  5
68E53
330
1E
100
AcDbEntity
  8
DETAIL
  6
CONTINUOUS
100
AcDbLine
 10
8.828046817983704
 20
-272.6629088017773
 30
0.0
 11
8.68643105137562
 21
-272.6579192868296
 31
0.0
  0
ARC
  5
68E54
330
1E
100
AcDbEntity
  8
DETAIL
100
AcDbCircle
 10
8.686492452355196
 20
-274.6525143311596
 30
0.0
 40
1.994634753777429
100
AcDbArc
 50
359.9970956820179
 51
85.93043733836523
  0
LINE
  5
68E55
330
1E
100
AcDbEntity
  8
DETAIL
  6
CONTINUOUS
100
AcDbLine
 10
5.684921489077169
 20
-233.963624999999
 30
0.0
 11
5.684921489077169
 21
-242.7416249999974
 31
0.0
  0
ARC
  5
68E56
330
1E
100
AcDbEntity
  8
DETAIL
  6
CONTINUOUS
100
AcDbCircle
 10
3.590171489062413
 20
-230.0721587176585
 30
0.0
 40
2.294249999999999
100
AcDbArc
 50
222.2962730523911
 51
224.9999999999908
  0
ARC
  5
68E57
330
1E
100
AcDbEntity
  8
DETAIL
  6
CONTINUOUS
100
AcDbCircle
 10
1.295921489054308
 20
-234.8312988601299
 30
0.0
 40
2.693249999999998
100
AcDbArc
 50
0.0
 51
44.99999999951867
  0
LINE
  5
68E58
330
1E
100
AcDbEntity
  8
DETAIL
  6
CONTINUOUS
100
AcDbLine
 10
0.6974214890778967
 20
-233.365124999998
 30
0.0
 11
1.894421489056185
 21
-233.365124999998
 31
0.0
  0
LINE
  5
68E59
330
1E
100
AcDbEntity
  8
DETAIL
  6
CONTINUOUS
100
AcDbLine
 10
3.98917148907094
 20
-235.7591249999992
 30
0.0
 11
1.894421489056185
 21
-235.7591249999992
 31
0.0
  0
LINE
  5
68E5A
330
1E
100
AcDbEntity
  8
DETAIL
  6
CONTINUOUS
100
AcDbLine
 10
5.684921489077169
 20
-232.7729470579094
 30
0.0
 11
5.684921489077169
 21
-233.9573029420873
 31
0.0
  0
LINE
  5
68E5B
330
1E
100
AcDbEntity
  8
DETAIL
  6
CONTINUOUS
100
AcDbLine
 10
1.967891757061806
 20
-231.694438450998
 30
0.0
 11
3.200336827621867
 21
-232.9268835215693
 31
0.0
  0
ARC
  5
68E5C
330
1E
100
AcDbEntity
  8
DETAIL
  6
CONTINUOUS
100
AcDbCircle
 10
26.63242148906283
 20
-252.7166249999975
 30
0.0
 40
18.753
100
AcDbArc
 50
0.0
 51
90.0
  0
ARC
  5
68E5D
330
1E
100
AcDbEntity
  8
DETAIL
  6
CONTINUOUS
100
AcDbCircle
 10
26.63242148906283
 20
-252.7166249999975
 30
0.0
 40
19.95
100
AcDbArc
 50
0.0
 51
90.0
  0
ARC
  5
68E5E
330
1E
100
AcDbEntity
  8
DETAIL
  6
CONTINUOUS
100
AcDbCircle
 10
26.63242148906283
 20
-252.7166249999975
 30
0.0
 40
19.81930810061999
100
AcDbArc
 50
0.3778208852067589
 51
89.62217911478024
  0
ARC
  5
68E5F
330
1E
100
AcDbEntity
  8
DETAIL
  6
CONTINUOUS
100
AcDbCircle
 10
26.63242148906283
 20
-252.7166249999975
 30
0.0
 40
18.88369189938
100
AcDbArc
 50
0.3965407867040703
 51
89.60345921326982
  0
ARC
  5
68E60
330
1E
100
AcDbEntity
  8
DETAIL
  6
CONTINUOUS
100
AcDbCircle
 10
26.63242148906283
 20
-262.6916249999974
 30
0.0
 40
19.15777520313999
100
AcDbArc
 50
0.0
 51
90.0
  0
ARC
  5
68E61
330
1E
100
AcDbEntity
  8
DETAIL
  6
CONTINUOUS
100
AcDbCircle
 10
26.63242148906283
 20
-262.6916249999974
 30
0.0
 40
19.54522475829
100
AcDbArc
 50
11.42723490660463
 51
90.0
  0
ARC
  5
68E62
330
1E
100
AcDbEntity
  8
DETAIL
  6
CONTINUOUS
100
AcDbCircle
 10
26.63242148906283
 20
-262.6916249999974
 30
0.0
 40
18.75932205791
100
AcDbArc
 50
0.0
 51
90.0
  0
ARC
  5
68E63
330
1E
100
AcDbEntity
  8
DETAIL
  6
CONTINUOUS
100
AcDbCircle
 10
26.63242148906283
 20
-262.6916249999974
 30
0.0
 40
18.753
100
AcDbArc
 50
0.0
 51
90.0
  0
ARC
  5
68E64
330
1E
100
AcDbEntity
  8
DETAIL
  6
CONTINUOUS
100
AcDbCircle
 10
26.63242148906283
 20
-262.6916249999974
 30
0.0
 40
19.95
100
AcDbArc
 50
19.94844358879234
 51
90.0
  0
ARC
  5
68E65
330
1E
100
AcDbEntity
  8
DETAIL
  6
CONTINUOUS
100
AcDbCircle
 10
26.63242148906283
 20
-262.6916249999974
 30
0.0
 40
19.94367794208998
100
AcDbArc
 50
19.84490940610454
 51
90.0
  0
LINE
  5
68E66
330
1E
100
AcDbEntity
  8
DETAIL
  6
CONTINUOUS
100
AcDbLine
 10
45.51566113125955
 20
-252.5859331006179
 30
0.0
 11
46.45129868298136
 21
-252.5859331006179
 31
0.0
  0
LINE
  5
68E67
330
1E
100
AcDbEntity
  8
DETAIL
  6
CONTINUOUS
100
AcDbLine
 10
46.45129868298136
 20
-268.8073168993801
 30
0.0
 11
45.51566113125955
 21
-268.8073168993801
 31
0.0
  0
ARC
  5
68E68
330
1E
100
AcDbEntity
  8
DETAIL
100
AcDbCircle
 10
45.98392148906259
 20
-259.6040481254294
 30
0.0
 40
6.91337830288015
100
AcDbArc
 50
85.03361437705304
 51
94.96638562294696
  0
LINE
  5
68E69
330
1E
100
AcDbEntity
  8
DETAIL
100
AcDbLine
 10
46.58242148906356
 20
-268.676624999998
 30
0.0
 11
45.38542148906162
 21
-268.676624999998
 31
0.0
  0
LINE
  5
68E6A
330
1E
100
AcDbEntity
  8
DETAIL
  6
CONTINUOUS
100
AcDbLine
 10
45.51566113125955
 20
-252.5859331006179
 30
0.0
 11
45.38542148906254
 21
-252.7166249999975
 31
0.0
  0
LINE
  5
68E6B
330
1E
100
AcDbEntity
  8
DETAIL
  6
CONTINUOUS
100
AcDbLine
 10
45.38542148906162
 20
-255.8851948781084
 30
0.0
 11
45.38542148906162
 21
-252.7166249999975
 31
0.0
  0
LINE
  5
68E6C
330
1E
100
AcDbEntity
  8
DETAIL
  6
CONTINUOUS
100
AcDbLine
 10
45.38542148906162
 20
-268.676624999998
 30
0.0
 11
45.38542148906162
 21
-262.6916249999974
 31
0.0
  0
LINE
  5
68E6D
330
1E
100
AcDbEntity
  8
DETAIL
  6
CONTINUOUS
100
AcDbLine
 10
45.39174354697388
 20
-255.9212390578187
 30
0.0
 11
45.39174354697388
 21
-252.7166249999975
 31
0.0
  0
LINE
  5
68E6E
330
1E
100
AcDbEntity
  8
DETAIL
  6
CONTINUOUS
100
AcDbLine
 10
45.39174354697388
 20
-268.676624999998
 30
0.0
 11
45.39174354697388
 21
-262.6916249999974
 31
0.0
  0
LINE
  5
68E6F
330
1E
100
AcDbEntity
  8
DETAIL
  6
CONTINUOUS
100
AcDbLine
 10
45.39174160651237
 20
-268.6829461814379
 30
0.0
 11
45.51566113125955
 21
-268.8073168993801
 31
0.0
  0
LINE
  5
68E70
330
1E
100
AcDbEntity
  8
DETAIL
  6
CONTINUOUS
100
AcDbLine
 10
45.79019673210132
 20
-258.8192623309298
 30
0.0
 11
45.79019673210132
 21
-252.6904866203886
 31
0.0
  0
LINE
  5
68E71
330
1E
100
AcDbEntity
  8
DETAIL
  6
CONTINUOUS
100
AcDbLine
 10
45.79019673210132
 20
-268.7027633796092
 30
0.0
 11
45.79019673210132
 21
-262.6916249999974
 31
0.0
  0
LINE
  5
68E72
330
1E
100
AcDbEntity
  8
DETAIL
  6
CONTINUOUS
100
AcDbLine
 10
46.45129868298136
 20
-268.8073168993801
 30
0.0
 11
46.57605130111915
 21
-268.6829941704995
 31
0.0
  0
LINE
  5
68E73
330
1E
100
AcDbEntity
  8
DETAIL
  6
CONTINUOUS
100
AcDbLine
 10
46.17764624735355
 20
-268.7027633796092
 30
0.0
 11
46.17764624735355
 21
-252.6904866203886
 31
0.0
  0
LINE
  5
68E74
330
1E
100
AcDbEntity
  8
DETAIL
  6
CONTINUOUS
100
AcDbLine
 10
46.58242148906356
 20
-268.676624999998
 30
0.0
 11
46.58242148906356
 21
-252.7166249999975
 31
0.0
  0
LINE
  5
68E75
330
1E
100
AcDbEntity
  8
DETAIL
  6
CONTINUOUS
100
AcDbLine
 10
46.58242148906265
 20
-252.7166249999975
 30
0.0
 11
46.45129868298136
 21
-252.5859331006179
 31
0.0
  0
LINE
  5
68E76
330
1E
100
AcDbEntity
  8
DETAIL
  6
CONTINUOUS
100
AcDbLine
 10
26.63242148906283
 20
-243.9386249999993
 30
0.0
 11
26.63242148906283
 21
-243.5338497582898
 31
0.0
  0
LINE
  5
68E77
330
1E
100
AcDbEntity
  8
DETAIL
  6
CONTINUOUS
100
AcDbLine
 10
26.63242148906283
 20
-242.7416249999974
 30
0.0
 11
26.63242148906283
 21
-243.1464002417099
 31
0.0
  0
LINE
  5
68E78
330
1E
100
AcDbEntity
  8
DETAIL
  6
CONTINUOUS
100
AcDbLine
 10
26.63242148906283
 20
-233.9636249999974
 30
0.0
 11
26.76311338843698
 21
-233.8333853578069
 31
0.0
  0
LINE
  5
68E79
330
1E
100
AcDbEntity
  8
DETAIL
  6
CONTINUOUS
100
AcDbLine
 10
26.76311338843698
 20
-232.8977478074075
 30
0.0
 11
26.76311338843698
 21
-233.8333853578069
 31
0.0
  0
LINE
  5
68E7A
330
1E
100
AcDbEntity
  8
DETAIL
  6
CONTINUOUS
100
AcDbLine
 10
26.76311338843698
 20
-232.8977478074075
 30
0.0
 11
26.63242148906283
 21
-232.7666249999974
 31
0.0
  0
ARC
  5
68E7B
330
1E
100
AcDbEntity
  8
DETAIL
100
AcDbCircle
 10
19.76084077496398
 20
-233.3651249999998
 30
0.0
 40
6.897595505709039
100
AcDbArc
 50
355.0222218510244
 51
4.977778149001466
  0
LINE
  5
68E7C
330
1E
100
AcDbEntity
  8
DETAIL
  6
CONTINUOUS
100
AcDbLine
 10
11.07142148906132
 20
-214.8116249999985
 30
0.0
 11
11.26698945445423
 21
-214.5323249999992
 31
0.0
  0
LINE
  5
68E7D
330
1E
100
AcDbEntity
  8
DETAIL
  6
CONTINUOUS
100
AcDbLine
 10
11.08145560223965
 20
-214.8064015726283
 30
0.0
 11
11.2697085995569
 21
-214.5375484286998
 31
0.0
  0
LINE
  5
68E7E
330
1E
100
AcDbEntity
  8
DETAIL
  6
CONTINUOUS
100
AcDbLine
 10
12.70581091495841
 20
-212.4774749999978
 30
0.0
 11
12.71584502680525
 21
-212.4722515726276
 31
0.0
  0
LINE
  5
68E7F
330
1E
100
AcDbEntity
  8
DETAIL
  6
CONTINUOUS
100
AcDbLine
 10
12.70581091495841
 20
-212.4774749999978
 30
0.0
 11
13.56517148906277
 21
-211.2501809077093
 31
0.0
  0
LINE
  5
68E80
330
1E
100
AcDbEntity
  8
DETAIL
  6
CONTINUOUS
100
AcDbLine
 10
12.16101443965999
 20
-213.255524999999
 30
0.0
 11
12.3565824050529
 21
-212.9762249999995
 31
0.0
  0
LINE
  5
68E81
330
1E
100
AcDbEntity
  8
DETAIL
  6
CONTINUOUS
100
AcDbLine
 10
11.61621796436156
 20
-214.0335749999974
 30
0.0
 11
11.81178592975266
 21
-213.7542749999979
 31
0.0
  0
LINE
  5
68E82
330
1E
100
AcDbEntity
  8
DETAIL
  6
CONTINUOUS
100
AcDbLine
 10
11.6262520762084
 20
-214.0283515726303
 30
0.0
 11
11.81450507485533
 21
-213.7594984286984
 31
0.0
  0
LINE
  5
68E83
330
1E
100
AcDbEntity
  8
DETAIL
  6
CONTINUOUS
100
AcDbLine
 10
14.42453206449681
 20
-212.4774749999978
 30
0.0
 11
12.70581091495841
 21
-212.4774749999978
 31
0.0
  0
LINE
  5
68E84
330
1E
100
AcDbEntity
  8
DETAIL
  6
CONTINUOUS
100
AcDbLine
 10
12.3565824050529
 20
-212.9762249999995
 30
0.0
 11
14.77376057440415
 21
-212.9762249999995
 31
0.0
  0
LINE
  5
68E85
330
1E
100
AcDbEntity
  8
DETAIL
  6
CONTINUOUS
100
AcDbLine
 10
14.96932853979524
 20
-213.255524999999
 30
0.0
 11
12.16101443965999
 21
-213.255524999999
 31
0.0
  0
LINE
  5
68E86
330
1E
100
AcDbEntity
  8
DETAIL
  6
CONTINUOUS
100
AcDbLine
 10
11.81178592975266
 20
-213.7542749999979
 30
0.0
 11
15.31855704837107
 21
-213.7542749999979
 31
0.0
  0
LINE
  5
68E87
330
1E
100
AcDbEntity
  8
DETAIL
  6
CONTINUOUS
100
AcDbLine
 10
11.81450507485533
 20
-213.7594984286984
 30
0.0
 11
15.3158379045999
 21
-213.7594984286984
 31
0.0
  0
LINE
  5
68E88
330
1E
100
AcDbEntity
  8
DETAIL
  6
CONTINUOUS
100
AcDbLine
 10
15.51412501376398
 20
-214.0335749999974
 30
0.0
 11
11.61621796436156
 21
-214.0335749999974
 31
0.0
  0
LINE
  5
68E89
330
1E
100
AcDbEntity
  8
DETAIL
  6
CONTINUOUS
100
AcDbLine
 10
15.86063437989833
 20
-214.5375484286998
 30
0.0
 11
16.04888737721557
 21
-214.8064015726283
 31
0.0
  0
LINE
  5
68E8A
330
1E
100
AcDbEntity
  8
DETAIL
  6
CONTINUOUS
100
AcDbLine
 10
15.3158379045999
 20
-213.7594984286984
 30
0.0
 11
15.50409090191715
 21
-214.0283515726303
 31
0.0
  0
LINE
  5
68E8B
330
1E
100
AcDbEntity
  8
DETAIL
  6
CONTINUOUS
100
AcDbLine
 10
13.56517148906277
 20
-211.2501809077093
 30
0.0
 11
14.42453206449681
 21
-212.4774749999978
 31
0.0
  0
LINE
  5
68E8C
330
1E
100
AcDbEntity
  8
DETAIL
  6
CONTINUOUS
100
AcDbLine
 10
14.77376057440415
 20
-212.9762249999995
 30
0.0
 11
14.96932853979524
 21
-213.255524999999
 31
0.0
  0
LINE
  5
68E8D
330
1E
100
AcDbEntity
  8
DETAIL
  6
CONTINUOUS
100
AcDbLine
 10
15.31855704837107
 20
-213.7542749999979
 30
0.0
 11
15.51412501376398
 21
-214.0335749999974
 31
0.0
  0
LINE
  5
68E8E
330
1E
100
AcDbEntity
  8
DETAIL
  6
CONTINUOUS
100
AcDbLine
 10
15.8633535236695
 20
-214.5323249999992
 30
0.0
 11
16.05892148906241
 21
-214.8116249999985
 31
0.0
  0
LINE
  5
68E8F
330
1E
100
AcDbEntity
  8
DETAIL
  6
CONTINUOUS
100
AcDbLine
 10
14.42453206449681
 20
-212.4774749999978
 30
0.0
 11
14.41449795131848
 21
-212.4722515726276
 31
0.0
  0
LINE
  5
68E90
330
1E
100
AcDbEntity
  8
DETAIL
  6
CONTINUOUS
100
AcDbLine
 10
11.26698945445423
 20
-214.5323249999992
 30
0.0
 11
15.8633535236695
 21
-214.5323249999992
 31
0.0
  0
LINE
  5
68E91
330
1E
100
AcDbEntity
  8
DETAIL
  6
CONTINUOUS
100
AcDbLine
 10
11.2697085995569
 20
-214.5375484286998
 30
0.0
 11
15.86063437989833
 21
-214.5375484286998
 31
0.0
  0
LINE
  5
68E92
330
1E
100
AcDbEntity
  8
DETAIL
  6
CONTINUOUS
100
AcDbLine
 10
16.04888737721557
 20
-214.8064015726283
 30
0.0
 11
11.08145560223965
 21
-214.8064015726283
 31
0.0
  0
LINE
  5
68E93
330
1E
100
AcDbEntity
  8
DETAIL
  6
CONTINUOUS
100
AcDbLine
 10
16.05892148906241
 20
-214.8116249999985
 30
0.0
 11
11.07142148906132
 21
-214.8116249999985
 31
0.0
  0
LINE
  5
68E94
330
1E
100
AcDbEntity
  8
DETAIL
  6
CONTINUOUS
100
AcDbLine
 10
62.66245272023661
 20
-213.2156249999999
 30
0.0
 11
62.87198982592963
 21
-212.9163749999995
 31
0.0
  0
LINE
  5
68E95
330
1E
100
AcDbEntity
  8
DETAIL
  6
CONTINUOUS
100
AcDbLine
 10
61.5449214890632
 20
-214.8116249999985
 30
0.0
 11
61.75445859475622
 21
-214.5123749999981
 31
0.0
  0
LINE
  5
68E96
330
1E
100
AcDbEntity
  8
DETAIL
  6
CONTINUOUS
100
AcDbLine
 10
62.10368710466354
 20
-214.0136249999993
 30
0.0
 11
62.3132242103311
 21
-213.7143749999988
 31
0.0
  0
LINE
  5
68E97
330
1E
100
AcDbEntity
  8
DETAIL
  6
CONTINUOUS
100
AcDbLine
 10
62.11372121650857
 20
-214.008401572629
 30
0.0
 11
62.31594335543377
 21
-213.7195984286996
 31
0.0
  0
LINE
  5
68E98
330
1E
100
AcDbEntity
  8
DETAIL
  6
CONTINUOUS
100
AcDbLine
 10
61.55495560224153
 20
-214.8064015726283
 30
0.0
 11
61.75717773983342
 21
-214.5175984286991
 31
0.0
  0
LINE
  5
68E99
330
1E
100
AcDbEntity
  8
DETAIL
  6
CONTINUOUS
100
AcDbLine
 10
62.10368710466354
 20
-214.0136249999993
 30
0.0
 11
62.11372121650857
 21
-214.008401572629
 31
0.0
  0
LINE
  5
68E9A
330
1E
100
AcDbEntity
  8
DETAIL
  6
CONTINUOUS
100
AcDbLine
 10
61.5449214890632
 20
-214.8116249999985
 30
0.0
 11
61.55495560224153
 21
-214.8064015726283
 31
0.0
  0
LINE
  5
68E9B
330
1E
100
AcDbEntity
  8
DETAIL
  6
CONTINUOUS
100
AcDbLine
 10
61.75445859475622
 20
-214.5123749999981
 30
0.0
 11
61.75717773983342
 21
-214.5175984286991
 31
0.0
  0
LINE
  5
68E9C
330
1E
100
AcDbEntity
  8
DETAIL
  6
CONTINUOUS
100
AcDbLine
 10
65.20535315219603
 20
-212.9163749999995
 30
0.0
 11
65.41489025788905
 21
-213.2156249999999
 31
0.0
  0
LINE
  5
68E9D
330
1E
100
AcDbEntity
  8
DETAIL
  6
CONTINUOUS
100
AcDbLine
 10
64.03867148906283
 20
-211.2501809077093
 30
0.0
 11
64.8561246436202
 21
-212.4176249999977
 31
0.0
  0
LINE
  5
68E9E
330
1E
100
AcDbEntity
  8
DETAIL
  6
CONTINUOUS
100
AcDbLine
 10
63.22121833583697
 20
-212.4176249999977
 30
0.0
 11
64.03867148906283
 21
-211.2501809077093
 31
0.0
  0
LINE
  5
68E9F
330
1E
100
AcDbEntity
  8
DETAIL
  6
CONTINUOUS
100
AcDbLine
 10
64.8561246436202
 20
-212.4176249999977
 30
0.0
 11
63.22121833583697
 21
-212.4176249999977
 31
0.0
  0
LINE
  5
68EA0
330
1E
100
AcDbEntity
  8
DETAIL
  6
CONTINUOUS
100
AcDbLine
 10
62.87198982592963
 20
-212.9163749999995
 30
0.0
 11
65.20535315219603
 21
-212.9163749999995
 31
0.0
  0
LINE
  5
68EA1
330
1E
100
AcDbEntity
  8
DETAIL
  6
CONTINUOUS
100
AcDbLine
 10
65.41489025788905
 20
-213.2156249999999
 30
0.0
 11
62.66245272023661
 21
-213.2156249999999
 31
0.0
  0
LINE
  5
68EA2
330
1E
100
AcDbEntity
  8
DETAIL
  6
CONTINUOUS
100
AcDbLine
 10
1.295921489054308
 20
-105.0866249999985
 30
0.0
 11
1.295921489054308
 21
-88.12912499999743
 31
0.0
  0
ARC
  5
68EA3
330
1E
100
AcDbEntity
  8
DETAIL
100
AcDbCircle
 10
1.297655591278271
 20
-104.4863908977977
 30
0.0
 40
0.6002366071433558
100
AcDbArc
 50
180.1655295167082
 51
269.83447048095
  0
ARC
  5
68EA4
330
1E
100
AcDbEntity
  8
DETAIL
100
AcDbCircle
 10
1.31693163276941
 20
-105.6641150933836
 30
0.0
 40
0.5779251181662231
100
AcDbArc
 50
2.223844530754273
 51
92.08341504161898
  0
ARC
  5
68EA5
330
1E
100
AcDbEntity
  8
DETAIL
  6
CONTINUOUS
100
AcDbCircle
 10
5.684921489077169
 20
-111.2427689438094
 30
0.0
 40
1.995
100
AcDbArc
 50
180.0
 51
224.9999999999908
  0
LINE
  5
68EA6
330
1E
100
AcDbEntity
  8
DETAIL
  6
CONTINUOUS
100
AcDbLine
 10
4.17126536543401
 20
-111.2427689438094
 30
0.0
 11
3.689921489058178
 21
-111.2427689438094
 31
0.0
  0
LINE
  5
68EA7
330
1E
100
AcDbEntity
  8
DETAIL
  6
CONTINUOUS
100
AcDbLine
 10
5.684921489077169
 20
-114.0641249999977
 30
0.0
 11
4.274243461639343
 21
-112.6534469712384
 31
0.0
  0
LINE
  5
68EA8
330
1E
100
AcDbEntity
  8
DETAIL
  6
CONTINUOUS
100
AcDbLine
 10
5.684921489077169
 20
-113.3761921105793
 30
0.0
 11
4.609506843871713
 21
-112.3007774640493
 31
0.0
  0
LINE
  5
68EA9
330
1E
100
AcDbEntity
  8
DETAIL
100
AcDbLine
 10
4.609506843871713
 20
-112.3007774640493
 30
0.0
 11
4.274243460609795
 21
-112.6534469722763
 31
0.0
  0
ARC
  5
68EAA
330
1E
100
AcDbEntity
  8
DETAIL
100
AcDbCircle
 10
5.66788648653619
 20
-111.2426152195169
 30
0.0
 40
1.496621128997321
100
AcDbArc
 50
180.0058850921081
 51
224.9941149308223
  0
ARC
  5
68EAB
330
1E
100
AcDbEntity
  8
DETAIL
100
AcDbCircle
 10
1.295671358434901
 20
-88.72751958435287
 30
0.0
 40
0.5982498786445137
100
AcDbArc
 50
90.24614097653268
 51
180.0100959011059
  0
ARC
  5
68EAC
330
1E
100
AcDbEntity
  8
DETAIL
100
AcDbCircle
 10
1.270837969640069
 20
-87.50581110172493
 30
0.0
 40
0.6238614994114604
100
AcDbArc
 50
272.0451108414613
 51
1.710473841486611
  0
LINE
  5
68EAD
330
1E
100
AcDbEntity
  8
DETAIL
  6
CONTINUOUS
100
AcDbLine
 10
65.76411876779639
 20
-213.7143749999988
 30
0.0
 11
65.7613996240234
 21
-213.7195984286996
 31
0.0
  0
LINE
  5
68EAE
330
1E
100
AcDbEntity
  8
DETAIL
  6
CONTINUOUS
100
AcDbLine
 10
66.32288438339492
 20
-214.5123749999981
 30
0.0
 11
66.32016523962374
 21
-214.5175984286991
 31
0.0
  0
LINE
  5
68EAF
330
1E
100
AcDbEntity
  8
DETAIL
  6
CONTINUOUS
100
AcDbLine
 10
66.32016523962374
 20
-214.5175984286991
 30
0.0
 11
66.52238737721564
 21
-214.8064015726283
 31
0.0
  0
LINE
  5
68EB0
330
1E
100
AcDbEntity
  8
DETAIL
  6
CONTINUOUS
100
AcDbLine
 10
65.7613996240234
 20
-213.7195984286996
 30
0.0
 11
65.96362176161711
 21
-214.008401572629
 31
0.0
  0
LINE
  5
68EB1
330
1E
100
AcDbEntity
  8
DETAIL
  6
CONTINUOUS
100
AcDbLine
 10
66.32288438339492
 20
-214.5123749999981
 30
0.0
 11
66.53242148906429
 21
-214.8116249999985
 31
0.0
  0
LINE
  5
68EB2
330
1E
100
AcDbEntity
  8
DETAIL
  6
CONTINUOUS
100
AcDbLine
 10
65.76411876779639
 20
-213.7143749999988
 30
0.0
 11
65.97365587348758
 21
-214.0136249999993
 31
0.0
  0
LINE
  5
68EB3
330
1E
100
AcDbEntity
  8
DETAIL
  6
CONTINUOUS
100
AcDbLine
 10
66.53242148906429
 20
-214.8116249999985
 30
0.0
 11
66.52238737721564
 21
-214.8064015726283
 31
0.0
  0
LINE
  5
68EB4
330
1E
100
AcDbEntity
  8
DETAIL
  6
CONTINUOUS
100
AcDbLine
 10
65.97365587348758
 20
-214.0136249999993
 30
0.0
 11
65.96362176161711
 21
-214.008401572629
 31
0.0
  0
LINE
  5
68EB5
330
1E
100
AcDbEntity
  8
DETAIL
100
AcDbLine
 10
154.5200822338938
 20
-274.5942532780905
 30
0.0
 11
154.6791497959966
 21
-275.5750038035461
 31
0.0
  0
ARC
  5
68EB7
330
1E
100
AcDbEntity
  8
DETAIL
100
AcDbCircle
 10
-152.448189120013
 20
-70.44356697992566
 30
0.0
 40
450.6289134941779
100
AcDbArc
 50
343.6215668459301
 51
1.592641896410587
  0
ARC
  5
68EB8
330
1E
100
AcDbEntity
  8
DETAIL
100
AcDbCircle
 10
-158.3116082527831
 20
-69.67834041072342
 30
0.0
 40
458.2851563756379
100
AcDbArc
 50
343.734496962336
 51
1.396083046808869
  0
ARC
  5
68EB9
330
1E
100
AcDbEntity
  8
DETAIL
100
AcDbCircle
 10
-142.9847761338332
 20
-71.64204329600761
 30
0.0
 40
432.0380419446845
100
AcDbArc
 50
343.589729725806
 51
1.797821314574935
  0
ARC
  5
68EBA
330
1E
100
AcDbEntity
  8
DETAIL
100
AcDbCircle
 10
-142.7919451267953
 20
-71.64928583730966
 30
0.0
 40
431.2590468745846
100
AcDbArc
 50
343.592633241543
 51
1.802404297456843
  0
ARC
  5
68EBB
330
1E
100
AcDbEntity
  8
DETAIL
100
AcDbCircle
 10
-143.3964510884225
 20
-71.5972344798638
 30
0.0
 40
430.9498510844121
100
AcDbArc
 50
343.6091950547253
 51
1.797394897654856
  0
ARC
  5
68EBC
330
1E
100
AcDbEntity
  8
DETAIL
100
AcDbCircle
 10
-142.0491134786498
 20
-71.81050872699007
 30
0.0
 40
428.5854025006082
100
AcDbArc
 50
343.5765689335086
 51
1.790435178791727
  0
ARC
  5
68EBD
330
1E
100
AcDbEntity
  8
DETAIL
100
AcDbCircle
 10
-147.8423270417279
 20
-70.43600906944902
 30
0.0
 40
433.0820105228949
100
AcDbArc
 50
343.622698534653
 51
2.295958603174119
  0
ARC
  5
68EBE
330
1E
100
AcDbEntity
  8
DETAIL
100
AcDbCircle
 10
-149.4581564866093
 20
-70.16009793214312
 30
0.0
 40
435.6880790104563
100
AcDbArc
 50
343.6449799754011
 51
2.373113992607644
  0
ARC
  5
68EC0
330
1E
100
AcDbEntity
  8
DETAIL
100
AcDbCircle
 10
107.5075464111241
 20
-93.78405615197607
 30
0.0
 40
189.0978408743678
100
AcDbArc
 50
315.7576376699219
 51
324.0785294194369
  0
ARC
  5
68EC1
330
1E
100
AcDbEntity
  8
DETAIL
100
AcDbCircle
 10
122.41560603375
 20
-109.4459237682768
 30
0.0
 40
180.4305380209801
100
AcDbArc
 50
314.7642061212149
 51
330.7849543701066
  0
ARC
  5
68EC2
330
1E
100
AcDbEntity
  8
DETAIL
100
AcDbCircle
 10
122.4408685429625
 20
-109.3934706783773
 30
0.0
 40
182.25043837726
100
AcDbArc
 50
314.9092409393866
 51
330.7589097214242
  0
ARC
  5
68EC3
330
1E
100
AcDbEntity
  8
DETAIL
100
AcDbCircle
 10
111.710166091756
 20
-100.7464984304714
 30
0.0
 40
181.9981364531496
100
AcDbArc
 50
316.1428032935317
 51
329.3660712453464
  0
ARC
  5
68EC4
330
1E
100
AcDbEntity
  8
DETAIL
100
AcDbCircle
 10
116.5569573160319
 20
-104.47577272318
 30
0.0
 40
176.411580099144
100
AcDbArc
 50
315.1895510605518
 51
329.6041779813343
  0
ARC
  5
68EC5
330
1E
100
AcDbEntity
  8
DETAIL
100
AcDbCircle
 10
117.0536665835379
 20
-105.2182103151865
 30
0.0
 40
176.5062293213869
100
AcDbArc
 50
315.3469740556416
 51
330.022055962963
  0
ARC
  5
68EC6
330
1E
100
AcDbEntity
  8
DETAIL
100
AcDbCircle
 10
116.9816001419235
 20
-104.9349205418632
 30
0.0
 40
177.6107772106159
100
AcDbArc
 50
315.3058724322477
 51
329.9536796437487
  0
ARC
  5
68EC7
330
1E
100
AcDbEntity
  8
DETAIL
100
AcDbCircle
 10
119.0805997190391
 20
-107.0006409145028
 30
0.0
 40
175.3112341741981
100
AcDbArc
 50
315.262848321603
 51
330.3607566696539
  0
ARC
  5
68EC8
330
1E
100
AcDbEntity
  8
DETAIL
100
AcDbCircle
 10
254.9250358390863
 20
-219.0332933696649
 30
0.0
 40
14.53220269200881
100
AcDbArc
 50
98.06968279443509
 51
208.8276497698244
  0
ARC
  5
68EC9
330
1E
100
AcDbEntity
  8
DETAIL
100
AcDbCircle
 10
254.386786284137
 20
-218.7625451715771
 30
0.0
 40
13.36261076341193
100
AcDbArc
 50
95.90937906943521
 51
211.3601951249793
  0
LINE
  5
68ECA
330
1E
100
AcDbEntity
  8
DETAIL
  6
CONTINUOUS
100
AcDbLine
 10
245.7110694308557
 20
-241.041995866737
 30
0.0
 11
240.7881244452182
 21
-236.2879631540244
 31
0.0
  0
LINE
  5
68ECB
330
1E
100
AcDbEntity
  8
DETAIL
  6
CONTINUOUS
100
AcDbLine
 10
247.0727416237114
 20
-241.0011658057344
 30
0.0
 11
241.4475543109019
 21
-235.5689855596104
 31
0.0
  0
LINE
  5
68ECC
330
1E
100
AcDbEntity
  8
DETAIL
  6
CONTINUOUS
100
AcDbLine
 10
242.6823209523991
 20
-234.9550790425755
 30
0.0
 11
247.4364787757021
 21
-239.5461158859415
 31
0.0
  0
LINE
  5
68ECD
330
1E
100
AcDbEntity
  8
DETAIL
100
AcDbLine
 10
242.615946869836
 20
-229.2688562568248
 30
0.0
 11
243.2400513315879
 21
-229.8524600811381
 31
0.0
  0
LINE
  5
68ECE
330
1E
100
AcDbEntity
  8
DETAIL
100
AcDbLine
 10
243.2898393060791
 20
-234.4585413793685
 30
0.0
 11
242.6871773908878
 21
-234.9565490913437
 31
0.0
  0
ARC
  5
68ECF
330
1E
100
AcDbEntity
  8
DETAIL
100
AcDbCircle
 10
245.797492949061
 20
-232.1281259601073
 30
0.0
 40
3.423326280022466
100
AcDbArc
 50
138.3366329826751
 51
222.9019598829785
  0
LINE
  5
68ED0
330
1E
100
AcDbEntity
  8
DETAIL
100
AcDbLine
 10
247.5226631352843
 20
-220.8815010990205
 30
0.0
 11
241.0715084491794
 21
-217.9198568195586
 31
0.0
  0
ARC
  5
68ED1
330
1E
100
AcDbEntity
  8
DETAIL
100
AcDbCircle
 10
244.9529767101148
 20
-231.974679611439
 30
0.0
 40
5.99586601811232
100
AcDbArc
 50
168.251286244316
 51
226.0030055188884
  0
LINE
  5
68ED2
330
1E
100
AcDbEntity
  8
DETAIL
100
AcDbLine
 10
241.4475526138176
 20
-235.568983920755
 30
0.0
 11
240.7984159601164
 21
-236.2979015544397
 31
0.0
  0
ARC
  5
68ED3
330
1E
100
AcDbEntity
  8
DETAIL
100
AcDbCircle
 10
245.4595616459823
 20
-232.0791621179269
 30
0.0
 40
3.997995000944822
100
AcDbArc
 50
135.3375419994411
 51
225.999999977614
  0
LINE
  5
68ED4
330
1E
100
AcDbEntity
  8
DETAIL
100
AcDbLine
 10
242.2614159988179
 20
-226.1551103833808
 30
0.0
 11
242.9762785453549
 21
-225.7166572282947
 31
0.0
  0
LINE
  5
68ED5
330
1E
100
AcDbEntity
  8
DETAIL
100
AcDbLine
 10
242.2614024942518
 20
-226.1551186662595
 30
0.0
 11
242.9445436313544
 21
-226.8504236224344
 31
0.0
  0
ARC
  5
68ED6
330
1E
100
AcDbEntity
  8
DETAIL
100
AcDbCircle
 10
242.2523363015065
 20
-226.2637209170581
 30
0.0
 40
0.9073979567922979
100
AcDbArc
 50
319.7159785694363
 51
37.07736085702173
  0
LINE
  5
68ED7
330
1E
100
AcDbEntity
  8
DETAIL
100
AcDbLine
 10
241.0715084491794
 20
-217.9198568195586
 30
0.0
 11
240.4309954858918
 21
-217.8666585675407
 31
0.0
  0
ARC
  5
68ED8
330
1E
100
AcDbEntity
  8
DETAIL
100
AcDbCircle
 10
244.899429982267
 20
-231.9825601062763
 30
0.0
 40
4.977739762569936
100
AcDbArc
 50
134.9640062472194
 51
226.0951512979109
  0
ARC
  5
68ED9
330
1E
100
AcDbEntity
  8
DETAIL
100
AcDbCircle
 10
244.3290743536558
 20
-231.7100102686231
 30
0.0
 40
3.911393865496378
100
AcDbArc
 50
132.0209047170619
 51
213.2736962701594
  0
LINE
  5
68EDA
330
1E
100
AcDbEntity
  8
DETAIL
100
AcDbLine
 10
241.0589170761086
 20
-233.8559536890843
 30
0.0
 11
241.8458075716734
 21
-233.7871096914799
 31
0.0
  0
ARC
  5
68EDB
330
1E
100
AcDbEntity
  8
DETAIL
100
AcDbCircle
 10
241.1024730278859
 20
-234.3538013505908
 30
0.0
 40
0.4997493521782685
100
AcDbArc
 50
94.99999457796183
 51
211.9328504033718
  0
LINE
  5
68EDC
330
1E
100
AcDbEntity
  8
DETAIL
100
AcDbLine
 10
241.381848303291
 20
-228.4605560921384
 30
0.0
 11
241.7107806398908
 21
-228.8042332641885
 31
0.0
  0
LINE
  5
68EDD
330
1E
100
AcDbEntity
  8
DETAIL
100
AcDbLine
 10
240.5038187483632
 20
-230.893663819363
 30
0.0
 11
241.6728465092237
 21
-230.8014450504124
 31
0.0
  0
LINE
  5
68EDE
330
1E
100
AcDbEntity
  8
DETAIL
100
AcDbLine
 10
240.5038187483623
 20
-230.893663819363
 30
0.0
 11
240.0661880639763
 21
-230.782109817725
 31
0.0
  0
ARC
  5
68EE7
330
1E
100
AcDbEntity
  8
DETAIL
  6
CONTINUOUS
100
AcDbCircle
 10
249.6311496612233
 20
-238.1038704566762
 30
0.0
 40
0.99949875
100
AcDbArc
 50
293.9999999999771
 51
314.7808585134993
  0
LINE
  5
68EE8
330
1E
100
AcDbEntity
  8
DETAIL
  6
CONTINUOUS
100
AcDbLine
 10
250.8065270171992
 20
-238.6746463331228
 30
0.0
 11
248.7890453510262
 21
-239.5728870428356
 31
0.0
  0
LINE
  5
68EE9
330
1E
100
AcDbEntity
  8
DETAIL
  6
CONTINUOUS
100
AcDbLine
 10
247.4364787757021
 20
-239.7460156359402
 30
0.0
 11
247.4364787757021
 21
-238.1566491147736
 31
0.0
  0
ARC
  5
68EEA
330
1E
100
AcDbEntity
  8
DETAIL
  6
CONTINUOUS
100
AcDbCircle
 10
246.3786551423782
 20
-241.7203610536612
 30
0.0
 40
0.99949875
100
AcDbArc
 50
313.4040182461721
 51
45.99994091241633
  0
LINE
  5
68EEB
330
1E
100
AcDbEntity
  8
DETAIL
  6
CONTINUOUS
100
AcDbLine
 10
248.4692550169857
 20
-239.6556594230405
 30
0.0
 11
247.4364787757021
 21
-239.7460156359402
 31
0.0
  0
LINE
  5
68EEC
330
1E
100
AcDbEntity
  8
DETAIL
  6
CONTINUOUS
100
AcDbLine
 10
247.4342913726868
 20
-239.7042775236605
 30
0.0
 11
245.8438091936859
 21
-239.7876311630288
 31
0.0
  0
ARC
  5
68EED
330
1E
100
AcDbEntity
  8
DETAIL
  6
CONTINUOUS
100
AcDbCircle
 10
114.665907805278
 20
-102.102245606889
 30
0.0
 40
192.603409125
100
AcDbArc
 50
314.7808585134993
 51
316.3339484652715
  0
ARC
  5
68EEE
330
1E
100
AcDbEntity
  8
DETAIL
  6
CONTINUOUS
100
AcDbCircle
 10
244.3222497231872
 20
-233.7598063054997
 30
0.0
 40
0.99949875
100
AcDbArc
 50
180.0
 51
225.9999999999789
  0
ARC
  5
68EEF
330
1E
100
AcDbEntity
  8
DETAIL
  6
CONTINUOUS
100
AcDbCircle
 10
244.3222497231872
 20
-231.0973916967594
 30
0.0
 40
0.99949875
100
AcDbArc
 50
135.3047674151031
 51
180.0
  0
ARC
  5
68EF0
330
1E
100
AcDbEntity
  8
DETAIL
  6
CONTINUOUS
100
AcDbCircle
 10
250.3999942512764
 20
-237.7615587904502
 30
0.0
 40
0.99949875
100
AcDbArc
 50
293.9999999999771
 51
315.0279409574898
  0
LINE
  5
68EF1
330
1E
100
AcDbEntity
  8
DETAIL
  6
CONTINUOUS
100
AcDbLine
 10
254.0036019983508
 20
-234.6379550167124
 30
0.0
 11
250.828105549474
 21
-237.8970406183959
 31
0.0
  0
LINE
  5
68EF2
330
1E
100
AcDbEntity
  8
DETAIL
  6
CONTINUOUS
100
AcDbLine
 10
248.3853227064955
 20
-238.2569875202571
 30
0.0
 11
247.4364787810245
 21
-238.3401294164841
 31
0.0
  0
LINE
  5
68EF3
330
1E
100
AcDbEntity
  8
DETAIL
  6
CONTINUOUS
100
AcDbLine
 10
243.3227509731896
 20
-233.7598063054997
 30
0.0
 11
243.3227509731896
 21
-231.0973916967594
 31
0.0
  0
LINE
  5
68EF4
330
1E
100
AcDbEntity
  8
DETAIL
  6
CONTINUOUS
100
AcDbLine
 10
247.4364787757021
 20
-238.1566491147736
 30
0.0
 11
243.6279395500296
 21
-234.478785536426
 31
0.0
  0
LINE
  5
68EF5
330
1E
100
AcDbEntity
  8
DETAIL
  6
CONTINUOUS
100
AcDbLine
 10
243.2898393060791
 20
-234.4585413793685
 30
0.0
 11
247.4364787743707
 21
-238.4747540447123
 31
0.0
  0
LINE
  5
68EF6
330
1E
100
AcDbEntity
  8
DETAIL
100
AcDbLine
 10
247.0637469532212
 20
-242.4425718272966
 30
0.0
 11
245.7110694308571
 21
-241.0419958667357
 31
0.0
  0
LINE
  5
68EF7
330
1E
100
AcDbEntity
  8
DETAIL
100
AcDbLine
 10
245.7110694308571
 20
-241.0419958667357
 30
0.0
 11
246.3704976013886
 21
-240.3230166344774
 31
0.0
  0
ARC
  5
68EF8
330
1E
100
AcDbEntity
  8
DETAIL
100
AcDbCircle
 10
247.2906670890461
 20
-235.3713646747408
 30
0.0
 40
3.086274449740291
100
AcDbArc
 50
290.7741455370589
 51
315.0035768033717
  0
ARC
  5
68EF9
330
1E
100
AcDbEntity
  8
DETAIL
100
AcDbCircle
 10
242.4333816325097
 20
-239.325405770357
 30
0.0
 40
6.047075744893097
100
AcDbArc
 50
356.8749020477889
 51
10.17664149077649
  0
ARC
  5
68EFA
330
1E
100
AcDbEntity
  8
DETAIL
100
AcDbCircle
 10
239.8699521591625
 20
-241.6720619667974
 30
0.0
 40
9.174654041312106
100
AcDbArc
 50
13.25802945946808
 51
21.85316693011607
  0
ARC
  5
68EFB
330
1E
100
AcDbEntity
  8
DETAIL
100
AcDbCircle
 10
248.3793309723269
 20
-238.6484667985221
 30
0.0
 40
1.01119895010439
100
AcDbArc
 50
275.1019469413013
 51
294.5876402128746
  0
ARC
  5
68EFC
330
1E
100
AcDbEntity
  8
DETAIL
100
AcDbCircle
 10
241.6155511724837
 20
-241.5042316883043
 30
0.0
 40
7.795817767467847
100
AcDbArc
 50
15.49214828361174
 51
25.56685467435943
  0
ARC
  5
68EFD
330
1E
100
AcDbEntity
  8
DETAIL
100
AcDbCircle
 10
247.5755636562325
 20
-260.1445719117478
 30
0.0
 40
26.3041301834918
100
AcDbArc
 50
74.35266620932575
 51
75.85517120458135
  0
ARC
  5
68EFE
330
1E
100
AcDbEntity
  8
DETAIL
100
AcDbCircle
 10
253.4793112652969
 20
-234.8470377008919
 30
0.0
 40
0.5644433780605214
100
AcDbArc
 50
334.9503512596772
 51
21.74169549999317
  0
ARC
  5
68EFF
330
1E
100
AcDbEntity
  8
DETAIL
100
AcDbCircle
 10
253.9191009489795
 20
-234.0751597059461
 30
0.0
 40
1.054468705083797
100
AcDbArc
 50
271.6492236737579
 51
315.4219213758227
  0
LINE
  5
68F00
330
1E
100
AcDbEntity
  8
DETAIL
100
AcDbLine
 10
249.9973638163264
 20
-237.0383782851368
 30
0.0
 11
251.0371536669517
 21
-238.1131146846846
 31
0.0
  0
ARC
  5
68F01
330
1E
100
AcDbEntity
  8
DETAIL
100
AcDbCircle
 10
247.5449649634442
 20
-239.5247205165777
 30
0.0
 40
3.492296246631878
100
AcDbArc
 50
25.45853862157553
 51
45.38832906069535
  0
ARC
  5
68F02
330
1E
100
AcDbEntity
  8
DETAIL
100
AcDbCircle
 10
251.3438412545301
 20
-237.2648291110528
 30
0.0
 40
0.9976233580596019
100
AcDbArc
 50
229.7665578673034
 51
247.2703616660407
  0
ARC
  5
68F03
330
1E
100
AcDbEntity
  8
DETAIL
100
AcDbCircle
 10
250.7468664183497
 20
-238.3906408470858
 30
0.0
 40
0.3740175309979506
100
AcDbArc
 50
350.019863242493
 51
43.61851337678864
  0
ARC
  5
68F04
330
1E
100
AcDbEntity
  8
DETAIL
100
AcDbCircle
 10
250.4306558288944
 20
-238.5357110779509
 30
0.0
 40
0.4007270339289572
100
AcDbArc
 50
339.7139086268943
 51
26.04238053040129
  0
ARC
  5
68F05
330
1E
100
AcDbEntity
  8
DETAIL
100
AcDbCircle
 10
242.479704371959
 20
-233.3234915500998
 30
0.0
 40
9.47093105546865
100
AcDbArc
 50
323.1273772511037
 51
330.2432698833953
  0
ARC
  5
68F06
330
1E
100
AcDbEntity
  8
DETAIL
100
AcDbCircle
 10
246.8638342018043
 20
-221.8147020441308
 30
0.0
 40
1.142330761007899
100
AcDbArc
 50
19.61733434648951
 51
54.77835630893198
  0
ARC
  5
68F07
330
1E
100
AcDbEntity
  8
DETAIL
100
AcDbCircle
 10
116.6003088464303
 20
-104.4698976323002
 30
0.0
 40
174.9230429512464
100
AcDbArc
 50
325.4197870241936
 51
329.6040052376394
  0
LINE
  5
68F08
330
1E
100
AcDbEntity
  8
DETAIL
100
AcDbLine
 10
260.6201120174573
 20
-203.7491155620569
 30
0.0
 11
260.664929403802
 21
-204.6966519176399
 31
0.0
  0
LINE
  5
68F09
330
1E
100
AcDbEntity
  8
DETAIL
100
AcDbLine
 10
260.6201066534868
 20
-203.7491234976028
 30
0.0
 11
261.3840175657733
 21
-204.2936056950301
 31
0.0
  0
ARC
  5
68F0A
330
1E
100
AcDbEntity
  8
DETAIL
100
AcDbCircle
 10
260.7038736753147
 20
-203.9231322335694
 30
0.0
 40
0.7744974482689542
100
AcDbArc
 50
267.1188912051243
 51
331.4229295275522
  0
LINE
  5
68F0B
330
1E
100
AcDbEntity
  8
DETAIL
100
AcDbLine
 10
260.6201120174573
 20
-203.7491155620569
 30
0.0
 11
253.754655446728
 21
-204.5183852597705
 31
0.0
  0
LINE
  5
68F0C
330
1E
100
AcDbEntity
  8
DETAIL
100
AcDbLine
 10
260.6649491282632
 20
-204.6966509321229
 30
0.0
 11
253.8416863845887
 21
-205.3888578059215
 31
0.0
  0
LINE
  5
68F0D
330
1E
100
AcDbEntity
  8
DETAIL
100
AcDbLine
 10
253.8416863845887
 20
-205.3888578059215
 30
0.0
 11
253.754655446728
 21
-204.5183852597705
 31
0.0
  0
LINE
  5
68F0E
330
1E
100
AcDbEntity
  8
DETAIL
100
AcDbLine
 10
253.754655446728
 20
-204.5183852597705
 30
0.0
 11
252.885044067365
 21
-204.6449902085464
 31
0.0
  0
LINE
  5
68F0F
330
1E
100
AcDbEntity
  8
DETAIL
100
AcDbLine
 10
252.885044067365
 20
-204.6449902085464
 30
0.0
 11
253.0110338299909
 21
-205.4709436277688
 31
0.0
  0
LINE
  5
68F10
330
1E
100
AcDbEntity
  8
DETAIL
100
AcDbLine
 10
253.0110338299909
 20
-205.4709436277688
 30
0.0
 11
253.8416875426118
 21
-205.3888576884426
 31
0.0
  0
LINE
  5
68F11
330
1E
100
AcDbEntity
  8
DETAIL
100
AcDbLine
 10
253.8416875426118
 20
-205.3888576884426
 30
0.0
 11
258.9980805218956
 21
-206.9591925476572
 31
0.0
  0
LINE
  5
68F12
330
1E
100
AcDbEntity
  8
DETAIL
100
AcDbLine
 10
253.0110376079373
 20
-205.4709432544289
 30
0.0
 11
258.690081983178
 21
-207.3702981065014
 31
0.0
  0
ARC
  5
68F13
330
1E
100
AcDbEntity
  8
DETAIL
100
AcDbCircle
 10
259.3197068678696
 20
-206.196003145885
 30
0.0
 40
0.8281917467597235
100
AcDbArc
 50
247.1482735833957
 51
279.9981750658841
  0
ARC
  5
68F14
330
1E
100
AcDbEntity
  8
DETAIL
100
AcDbCircle
 10
259.0884943603687
 20
-206.5809458112223
 30
0.0
 40
0.8841999029412106
100
AcDbArc
 50
243.2184020341516
 51
273.1595832545834
  0
ARC
  5
68F16
330
1E
100
AcDbEntity
  8
DETAIL
  6
CONTINUOUS
100
AcDbCircle
 10
269.0807538272747
 20
-192.9130063186278
 30
0.0
 40
0.99949875
100
AcDbArc
 50
330.0185399888063
 51
342.9905925305996
  0
ARC
  5
68F17
330
1E
100
AcDbEntity
  8
DETAIL
100
AcDbCircle
 10
265.7557266775425
 20
-191.9648593870724
 30
0.0
 40
1.999050975489139
100
AcDbArc
 50
329.6043249811871
 51
343.0273039038211
  0
ARC
  5
68F18
330
1E
100
AcDbEntity
  8
DETAIL
100
AcDbCircle
 10
280.3348359359879
 20
-197.7112495582516
 30
0.0
 40
1.336223896336495
100
AcDbArc
 50
327.9576394298096
 51
345.8080134471453
  0
LINE
  5
68F19
330
1E
100
AcDbEntity
  8
DETAIL
100
AcDbLine
 10
279.8948020871703
 20
-197.5113534478763
 30
0.0
 11
281.6302778104727
 21
-198.0388539705714
 31
0.0
  0
LINE
  5
68F1A
330
1E
100
AcDbEntity
  8
DETAIL
100
AcDbLine
 10
281.4674942438905
 20
-198.4201779458053
 30
0.0
 11
280.7473558549545
 21
-197.9927357213359
 31
0.0
  0
LINE
  5
68F1B
330
1E
100
AcDbEntity
  8
DETAIL
100
AcDbLine
 10
280.7473558549545
 20
-197.9927357213359
 30
0.0
 11
279.8942857198635
 21
-197.5120608179904
 31
0.0
  0
ARC
  5
68F1C
330
1E
100
AcDbEntity
  8
DETAIL
100
AcDbCircle
 10
265.2035851689115
 20
-191.5656068688921
 30
0.0
 40
3.63604809595687
100
AcDbArc
 50
328.341661564143
 51
339.3651789540178
  0
ARC
  5
68F1D
330
1E
100
AcDbEntity
  8
DETAIL
100
AcDbCircle
 10
265.7034530401397
 20
-191.9648810366755
 30
0.0
 40
3.498245563395613
100
AcDbArc
 50
329.6041443973908
 51
343.0274843102449
  0
ARC
  5
68F1E
330
1E
100
AcDbEntity
  8
DETAIL
100
AcDbCircle
 10
269.3798513692672
 20
-193.0184550280453
 30
0.0
 40
1.589332950249811
100
AcDbArc
 50
327.83159539831
 51
343.6903349372788
  0
LINE
  5
68F1F
330
1E
100
AcDbEntity
  8
DETAIL
100
AcDbLine
 10
270.0365312865824
 20
-193.2053882598123
 30
0.0
 11
270.9052262798231
 21
-193.4647851954296
 31
0.0
  0
LINE
  5
68F20
330
1E
100
AcDbEntity
  8
DETAIL
100
AcDbLine
 10
269.9582267533951
 20
-193.4196959783995
 30
0.0
 11
270.7252008734867
 21
-193.8646310961579
 31
0.0
  0
LINE
  5
68F21
330
1E
100
AcDbEntity
  8
DETAIL
100
AcDbLine
 10
267.6677069389043
 20
-192.548414254044
 30
0.0
 11
269.0493321479916
 21
-192.9860641825703
 31
0.0
  0
LINE
  5
68F22
330
1E
100
AcDbEntity
  8
DETAIL
100
AcDbLine
 10
267.4800118242537
 20
-192.9763165218215
 30
0.0
 11
268.7208656956645
 21
-193.7348931519154
 31
0.0
  0
LINE
  5
68F24
330
1E
100
AcDbEntity
  8
DETAIL
100
AcDbLine
 10
282.898215664798
 20
-41.76647655627971
 30
0.0
 11
278.0821837657567
 21
-43.19431036156402
 31
0.0
  0
ARC
  5
68F25
330
1E
100
AcDbEntity
  8
DETAIL
100
AcDbCircle
 10
273.2948639856345
 20
-44.50879659443876
 30
0.0
 40
9.98722597448277
100
AcDbArc
 50
15.93715072675104
 51
57.9139086283268
  0
LINE
  5
68F26
330
1E
100
AcDbEntity
  8
DETAIL
  6
CONTINUOUS
100
AcDbLine
 10
280.5800112218548
 20
-51.93670645654856
 30
0.0
 11
278.0821837657567
 21
-43.19431036156402
 31
0.0
  0
LINE
  5
68F27
330
1E
100
AcDbEntity
  8
DETAIL
100
AcDbLine
 10
278.5979610536323
 20
-36.04461214784305
 30
0.0
 11
276.0180625683188
 21
-40.44781636242851
 31
0.0
  0
ARC
  5
68F28
330
1E
100
AcDbEntity
  8
DETAIL
100
AcDbCircle
 10
273.4691824459778
 20
-44.5123106944468
 30
0.0
 40
4.797593777484648
100
AcDbArc
 50
15.94539539340133
 51
57.90781390980622
  0
LINE
  5
68F32
330
1E
100
AcDbEntity
  8
DETAIL
  6
CONTINUOUS
100
AcDbLine
 10
288.8405968321221
 20
-52.31959797858781
 30
0.0
 11
288.2537539786226
 21
-52.37094007579071
 31
0.0
  0
LINE
  5
68F33
330
1E
100
AcDbEntity
  8
DETAIL
  6
CONTINUOUS
100
AcDbLine
 10
288.8405968307888
 20
-54.11109655825021
 30
0.0
 11
298.006495825146
 21
-54.9130650459474
 31
0.0
  0
ARC
  5
68F34
330
1E
100
AcDbEntity
  8
DETAIL
  6
CONTINUOUS
100
AcDbCircle
 10
298.5399540950911
 20
-53.97159870594714
 30
0.0
 40
0.99949875
100
AcDbArc
 50
0.0
 51
84.99999999997401
  0
LINE
  5
68F35
330
1E
100
AcDbEntity
  8
DETAIL
  6
CONTINUOUS
100
AcDbLine
 10
299.5394528437555
 20
-58.05322059228092
 30
0.0
 11
298.0066430819679
 21
-57.91911797692728
 31
0.0
  0
LINE
  5
68F36
330
1E
100
AcDbEntity
  8
DETAIL
  6
CONTINUOUS
100
AcDbLine
 10
298.0066494281145
 20
-57.91911767041438
 30
0.0
 11
298.0066432005805
 21
-54.91307793948135
 31
0.0
  0
LINE
  5
68F37
330
1E
100
AcDbEntity
  8
DETAIL
  6
CONTINUOUS
100
AcDbLine
 10
299.5394528450911
 20
-53.97159870594714
 30
0.0
 11
299.5394528450887
 21
-58.05322059228092
 31
0.0
  0
LINE
  5
68F38
330
1E
100
AcDbEntity
  8
DETAIL
  6
CONTINUOUS
100
AcDbLine
 10
286.6122110813121
 20
-57.94463977504529
 30
0.0
 11
287.3413672844672
 21
-57.71721711081863
 31
0.0
  0
LINE
  5
68F39
330
1E
100
AcDbEntity
  8
DETAIL
  6
CONTINUOUS
100
AcDbLine
 10
288.8405968321221
 20
-54.11181209007463
 30
0.0
 11
288.2537539786226
 21
-54.16315106217826
 31
0.0
  0
LINE
  5
68F3A
330
1E
100
AcDbEntity
  8
DETAIL
  6
CONTINUOUS
100
AcDbLine
 10
285.8566321025427
 20
-53.08616955388697
 30
0.0
 11
284.8920153565032
 21
-53.08617484190199
 31
0.0
  0
LINE
  5
68F3B
330
1E
100
AcDbEntity
  8
DETAIL
  6
CONTINUOUS
100
AcDbLine
 10
287.3413672844672
 20
-54.16317364685074
 30
0.0
 11
288.2537539533022
 21
-54.16315106217826
 31
0.0
  0
LINE
  5
68F3C
330
1E
100
AcDbEntity
  8
DETAIL
  6
CONTINUOUS
100
AcDbLine
 10
286.0716813692633
 20
-58.4186104173973
 30
0.0
 11
286.3270493956278
 21
-58.41982380693298
 31
0.0
  0
LINE
  5
68F3D
330
1E
100
AcDbEntity
  8
DETAIL
  6
CONTINUOUS
100
AcDbLine
 10
287.3413672858005
 20
-58.0803571392671
 30
0.0
 11
288.2537416314753
 21
-58.08502392020272
 31
0.0
  0
LINE
  5
68F3E
330
1E
100
AcDbEntity
  8
DETAIL
  6
CONTINUOUS
100
AcDbLine
 10
286.3050607496297
 20
-57.9177676021427
 30
0.0
 11
287.3476120607138
 21
-58.0089790234897
 31
0.0
  0
LINE
  5
68F3F
330
1E
100
AcDbEntity
  8
DETAIL
  6
CONTINUOUS
100
AcDbLine
 10
286.327049396963
 20
-58.41982382425612
 30
0.0
 11
287.3378297225663
 21
-58.50825563824628
 31
0.0
  0
LINE
  5
68F40
330
1E
100
AcDbEntity
  8
DETAIL
  6
CONTINUOUS
100
AcDbLine
 10
287.3413672844672
 20
-53.36663543053191
 30
0.0
 11
287.3413672844672
 21
-58.0803571392671
 31
0.0
  0
LINE
  5
68F41
330
1E
100
AcDbEntity
  8
DETAIL
  6
CONTINUOUS
100
AcDbLine
 10
288.2537539786226
 20
-54.16315106217826
 30
0.0
 11
288.2537507669039
 21
-58.08216837093095
 31
0.0
  0
LINE
  5
68F42
330
1E
100
AcDbEntity
  8
DETAIL
  6
CONTINUOUS
100
AcDbLine
 10
286.5134673520969
 20
-57.93600081816112
 30
0.0
 11
286.004789106465
 21
-56.15562695946732
 31
0.0
  0
LINE
  5
68F43
330
1E
100
AcDbEntity
  8
DETAIL
100
AcDbLine
 10
286.3270491876637
 20
-58.41982380594481
 30
0.0
 11
286.303664893654
 21
-57.91968113583789
 31
0.0
  0
LINE
  5
68F44
330
1E
100
AcDbEntity
  8
DETAIL
100
AcDbLine
 10
298.006495825146
 20
-54.9130650459474
 30
0.0
 11
298.6270661509461
 21
-52.97590334987262
 31
0.0
  0
LINE
  5
68F45
330
1E
100
AcDbEntity
  8
DETAIL
100
AcDbLine
 10
298.006495825146
 20
-54.9130650459474
 30
0.0
 11
299.5394528450887
 21
-54.97103384251705
 31
0.0
  0
ARC
  5
68F46
330
1E
100
AcDbEntity
  8
DETAIL
100
AcDbCircle
 10
296.3391826146667
 20
-66.18195228601416
 30
0.0
 40
8.429404203704775
100
AcDbArc
 50
65.47975449223244
 51
78.59079955475262
  0
ARC
  5
68F47
330
1E
100
AcDbEntity
  8
DETAIL
100
AcDbCircle
 10
299.3377421194227
 20
-58.51049559724652
 30
0.0
 40
0.4997876019019837
100
AcDbArc
 50
359.9129692555365
 51
66.19701921986567
  0
ARC
  5
68F48
330
1E
100
AcDbEntity
  8
DETAIL
100
AcDbCircle
 10
299.3255036219834
 20
-58.46464509005682
 30
0.0
 40
0.4637307399702061
100
AcDbArc
 50
357.0072660109827
 51
62.52087799893659
  0
ARC
  5
68F49
330
1E
100
AcDbEntity
  8
DETAIL
100
AcDbCircle
 10
286.3525056025141
 20
-57.41842001979808
 30
0.0
 40
0.5036349087339325
100
AcDbArc
 50
233.8306061172601
 51
264.434914506891
  0
LINE
  5
68F4A
330
1E
100
AcDbEntity
  8
DETAIL
  6
CONTINUOUS
100
AcDbLine
 10
288.8405968321221
 20
-52.11969822858964
 30
0.0
 11
298.6270661509461
 21
-52.97590334987262
 31
0.0
  0
ARC
  5
68F4B
330
1E
100
AcDbEntity
  8
DETAIL
  6
CONTINUOUS
100
AcDbCircle
 10
284.8571338309666
 20
-53.08617485922514
 30
0.0
 40
0.99949875
100
AcDbArc
 50
0.0003040635060411
 51
88.00001372882098
  0
ARC
  5
68F4C
330
1E
100
AcDbEntity
  8
DETAIL
  6
CONTINUOUS
100
AcDbCircle
 10
288.3408660344775
 20
-53.36663870888651
 30
0.0
 40
0.99949875
100
AcDbArc
 50
94.99998362471673
 51
179.9998121109002
  0
LINE
  5
68F4D
330
1E
100
AcDbEntity
  8
DETAIL
  6
CONTINUOUS
100
AcDbLine
 10
288.8405968321221
 20
-58.08782069894824
 30
0.0
 11
288.8405968321221
 21
-52.11969822858964
 31
0.0
  0
LINE
  5
68F4E
330
1E
100
AcDbEntity
  8
DETAIL
  6
CONTINUOUS
100
AcDbLine
 10
287.3413672844672
 20
-57.31750722688139
 30
0.0
 11
282.8982156644597
 21
-41.76647655685246
 31
0.0
  0
LINE
  5
68F4F
330
1E
100
AcDbEntity
  8
DETAIL
100
AcDbLine
 10
284.8950229508609
 20
-52.09148753895624
 30
0.0
 11
284.8920153565032
 21
-53.08617484190199
 31
0.0
  0
LINE
  5
68F50
330
1E
100
AcDbEntity
  8
DETAIL
100
AcDbLine
 10
288.2537539786298
 20
-54.16315106217758
 30
0.0
 11
288.241352398034
 21
-52.39406283969174
 31
0.0
  0
TEXT
  5
68F51
330
1E
100
AcDbEntity
  8
ETC
100
AcDbText
 10
175.7021229695292
 20
304.4530375105855
 30
0.0
 40
64.0
  1
SMSZ4965
 41
0.8860759562895619
 72
     5
 11
602.3687929695316
 21
304.4530375105855
 31
0.0
100
AcDbText
  0
LINE
  5
68F52
330
1E
100
AcDbEntity
  8
SIZE
100
AcDbLine
 10
12.0
 20
119.5635972424617
 30
0.0
 11
287.8375097121034
 21
119.5635972424617
 31
0.0
  0
LINE
  5
68F54
330
1E
100
AcDbEntity
  8
DETAIL
  6
CONTINUOUS
100
AcDbLine
 10
69.43115648906678
 20
0.0
 30
0.0
 11
18.15089379604614
 21
0.0
 31
0.0
  0
LINE
  5
68F55
330
1E
100
AcDbEntity
  8
DETAIL
  6
CONTINUOUS
100
AcDbLine
 10
74.51242148906749
 20
-0.3491249999985939
 30
0.0
 11
12.68793712211481
 21
-0.3491249999985939
 31
0.0
  0
LINE
  5
68F56
330
1E
100
AcDbEntity
  8
DETAIL
  6
CONTINUOUS
100
AcDbLine
 10
74.51242148906749
 20
-4.33912499999792
 30
0.0
 11
10.59256606398048
 21
-4.33912499999792
 31
0.0
  0
LINE
  5
68F57
330
1E
100
AcDbEntity
  8
SIZE
100
AcDbLine
 10
0.0
 20
20.0
 30
0.0
 11
0.0
 21
149.5635972424618
 31
0.0
  0
LINE
  5
68F59
330
1E
100
AcDbEntity
  8
DETAIL
  6
CONTINUOUS
100
AcDbLine
 10
11.87083295821503
 20
-0.7744825050895088
 30
0.0
 11
5.684921489077169
 21
-9.608879638887401
 31
0.0
  0
LINE
  5
68F5A
330
1E
100
AcDbEntity
  8
DETAIL
  6
CONTINUOUS
100
AcDbLine
 10
12.68793712211481
 20
-0.3491249999985939
 30
0.0
 11
10.59256606398048
 21
-4.33912499999792
 31
0.0
  0
LINE
  5
68F5B
330
1E
100
AcDbEntity
  8
DETAIL
  6
CONTINUOUS
100
AcDbLine
 10
10.59256606398048
 20
-4.33912499999792
 30
0.0
 11
5.684921489077169
 21
-11.34796781789987
 31
0.0
  0
LINE
  5
68F5C
330
1E
100
AcDbEntity
  8
DETAIL
  6
CONTINUOUS
100
AcDbLine
 10
5.684921489077169
 20
-12.48380214599023
 30
0.0
 11
4.179967101896181
 21
-12.51007122203759
 31
0.0
  0
LINE
  5
68F5D
330
1E
100
AcDbEntity
  8
DETAIL
  6
CONTINUOUS
100
AcDbLine
 10
5.684921489077169
 20
-12.97508874990876
 30
0.0
 11
4.090840468932583
 21
-13.00291353759939
 31
0.0
  0
LINE
  5
68F5E
330
1E
100
AcDbEntity
  8
DETAIL
  6
CONTINUOUS
100
AcDbLine
 10
4.090840468932583
 20
-13.00291353759939
 30
0.0
 11
3.689921489058178
 21
-13.00874526041889
 31
0.0
  0
LINE
  5
68F5F
330
1E
100
AcDbEntity
  8
DETAIL
  6
CONTINUOUS
100
AcDbLine
 10
3.689921489058178
 20
-14.53073772429775
 30
0.0
 11
4.090840468932583
 21
-14.54240472369974
 31
0.0
  0
LINE
  5
68F60
330
1E
100
AcDbEntity
  8
DETAIL
  6
CONTINUOUS
100
AcDbLine
 10
4.090840468932583
 20
-14.54240472369974
 30
0.0
 11
5.684921489077169
 21
-14.59807125923839
 31
0.0
  0
LINE
  5
68F61
330
1E
100
AcDbEntity
  8
DETAIL
  6
CONTINUOUS
100
AcDbLine
 10
4.17126536543401
 20
-15.02918389909814
 30
0.0
 11
5.684921489077169
 21
-15.08204193481901
 31
0.0
  0
LINE
  5
68F62
330
1E
100
AcDbEntity
  8
DETAIL
  6
CONTINUOUS
100
AcDbLine
 10
4.090840468932583
 20
-13.00291353759939
 30
0.0
 11
4.090840468932583
 21
-14.54240472369974
 31
0.0
  0
LINE
  5
68F63
330
1E
100
AcDbEntity
  8
DETAIL
  6
CONTINUOUS
100
AcDbLine
 10
4.17126536543401
 20
-19.28481610222866
 30
0.0
 11
4.17126536543401
 21
-15.02918389909814
 31
0.0
  0
ARC
  5
68F64
330
1E
100
AcDbEntity
  8
DETAIL
100
AcDbCircle
 10
4.565272531132904
 20
-12.97544641259833
 30
0.0
 40
0.475226498208636
100
AcDbArc
 50
99.09542761852906
 51
183.3134260750805
  0
ARC
  5
68F65
330
1E
100
AcDbEntity
  8
DETAIL
100
AcDbCircle
 10
4.1886714897837
 20
-13.00874526071311
 30
0.0
 40
0.4987500007192953
100
AcDbArc
 50
91.00000001886852
 51
179.9999999661935
  0
ARC
  5
68F66
330
1E
100
AcDbEntity
  8
DETAIL
100
AcDbCircle
 10
4.563871476951135
 20
-14.57175010526157
 30
0.0
 40
0.4739403822909284
100
AcDbArc
 50
176.4500963075348
 51
260.0178770903917
  0
ARC
  5
68F67
330
1E
100
AcDbEntity
  8
DETAIL
100
AcDbCircle
 10
4.188678331302071
 20
-14.53073111663184
 30
0.0
 40
0.4987568422877021
100
AcDbArc
 50
180.000759070033
 51
267.9992409925029
  0
LINE
  5
68F68
330
1E
100
AcDbEntity
  8
DETAIL
  6
CONTINUOUS
100
AcDbLine
 10
5.684921489077169
 20
-19.72324466909867
 30
0.0
 11
4.090840468932583
 21
-19.7510694567893
 31
0.0
  0
LINE
  5
68F69
330
1E
100
AcDbEntity
  8
DETAIL
  6
CONTINUOUS
100
AcDbLine
 10
5.684921489077169
 20
-19.23195806518015
 30
0.0
 11
4.179967101896181
 21
-19.2582271412275
 31
0.0
  0
LINE
  5
68F6A
330
1E
100
AcDbEntity
  8
DETAIL
  6
CONTINUOUS
100
AcDbLine
 10
4.090840468932583
 20
-19.7510694567893
 30
0.0
 11
3.689921489058178
 21
-19.7569011796088
 31
0.0
  0
ARC
  5
68F6B
330
1E
100
AcDbEntity
  8
DETAIL
100
AcDbCircle
 10
4.1886714897837
 20
-19.75690117990302
 30
0.0
 40
0.4987500007192953
100
AcDbArc
 50
91.00000001886852
 51
179.9999999661935
  0
ARC
  5
68F6C
330
1E
100
AcDbEntity
  8
DETAIL
100
AcDbCircle
 10
4.565272531132904
 20
-19.72360233178847
 30
0.0
 40
0.475226498208636
100
AcDbArc
 50
99.09542761852906
 51
183.3134260750805
  0
LINE
  5
68F6D
330
1E
100
AcDbEntity
  8
DETAIL
  6
CONTINUOUS
100
AcDbLine
 10
4.090840468932583
 20
-19.7510694567893
 30
0.0
 11
4.090840468932583
 21
-21.29056064288965
 31
0.0
  0
LINE
  5
68F6E
330
1E
100
AcDbEntity
  8
DETAIL
  6
CONTINUOUS
100
AcDbLine
 10
4.090840468932583
 20
-21.29056064288965
 30
0.0
 11
5.684921489077169
 21
-21.3462271784283
 31
0.0
  0
LINE
  5
68F6F
330
1E
100
AcDbEntity
  8
DETAIL
  6
CONTINUOUS
100
AcDbLine
 10
3.689921489058178
 20
-21.27889364348766
 30
0.0
 11
4.090840468932583
 21
-21.29056064288965
 31
0.0
  0
ARC
  5
68F70
330
1E
100
AcDbEntity
  8
DETAIL
  6
CONTINUOUS
100
AcDbCircle
 10
2.193671489068947
 20
-23.29162499999733
 30
0.0
 40
0.29925
100
AcDbArc
 50
90.0
 51
180.0
  0
LINE
  5
68F71
330
1E
100
AcDbEntity
  8
DETAIL
  6
CONTINUOUS
100
AcDbLine
 10
2.193671489068947
 20
-21.7953749999981
 30
0.0
 11
3.689921489058178
 21
-21.7953749999981
 31
0.0
  0
LINE
  5
68F72
330
1E
100
AcDbEntity
  8
DETAIL
  6
CONTINUOUS
100
AcDbLine
 10
3.689921489058178
 20
-22.99237500000003
 30
0.0
 11
2.193671489068947
 21
-22.99237500000003
 31
0.0
  0
LINE
  5
68F73
330
1E
100
AcDbEntity
  8
DETAIL
  6
CONTINUOUS
100
AcDbLine
 10
0.6974214890778967
 20
-23.29162499999733
 30
0.0
 11
1.894421489056185
 21
-23.29162499999733
 31
0.0
  0
LINE
  5
68F74
330
1E
100
AcDbEntity
  8
DETAIL
  6
CONTINUOUS
100
AcDbLine
 10
2.193671489068947
 20
-21.7953749999981
 30
0.0
 11
2.193671489068947
 21
-22.99237500000003
 31
0.0
  0
LINE
  5
68F75
330
1E
100
AcDbEntity
  8
DETAIL
  6
CONTINUOUS
100
AcDbLine
 10
4.17126536543401
 20
-21.77733981828805
 30
0.0
 11
5.684921489077169
 21
-21.83019785400893
 31
0.0
  0
ARC
  5
68F76
330
1E
100
AcDbEntity
  8
DETAIL
  6
CONTINUOUS
100
AcDbCircle
 10
2.193671489068947
 20
-23.29162499999733
 30
0.0
 40
1.49625
100
AcDbArc
 50
90.0
 51
180.0
  0
ARC
  5
68F77
330
1E
100
AcDbEntity
  8
DETAIL
100
AcDbCircle
 10
4.563871476951135
 20
-21.31990602445148
 30
0.0
 40
0.4739403822909284
100
AcDbArc
 50
176.4500963075348
 51
260.0178770903917
  0
ARC
  5
68F78
330
1E
100
AcDbEntity
  8
DETAIL
100
AcDbCircle
 10
4.188678331302071
 20
-21.27888703582175
 30
0.0
 40
0.4987568422877021
100
AcDbArc
 50
180.000759070033
 51
267.9992409925029
  0
LINE
  5
68F79
330
1E
100
AcDbEntity
  8
DETAIL
  6
CONTINUOUS
100
AcDbLine
 10
9.775461900080699
 20
-3.766982505088208
 30
0.0
 11
10.59256606398048
 21
-4.33912499999792
 31
0.0
  0
LINE
  5
68F7B
330
1E
100
AcDbEntity
  8
DETAIL
100
AcDbLine
 10
18.15089379604614
 20
0.0
 30
0.0
 11
0.0
 21
0.0
 31
0.0
  0
ARC
  5
68F7C
330
1E
100
AcDbEntity
  8
DETAIL
  6
CONTINUOUS
100
AcDbCircle
 10
12.68793300974357
 20
-1.346630874608763
 30
0.0
 40
0.9975000000000001
100
AcDbArc
 50
89.99976375076439
 51
144.9995881095887
  0
ARC
  5
68F7D
330
1E
100
AcDbEntity
  8
DETAIL
100
AcDbCircle
 10
72.38058227352212
 20
-3.715660425220448
 30
0.0
 40
11.05807042686292
100
AcDbArc
 50
162.2915418596918
 51
182.0522181323346
  0
ARC
  5
68F7E
330
1E
100
AcDbEntity
  8
DETAIL
100
AcDbCircle
 10
64.43025504246406
 20
-3.70103404220913
 30
0.0
 40
4.21123575489643
100
AcDbArc
 50
127.5208735149858
 51
187.6722483221765
  0
CIRCLE
  5
68F7F
330
1E
100
AcDbEntity
  8
SIZE
  6
BYBLOCK
100
AcDbCircle
 10
0.0
 20
119.5635972424617
 30
0.0
 40
6.0
  0
LINE
  5
68F80
330
1E
100
AcDbEntity
  8
SIZE
  6
BYBLOCK
100
AcDbLine
 10
0.0
 20
119.5635972424617
 30
0.0
 11
12.0
 21
119.5635972424617
 31
0.0
  0
LINE
  5
68F82
330
1E
100
AcDbEntity
  8
DETAIL
  6
CONTINUOUS
100
AcDbLine
 10
160.9699981934918
 20
-6.268327145017337
 30
0.0
 11
114.8750430017034
 21
-5.463736709760723
 31
0.0
  0
LINE
  5
68F83
330
1E
100
AcDbEntity
  8
DETAIL
  6
CONTINUOUS
100
AcDbLine
 10
160.8793188005174
 20
-1.071725233288134
 30
0.0
 11
76.00867148905854
 21
-0.1148109519178888
 31
0.0
  0
LINE
  5
68F84
330
1E
100
AcDbEntity
  8
DETAIL
  6
CONTINUOUS
100
AcDbLine
 10
113.9484837376512
 20
-4.964638885358226
 30
0.0
 11
76.00867148905854
 21
-4.302396999458096
 31
0.0
  0
ARC
  5
68F85
330
1E
100
AcDbEntity
  8
DETAIL
  6
CONTINUOUS
100
AcDbCircle
 10
75.0111714890736
 20
-0.7642187966700931
 30
0.0
 40
0.9975000000000001
100
AcDbArc
 50
273.0000000000056
 51
0.0
  0
LINE
  5
68F86
330
1E
100
AcDbEntity
  8
DETAIL
  6
CONTINUOUS
100
AcDbLine
 10
74.98506893167723
 20
-5.250921051529758
 30
0.0
 11
76.00867148905854
 21
-5.246817119740171
 31
0.0
  0
LINE
  5
68F87
330
1E
100
AcDbEntity
  8
DETAIL
  6
CONTINUOUS
100
AcDbLine
 10
74.98506893167723
 20
-5.250921051529758
 30
0.0
 11
74.51242148906749
 21
-5.250921051529758
 31
0.0
  0
LINE
  5
68F88
330
1E
100
AcDbEntity
  8
DETAIL
  6
CONTINUOUS
100
AcDbLine
 10
74.98506893167723
 20
-11.07959091504767
 30
0.0
 11
74.51242148906749
 21
-11.07959091504767
 31
0.0
  0
LINE
  5
68F89
330
1E
100
AcDbEntity
  8
DETAIL
  6
CONTINUOUS
100
AcDbLine
 10
74.98506893167723
 20
-11.07959091504767
 30
0.0
 11
74.98506893167723
 21
-5.250921051529758
 31
0.0
  0
ARC
  5
68F8A
330
1E
100
AcDbEntity
  8
DETAIL
  6
CONTINUOUS
100
AcDbCircle
 10
75.0111714890736
 20
-2.262522169039357
 30
0.0
 40
0.4987500000000001
100
AcDbArc
 50
93.00000000000558
 51
180.0
  0
LINE
  5
68F8B
330
1E
100
AcDbEntity
  8
DETAIL
100
AcDbLine
 10
74.98506893167723
 20
-5.250921051529758
 30
0.0
 11
74.98506893167723
 21
-1.76445568795907
 31
0.0
  0
LINE
  5
68F8C
330
1E
100
AcDbEntity
  8
DETAIL
100
AcDbLine
 10
74.98506893167723
 20
-1.76445568795907
 30
0.0
 11
75.06337659514883
 21
-1.760351758025308
 31
0.0
  0
LINE
  5
68F8D
330
1E
100
AcDbEntity
  8
DETAIL
100
AcDbLine
 10
75.06337659514883
 20
-1.760351758025308
 30
0.0
 11
75.06337660517238
 21
-5.246817119740171
 31
0.0
  0
ARC
  5
68F8E
330
1E
100
AcDbEntity
  8
DETAIL
100
AcDbCircle
 10
71.48927407215069
 20
-11.07818005082913
 30
0.0
 40
3.495795144230942
100
AcDbArc
 50
329.8593461422739
 51
359.9768760570772
  0
LINE
  5
68F90
330
1E
100
AcDbEntity
  8
DETAIL
  6
CONTINUOUS
100
AcDbLine
 10
76.00867148905854
 20
-0.1148109519178888
 30
0.0
 11
69.43115648906678
 21
0.0
 31
0.0
  0
LINE
  5
68F91
330
1E
100
AcDbEntity
  8
DETAIL
  6
CONTINUOUS
100
AcDbLine
 10
70.15632326181549
 20
-0.3491249999985939
 30
0.0
 11
70.16806579724288
 21
-0.0128627997382864
 31
0.0
  0
ARC
  5
68F92
330
1E
100
AcDbEntity
  8
DETAIL
100
AcDbCircle
 10
110.0114167479377
 20
-3.799390361358064
 30
0.0
 40
4.949783263175363
100
AcDbArc
 50
349.2882958139607
 51
37.63733020194379
  0
ARC
  5
68F93
330
1E
100
AcDbEntity
  8
DETAIL
100
AcDbCircle
 10
-61.45923828072501
 20
-3.599593791421057
 30
0.0
 40
175.4130334147805
100
AcDbArc
 50
359.5541259927439
 51
0.9220755603346136
  0
LINE
  5
68F94
330
1E
100
AcDbEntity
  8
DETAIL
100
AcDbLine
 10
160.9699981934918
 20
-6.268327145017337
 30
0.0
 11
160.9699981934918
 21
-1.073326002072008
 31
0.0
  0
TEXT
  5
68F95
330
1E
100
AcDbEntity
  8
SIZE
100
AcDbText
 10
92.06161199890903
 20
139.5635972424617
 30
0.0
 40
50.0
  1
300
 41
0.9
100
AcDbText
  0
CIRCLE
  5
68F96
330
1E
100
AcDbEntity
  8
SIZE
  6
BYBLOCK
100
AcDbCircle
 10
299.8375097121034
 20
119.5635972424617
 30
0.0
 40
6.0
  0
LINE
  5
68F97
330
1E
100
AcDbEntity
  8
SIZE
  6
BYBLOCK
100
AcDbLine
 10
299.8375097121034
 20
119.5635972424617
 30
0.0
 11
287.8375097121034
 21
119.5635972424617
 31
0.0
  0
TEXT
  5
68F98
330
1E
100
AcDbEntity
  8
ETC
100
AcDbText
 10
193.6067861590163
 20
474.2993655341995
 30
0.0
 40
64.0
  1
室内機
 41
0.7500000000000022
 72
     5
 11
353.6067861590168
 21
474.2993655341995
 31
0.0
100
AcDbText
  0
ARC
  5
68FA0
330
1E
100
AcDbEntity
  8
OUTLINE
100
AcDbCircle
 10
156.8809711111653
 20
-230.1369109969503
 30
0.0
 40
229.1000788153203
100
AcDbArc
 50
57.90781321069232
 51
89.00000000023275
  0
LINE
  5
68FA7
330
1E
100
AcDbEntity
  8
OUTLINE
100
AcDbLine
 10
-0.000000000003638
 20
-286.7749717216988
 30
0.0
 11
0.0
 21
0.0
 31
0.0
  0
ARC
  5
68FB8
330
1E
100
AcDbEntity
  8
OUTLINE
100
AcDbCircle
 10
116.5752160862707
 20
-104.4777684463692
 30
0.0
 40
189.9028127277454
100
AcDbArc
 50
271.9997774023972
 51
313.4043113874569
  0
LINE
  5
68FBB
330
1E
100
AcDbEntity
  8
OUTLINE
100
AcDbLine
 10
74.51242148906749
 20
-295.0
 30
0.0
 11
3.689921489058178
 21
-295.0
 31
0.0
  0
ARC
  5
68FCA
330
1E
100
AcDbEntity
  8
OUTLINE
  6
CONTINUOUS
100
AcDbCircle
 10
2.293421489064712
 20
-286.7749717216988
 30
0.0
 40
1.595999999999999
100
AcDbArc
 50
180.0
 51
236.3099324739786
  0
ARC
  5
68FCB
330
1E
100
AcDbEntity
  8
OUTLINE
  6
CONTINUOUS
100
AcDbCircle
 10
4.487921489075233
 20
-289.7169413455798
 30
0.0
 40
0.7980000000000002
100
AcDbArc
 50
173.5631230146574
 51
180.0
  0
LINE
  5
68FCF
330
1E
100
AcDbEntity
  8
OUTLINE
  6
CONTINUOUS
100
AcDbLine
 10
-0.000000000003638
 20
-286.7749717216988
 30
0.0
 11
0.6974214890647091
 21
-286.7749717216988
 31
0.0
  0
LINE
  5
68FD0
330
1E
100
AcDbEntity
  8
OUTLINE
  6
CONTINUOUS
100
AcDbLine
 10
3.689921489058178
 20
-295.0
 30
0.0
 11
3.689921489058178
 21
-289.7169413455798
 31
0.0
  0
LINE
  5
68FD1
330
1E
100
AcDbEntity
  8
OUTLINE
  6
CONTINUOUS
100
AcDbLine
 10
1.408119976511443
 20
-288.1029239911896
 30
0.0
 11
3.695528731823287
 21
-289.6278631618386
 31
0.0
  0
ARC
  5
68FDF
330
1E
100
AcDbEntity
  8
OUTLINE
  6
CONTINUOUS
100
AcDbCircle
 10
75.0111714890736
 20
-294.1617171552477
 30
0.0
 40
0.9975000000000001
100
AcDbArc
 50
0.0
 51
86.99999999999441
  0
LINE
  5
68FE0
330
1E
100
AcDbEntity
  8
OUTLINE
  6
CONTINUOUS
100
AcDbLine
 10
74.51242148906749
 20
-293.1367098598391
 30
0.0
 11
75.06337660517238
 21
-293.1655841944173
 31
0.0
  0
LINE
  5
68FE3
330
1E
100
AcDbEntity
  8
OUTLINE
  6
CONTINUOUS
100
AcDbLine
 10
123.2019913382673
 20
-294.2649232584606
 30
0.0
 11
76.00867148905854
 21
-294.8111249999998
 31
0.0
  0
ARC
  5
69077
330
1E
100
AcDbEntity
  8
OUTLINE
100
AcDbCircle
 10
-158.3116082527831
 20
-69.67834041072342
 30
0.0
 40
458.2851563756379
100
AcDbArc
 50
343.734496962336
 51
1.396083046808869
  0
ARC
  5
69085
330
1E
100
AcDbEntity
  8
OUTLINE
100
AcDbCircle
 10
122.4408685429625
 20
-109.3934706783773
 30
0.0
 40
182.25043837726
100
AcDbArc
 50
314.9092409393866
 51
330.7589097214242
  0
ARC
  5
69088
330
1E
100
AcDbEntity
  8
OUTLINE
  6
CONTINUOUS
100
AcDbCircle
 10
246.3786551423782
 20
-241.7203610536612
 30
0.0
 40
0.99949875
100
AcDbArc
 50
313.4040182461721
 51
45.99994091241633
  0
LINE
  5
6908E
330
1E
100
AcDbEntity
  8
OUTLINE
  6
CONTINUOUS
100
AcDbLine
 10
247.0727416237114
 20
-241.0011658057344
 30
0.0
 11
245.8438091936859
 21
-239.7876311630288
 31
0.0
  0
LINE
  5
690A1
330
1E
100
AcDbEntity
  8
OUTLINE
  6
CONTINUOUS
100
AcDbLine
 10
250.8065270171992
 20
-238.6746463331228
 30
0.0
 11
248.7890453510262
 21
-239.5728870428356
 31
0.0
  0
LINE
  5
690A2
330
1E
100
AcDbEntity
  8
OUTLINE
  6
CONTINUOUS
100
AcDbLine
 10
247.4364787757021
 20
-239.7460156359402
 30
0.0
 11
247.4342913726868
 21
-239.7042775236605
 31
0.0
  0
LINE
  5
690A3
330
1E
100
AcDbEntity
  8
OUTLINE
  6
CONTINUOUS
100
AcDbLine
 10
248.4692550169857
 20
-239.6556594230405
 30
0.0
 11
247.4364787757021
 21
-239.7460156359402
 31
0.0
  0
LINE
  5
690A4
330
1E
100
AcDbEntity
  8
OUTLINE
  6
CONTINUOUS
100
AcDbLine
 10
247.4342913726868
 20
-239.7042775236605
 30
0.0
 11
245.8438091936859
 21
-239.7876311630288
 31
0.0
  0
ARC
  5
690A8
330
1E
100
AcDbEntity
  8
OUTLINE
  6
CONTINUOUS
100
AcDbCircle
 10
250.3999942512764
 20
-237.7615587904502
 30
0.0
 40
0.99949875
100
AcDbArc
 50
293.9999999999771
 51
315.0279409574898
  0
ARC
  5
690B2
330
1E
100
AcDbEntity
  8
OUTLINE
100
AcDbCircle
 10
248.3793309723269
 20
-238.6484667985221
 30
0.0
 40
1.01119895010439
100
AcDbArc
 50
275.1019469413013
 51
294.5876402128746
  0
ARC
  5
690D4
330
1E
100
AcDbEntity
  8
OUTLINE
100
AcDbCircle
 10
280.3348359359879
 20
-197.7112495582516
 30
0.0
 40
1.336223896336495
100
AcDbArc
 50
327.9576394298096
 51
345.8080134471453
  0
ARC
  5
690DA
330
1E
100
AcDbEntity
  8
OUTLINE
100
AcDbCircle
 10
273.2948639856345
 20
-44.50879659443876
 30
0.0
 40
9.98722597448277
100
AcDbArc
 50
15.93715072675104
 51
57.9139086283268
  0
ARC
  5
690DD
330
1E
100
AcDbEntity
  8
OUTLINE
  6
CONTINUOUS
100
AcDbCircle
 10
298.5399540950911
 20
-53.97159870594714
 30
0.0
 40
0.99949875
100
AcDbArc
 50
0.0
 51
84.99999999997401
  0
LINE
  5
690DE
330
1E
100
AcDbEntity
  8
OUTLINE
  6
CONTINUOUS
100
AcDbLine
 10
287.3413672844672
 20
-53.36663543053191
 30
0.0
 11
287.3413672844672
 21
-57.31750722688144
 31
0.0
  0
LINE
  5
690E1
330
1E
100
AcDbEntity
  8
OUTLINE
  6
CONTINUOUS
100
AcDbLine
 10
287.3413672844672
 20
-57.31750722688139
 30
0.0
 11
282.8982156644597
 21
-41.76647655685246
 31
0.0
  0
LINE
  5
690E6
330
1E
100
AcDbEntity
  8
OUTLINE
  6
CONTINUOUS
100
AcDbLine
 10
299.5394528450911
 20
-53.97159870594714
 30
0.0
 11
299.5394528450887
 21
-58.05322059228092
 31
0.0
  0
ARC
  5
690F3
330
1E
100
AcDbEntity
  8
OUTLINE
100
AcDbCircle
 10
299.3377421194227
 20
-58.51049559724652
 30
0.0
 40
0.4997876019019837
100
AcDbArc
 50
359.9129692555365
 51
66.19701921986567
  0
LINE
  5
690F6
330
1E
100
AcDbEntity
  8
OUTLINE
  6
CONTINUOUS
100
AcDbLine
 10
288.8405968321221
 20
-52.31959797858781
 30
0.0
 11
288.2537539786226
 21
-52.37094007579071
 31
0.0
  0
LINE
  5
690F8
330
1E
100
AcDbEntity
  8
OUTLINE
  6
CONTINUOUS
100
AcDbLine
 10
288.8405968321221
 20
-52.11969822858964
 30
0.0
 11
298.6270661509461
 21
-52.97590334987262
 31
0.0
  0
ARC
  5
690FA
330
1E
100
AcDbEntity
  8
OUTLINE
  6
CONTINUOUS
100
AcDbCircle
 10
288.3408660344775
 20
-53.36663870888651
 30
0.0
 40
0.99949875
100
AcDbArc
 50
94.99998362471673
 51
179.9998121109002
  0
LINE
  5
690FC
330
1E
100
AcDbEntity
  8
OUTLINE
  6
CONTINUOUS
100
AcDbLine
 10
76.00867148905854
 20
-0.1148109519178888
 30
0.0
 11
69.43115648906678
 21
0.0
 31
0.0
  0
LINE
  5
690FF
330
1E
100
AcDbEntity
  8
OUTLINE
  6
CONTINUOUS
100
AcDbLine
 10
69.43115648906678
 20
0.0
 30
0.0
 11
18.15089379604614
 21
0.0
 31
0.0
  0
LINE
  5
69103
330
1E
100
AcDbEntity
  8
OUTLINE
100
AcDbLine
 10
18.15089379604614
 20
0.0
 30
0.0
 11
0.0
 21
0.0
 31
0.0
  0
LINE
  5
69121
330
1E
100
AcDbEntity
  8
OUTLINE
  6
CONTINUOUS
100
AcDbLine
 10
160.8793188005174
 20
-1.071725233288134
 30
0.0
 11
76.00867148905854
 21
-0.1148109519178888
 31
0.0
  0
LINE
  5
69131
330
1E
100
AcDbEntity
  8
OUTLINE
  6
CONTINUOUS
100
AcDbLine
 10
74.51242148906749
 20
-293.1367098598391
 30
0.0
 11
74.51242148906749
 21
-295.0
 31
0.0
  0
LINE
  5
69132
330
1E
100
AcDbEntity
  8
OUTLINE
  6
CONTINUOUS
100
AcDbLine
 10
76.00867148907354
 20
-294.1617171552477
 30
0.0
 11
76.00867148905854
 21
-294.8111249999998
 31
0.0
  0
LINE
  5
69133
330
1E
100
AcDbEntity
  8
OUTLINE
  6
CONTINUOUS
100
AcDbLine
 10
288.8405968321221
 20
-52.11969822858964
 30
0.0
 11
288.8405968321221
 21
-52.31959797858781
 31
0.0
  0
ENDSEC
  0
SECTION
  2
OBJECTS
  0
DICTIONARY
  5
C
330
0
100
AcDbDictionary
  3
ACAD_GROUP
350
D
  3
ACAD_LAYOUT
350
19
  3
ACAD_MLINESTYLE
350
16
  3
ACAD_PLOTSETTINGS
350
18
  3
ACAD_PLOTSTYLENAME
350
E
  3
ACDBHEADERROUNDTRIPXREC
350
6913A
  0
DICTIONARY
  5
66E76
330
1E
100
AcDbDictionary
280
     1
  3
ACAD_LAYOUTSELFREF
360
6915C
  0
DICTIONARY
  5
66E74
330
1A
100
AcDbDictionary
280
     1
  3
ACAD_LAYOUTSELFREF
360
6915B
  0
DICTIONARY
  5
D
102
{ACAD_REACTORS
330
C
102
}
330
C
100
AcDbDictionary
  3
*A1
350
677EB
  0
DICTIONARY
  5
19
102
{ACAD_REACTORS
330
C
102
}
330
C
100
AcDbDictionary
  0
DICTIONARY
  5
16
102
{ACAD_REACTORS
330
C
102
}
330
C
100
AcDbDictionary
  3
STANDARD
350
17
  0
DICTIONARY
  5
18
102
{ACAD_REACTORS
330
C
102
}
330
C
100
AcDbDictionary
  0
ACDBDICTIONARYWDFLT
  5
E
102
{ACAD_REACTORS
330
C
102
}
330
C
100
AcDbDictionary
281
     1
  3
Normal
350
F
100
AcDbDictionaryWithDefault
340
F
  0
DICTIONARY
  5
6913A
102
{ACAD_REACTORS
330
C
102
}
330
C
100
AcDbDictionary
  3
CEPSNTYPE
350
69144
  3
DIMSTYLEDATA
350
69148
  3
FINGERPRINTGUID
350
69145
  3
HYPERLINKBASE
350
6913D
  3
INSUNITS
350
69143
  3
LAYOUTDICT
350
6913F
  3
LWETCUNION
350
69142
  3
PLOTSETDICT
350
69140
  3
PLOTSTYLNAMDICT
350
69141
  3
PSVPSCALE
350
69147
  3
PUCSBASE
350
6914B
  3
PUCSORGBACK
350
69151
  3
PUCSORGBOTTOM
350
6914D
  3
PUCSORGFRONT
350
69150
  3
PUCSORGLEFT
350
6914E
  3
PUCSORGRIGHT
350
6914F
  3
PUCSORGTOP
350
6914C
  3
PUCSORTHOREF
350
69149
  3
PUCSORTHOVIEW
350
6914A
  3
STYLESHEET
350
6913E
  3
TSTACKALIGN
350
6913B
  3
TSTACKSIZE
350
6913C
  3
UCSBASE
350
69154
  3
UCSORGBACK
350
6915A
  3
UCSORGBOTTOM
350
69156
  3
UCSORGFRONT
350
69159
  3
UCSORGLEFT
350
69157
  3
UCSORGRIGHT
350
69158
  3
UCSORGTOP
350
69155
  3
UCSORTHOREF
350
69152
  3
UCSORTHOVIEW
350
69153
  3
VERSIONGUID
350
69146
  0
XRECORD
  5
6915C
102
{ACAD_REACTORS
330
66E76
102
}
330
66E76
100
AcDbXrecord
340
1E
  0
XRECORD
  5
6915B
102
{ACAD_REACTORS
330
66E74
102
}
330
66E74
100
AcDbXrecord
340
1A
  0
GROUP
  5
677EB
102
{ACAD_REACTORS
330
D
102
}
330
D
100
AcDbGroup
300

 70
     1
 71
     1
340
677EA
340
675C1
  0
MLINESTYLE
  5
17
102
{ACAD_REACTORS
330
16
102
}
330
16
100
AcDbMlineStyle
  2
STANDARD
 70
     0
  3

 62
   256
 51
90.0
 52
90.0
 71
     2
 49
0.5
 62
   256
  6
BYLAYER
 49
-0.5
 62
   256
  6
BYLAYER
  0
ACDBPLACEHOLDER
  5
F
102
{ACAD_REACTORS
330
E
102
}
330
E
100
AcDbPlaceHolder
280
     0
  0
XRECORD
  5
69144
102
{ACAD_REACTORS
330
6913A
102
}
330
6913A
100
AcDbXrecord
 90
        0
  0
XRECORD
  5
69148
102
{ACAD_REACTORS
330
6913A
102
}
330
6913A
100
AcDbXrecord
1000
DSTYLE
1002
{
1070
   341
340
46
1070
   342
340
46
1002
}
  0
XRECORD
  5
69145
102
{ACAD_REACTORS
330
6913A
102
}
330
6913A
100
AcDbXrecord
  1
{97DA8DB6-C4F0-4C3D-ABEB-53C4FBBC7EFF}
  0
XRECORD
  5
6913D
102
{ACAD_REACTORS
330
6913A
102
}
330
6913A
100
AcDbXrecord
  1

  0
XRECORD
  5
69143
102
{ACAD_REACTORS
330
6913A
102
}
330
6913A
100
AcDbXrecord
 90
        0
  0
XRECORD
  5
6913F
102
{ACAD_REACTORS
330
6913A
102
}
330
6913A
100
AcDbXrecord
340
19
  0
XRECORD
  5
69142
102
{ACAD_REACTORS
330
6913A
102
}
330
6913A
100
AcDbXrecord
 90
    10781
  0
XRECORD
  5
69140
102
{ACAD_REACTORS
330
6913A
102
}
330
6913A
100
AcDbXrecord
340
18
  0
XRECORD
  5
69141
102
{ACAD_REACTORS
330
6913A
102
}
330
6913A
100
AcDbXrecord
340
E
  0
XRECORD
  5
69147
102
{ACAD_REACTORS
330
6913A
102
}
330
6913A
100
AcDbXrecord
 40
0.0
  0
XRECORD
  5
6914B
102
{ACAD_REACTORS
330
6913A
102
}
330
6913A
100
AcDbXrecord
340
0
  0
XRECORD
  5
69151
102
{ACAD_REACTORS
330
6913A
102
}
330
6913A
100
AcDbXrecord
 10
0.0
 20
0.0
 30
0.0
  0
XRECORD
  5
6914D
102
{ACAD_REACTORS
330
6913A
102
}
330
6913A
100
AcDbXrecord
 10
0.0
 20
0.0
 30
0.0
  0
XRECORD
  5
69150
102
{ACAD_REACTORS
330
6913A
102
}
330
6913A
100
AcDbXrecord
 10
0.0
 20
0.0
 30
0.0
  0
XRECORD
  5
6914E
102
{ACAD_REACTORS
330
6913A
102
}
330
6913A
100
AcDbXrecord
 10
0.0
 20
0.0
 30
0.0
  0
XRECORD
  5
6914F
102
{ACAD_REACTORS
330
6913A
102
}
330
6913A
100
AcDbXrecord
 10
0.0
 20
0.0
 30
0.0
  0
XRECORD
  5
6914C
102
{ACAD_REACTORS
330
6913A
102
}
330
6913A
100
AcDbXrecord
 10
0.0
 20
0.0
 30
0.0
  0
XRECORD
  5
69149
102
{ACAD_REACTORS
330
6913A
102
}
330
6913A
100
AcDbXrecord
340
0
  0
XRECORD
  5
6914A
102
{ACAD_REACTORS
330
6913A
102
}
330
6913A
100
AcDbXrecord
 70
     0
  0
XRECORD
  5
6913E
102
{ACAD_REACTORS
330
6913A
102
}
330
6913A
100
AcDbXrecord
  1
u.ctb
  0
XRECORD
  5
6913B
102
{ACAD_REACTORS
330
6913A
102
}
330
6913A
100
AcDbXrecord
 90
        1
  0
XRECORD
  5
6913C
102
{ACAD_REACTORS
330
6913A
102
}
330
6913A
100
AcDbXrecord
 90
       70
  0
XRECORD
  5
69154
102
{ACAD_REACTORS
330
6913A
102
}
330
6913A
100
AcDbXrecord
340
0
  0
XRECORD
  5
6915A
102
{ACAD_REACTORS
330
6913A
102
}
330
6913A
100
AcDbXrecord
 10
0.0
 20
0.0
 30
0.0
  0
XRECORD
  5
69156
102
{ACAD_REACTORS
330
6913A
102
}
330
6913A
100
AcDbXrecord
 10
0.0
 20
0.0
 30
0.0
  0
XRECORD
  5
69159
102
{ACAD_REACTORS
330
6913A
102
}
330
6913A
100
AcDbXrecord
 10
0.0
 20
0.0
 30
0.0
  0
XRECORD
  5
69157
102
{ACAD_REACTORS
330
6913A
102
}
330
6913A
100
AcDbXrecord
 10
0.0
 20
0.0
 30
0.0
  0
XRECORD
  5
69158
102
{ACAD_REACTORS
330
6913A
102
}
330
6913A
100
AcDbXrecord
 10
0.0
 20
0.0
 30
0.0
  0
XRECORD
  5
69155
102
{ACAD_REACTORS
330
6913A
102
}
330
6913A
100
AcDbXrecord
 10
0.0
 20
0.0
 30
0.0
  0
XRECORD
  5
69152
102
{ACAD_REACTORS
330
6913A
102
}
330
6913A
100
AcDbXrecord
340
0
  0
XRECORD
  5
69153
102
{ACAD_REACTORS
330
6913A
102
}
330
6913A
100
AcDbXrecord
 70
     0
  0
XRECORD
  5
69146
102
{ACAD_REACTORS
330
6913A
102
}
330
6913A
100
AcDbXrecord
  1
{49B69326-AE0B-4A5A-A668-587FFB998BDE}
  0
ENDSEC
  0
EOF
